  0
SECTION
  2
HEADER
  9
$ACADVER
  1
AC1009
  9
$LUNITS
  70
2
  9
$DWGCODEPAGE
  3
UTF8
  9
$LIMMIN
  10
-5.85416666666668
  20
42.00000000000001
  9
$LIMMAX
  10
-5.52083333333329
  20
42.16666666666671
  9
$EXTMIN
  10
-5.85416666666668
  20
42.00000000000001
  9
$EXTMAX
  10
-5.52083333333329
  20
42.16666666666671
  999
Created by Global Mapper
  999
Projection: Geographic (Latitude/Longitude)
  999
Datum: ETRS89
  999
Ground Units: arc degrees
  999
CENTRAL LONGITUDE: 0
  0
ENDSEC
  0
SECTION
  2
TABLES
  0
ENDSEC
  0
SECTION
  2
BLOCKS
  0
ENDSEC
  0
SECTION
  2
ENTITIES
  0
POLYLINE
  8
Unknown Area Type
  70
9
  66
1
  0
VERTEX
  8
Unknown Area Type
  70
32
  10
-5.85416666666668
  20
42.01867379244462
  30
719.59
  0
VERTEX
  8
Unknown Area Type
  70
32
  10
-5.84363914827708
  20
42.01603807570513
  30
714.744
  0
VERTEX
  8
Unknown Area Type
  70
32
  10
-5.84285061551205
  20
42.00000000000001
  30
717.141
  0
VERTEX
  8
Unknown Area Type
  70
32
  10
-5.85416666666668
  20
42.00000000000001
  30
717.058
  0
SEQEND
  8
Unknown Area Type
  0
TEXT
  8
Unknown Area Type
 62
7
  1
PNOA-H_AMS_1956-57_33k_ES_PAN_2
 40
0.00045
  10
-5.84850864108936
  20
42.00933689622232
  0
POLYLINE
  8
Unknown Area Type
  70
9
  66
1
  0
VERTEX
  8
Unknown Area Type
  70
32
  10
-5.85416700000001
  20
42.01867387589944
  30
719.59
  0
VERTEX
  8
Unknown Area Type
  70
32
  10
-5.85416666666668
  20
42.01867379244462
  30
719.59
  0
VERTEX
  8
Unknown Area Type
  70
32
  10
-5.85416666666668
  20
42.00000000000001
  30
717.058
  0
VERTEX
  8
Unknown Area Type
  70
32
  10
-5.85416700000001
  20
42.00000000000001
  30
717.058
  0
SEQEND
  8
Unknown Area Type
  0
TEXT
  8
Unknown Area Type
 62
7
  1
PNOA-H_AMS_1956-57_33k_ES_PAN_2
 40
0.00045
  10
-5.85416683333334
  20
42.00933693794973
  0
POLYLINE
  8
Unknown Area Type
  70
9
  66
1
  0
VERTEX
  8
Unknown Area Type
  70
32
  10
-5.85416666666668
  20
42.01867379244462
  30
719.59
  0
VERTEX
  8
Unknown Area Type
  70
32
  10
-5.84363914827708
  20
42.01603807570513
  30
714.744
  0
VERTEX
  8
Unknown Area Type
  70
32
  10
-5.84285061551205
  20
42.00000000000001
  30
717.141
  0
VERTEX
  8
Unknown Area Type
  70
32
  10
-5.85416666666668
  20
42.00000000000001
  30
717.058
  0
SEQEND
  8
Unknown Area Type
  0
TEXT
  8
Unknown Area Type
 62
7
  1
PNOA-H_AMS_1956-57_33k_ES_PAN_2
 40
0.00045
  10
-5.84850864108936
  20
42.00933689622232
  0
POLYLINE
  8
Unknown Area Type
  70
9
  66
1
  0
VERTEX
  8
Unknown Area Type
  70
32
  10
-5.59203296655436
  20
42.01732593797561
  30
708.334
  0
VERTEX
  8
Unknown Area Type
  70
32
  10
-5.56561081904996
  20
42.02247231200186
  30
706.638
  0
VERTEX
  8
Unknown Area Type
  70
32
  10
-5.56558686633871
  20
42.02247735057171
  30
706.777
  0
VERTEX
  8
Unknown Area Type
  70
32
  10
-5.56555030385864
  20
42.02246916264151
  30
706.997
  0
VERTEX
  8
Unknown Area Type
  70
32
  10
-5.56542673999156
  20
42.02239988071493
  30
708.122
  0
VERTEX
  8
Unknown Area Type
  70
32
  10
-5.55475504723409
  20
42.0163430725599
  30
734.267
  0
VERTEX
  8
Unknown Area Type
  70
32
  10
-5.55471114276964
  20
42.00000000000001
  30
725.916
  0
VERTEX
  8
Unknown Area Type
  70
32
  10
-5.56250000000001
  20
42.00000000000001
  30
725.926
  0
VERTEX
  8
Unknown Area Type
  70
32
  10
-5.59053148875882
  20
42.00000000000001
  30
716.506
  0
SEQEND
  8
Unknown Area Type
  0
TEXT
  8
Unknown Area Type
 62
7
  1
PNOA-H_AMS_1956-57_33k_ES_PAN_2
 40
0.00045
  10
-5.57278170953237
  20
42.00358023604358
  0
POLYLINE
  8
Unknown Area Type
  70
9
  66
1
  0
VERTEX
  8
Unknown Area Type
  70
32
  10
-5.59203296655436
  20
42.01732593797561
  30
708.334
  0
VERTEX
  8
Unknown Area Type
  70
32
  10
-5.56561081904996
  20
42.02247231200186
  30
706.638
  0
VERTEX
  8
Unknown Area Type
  70
32
  10
-5.56558686633871
  20
42.02247735057171
  30
706.777
  0
VERTEX
  8
Unknown Area Type
  70
32
  10
-5.56555030385864
  20
42.02246916264151
  30
706.997
  0
VERTEX
  8
Unknown Area Type
  70
32
  10
-5.56542673999156
  20
42.02239988071493
  30
708.122
  0
VERTEX
  8
Unknown Area Type
  70
32
  10
-5.55475504723409
  20
42.0163430725599
  30
734.267
  0
VERTEX
  8
Unknown Area Type
  70
32
  10
-5.55471114276964
  20
42.00000000000001
  30
725.916
  0
VERTEX
  8
Unknown Area Type
  70
32
  10
-5.56250000000001
  20
42.00000000000001
  30
725.926
  0
VERTEX
  8
Unknown Area Type
  70
32
  10
-5.59053148875882
  20
42.00000000000001
  30
716.506
  0
SEQEND
  8
Unknown Area Type
  0
TEXT
  8
Unknown Area Type
 62
7
  1
PNOA-H_AMS_1956-57_33k_ES_PAN_2
 40
0.00045
  10
-5.57278170953237
  20
42.00358023604358
  0
POLYLINE
  8
Unknown Area Type
  70
9
  66
1
  0
VERTEX
  8
Unknown Area Type
  70
32
  10
-5.6277102559607
  20
42.018126212228
  30
706.71
  0
VERTEX
  8
Unknown Area Type
  70
32
  10
-5.61870029139718
  20
42.0188455800022
  30
705.225
  0
VERTEX
  8
Unknown Area Type
  70
32
  10
-5.61861601653052
  20
42.01885200673835
  30
705.12
  0
VERTEX
  8
Unknown Area Type
  70
32
  10
-5.59751340296648
  20
42.02052956054493
  30
724.244
  0
VERTEX
  8
Unknown Area Type
  70
32
  10
-5.59203296655436
  20
42.01732593797561
  30
708.334
  0
VERTEX
  8
Unknown Area Type
  70
32
  10
-5.59053148875882
  20
42.00000000000001
  30
716.506
  0
VERTEX
  8
Unknown Area Type
  70
32
  10
-5.60416666666664
  20
42.00000000000001
  30
715.953
  0
VERTEX
  8
Unknown Area Type
  70
32
  10
-5.6270903574017
  20
42.00000000000001
  30
703.19
  0
SEQEND
  8
Unknown Area Type
  0
TEXT
  8
Unknown Area Type
 62
7
  1
PNOA-H_AMS_1956-57_33k_ES_PAN_2
 40
0.00045
  10
-5.60892783196013
  20
42.00192810041175
  0
POLYLINE
  8
Unknown Area Type
  70
9
  66
1
  0
VERTEX
  8
Unknown Area Type
  70
32
  10
-5.6277102559607
  20
42.018126212228
  30
706.71
  0
VERTEX
  8
Unknown Area Type
  70
32
  10
-5.61870029139718
  20
42.0188455800022
  30
705.225
  0
VERTEX
  8
Unknown Area Type
  70
32
  10
-5.61861601653052
  20
42.01885200673835
  30
705.12
  0
VERTEX
  8
Unknown Area Type
  70
32
  10
-5.59751340296648
  20
42.02052956054493
  30
724.244
  0
VERTEX
  8
Unknown Area Type
  70
32
  10
-5.59203296655436
  20
42.01732593797561
  30
708.334
  0
VERTEX
  8
Unknown Area Type
  70
32
  10
-5.59053148875882
  20
42.00000000000001
  30
716.506
  0
VERTEX
  8
Unknown Area Type
  70
32
  10
-5.60416666666664
  20
42.00000000000001
  30
715.953
  0
VERTEX
  8
Unknown Area Type
  70
32
  10
-5.6270903574017
  20
42.00000000000001
  30
703.19
  0
SEQEND
  8
Unknown Area Type
  0
TEXT
  8
Unknown Area Type
 62
7
  1
PNOA-H_AMS_1956-57_33k_ES_PAN_2
 40
0.00045
  10
-5.60892783196013
  20
42.00192810041175
  0
POLYLINE
  8
Unknown Area Type
  70
9
  66
1
  0
VERTEX
  8
Unknown Area Type
  70
32
  10
-5.55475504723409
  20
42.0163430725599
  30
734.267
  0
VERTEX
  8
Unknown Area Type
  70
32
  10
-5.54441518878333
  20
42.01946371529588
  30
739.717
  0
VERTEX
  8
Unknown Area Type
  70
32
  10
-5.54439726853505
  20
42.01946861563322
  30
739.723
  0
VERTEX
  8
Unknown Area Type
  70
32
  10
-5.53215236347087
  20
42.02315272626846
  30
737.689
  0
VERTEX
  8
Unknown Area Type
  70
32
  10
-5.52083333333329
  20
42.01768440812087
  30
733.66
  0
VERTEX
  8
Unknown Area Type
  70
32
  10
-5.52083333333329
  20
42.00000000000001
  30
735.727
  0
VERTEX
  8
Unknown Area Type
  70
32
  10
-5.55471104174736
  20
42.00000000000001
  30
725.918
  0
SEQEND
  8
Unknown Area Type
  0
TEXT
  8
Unknown Area Type
 62
7
  1
PNOA-H_AMS_1956-57_33k_ES_PAN_2
 40
0.00045
  10
-5.53579458159452
  20
42.00415709213739
  0
POLYLINE
  8
Unknown Area Type
  70
9
  66
1
  0
VERTEX
  8
Unknown Area Type
  70
32
  10
-5.55475504723409
  20
42.0163430725599
  30
734.267
  0
VERTEX
  8
Unknown Area Type
  70
32
  10
-5.54441518878333
  20
42.01946371529588
  30
739.717
  0
VERTEX
  8
Unknown Area Type
  70
32
  10
-5.54439726853505
  20
42.01946861563322
  30
739.723
  0
VERTEX
  8
Unknown Area Type
  70
32
  10
-5.53215236347087
  20
42.02315272626846
  30
737.689
  0
VERTEX
  8
Unknown Area Type
  70
32
  10
-5.52083333333329
  20
42.01768440812087
  30
733.66
  0
VERTEX
  8
Unknown Area Type
  70
32
  10
-5.52083333333329
  20
42.00000000000001
  30
735.727
  0
VERTEX
  8
Unknown Area Type
  70
32
  10
-5.55471104174736
  20
42.00000000000001
  30
725.918
  0
SEQEND
  8
Unknown Area Type
  0
TEXT
  8
Unknown Area Type
 62
7
  1
PNOA-H_AMS_1956-57_33k_ES_PAN_2
 40
0.00045
  10
-5.53579458159452
  20
42.00415709213739
  0
POLYLINE
  8
Unknown Area Type
  70
9
  66
1
  0
VERTEX
  8
Unknown Area Type
  70
32
  10
-5.6640735019443
  20
42.01899399609713
  30
719.19
  0
VERTEX
  8
Unknown Area Type
  70
32
  10
-5.66264759815663
  20
42.01984211248912
  30
716.097
  0
VERTEX
  8
Unknown Area Type
  70
32
  10
-5.64345574701539
  20
42.01966462009985
  30
707.672
  0
VERTEX
  8
Unknown Area Type
  70
32
  10
-5.64332302578819
  20
42.01966767866063
  30
707.695
  0
VERTEX
  8
Unknown Area Type
  70
32
  10
-5.62980355787489
  20
42.0195416559166
  30
705.198
  0
VERTEX
  8
Unknown Area Type
  70
32
  10
-5.6277102559607
  20
42.018126212228
  30
706.71
  0
VERTEX
  8
Unknown Area Type
  70
32
  10
-5.62709035740171
  20
42.00000000000001
  30
703.19
  0
VERTEX
  8
Unknown Area Type
  70
32
  10
-5.64583333333336
  20
42.00000000000001
  30
708.225
  0
VERTEX
  8
Unknown Area Type
  70
32
  10
-5.66273697184089
  20
42.00000000000001
  30
708.868
  0
SEQEND
  8
Unknown Area Type
  0
TEXT
  8
Unknown Area Type
 62
7
  1
PNOA-H_AMS_1956-57_33k_ES_PAN_2
 40
0.00045
  10
-5.6453736040221
  20
42.00098167246836
  0
POLYLINE
  8
Unknown Area Type
  70
9
  66
1
  0
VERTEX
  8
Unknown Area Type
  70
32
  10
-5.6640735019443
  20
42.01899399609713
  30
719.19
  0
VERTEX
  8
Unknown Area Type
  70
32
  10
-5.66264759815663
  20
42.01984211248912
  30
716.097
  0
VERTEX
  8
Unknown Area Type
  70
32
  10
-5.64345574701539
  20
42.01966462009985
  30
707.672
  0
VERTEX
  8
Unknown Area Type
  70
32
  10
-5.64332302578819
  20
42.01966767866063
  30
707.695
  0
VERTEX
  8
Unknown Area Type
  70
32
  10
-5.62980355787489
  20
42.0195416559166
  30
705.198
  0
VERTEX
  8
Unknown Area Type
  70
32
  10
-5.6277102559607
  20
42.018126212228
  30
706.71
  0
VERTEX
  8
Unknown Area Type
  70
32
  10
-5.62709035740171
  20
42.00000000000001
  30
703.19
  0
VERTEX
  8
Unknown Area Type
  70
32
  10
-5.64583333333336
  20
42.00000000000001
  30
708.225
  0
VERTEX
  8
Unknown Area Type
  70
32
  10
-5.66273697184089
  20
42.00000000000001
  30
708.868
  0
SEQEND
  8
Unknown Area Type
  0
TEXT
  8
Unknown Area Type
 62
7
  1
PNOA-H_AMS_1956-57_33k_ES_PAN_2
 40
0.00045
  10
-5.6453736040221
  20
42.00098167246836
  0
POLYLINE
  8
Unknown Area Type
  70
9
  66
1
  0
VERTEX
  8
Unknown Area Type
  70
32
  10
-5.80647605596273
  20
42.01607090086009
  30
778.092
  0
VERTEX
  8
Unknown Area Type
  70
32
  10
-5.79347210701978
  20
42.02025621928319
  30
773.684
  0
VERTEX
  8
Unknown Area Type
  70
32
  10
-5.79341158912856
  20
42.02025319045651
  30
774.571
  0
VERTEX
  8
Unknown Area Type
  70
32
  10
-5.79176251802853
  20
42.0199646405523
  30
780.163
  0
VERTEX
  8
Unknown Area Type
  70
32
  10
-5.79173819285628
  20
42.01996072988261
  30
780.14
  0
VERTEX
  8
Unknown Area Type
  70
32
  10
-5.77094345941262
  20
42.01638999130684
  30
759.805
  0
VERTEX
  8
Unknown Area Type
  70
32
  10
-5.77090084573976
  20
42.01638201524764
  30
759.678
  0
VERTEX
  8
Unknown Area Type
  70
32
  10
-5.77089012418596
  20
42.01627420788409
  30
757.043
  0
VERTEX
  8
Unknown Area Type
  70
32
  10
-5.76944211216231
  20
42.00000000000001
  30
752.716
  0
VERTEX
  8
Unknown Area Type
  70
32
  10
-5.77083333333333
  20
42.00000000000001
  30
752.748
  0
VERTEX
  8
Unknown Area Type
  70
32
  10
-5.80613959684545
  20
42.00000000000001
  30
744.56
  0
SEQEND
  8
Unknown Area Type
  0
TEXT
  8
Unknown Area Type
 62
7
  1
PNOA-H_AMS_1956-57_33k_ES_PAN_2
 40
0.00045
  10
-5.78795908406252
  20
42.0101281096416
  0
POLYLINE
  8
Unknown Area Type
  70
9
  66
1
  0
VERTEX
  8
Unknown Area Type
  70
32
  10
-5.80647605596273
  20
42.01607090086009
  30
778.092
  0
VERTEX
  8
Unknown Area Type
  70
32
  10
-5.79347210701978
  20
42.02025621928319
  30
773.684
  0
VERTEX
  8
Unknown Area Type
  70
32
  10
-5.79341158912856
  20
42.02025319045651
  30
774.571
  0
VERTEX
  8
Unknown Area Type
  70
32
  10
-5.79176251802853
  20
42.0199646405523
  30
780.163
  0
VERTEX
  8
Unknown Area Type
  70
32
  10
-5.79173819285628
  20
42.01996072988261
  30
780.14
  0
VERTEX
  8
Unknown Area Type
  70
32
  10
-5.77094345941262
  20
42.01638999130684
  30
759.805
  0
VERTEX
  8
Unknown Area Type
  70
32
  10
-5.77090084573976
  20
42.01638201524764
  30
759.678
  0
VERTEX
  8
Unknown Area Type
  70
32
  10
-5.77089012418596
  20
42.01627420788409
  30
757.043
  0
VERTEX
  8
Unknown Area Type
  70
32
  10
-5.76944211216231
  20
42.00000000000001
  30
752.716
  0
VERTEX
  8
Unknown Area Type
  70
32
  10
-5.77083333333333
  20
42.00000000000001
  30
752.748
  0
VERTEX
  8
Unknown Area Type
  70
32
  10
-5.80613959684545
  20
42.00000000000001
  30
744.56
  0
SEQEND
  8
Unknown Area Type
  0
TEXT
  8
Unknown Area Type
 62
7
  1
PNOA-H_AMS_1956-57_33k_ES_PAN_2
 40
0.00045
  10
-5.78795908406252
  20
42.0101281096416
  0
POLYLINE
  8
Unknown Area Type
  70
9
  66
1
  0
VERTEX
  8
Unknown Area Type
  70
32
  10
-5.77090084573976
  20
42.01638201524764
  30
759.678
  0
VERTEX
  8
Unknown Area Type
  70
32
  10
-5.76693440072607
  20
42.01792765909163
  30
752.942
  0
VERTEX
  8
Unknown Area Type
  70
32
  10
-5.76692253185625
  20
42.0179324481767
  30
752.931
  0
VERTEX
  8
Unknown Area Type
  70
32
  10
-5.75944614138482
  20
42.02084123817473
  30
742.492
  0
VERTEX
  8
Unknown Area Type
  70
32
  10
-5.73427746989551
  20
42.01718436336918
  30
710.941
  0
VERTEX
  8
Unknown Area Type
  70
32
  10
-5.73328048354653
  20
42.00000000000001
  30
708.175
  0
VERTEX
  8
Unknown Area Type
  70
32
  10
-5.76944271980285
  20
42.00000000000001
  30
754.118
  0
SEQEND
  8
Unknown Area Type
  0
TEXT
  8
Unknown Area Type
 62
7
  1
PNOA-H_AMS_1956-57_33k_ES_PAN_2
 40
0.00045
  10
-5.75209066464315
  20
42.01042061908737
  0
POLYLINE
  8
Unknown Area Type
  70
9
  66
1
  0
VERTEX
  8
Unknown Area Type
  70
32
  10
-5.77090084573976
  20
42.01638201524764
  30
759.678
  0
VERTEX
  8
Unknown Area Type
  70
32
  10
-5.76693440072607
  20
42.01792765909163
  30
752.942
  0
VERTEX
  8
Unknown Area Type
  70
32
  10
-5.76692253185625
  20
42.0179324481767
  30
752.931
  0
VERTEX
  8
Unknown Area Type
  70
32
  10
-5.75944614138482
  20
42.02084123817473
  30
742.492
  0
VERTEX
  8
Unknown Area Type
  70
32
  10
-5.73427746989551
  20
42.01718436336918
  30
710.941
  0
VERTEX
  8
Unknown Area Type
  70
32
  10
-5.73328048354653
  20
42.00000000000001
  30
708.175
  0
VERTEX
  8
Unknown Area Type
  70
32
  10
-5.76944271980285
  20
42.00000000000001
  30
754.118
  0
SEQEND
  8
Unknown Area Type
  0
TEXT
  8
Unknown Area Type
 62
7
  1
PNOA-H_AMS_1956-57_33k_ES_PAN_2
 40
0.00045
  10
-5.75209066464315
  20
42.01042061908737
  0
POLYLINE
  8
Unknown Area Type
  70
9
  66
1
  0
VERTEX
  8
Unknown Area Type
  70
32
  10
-5.69929811917728
  20
42.01804889496687
  30
724.486
  0
VERTEX
  8
Unknown Area Type
  70
32
  10
-5.69432489550062
  20
42.02067838083845
  30
738.806
  0
VERTEX
  8
Unknown Area Type
  70
32
  10
-5.69431924294814
  20
42.02068751920176
  30
738.838
  0
VERTEX
  8
Unknown Area Type
  70
32
  10
-5.6640735019443
  20
42.01899399609713
  30
719.19
  0
VERTEX
  8
Unknown Area Type
  70
32
  10
-5.66273697184089
  20
42.00000000000001
  30
708.868
  0
VERTEX
  8
Unknown Area Type
  70
32
  10
-5.68749999999998
  20
42.00000000000001
  30
711.758
  0
VERTEX
  8
Unknown Area Type
  70
32
  10
-5.69772326579731
  20
42.00000000000001
  30
712.353
  0
SEQEND
  8
Unknown Area Type
  0
TEXT
  8
Unknown Area Type
 62
7
  1
PNOA-H_AMS_1956-57_33k_ES_PAN_2
 40
0.00045
  10
-5.68049957338738
  20
42.00033779100427
  0
POLYLINE
  8
Unknown Area Type
  70
9
  66
1
  0
VERTEX
  8
Unknown Area Type
  70
32
  10
-5.69929811917728
  20
42.01804889496687
  30
724.486
  0
VERTEX
  8
Unknown Area Type
  70
32
  10
-5.69432489550062
  20
42.02067838083845
  30
738.806
  0
VERTEX
  8
Unknown Area Type
  70
32
  10
-5.69431924294814
  20
42.02068751920176
  30
738.838
  0
VERTEX
  8
Unknown Area Type
  70
32
  10
-5.6640735019443
  20
42.01899399609713
  30
719.19
  0
VERTEX
  8
Unknown Area Type
  70
32
  10
-5.66273697184089
  20
42.00000000000001
  30
708.868
  0
VERTEX
  8
Unknown Area Type
  70
32
  10
-5.68749999999998
  20
42.00000000000001
  30
711.758
  0
VERTEX
  8
Unknown Area Type
  70
32
  10
-5.69772326579731
  20
42.00000000000001
  30
712.353
  0
SEQEND
  8
Unknown Area Type
  0
TEXT
  8
Unknown Area Type
 62
7
  1
PNOA-H_AMS_1956-57_33k_ES_PAN_2
 40
0.00045
  10
-5.68049957338738
  20
42.00033779100427
  0
POLYLINE
  8
Unknown Area Type
  70
9
  66
1
  0
VERTEX
  8
Unknown Area Type
  70
32
  10
-5.73427727706501
  20
42.01717986518632
  30
710.922
  0
VERTEX
  8
Unknown Area Type
  70
32
  10
-5.72702185324811
  20
42.020346942351
  30
709.614
  0
VERTEX
  8
Unknown Area Type
  70
32
  10
-5.71755017137785
  20
42.01956311871984
  30
709.357
  0
VERTEX
  8
Unknown Area Type
  70
32
  10
-5.71752000934226
  20
42.01956383332951
  30
709.224
  0
VERTEX
  8
Unknown Area Type
  70
32
  10
-5.69929811917728
  20
42.01804889496687
  30
724.486
  0
VERTEX
  8
Unknown Area Type
  70
32
  10
-5.69772326579731
  20
42.00000000000001
  30
712.353
  0
VERTEX
  8
Unknown Area Type
  70
32
  10
-5.7291666666667
  20
42.00000000000001
  30
708.128
  0
VERTEX
  8
Unknown Area Type
  70
32
  10
-5.73328048453099
  20
42.00000000000001
  30
708.166
  0
SEQEND
  8
Unknown Area Type
  0
TEXT
  8
Unknown Area Type
 62
7
  1
PNOA-H_AMS_1956-57_33k_ES_PAN_2
 40
0.00045
  10
-5.71600027143116
  20
42.01017347117551
  0
POLYLINE
  8
Unknown Area Type
  70
9
  66
1
  0
VERTEX
  8
Unknown Area Type
  70
32
  10
-5.73427727706501
  20
42.01717986518632
  30
710.922
  0
VERTEX
  8
Unknown Area Type
  70
32
  10
-5.72702185324811
  20
42.020346942351
  30
709.614
  0
VERTEX
  8
Unknown Area Type
  70
32
  10
-5.71755017137785
  20
42.01956311871984
  30
709.357
  0
VERTEX
  8
Unknown Area Type
  70
32
  10
-5.71752000934226
  20
42.01956383332951
  30
709.224
  0
VERTEX
  8
Unknown Area Type
  70
32
  10
-5.69929811917728
  20
42.01804889496687
  30
724.486
  0
VERTEX
  8
Unknown Area Type
  70
32
  10
-5.69772326579731
  20
42.00000000000001
  30
712.353
  0
VERTEX
  8
Unknown Area Type
  70
32
  10
-5.7291666666667
  20
42.00000000000001
  30
708.128
  0
VERTEX
  8
Unknown Area Type
  70
32
  10
-5.73328048453099
  20
42.00000000000001
  30
708.166
  0
SEQEND
  8
Unknown Area Type
  0
TEXT
  8
Unknown Area Type
 62
7
  1
PNOA-H_AMS_1956-57_33k_ES_PAN_2
 40
0.00045
  10
-5.71600027143116
  20
42.01017347117551
  0
POLYLINE
  8
Unknown Area Type
  70
9
  66
1
  0
VERTEX
  8
Unknown Area Type
  70
32
  10
-5.84363894774826
  20
42.01603357794046
  30
714.754
  0
VERTEX
  8
Unknown Area Type
  70
32
  10
-5.8411028347941
  20
42.01670880058188
  30
711.863
  0
VERTEX
  8
Unknown Area Type
  70
32
  10
-5.84107890912882
  20
42.01671389598268
  30
711.806
  0
VERTEX
  8
Unknown Area Type
  70
32
  10
-5.82680272982151
  20
42.02048422156781
  30
720.512
  0
VERTEX
  8
Unknown Area Type
  70
32
  10
-5.80647625387325
  20
42.01607539876899
  30
778.132
  0
VERTEX
  8
Unknown Area Type
  70
32
  10
-5.80613965448666
  20
42.00000000000001
  30
744.577
  0
VERTEX
  8
Unknown Area Type
  70
32
  10
-5.81249999999996
  20
42.00000000000001
  30
744.855
  0
VERTEX
  8
Unknown Area Type
  70
32
  10
-5.84285062707833
  20
42.00000000000001
  30
717.146
  0
SEQEND
  8
Unknown Area Type
  0
TEXT
  8
Unknown Area Type
 62
7
  1
PNOA-H_AMS_1956-57_33k_ES_PAN_2
 40
0.00045
  10
-5.82488930111746
  20
42.01024211078391
  0
POLYLINE
  8
Unknown Area Type
  70
9
  66
1
  0
VERTEX
  8
Unknown Area Type
  70
32
  10
-5.84363894774826
  20
42.01603357794046
  30
714.754
  0
VERTEX
  8
Unknown Area Type
  70
32
  10
-5.8411028347941
  20
42.01670880058188
  30
711.863
  0
VERTEX
  8
Unknown Area Type
  70
32
  10
-5.84107890912882
  20
42.01671389598268
  30
711.806
  0
VERTEX
  8
Unknown Area Type
  70
32
  10
-5.82680272982151
  20
42.02048422156781
  30
720.512
  0
VERTEX
  8
Unknown Area Type
  70
32
  10
-5.80647625387325
  20
42.01607539876899
  30
778.132
  0
VERTEX
  8
Unknown Area Type
  70
32
  10
-5.80613965448666
  20
42.00000000000001
  30
744.577
  0
VERTEX
  8
Unknown Area Type
  70
32
  10
-5.81249999999996
  20
42.00000000000001
  30
744.855
  0
VERTEX
  8
Unknown Area Type
  70
32
  10
-5.84285062707833
  20
42.00000000000001
  30
717.146
  0
SEQEND
  8
Unknown Area Type
  0
TEXT
  8
Unknown Area Type
 62
7
  1
PNOA-H_AMS_1956-57_33k_ES_PAN_2
 40
0.00045
  10
-5.82488930111746
  20
42.01024211078391
  0
POLYLINE
  8
Unknown Area Type
  70
9
  66
1
  0
VERTEX
  8
Unknown Area Type
  70
32
  10
-5.85416666666668
  20
42.10416666666667
  30
766.778
  0
VERTEX
  8
Unknown Area Type
  70
32
  10
-5.85416666666668
  20
42.12499999999999
  30
783.314
  0
VERTEX
  8
Unknown Area Type
  70
32
  10
-5.85416666666668
  20
42.13629767301308
  30
826.449
  0
VERTEX
  8
Unknown Area Type
  70
32
  10
-5.84990606353255
  20
42.13736531691193
  30
843.896
  0
VERTEX
  8
Unknown Area Type
  70
32
  10
-5.84988813667482
  20
42.13737026520538
  30
844.034
  0
VERTEX
  8
Unknown Area Type
  70
32
  10
-5.83030249958161
  20
42.13499625884328
  30
732.224
  0
VERTEX
  8
Unknown Area Type
  70
32
  10
-5.83042751445428
  20
42.09706257737408
  30
734.41
  0
VERTEX
  8
Unknown Area Type
  70
32
  10
-5.84501831036603
  20
42.09292372033487
  30
738.75
  0
VERTEX
  8
Unknown Area Type
  70
32
  10
-5.84521537443535
  20
42.09286930103323
  30
747.415
  0
VERTEX
  8
Unknown Area Type
  70
32
  10
-5.84528844230974
  20
42.09288099599961
  30
751.828
  0
VERTEX
  8
Unknown Area Type
  70
32
  10
-5.85416666666668
  20
42.09503523640538
  30
756.559
  0
SEQEND
  8
Unknown Area Type
  0
TEXT
  8
Unknown Area Type
 62
7
  1
PNOA-H_AMS_1956-57_33k_ES_PAN_2
 40
0.00045
  10
-5.84661901517239
  20
42.11508697889049
  0
POLYLINE
  8
Unknown Area Type
  70
9
  66
1
  0
VERTEX
  8
Unknown Area Type
  70
32
  10
-5.85416700000001
  20
42.1362975894847
  30
826.447
  0
VERTEX
  8
Unknown Area Type
  70
32
  10
-5.85416666666668
  20
42.13629767301308
  30
826.449
  0
VERTEX
  8
Unknown Area Type
  70
32
  10
-5.85416666666668
  20
42.12499999999999
  30
783.314
  0
VERTEX
  8
Unknown Area Type
  70
32
  10
-5.85416666666668
  20
42.10416666666667
  30
766.778
  0
VERTEX
  8
Unknown Area Type
  70
32
  10
-5.85416666666668
  20
42.09503523640538
  30
756.559
  0
VERTEX
  8
Unknown Area Type
  70
32
  10
-5.85416700000001
  20
42.09503531728643
  30
756.559
  0
SEQEND
  8
Unknown Area Type
  0
TEXT
  8
Unknown Area Type
 62
7
  1
PNOA-H_AMS_1956-57_33k_ES_PAN_2
 40
0.00045
  10
-5.85416683333334
  20
42.11566645470923
  0
POLYLINE
  8
Unknown Area Type
  70
9
  66
1
  0
VERTEX
  8
Unknown Area Type
  70
32
  10
-5.85416666666668
  20
42.10416666666667
  30
766.778
  0
VERTEX
  8
Unknown Area Type
  70
32
  10
-5.85416666666668
  20
42.12499999999999
  30
783.314
  0
VERTEX
  8
Unknown Area Type
  70
32
  10
-5.85416666666668
  20
42.13629767301308
  30
826.449
  0
VERTEX
  8
Unknown Area Type
  70
32
  10
-5.84990606353255
  20
42.13736531691193
  30
843.896
  0
VERTEX
  8
Unknown Area Type
  70
32
  10
-5.84988813667482
  20
42.13737026520538
  30
844.034
  0
VERTEX
  8
Unknown Area Type
  70
32
  10
-5.83030249958161
  20
42.13499625884328
  30
732.224
  0
VERTEX
  8
Unknown Area Type
  70
32
  10
-5.83042751445428
  20
42.09706257737408
  30
734.41
  0
VERTEX
  8
Unknown Area Type
  70
32
  10
-5.84501831036603
  20
42.09292372033487
  30
738.75
  0
VERTEX
  8
Unknown Area Type
  70
32
  10
-5.84521537443535
  20
42.09286930103323
  30
747.415
  0
VERTEX
  8
Unknown Area Type
  70
32
  10
-5.84528844230974
  20
42.09288099599961
  30
751.828
  0
VERTEX
  8
Unknown Area Type
  70
32
  10
-5.85416666666668
  20
42.09503523640538
  30
756.559
  0
SEQEND
  8
Unknown Area Type
  0
TEXT
  8
Unknown Area Type
 62
7
  1
PNOA-H_AMS_1956-57_33k_ES_PAN_2
 40
0.00045
  10
-5.84661901517239
  20
42.11508697889049
  0
POLYLINE
  8
Unknown Area Type
  70
9
  66
1
  0
VERTEX
  8
Unknown Area Type
  70
32
  10
-5.82168033998378
  20
42.13713593311155
  30
732.496
  0
VERTEX
  8
Unknown Area Type
  70
32
  10
-5.81760534007624
  20
42.13814569379004
  30
732.219
  0
VERTEX
  8
Unknown Area Type
  70
32
  10
-5.81756303811341
  20
42.1381467334062
  30
732.226
  0
VERTEX
  8
Unknown Area Type
  70
32
  10
-5.79668695699722
  20
42.13515929376697
  30
744.315
  0
VERTEX
  8
Unknown Area Type
  70
32
  10
-5.79826455084294
  20
42.09721711589241
  30
724.876
  0
VERTEX
  8
Unknown Area Type
  70
32
  10
-5.81167767945723
  20
42.09278253335966
  30
729.071
  0
VERTEX
  8
Unknown Area Type
  70
32
  10
-5.8117443057309
  20
42.09278540232232
  30
729.07
  0
VERTEX
  8
Unknown Area Type
  70
32
  10
-5.83042751445428
  20
42.09706257737408
  30
734.41
  0
VERTEX
  8
Unknown Area Type
  70
32
  10
-5.83030249958161
  20
42.13499625884328
  30
732.224
  0
VERTEX
  8
Unknown Area Type
  70
32
  10
-5.82169826921534
  20
42.13713098916685
  30
732.495
  0
VERTEX
  8
Unknown Area Type
  70
32
  10
-5.82168033998378
  20
42.13713593311155
  30
732.496
  0
SEQEND
  8
Unknown Area Type
  0
TEXT
  8
Unknown Area Type
 62
7
  1
PNOA-H_AMS_1956-57_33k_ES_PAN_2
 40
0.00045
  10
-5.81355725894742
  20
42.11538548608134
  0
POLYLINE
  8
Unknown Area Type
  70
9
  66
1
  0
VERTEX
  8
Unknown Area Type
  70
32
  10
-5.82168033998378
  20
42.13713593311155
  30
732.496
  0
VERTEX
  8
Unknown Area Type
  70
32
  10
-5.81760534007624
  20
42.13814569379004
  30
732.219
  0
VERTEX
  8
Unknown Area Type
  70
32
  10
-5.81756303811341
  20
42.1381467334062
  30
732.226
  0
VERTEX
  8
Unknown Area Type
  70
32
  10
-5.79668695699722
  20
42.13515929376697
  30
744.315
  0
VERTEX
  8
Unknown Area Type
  70
32
  10
-5.79826455084294
  20
42.09721711589241
  30
724.876
  0
VERTEX
  8
Unknown Area Type
  70
32
  10
-5.81167767945723
  20
42.09278253335966
  30
729.071
  0
VERTEX
  8
Unknown Area Type
  70
32
  10
-5.8117443057309
  20
42.09278540232232
  30
729.07
  0
VERTEX
  8
Unknown Area Type
  70
32
  10
-5.83042751445428
  20
42.09706257737408
  30
734.41
  0
VERTEX
  8
Unknown Area Type
  70
32
  10
-5.83030249958161
  20
42.13499625884328
  30
732.224
  0
VERTEX
  8
Unknown Area Type
  70
32
  10
-5.82169826921534
  20
42.13713098916685
  30
732.495
  0
VERTEX
  8
Unknown Area Type
  70
32
  10
-5.82168033998378
  20
42.13713593311155
  30
732.496
  0
SEQEND
  8
Unknown Area Type
  0
TEXT
  8
Unknown Area Type
 62
7
  1
PNOA-H_AMS_1956-57_33k_ES_PAN_2
 40
0.00045
  10
-5.81355725894742
  20
42.11538548608134
  0
POLYLINE
  8
Unknown Area Type
  70
9
  66
1
  0
VERTEX
  8
Unknown Area Type
  70
32
  10
-5.75132736190036
  20
42.13863420276193
  30
751.434
  0
VERTEX
  8
Unknown Area Type
  70
32
  10
-5.75127901370271
  20
42.13863536297743
  30
751.429
  0
VERTEX
  8
Unknown Area Type
  70
32
  10
-5.73174238751229
  20
42.13620277062962
  30
731.154
  0
VERTEX
  8
Unknown Area Type
  70
32
  10
-5.73179199320784
  20
42.09767631769314
  30
724.094
  0
VERTEX
  8
Unknown Area Type
  70
32
  10
-5.74497305535971
  20
42.09279577622588
  30
743.507
  0
VERTEX
  8
Unknown Area Type
  70
32
  10
-5.76478954360009
  20
42.09709708042384
  30
722.401
  0
VERTEX
  8
Unknown Area Type
  70
32
  10
-5.76434217589685
  20
42.13561502294858
  30
753.403
  0
VERTEX
  8
Unknown Area Type
  70
32
  10
-5.76431293882825
  20
42.13563824135267
  30
754.452
  0
VERTEX
  8
Unknown Area Type
  70
32
  10
-5.75135134113716
  20
42.13862912462348
  30
751.443
  0
VERTEX
  8
Unknown Area Type
  70
32
  10
-5.75132736190036
  20
42.13863420276193
  30
751.434
  0
SEQEND
  8
Unknown Area Type
  0
TEXT
  8
Unknown Area Type
 62
7
  1
PNOA-H_AMS_1956-57_33k_ES_PAN_2
 40
0.00045
  10
-5.748265998801
  20
42.11588370746288
  0
POLYLINE
  8
Unknown Area Type
  70
9
  66
1
  0
VERTEX
  8
Unknown Area Type
  70
32
  10
-5.75132736190036
  20
42.13863420276193
  30
751.434
  0
VERTEX
  8
Unknown Area Type
  70
32
  10
-5.75127901370271
  20
42.13863536297743
  30
751.429
  0
VERTEX
  8
Unknown Area Type
  70
32
  10
-5.73174238751229
  20
42.13620277062962
  30
731.154
  0
VERTEX
  8
Unknown Area Type
  70
32
  10
-5.73179199320784
  20
42.09767631769314
  30
724.094
  0
VERTEX
  8
Unknown Area Type
  70
32
  10
-5.74497305535971
  20
42.09279577622588
  30
743.507
  0
VERTEX
  8
Unknown Area Type
  70
32
  10
-5.76478954360009
  20
42.09709708042384
  30
722.401
  0
VERTEX
  8
Unknown Area Type
  70
32
  10
-5.76434217589685
  20
42.13561502294858
  30
753.403
  0
VERTEX
  8
Unknown Area Type
  70
32
  10
-5.76431293882825
  20
42.13563824135267
  30
754.452
  0
VERTEX
  8
Unknown Area Type
  70
32
  10
-5.75135134113716
  20
42.13862912462348
  30
751.443
  0
VERTEX
  8
Unknown Area Type
  70
32
  10
-5.75132736190036
  20
42.13863420276193
  30
751.434
  0
SEQEND
  8
Unknown Area Type
  0
TEXT
  8
Unknown Area Type
 62
7
  1
PNOA-H_AMS_1956-57_33k_ES_PAN_2
 40
0.00045
  10
-5.748265998801
  20
42.11588370746288
  0
POLYLINE
  8
Unknown Area Type
  70
9
  66
1
  0
VERTEX
  8
Unknown Area Type
  70
32
  10
-5.62362499072626
  20
42.14121325176622
  30
761.104
  0
VERTEX
  8
Unknown Area Type
  70
32
  10
-5.61844044697798
  20
42.14225032771375
  30
757.646
  0
VERTEX
  8
Unknown Area Type
  70
32
  10
-5.61833806095222
  20
42.14226167133514
  30
757.563
  0
VERTEX
  8
Unknown Area Type
  70
32
  10
-5.60155136233327
  20
42.13981605251286
  30
723.816
  0
VERTEX
  8
Unknown Area Type
  70
32
  10
-5.59994982128886
  20
42.0996426694598
  30
716.984
  0
VERTEX
  8
Unknown Area Type
  70
32
  10
-5.61012184760196
  20
42.09557523064859
  30
718.59
  0
VERTEX
  8
Unknown Area Type
  70
32
  10
-5.63285676704731
  20
42.09944121136809
  30
732.242
  0
VERTEX
  8
Unknown Area Type
  70
32
  10
-5.63464749794527
  20
42.13900631377048
  30
778.902
  0
VERTEX
  8
Unknown Area Type
  70
32
  10
-5.62364898249966
  20
42.14120820003764
  30
761.196
  0
VERTEX
  8
Unknown Area Type
  70
32
  10
-5.62362499072626
  20
42.14121325176622
  30
761.104
  0
SEQEND
  8
Unknown Area Type
  0
TEXT
  8
Unknown Area Type
 62
7
  1
PNOA-H_AMS_1956-57_33k_ES_PAN_2
 40
0.00045
  10
-5.61729874071745
  20
42.11945135466155
  0
POLYLINE
  8
Unknown Area Type
  70
9
  66
1
  0
VERTEX
  8
Unknown Area Type
  70
32
  10
-5.62362499072626
  20
42.14121325176622
  30
761.104
  0
VERTEX
  8
Unknown Area Type
  70
32
  10
-5.61844044697798
  20
42.14225032771375
  30
757.646
  0
VERTEX
  8
Unknown Area Type
  70
32
  10
-5.61833806095222
  20
42.14226167133514
  30
757.563
  0
VERTEX
  8
Unknown Area Type
  70
32
  10
-5.60155136233327
  20
42.13981605251286
  30
723.816
  0
VERTEX
  8
Unknown Area Type
  70
32
  10
-5.59994982128886
  20
42.0996426694598
  30
716.984
  0
VERTEX
  8
Unknown Area Type
  70
32
  10
-5.61012184760196
  20
42.09557523064859
  30
718.59
  0
VERTEX
  8
Unknown Area Type
  70
32
  10
-5.63285676704731
  20
42.09944121136809
  30
732.242
  0
VERTEX
  8
Unknown Area Type
  70
32
  10
-5.63464749794527
  20
42.13900631377048
  30
778.902
  0
VERTEX
  8
Unknown Area Type
  70
32
  10
-5.62364898249966
  20
42.14120820003764
  30
761.196
  0
VERTEX
  8
Unknown Area Type
  70
32
  10
-5.62362499072626
  20
42.14121325176622
  30
761.104
  0
SEQEND
  8
Unknown Area Type
  0
TEXT
  8
Unknown Area Type
 62
7
  1
PNOA-H_AMS_1956-57_33k_ES_PAN_2
 40
0.00045
  10
-5.61729874071745
  20
42.11945135466155
  0
POLYLINE
  8
Unknown Area Type
  70
9
  66
1
  0
VERTEX
  8
Unknown Area Type
  70
32
  10
-5.6492961958657
  20
42.14108224365922
  30
765.734
  0
VERTEX
  8
Unknown Area Type
  70
32
  10
-5.63464749794527
  20
42.13900631377048
  30
778.902
  0
VERTEX
  8
Unknown Area Type
  70
32
  10
-5.63285676704731
  20
42.09944121136809
  30
732.242
  0
VERTEX
  8
Unknown Area Type
  70
32
  10
-5.64267662392918
  20
42.09524389312089
  30
747.228
  0
VERTEX
  8
Unknown Area Type
  70
32
  10
-5.66522904660352
  20
42.09889601179739
  30
755.614
  0
VERTEX
  8
Unknown Area Type
  70
32
  10
-5.66774021284977
  20
42.13756121051831
  30
775.289
  0
VERTEX
  8
Unknown Area Type
  70
32
  10
-5.64932622953858
  20
42.1410770469538
  30
765.66
  0
VERTEX
  8
Unknown Area Type
  70
32
  10
-5.6492961958657
  20
42.14108224365922
  30
765.734
  0
SEQEND
  8
Unknown Area Type
  0
TEXT
  8
Unknown Area Type
 62
7
  1
PNOA-H_AMS_1956-57_33k_ES_PAN_2
 40
0.00045
  10
-5.65029846428505
  20
42.11868410187608
  0
POLYLINE
  8
Unknown Area Type
  70
9
  66
1
  0
VERTEX
  8
Unknown Area Type
  70
32
  10
-5.6492961958657
  20
42.14108224365922
  30
765.734
  0
VERTEX
  8
Unknown Area Type
  70
32
  10
-5.63464749794527
  20
42.13900631377048
  30
778.902
  0
VERTEX
  8
Unknown Area Type
  70
32
  10
-5.63285676704731
  20
42.09944121136809
  30
732.242
  0
VERTEX
  8
Unknown Area Type
  70
32
  10
-5.64267662392918
  20
42.09524389312089
  30
747.228
  0
VERTEX
  8
Unknown Area Type
  70
32
  10
-5.66522904660352
  20
42.09889601179739
  30
755.614
  0
VERTEX
  8
Unknown Area Type
  70
32
  10
-5.66774021284977
  20
42.13756121051831
  30
775.289
  0
VERTEX
  8
Unknown Area Type
  70
32
  10
-5.64932622953858
  20
42.1410770469538
  30
765.66
  0
VERTEX
  8
Unknown Area Type
  70
32
  10
-5.6492961958657
  20
42.14108224365922
  30
765.734
  0
SEQEND
  8
Unknown Area Type
  0
TEXT
  8
Unknown Area Type
 62
7
  1
PNOA-H_AMS_1956-57_33k_ES_PAN_2
 40
0.00045
  10
-5.65029846428505
  20
42.11868410187608
  0
POLYLINE
  8
Unknown Area Type
  70
9
  66
1
  0
VERTEX
  8
Unknown Area Type
  70
32
  10
-5.71870449767116
  20
42.13914675581372
  30
776.486
  0
VERTEX
  8
Unknown Area Type
  70
32
  10
-5.69879821953855
  20
42.13653268757666
  30
774.13
  0
VERTEX
  8
Unknown Area Type
  70
32
  10
-5.69835135135558
  20
42.09837354465315
  30
771.347
  0
VERTEX
  8
Unknown Area Type
  70
32
  10
-5.71131876669735
  20
42.09338031733873
  30
765.189
  0
VERTEX
  8
Unknown Area Type
  70
32
  10
-5.73179199320784
  20
42.09767631769314
  30
724.094
  0
VERTEX
  8
Unknown Area Type
  70
32
  10
-5.73174238751229
  20
42.13620277062962
  30
731.154
  0
VERTEX
  8
Unknown Area Type
  70
32
  10
-5.71872848006707
  20
42.13914168442079
  30
776.238
  0
VERTEX
  8
Unknown Area Type
  70
32
  10
-5.71870449767116
  20
42.13914675581372
  30
776.486
  0
SEQEND
  8
Unknown Area Type
  0
TEXT
  8
Unknown Area Type
 62
7
  1
PNOA-H_AMS_1956-57_33k_ES_PAN_2
 40
0.00045
  10
-5.71507158106377
  20
42.11641686604199
  0
POLYLINE
  8
Unknown Area Type
  70
9
  66
1
  0
VERTEX
  8
Unknown Area Type
  70
32
  10
-5.71870449767116
  20
42.13914675581372
  30
776.486
  0
VERTEX
  8
Unknown Area Type
  70
32
  10
-5.69879821953855
  20
42.13653268757666
  30
774.13
  0
VERTEX
  8
Unknown Area Type
  70
32
  10
-5.69835135135558
  20
42.09837354465315
  30
771.347
  0
VERTEX
  8
Unknown Area Type
  70
32
  10
-5.71131876669735
  20
42.09338031733873
  30
765.189
  0
VERTEX
  8
Unknown Area Type
  70
32
  10
-5.73179199320784
  20
42.09767631769314
  30
724.094
  0
VERTEX
  8
Unknown Area Type
  70
32
  10
-5.73174238751229
  20
42.13620277062962
  30
731.154
  0
VERTEX
  8
Unknown Area Type
  70
32
  10
-5.71872848006707
  20
42.13914168442079
  30
776.238
  0
VERTEX
  8
Unknown Area Type
  70
32
  10
-5.71870449767116
  20
42.13914675581372
  30
776.486
  0
SEQEND
  8
Unknown Area Type
  0
TEXT
  8
Unknown Area Type
 62
7
  1
PNOA-H_AMS_1956-57_33k_ES_PAN_2
 40
0.00045
  10
-5.71507158106377
  20
42.11641686604199
  0
POLYLINE
  8
Unknown Area Type
  70
9
  66
1
  0
VERTEX
  8
Unknown Area Type
  70
32
  10
-5.55235994435874
  20
42.14330806838932
  30
737.572
  0
VERTEX
  8
Unknown Area Type
  70
32
  10
-5.54115938448891
  20
42.14191333094587
  30
740.643
  0
VERTEX
  8
Unknown Area Type
  70
32
  10
-5.53768145315987
  20
42.0980071116089
  30
783.867
  0
VERTEX
  8
Unknown Area Type
  70
32
  10
-5.54067187762625
  20
42.09658555622376
  30
784.263
  0
VERTEX
  8
Unknown Area Type
  70
32
  10
-5.56810991362506
  20
42.09932447894567
  30
732.117
  0
VERTEX
  8
Unknown Area Type
  70
32
  10
-5.56866423718826
  20
42.14043143452074
  30
727.914
  0
VERTEX
  8
Unknown Area Type
  70
32
  10
-5.55238998826504
  20
42.14330289684397
  30
737.444
  0
VERTEX
  8
Unknown Area Type
  70
32
  10
-5.55235994435874
  20
42.14330806838932
  30
737.572
  0
SEQEND
  8
Unknown Area Type
  0
TEXT
  8
Unknown Area Type
 62
7
  1
PNOA-H_AMS_1956-57_33k_ES_PAN_2
 40
0.00045
  10
-5.55317292303046
  20
42.1204975692867
  0
POLYLINE
  8
Unknown Area Type
  70
9
  66
1
  0
VERTEX
  8
Unknown Area Type
  70
32
  10
-5.55235994435874
  20
42.14330806838932
  30
737.572
  0
VERTEX
  8
Unknown Area Type
  70
32
  10
-5.54115938448891
  20
42.14191333094587
  30
740.643
  0
VERTEX
  8
Unknown Area Type
  70
32
  10
-5.53768145315987
  20
42.0980071116089
  30
783.867
  0
VERTEX
  8
Unknown Area Type
  70
32
  10
-5.54067187762625
  20
42.09658555622376
  30
784.263
  0
VERTEX
  8
Unknown Area Type
  70
32
  10
-5.56810991362506
  20
42.09932447894567
  30
732.117
  0
VERTEX
  8
Unknown Area Type
  70
32
  10
-5.56866423718826
  20
42.14043143452074
  30
727.914
  0
VERTEX
  8
Unknown Area Type
  70
32
  10
-5.55238998826504
  20
42.14330289684397
  30
737.444
  0
VERTEX
  8
Unknown Area Type
  70
32
  10
-5.55235994435874
  20
42.14330806838932
  30
737.572
  0
SEQEND
  8
Unknown Area Type
  0
TEXT
  8
Unknown Area Type
 62
7
  1
PNOA-H_AMS_1956-57_33k_ES_PAN_2
 40
0.00045
  10
-5.55317292303046
  20
42.1204975692867
  0
POLYLINE
  8
Unknown Area Type
  70
9
  66
1
  0
VERTEX
  8
Unknown Area Type
  70
32
  10
-5.76474957568341
  20
42.10062817515313
  30
735.693
  0
VERTEX
  8
Unknown Area Type
  70
32
  10
-5.76478467725159
  20
42.09712421407393
  30
722.409
  0
VERTEX
  8
Unknown Area Type
  70
32
  10
-5.76479538758296
  20
42.09709243679738
  30
722.394
  0
VERTEX
  8
Unknown Area Type
  70
32
  10
-5.77788846338154
  20
42.09275056649917
  30
724
  0
VERTEX
  8
Unknown Area Type
  70
32
  10
-5.79825227424962
  20
42.09721291278221
  30
724.87
  0
VERTEX
  8
Unknown Area Type
  70
32
  10
-5.79826455084294
  20
42.09721711589241
  30
724.876
  0
VERTEX
  8
Unknown Area Type
  70
32
  10
-5.79826613399362
  20
42.09725309890622
  30
725.08
  0
VERTEX
  8
Unknown Area Type
  70
32
  10
-5.79668695699722
  20
42.13515929376697
  30
744.315
  0
VERTEX
  8
Unknown Area Type
  70
32
  10
-5.78418916033441
  20
42.13806602722292
  30
750.116
  0
VERTEX
  8
Unknown Area Type
  70
32
  10
-5.76433672000341
  20
42.13562866258237
  30
753.958
  0
VERTEX
  8
Unknown Area Type
  70
32
  10
-5.76474842455766
  20
42.10074077083529
  30
735.62
  0
VERTEX
  8
Unknown Area Type
  70
32
  10
-5.76474957568341
  20
42.10062817515313
  30
735.693
  0
SEQEND
  8
Unknown Area Type
  0
TEXT
  8
Unknown Area Type
 62
7
  1
PNOA-H_AMS_1956-57_33k_ES_PAN_2
 40
0.00045
  10
-5.78130137126682
  20
42.11560426232154
  0
POLYLINE
  8
Unknown Area Type
  70
9
  66
1
  0
VERTEX
  8
Unknown Area Type
  70
32
  10
-5.76474957568341
  20
42.10062817515313
  30
735.693
  0
VERTEX
  8
Unknown Area Type
  70
32
  10
-5.76478467725159
  20
42.09712421407393
  30
722.409
  0
VERTEX
  8
Unknown Area Type
  70
32
  10
-5.76479538758296
  20
42.09709243679738
  30
722.394
  0
VERTEX
  8
Unknown Area Type
  70
32
  10
-5.77788846338154
  20
42.09275056649917
  30
724
  0
VERTEX
  8
Unknown Area Type
  70
32
  10
-5.79825227424962
  20
42.09721291278221
  30
724.87
  0
VERTEX
  8
Unknown Area Type
  70
32
  10
-5.79826455084294
  20
42.09721711589241
  30
724.876
  0
VERTEX
  8
Unknown Area Type
  70
32
  10
-5.79826613399362
  20
42.09725309890622
  30
725.08
  0
VERTEX
  8
Unknown Area Type
  70
32
  10
-5.79668695699722
  20
42.13515929376697
  30
744.315
  0
VERTEX
  8
Unknown Area Type
  70
32
  10
-5.78418916033441
  20
42.13806602722292
  30
750.116
  0
VERTEX
  8
Unknown Area Type
  70
32
  10
-5.76433672000341
  20
42.13562866258237
  30
753.958
  0
VERTEX
  8
Unknown Area Type
  70
32
  10
-5.76474842455766
  20
42.10074077083529
  30
735.62
  0
VERTEX
  8
Unknown Area Type
  70
32
  10
-5.76474957568341
  20
42.10062817515313
  30
735.693
  0
SEQEND
  8
Unknown Area Type
  0
TEXT
  8
Unknown Area Type
 62
7
  1
PNOA-H_AMS_1956-57_33k_ES_PAN_2
 40
0.00045
  10
-5.78130137126682
  20
42.11560426232154
  0
POLYLINE
  8
Unknown Area Type
  70
9
  66
1
  0
VERTEX
  8
Unknown Area Type
  70
32
  10
-5.66549083389429
  20
42.10297842822497
  30
759.244
  0
VERTEX
  8
Unknown Area Type
  70
32
  10
-5.66523866033108
  20
42.09912542890568
  30
755.595
  0
VERTEX
  8
Unknown Area Type
  70
32
  10
-5.66523489827975
  20
42.09889137303612
  30
755.622
  0
VERTEX
  8
Unknown Area Type
  70
32
  10
-5.67738493702287
  20
42.09380389822286
  30
783.393
  0
VERTEX
  8
Unknown Area Type
  70
32
  10
-5.67743344344913
  20
42.09380726844728
  30
783.401
  0
VERTEX
  8
Unknown Area Type
  70
32
  10
-5.69835135135558
  20
42.09837354465315
  30
771.347
  0
VERTEX
  8
Unknown Area Type
  70
32
  10
-5.69879821953855
  20
42.13653268757666
  30
774.13
  0
VERTEX
  8
Unknown Area Type
  70
32
  10
-5.68399793176752
  20
42.13975734537943
  30
784.808
  0
VERTEX
  8
Unknown Area Type
  70
32
  10
-5.66774021284977
  20
42.13756121051831
  30
775.289
  0
VERTEX
  8
Unknown Area Type
  70
32
  10
-5.66549403923057
  20
42.10305490052477
  30
758.975
  0
VERTEX
  8
Unknown Area Type
  70
32
  10
-5.66549083389429
  20
42.10297842822497
  30
759.244
  0
SEQEND
  8
Unknown Area Type
  0
TEXT
  8
Unknown Area Type
 62
7
  1
PNOA-H_AMS_1956-57_33k_ES_PAN_2
 40
0.00045
  10
-5.68201659086541
  20
42.11714714112092
  0
POLYLINE
  8
Unknown Area Type
  70
9
  66
1
  0
VERTEX
  8
Unknown Area Type
  70
32
  10
-5.66549083389429
  20
42.10297842822497
  30
759.244
  0
VERTEX
  8
Unknown Area Type
  70
32
  10
-5.66523866033108
  20
42.09912542890568
  30
755.595
  0
VERTEX
  8
Unknown Area Type
  70
32
  10
-5.66523489827975
  20
42.09889137303612
  30
755.622
  0
VERTEX
  8
Unknown Area Type
  70
32
  10
-5.67738493702287
  20
42.09380389822286
  30
783.393
  0
VERTEX
  8
Unknown Area Type
  70
32
  10
-5.67743344344913
  20
42.09380726844728
  30
783.401
  0
VERTEX
  8
Unknown Area Type
  70
32
  10
-5.69835135135558
  20
42.09837354465315
  30
771.347
  0
VERTEX
  8
Unknown Area Type
  70
32
  10
-5.69879821953855
  20
42.13653268757666
  30
774.13
  0
VERTEX
  8
Unknown Area Type
  70
32
  10
-5.68399793176752
  20
42.13975734537943
  30
784.808
  0
VERTEX
  8
Unknown Area Type
  70
32
  10
-5.66774021284977
  20
42.13756121051831
  30
775.289
  0
VERTEX
  8
Unknown Area Type
  70
32
  10
-5.66549403923057
  20
42.10305490052477
  30
758.975
  0
VERTEX
  8
Unknown Area Type
  70
32
  10
-5.66549083389429
  20
42.10297842822497
  30
759.244
  0
SEQEND
  8
Unknown Area Type
  0
TEXT
  8
Unknown Area Type
 62
7
  1
PNOA-H_AMS_1956-57_33k_ES_PAN_2
 40
0.00045
  10
-5.68201659086541
  20
42.11714714112092
  0
POLYLINE
  8
Unknown Area Type
  70
9
  66
1
  0
VERTEX
  8
Unknown Area Type
  70
32
  10
-5.56818991910058
  20
42.1051988275091
  30
728.825
  0
VERTEX
  8
Unknown Area Type
  70
32
  10
-5.56810991362506
  20
42.09932447894567
  30
732.117
  0
VERTEX
  8
Unknown Area Type
  70
32
  10
-5.57582374284804
  20
42.09586443906887
  30
715.226
  0
VERTEX
  8
Unknown Area Type
  70
32
  10
-5.59994982128886
  20
42.0996426694598
  30
716.984
  0
VERTEX
  8
Unknown Area Type
  70
32
  10
-5.60155136233327
  20
42.13981605251286
  30
723.816
  0
VERTEX
  8
Unknown Area Type
  70
32
  10
-5.58486739657631
  20
42.14283650188328
  30
721.634
  0
VERTEX
  8
Unknown Area Type
  70
32
  10
-5.58478918109819
  20
42.14284727063767
  30
721.629
  0
VERTEX
  8
Unknown Area Type
  70
32
  10
-5.56866423718826
  20
42.14043143452074
  30
727.914
  0
VERTEX
  8
Unknown Area Type
  70
32
  10
-5.56819373449159
  20
42.10529330060169
  30
728.939
  0
VERTEX
  8
Unknown Area Type
  70
32
  10
-5.56818991910058
  20
42.1051988275091
  30
728.825
  0
SEQEND
  8
Unknown Area Type
  0
TEXT
  8
Unknown Area Type
 62
7
  1
PNOA-H_AMS_1956-57_33k_ES_PAN_2
 40
0.00045
  10
-5.58483076834833
  20
42.12005646012916
  0
POLYLINE
  8
Unknown Area Type
  70
9
  66
1
  0
VERTEX
  8
Unknown Area Type
  70
32
  10
-5.56818991910058
  20
42.1051988275091
  30
728.825
  0
VERTEX
  8
Unknown Area Type
  70
32
  10
-5.56810991362506
  20
42.09932447894567
  30
732.117
  0
VERTEX
  8
Unknown Area Type
  70
32
  10
-5.57582374284804
  20
42.09586443906887
  30
715.226
  0
VERTEX
  8
Unknown Area Type
  70
32
  10
-5.59994982128886
  20
42.0996426694598
  30
716.984
  0
VERTEX
  8
Unknown Area Type
  70
32
  10
-5.60155136233327
  20
42.13981605251286
  30
723.816
  0
VERTEX
  8
Unknown Area Type
  70
32
  10
-5.58486739657631
  20
42.14283650188328
  30
721.634
  0
VERTEX
  8
Unknown Area Type
  70
32
  10
-5.58478918109819
  20
42.14284727063767
  30
721.629
  0
VERTEX
  8
Unknown Area Type
  70
32
  10
-5.56866423718826
  20
42.14043143452074
  30
727.914
  0
VERTEX
  8
Unknown Area Type
  70
32
  10
-5.56819373449159
  20
42.10529330060169
  30
728.939
  0
VERTEX
  8
Unknown Area Type
  70
32
  10
-5.56818991910058
  20
42.1051988275091
  30
728.825
  0
SEQEND
  8
Unknown Area Type
  0
TEXT
  8
Unknown Area Type
 62
7
  1
PNOA-H_AMS_1956-57_33k_ES_PAN_2
 40
0.00045
  10
-5.58483076834833
  20
42.12005646012916
  0
POLYLINE
  8
Unknown Area Type
  70
9
  66
1
  0
VERTEX
  8
Unknown Area Type
  70
32
  10
-5.85416666666668
  20
42.02083333333333
  30
719.892
  0
VERTEX
  8
Unknown Area Type
  70
32
  10
-5.85416666666668
  20
42.04166666666664
  30
759.496
  0
VERTEX
  8
Unknown Area Type
  70
32
  10
-5.85416666666668
  20
42.0573533925285
  30
792.767
  0
VERTEX
  8
Unknown Area Type
  70
32
  10
-5.84495551195937
  20
42.05974488160185
  30
808.713
  0
VERTEX
  8
Unknown Area Type
  70
32
  10
-5.8429861470509
  20
42.05934795336066
  30
806.551
  0
VERTEX
  8
Unknown Area Type
  70
32
  10
-5.84296180415293
  20
42.05934405413925
  30
806.534
  0
VERTEX
  8
Unknown Area Type
  70
32
  10
-5.82584242881018
  20
42.05589934708541
  30
774.154
  0
VERTEX
  8
Unknown Area Type
  70
32
  10
-5.82583015867548
  20
42.0558951467165
  30
774.088
  0
VERTEX
  8
Unknown Area Type
  70
32
  10
-5.82582836270512
  20
42.05585466649196
  30
774.158
  0
VERTEX
  8
Unknown Area Type
  70
32
  10
-5.8268089611315
  20
42.02048857072771
  30
720.515
  0
VERTEX
  8
Unknown Area Type
  70
32
  10
-5.84363894774826
  20
42.01603357794046
  30
714.754
  0
VERTEX
  8
Unknown Area Type
  70
32
  10
-5.85416666666668
  20
42.01866831377403
  30
719.655
  0
SEQEND
  8
Unknown Area Type
  0
TEXT
  8
Unknown Area Type
 62
7
  1
PNOA-H_AMS_1956-57_33k_ES_PAN_2
 40
0.00045
  10
-5.84292920623711
  20
42.03777736658654
  0
POLYLINE
  8
Unknown Area Type
  70
9
  66
1
  0
VERTEX
  8
Unknown Area Type
  70
32
  10
-5.85416700000001
  20
42.05735330598527
  30
792.766
  0
VERTEX
  8
Unknown Area Type
  70
32
  10
-5.85416666666668
  20
42.0573533925285
  30
792.767
  0
VERTEX
  8
Unknown Area Type
  70
32
  10
-5.85416666666668
  20
42.04166666666664
  30
759.496
  0
VERTEX
  8
Unknown Area Type
  70
32
  10
-5.85416666666668
  20
42.02083333333333
  30
719.892
  0
VERTEX
  8
Unknown Area Type
  70
32
  10
-5.85416666666668
  20
42.01866831377403
  30
719.655
  0
VERTEX
  8
Unknown Area Type
  70
32
  10
-5.85416700000001
  20
42.01866839719621
  30
719.655
  0
SEQEND
  8
Unknown Area Type
  0
TEXT
  8
Unknown Area Type
 62
7
  1
PNOA-H_AMS_1956-57_33k_ES_PAN_2
 40
0.00045
  10
-5.85416683333334
  20
42.03801085315126
  0
POLYLINE
  8
Unknown Area Type
  70
9
  66
1
  0
VERTEX
  8
Unknown Area Type
  70
32
  10
-5.85416666666668
  20
42.02083333333333
  30
719.892
  0
VERTEX
  8
Unknown Area Type
  70
32
  10
-5.85416666666668
  20
42.04166666666664
  30
759.496
  0
VERTEX
  8
Unknown Area Type
  70
32
  10
-5.85416666666668
  20
42.0573533925285
  30
792.767
  0
VERTEX
  8
Unknown Area Type
  70
32
  10
-5.84495551195937
  20
42.05974488160185
  30
808.713
  0
VERTEX
  8
Unknown Area Type
  70
32
  10
-5.8429861470509
  20
42.05934795336066
  30
806.551
  0
VERTEX
  8
Unknown Area Type
  70
32
  10
-5.84296180415293
  20
42.05934405413925
  30
806.534
  0
VERTEX
  8
Unknown Area Type
  70
32
  10
-5.82584242881018
  20
42.05589934708541
  30
774.154
  0
VERTEX
  8
Unknown Area Type
  70
32
  10
-5.82583015867548
  20
42.0558951467165
  30
774.088
  0
VERTEX
  8
Unknown Area Type
  70
32
  10
-5.82582836270512
  20
42.05585466649196
  30
774.158
  0
VERTEX
  8
Unknown Area Type
  70
32
  10
-5.8268089611315
  20
42.02048857072771
  30
720.515
  0
VERTEX
  8
Unknown Area Type
  70
32
  10
-5.84363894774826
  20
42.01603357794046
  30
714.754
  0
VERTEX
  8
Unknown Area Type
  70
32
  10
-5.85416666666668
  20
42.01866831377403
  30
719.655
  0
SEQEND
  8
Unknown Area Type
  0
TEXT
  8
Unknown Area Type
 62
7
  1
PNOA-H_AMS_1956-57_33k_ES_PAN_2
 40
0.00045
  10
-5.84292920623711
  20
42.03777736658654
  0
POLYLINE
  8
Unknown Area Type
  70
9
  66
1
  0
VERTEX
  8
Unknown Area Type
  70
32
  10
-5.81815577197412
  20
42.05791660333593
  30
763.125
  0
VERTEX
  8
Unknown Area Type
  70
32
  10
-5.81095837319503
  20
42.05980428334765
  30
755.513
  0
VERTEX
  8
Unknown Area Type
  70
32
  10
-5.79225269927616
  20
42.05583507611361
  30
783.124
  0
VERTEX
  8
Unknown Area Type
  70
32
  10
-5.79345401075853
  20
42.02025666002528
  30
773.942
  0
VERTEX
  8
Unknown Area Type
  70
32
  10
-5.8064700243383
  20
42.01607104844594
  30
778.07
  0
VERTEX
  8
Unknown Area Type
  70
32
  10
-5.82681479369337
  20
42.02048392423383
  30
720.464
  0
VERTEX
  8
Unknown Area Type
  70
32
  10
-5.82583015867548
  20
42.0558951467165
  30
774.088
  0
VERTEX
  8
Unknown Area Type
  70
32
  10
-5.81817367951379
  20
42.05791166054748
  30
763.204
  0
VERTEX
  8
Unknown Area Type
  70
32
  10
-5.81815577197412
  20
42.05791660333593
  30
763.125
  0
SEQEND
  8
Unknown Area Type
  0
TEXT
  8
Unknown Area Type
 62
7
  1
PNOA-H_AMS_1956-57_33k_ES_PAN_2
 40
0.00045
  10
-5.80953402449915
  20
42.03811710693368
  0
POLYLINE
  8
Unknown Area Type
  70
9
  66
1
  0
VERTEX
  8
Unknown Area Type
  70
32
  10
-5.81815577197412
  20
42.05791660333593
  30
763.125
  0
VERTEX
  8
Unknown Area Type
  70
32
  10
-5.81095837319503
  20
42.05980428334765
  30
755.513
  0
VERTEX
  8
Unknown Area Type
  70
32
  10
-5.79225269927616
  20
42.05583507611361
  30
783.124
  0
VERTEX
  8
Unknown Area Type
  70
32
  10
-5.79345401075853
  20
42.02025666002528
  30
773.942
  0
VERTEX
  8
Unknown Area Type
  70
32
  10
-5.8064700243383
  20
42.01607104844594
  30
778.07
  0
VERTEX
  8
Unknown Area Type
  70
32
  10
-5.82681479369337
  20
42.02048392423383
  30
720.464
  0
VERTEX
  8
Unknown Area Type
  70
32
  10
-5.82583015867548
  20
42.0558951467165
  30
774.088
  0
VERTEX
  8
Unknown Area Type
  70
32
  10
-5.81817367951379
  20
42.05791166054748
  30
763.204
  0
VERTEX
  8
Unknown Area Type
  70
32
  10
-5.81815577197412
  20
42.05791660333593
  30
763.125
  0
SEQEND
  8
Unknown Area Type
  0
TEXT
  8
Unknown Area Type
 62
7
  1
PNOA-H_AMS_1956-57_33k_ES_PAN_2
 40
0.00045
  10
-5.80953402449915
  20
42.03811710693368
  0
POLYLINE
  8
Unknown Area Type
  70
9
  66
1
  0
VERTEX
  8
Unknown Area Type
  70
32
  10
-5.74307468770862
  20
42.05969653265324
  30
716.002
  0
VERTEX
  8
Unknown Area Type
  70
32
  10
-5.72546155366801
  20
42.05631163146241
  30
730.215
  0
VERTEX
  8
Unknown Area Type
  70
32
  10
-5.72700978838087
  20
42.02034722919566
  30
709.627
  0
VERTEX
  8
Unknown Area Type
  70
32
  10
-5.73427124496724
  20
42.01718000898137
  30
710.926
  0
VERTEX
  8
Unknown Area Type
  70
32
  10
-5.75945217370119
  20
42.02084109304654
  30
742.514
  0
VERTEX
  8
Unknown Area Type
  70
32
  10
-5.75875830259664
  20
42.05574064411924
  30
785.049
  0
VERTEX
  8
Unknown Area Type
  70
32
  10
-5.74309863826998
  20
42.05969145703359
  30
715.98
  0
VERTEX
  8
Unknown Area Type
  70
32
  10
-5.74307468770862
  20
42.05969653265324
  30
716.002
  0
SEQEND
  8
Unknown Area Type
  0
TEXT
  8
Unknown Area Type
 62
7
  1
PNOA-H_AMS_1956-57_33k_ES_PAN_2
 40
0.00045
  10
-5.74245709460154
  20
42.03897270804403
  0
POLYLINE
  8
Unknown Area Type
  70
9
  66
1
  0
VERTEX
  8
Unknown Area Type
  70
32
  10
-5.74307468770862
  20
42.05969653265324
  30
716.002
  0
VERTEX
  8
Unknown Area Type
  70
32
  10
-5.72546155366801
  20
42.05631163146241
  30
730.215
  0
VERTEX
  8
Unknown Area Type
  70
32
  10
-5.72700978838087
  20
42.02034722919566
  30
709.627
  0
VERTEX
  8
Unknown Area Type
  70
32
  10
-5.73427124496724
  20
42.01718000898137
  30
710.926
  0
VERTEX
  8
Unknown Area Type
  70
32
  10
-5.75945217370119
  20
42.02084109304654
  30
742.514
  0
VERTEX
  8
Unknown Area Type
  70
32
  10
-5.75875830259664
  20
42.05574064411924
  30
785.049
  0
VERTEX
  8
Unknown Area Type
  70
32
  10
-5.74309863826998
  20
42.05969145703359
  30
715.98
  0
VERTEX
  8
Unknown Area Type
  70
32
  10
-5.74307468770862
  20
42.05969653265324
  30
716.002
  0
SEQEND
  8
Unknown Area Type
  0
TEXT
  8
Unknown Area Type
 62
7
  1
PNOA-H_AMS_1956-57_33k_ES_PAN_2
 40
0.00045
  10
-5.74245709460154
  20
42.03897270804403
  0
POLYLINE
  8
Unknown Area Type
  70
9
  66
1
  0
VERTEX
  8
Unknown Area Type
  70
32
  10
-5.6432126721627
  20
42.05924534004528
  30
721.71
  0
VERTEX
  8
Unknown Area Type
  70
32
  10
-5.62751862284683
  20
42.05582361197636
  30
715.492
  0
VERTEX
  8
Unknown Area Type
  70
32
  10
-5.62979733955479
  20
42.01953729566153
  30
705.205
  0
VERTEX
  8
Unknown Area Type
  70
32
  10
-5.66264156545107
  20
42.01984225252706
  30
716.094
  0
VERTEX
  8
Unknown Area Type
  70
32
  10
-5.65924161836659
  20
42.05660990482402
  30
748.08
  0
VERTEX
  8
Unknown Area Type
  70
32
  10
-5.64324266811578
  20
42.05924014594625
  30
721.72
  0
VERTEX
  8
Unknown Area Type
  70
32
  10
-5.6432126721627
  20
42.05924534004528
  30
721.71
  0
SEQEND
  8
Unknown Area Type
  0
TEXT
  8
Unknown Area Type
 62
7
  1
PNOA-H_AMS_1956-57_33k_ES_PAN_2
 40
0.00045
  10
-5.64508018164508
  20
42.0393073622452
  0
POLYLINE
  8
Unknown Area Type
  70
9
  66
1
  0
VERTEX
  8
Unknown Area Type
  70
32
  10
-5.6432126721627
  20
42.05924534004528
  30
721.71
  0
VERTEX
  8
Unknown Area Type
  70
32
  10
-5.62751862284683
  20
42.05582361197636
  30
715.492
  0
VERTEX
  8
Unknown Area Type
  70
32
  10
-5.62979733955479
  20
42.01953729566153
  30
705.205
  0
VERTEX
  8
Unknown Area Type
  70
32
  10
-5.66264156545107
  20
42.01984225252706
  30
716.094
  0
VERTEX
  8
Unknown Area Type
  70
32
  10
-5.65924161836659
  20
42.05660990482402
  30
748.08
  0
VERTEX
  8
Unknown Area Type
  70
32
  10
-5.64324266811578
  20
42.05924014594625
  30
721.72
  0
VERTEX
  8
Unknown Area Type
  70
32
  10
-5.6432126721627
  20
42.05924534004528
  30
721.71
  0
SEQEND
  8
Unknown Area Type
  0
TEXT
  8
Unknown Area Type
 62
7
  1
PNOA-H_AMS_1956-57_33k_ES_PAN_2
 40
0.00045
  10
-5.64508018164508
  20
42.0393073622452
  0
POLYLINE
  8
Unknown Area Type
  70
9
  66
1
  0
VERTEX
  8
Unknown Area Type
  70
32
  10
-5.79271646988026
  20
42.04215797573227
  30
780.351
  0
VERTEX
  8
Unknown Area Type
  70
32
  10
-5.79224666381719
  20
42.05583522306413
  30
783.124
  0
VERTEX
  8
Unknown Area Type
  70
32
  10
-5.7772691109144
  20
42.05944538884687
  30
785.824
  0
VERTEX
  8
Unknown Area Type
  70
32
  10
-5.75875830259664
  20
42.05574064411924
  30
785.049
  0
VERTEX
  8
Unknown Area Type
  70
32
  10
-5.7594399180257
  20
42.02125564249296
  30
737.131
  0
VERTEX
  8
Unknown Area Type
  70
32
  10
-5.75944769841885
  20
42.02087722285444
  30
742.313
  0
VERTEX
  8
Unknown Area Type
  70
32
  10
-5.75945197907171
  20
42.02083659496159
  30
742.531
  0
VERTEX
  8
Unknown Area Type
  70
32
  10
-5.75947571907283
  20
42.02082701827605
  30
742.65
  0
VERTEX
  8
Unknown Area Type
  70
32
  10
-5.77087691379715
  20
42.01638709616023
  30
760.312
  0
VERTEX
  8
Unknown Area Type
  70
32
  10
-5.77092497308583
  20
42.01638143237503
  30
759.654
  0
VERTEX
  8
Unknown Area Type
  70
32
  10
-5.79345401075853
  20
42.02025666002528
  30
773.942
  0
VERTEX
  8
Unknown Area Type
  70
32
  10
-5.79271311882927
  20
42.04208151072916
  30
780.568
  0
VERTEX
  8
Unknown Area Type
  70
32
  10
-5.79271646988026
  20
42.04215797573227
  30
780.351
  0
SEQEND
  8
Unknown Area Type
  0
TEXT
  8
Unknown Area Type
 62
7
  1
PNOA-H_AMS_1956-57_33k_ES_PAN_2
 40
0.00045
  10
-5.77610633430686
  20
42.03824191393282
  0
POLYLINE
  8
Unknown Area Type
  70
9
  66
1
  0
VERTEX
  8
Unknown Area Type
  70
32
  10
-5.79271646988026
  20
42.04215797573227
  30
780.351
  0
VERTEX
  8
Unknown Area Type
  70
32
  10
-5.79224666381719
  20
42.05583522306413
  30
783.124
  0
VERTEX
  8
Unknown Area Type
  70
32
  10
-5.7772691109144
  20
42.05944538884687
  30
785.824
  0
VERTEX
  8
Unknown Area Type
  70
32
  10
-5.75875830259664
  20
42.05574064411924
  30
785.049
  0
VERTEX
  8
Unknown Area Type
  70
32
  10
-5.7594399180257
  20
42.02125564249296
  30
737.131
  0
VERTEX
  8
Unknown Area Type
  70
32
  10
-5.75944769841885
  20
42.02087722285444
  30
742.313
  0
VERTEX
  8
Unknown Area Type
  70
32
  10
-5.75945197907171
  20
42.02083659496159
  30
742.531
  0
VERTEX
  8
Unknown Area Type
  70
32
  10
-5.75947571907283
  20
42.02082701827605
  30
742.65
  0
VERTEX
  8
Unknown Area Type
  70
32
  10
-5.77087691379715
  20
42.01638709616023
  30
760.312
  0
VERTEX
  8
Unknown Area Type
  70
32
  10
-5.77092497308583
  20
42.01638143237503
  30
759.654
  0
VERTEX
  8
Unknown Area Type
  70
32
  10
-5.79345401075853
  20
42.02025666002528
  30
773.942
  0
VERTEX
  8
Unknown Area Type
  70
32
  10
-5.79271311882927
  20
42.04208151072916
  30
780.568
  0
VERTEX
  8
Unknown Area Type
  70
32
  10
-5.79271646988026
  20
42.04215797573227
  30
780.351
  0
SEQEND
  8
Unknown Area Type
  0
TEXT
  8
Unknown Area Type
 62
7
  1
PNOA-H_AMS_1956-57_33k_ES_PAN_2
 40
0.00045
  10
-5.77610633430686
  20
42.03824191393282
  0
POLYLINE
  8
Unknown Area Type
  70
9
  66
1
  0
VERTEX
  8
Unknown Area Type
  70
32
  10
-5.71916213398655
  20
42.05764088502691
  30
757.296
  0
VERTEX
  8
Unknown Area Type
  70
32
  10
-5.70939504699127
  20
42.05970016569175
  30
742.025
  0
VERTEX
  8
Unknown Area Type
  70
32
  10
-5.69351073289537
  20
42.05643608646422
  30
760.754
  0
VERTEX
  8
Unknown Area Type
  70
32
  10
-5.69430717768982
  20
42.02068780261095
  30
738.856
  0
VERTEX
  8
Unknown Area Type
  70
32
  10
-5.69929208682227
  20
42.0180490369261
  30
724.475
  0
VERTEX
  8
Unknown Area Type
  70
32
  10
-5.72700978838087
  20
42.02034722919566
  30
709.627
  0
VERTEX
  8
Unknown Area Type
  70
32
  10
-5.72546155366801
  20
42.05631163146241
  30
730.215
  0
VERTEX
  8
Unknown Area Type
  70
32
  10
-5.71918608595236
  20
42.05763581436904
  30
757.255
  0
VERTEX
  8
Unknown Area Type
  70
32
  10
-5.71916213398655
  20
42.05764088502691
  30
757.296
  0
SEQEND
  8
Unknown Area Type
  0
TEXT
  8
Unknown Area Type
 62
7
  1
PNOA-H_AMS_1956-57_33k_ES_PAN_2
 40
0.00045
  10
-5.71026058412007
  20
42.03923633658744
  0
POLYLINE
  8
Unknown Area Type
  70
9
  66
1
  0
VERTEX
  8
Unknown Area Type
  70
32
  10
-5.71916213398655
  20
42.05764088502691
  30
757.296
  0
VERTEX
  8
Unknown Area Type
  70
32
  10
-5.70939504699127
  20
42.05970016569175
  30
742.025
  0
VERTEX
  8
Unknown Area Type
  70
32
  10
-5.69351073289537
  20
42.05643608646422
  30
760.754
  0
VERTEX
  8
Unknown Area Type
  70
32
  10
-5.69430717768982
  20
42.02068780261095
  30
738.856
  0
VERTEX
  8
Unknown Area Type
  70
32
  10
-5.69929208682227
  20
42.0180490369261
  30
724.475
  0
VERTEX
  8
Unknown Area Type
  70
32
  10
-5.72700978838087
  20
42.02034722919566
  30
709.627
  0
VERTEX
  8
Unknown Area Type
  70
32
  10
-5.72546155366801
  20
42.05631163146241
  30
730.215
  0
VERTEX
  8
Unknown Area Type
  70
32
  10
-5.71918608595236
  20
42.05763581436904
  30
757.255
  0
VERTEX
  8
Unknown Area Type
  70
32
  10
-5.71916213398655
  20
42.05764088502691
  30
757.296
  0
SEQEND
  8
Unknown Area Type
  0
TEXT
  8
Unknown Area Type
 62
7
  1
PNOA-H_AMS_1956-57_33k_ES_PAN_2
 40
0.00045
  10
-5.71026058412007
  20
42.03923633658744
  0
POLYLINE
  8
Unknown Area Type
  70
9
  66
1
  0
VERTEX
  8
Unknown Area Type
  70
32
  10
-5.69380229791202
  20
42.04347025115359
  30
758.727
  0
VERTEX
  8
Unknown Area Type
  70
32
  10
-5.69351073289537
  20
42.05643608646422
  30
760.754
  0
VERTEX
  8
Unknown Area Type
  70
32
  10
-5.67540574131059
  20
42.06010186218462
  30
769.161
  0
VERTEX
  8
Unknown Area Type
  70
32
  10
-5.65924161836659
  20
42.05660990482402
  30
748.08
  0
VERTEX
  8
Unknown Area Type
  70
32
  10
-5.66264156545107
  20
42.01984225252706
  30
716.094
  0
VERTEX
  8
Unknown Area Type
  70
32
  10
-5.66406746932591
  20
42.01899413620773
  30
719.148
  0
VERTEX
  8
Unknown Area Type
  70
32
  10
-5.69430717768982
  20
42.02068780261095
  30
738.856
  0
VERTEX
  8
Unknown Area Type
  70
32
  10
-5.69379849485626
  20
42.04338028488993
  30
757.212
  0
VERTEX
  8
Unknown Area Type
  70
32
  10
-5.69380229791202
  20
42.04347025115359
  30
758.727
  0
SEQEND
  8
Unknown Area Type
  0
TEXT
  8
Unknown Area Type
 62
7
  1
PNOA-H_AMS_1956-57_33k_ES_PAN_2
 40
0.00045
  10
-5.67677461091409
  20
42.03976352371742
  0
POLYLINE
  8
Unknown Area Type
  70
9
  66
1
  0
VERTEX
  8
Unknown Area Type
  70
32
  10
-5.69380229791202
  20
42.04347025115359
  30
758.727
  0
VERTEX
  8
Unknown Area Type
  70
32
  10
-5.69351073289537
  20
42.05643608646422
  30
760.754
  0
VERTEX
  8
Unknown Area Type
  70
32
  10
-5.67540574131059
  20
42.06010186218462
  30
769.161
  0
VERTEX
  8
Unknown Area Type
  70
32
  10
-5.65924161836659
  20
42.05660990482402
  30
748.08
  0
VERTEX
  8
Unknown Area Type
  70
32
  10
-5.66264156545107
  20
42.01984225252706
  30
716.094
  0
VERTEX
  8
Unknown Area Type
  70
32
  10
-5.66406746932591
  20
42.01899413620773
  30
719.148
  0
VERTEX
  8
Unknown Area Type
  70
32
  10
-5.69430717768982
  20
42.02068780261095
  30
738.856
  0
VERTEX
  8
Unknown Area Type
  70
32
  10
-5.69379849485626
  20
42.04338028488993
  30
757.212
  0
VERTEX
  8
Unknown Area Type
  70
32
  10
-5.69380229791202
  20
42.04347025115359
  30
758.727
  0
SEQEND
  8
Unknown Area Type
  0
TEXT
  8
Unknown Area Type
 62
7
  1
PNOA-H_AMS_1956-57_33k_ES_PAN_2
 40
0.00045
  10
-5.67677461091409
  20
42.03976352371742
  0
POLYLINE
  8
Unknown Area Type
  70
9
  66
1
  0
VERTEX
  8
Unknown Area Type
  70
32
  10
-5.60983725279647
  20
42.058564270517
  30
712.264
  0
VERTEX
  8
Unknown Area Type
  70
32
  10
-5.59676149669002
  20
42.05574062007819
  30
710.136
  0
VERTEX
  8
Unknown Area Type
  70
32
  10
-5.59751943605266
  20
42.02052942392814
  30
724.266
  0
VERTEX
  8
Unknown Area Type
  70
32
  10
-5.62763183067965
  20
42.0181280087669
  30
706.674
  0
VERTEX
  8
Unknown Area Type
  70
32
  10
-5.62772853942925
  20
42.01813029620913
  30
706.747
  0
VERTEX
  8
Unknown Area Type
  70
32
  10
-5.62979733955479
  20
42.01953729566153
  30
705.205
  0
VERTEX
  8
Unknown Area Type
  70
32
  10
-5.62751862284683
  20
42.05582361197636
  30
715.492
  0
VERTEX
  8
Unknown Area Type
  70
32
  10
-5.60987328822045
  20
42.05855894771693
  30
712.118
  0
VERTEX
  8
Unknown Area Type
  70
32
  10
-5.60983725279647
  20
42.058564270517
  30
712.264
  0
SEQEND
  8
Unknown Area Type
  0
TEXT
  8
Unknown Area Type
 62
7
  1
PNOA-H_AMS_1956-57_33k_ES_PAN_2
 40
0.00045
  10
-5.61327957974133
  20
42.03865038959965
  0
POLYLINE
  8
Unknown Area Type
  70
9
  66
1
  0
VERTEX
  8
Unknown Area Type
  70
32
  10
-5.60983725279647
  20
42.058564270517
  30
712.264
  0
VERTEX
  8
Unknown Area Type
  70
32
  10
-5.59676149669002
  20
42.05574062007819
  30
710.136
  0
VERTEX
  8
Unknown Area Type
  70
32
  10
-5.59751943605266
  20
42.02052942392814
  30
724.266
  0
VERTEX
  8
Unknown Area Type
  70
32
  10
-5.62763183067965
  20
42.0181280087669
  30
706.674
  0
VERTEX
  8
Unknown Area Type
  70
32
  10
-5.62772853942925
  20
42.01813029620913
  30
706.747
  0
VERTEX
  8
Unknown Area Type
  70
32
  10
-5.62979733955479
  20
42.01953729566153
  30
705.205
  0
VERTEX
  8
Unknown Area Type
  70
32
  10
-5.62751862284683
  20
42.05582361197636
  30
715.492
  0
VERTEX
  8
Unknown Area Type
  70
32
  10
-5.60987328822045
  20
42.05855894771693
  30
712.118
  0
VERTEX
  8
Unknown Area Type
  70
32
  10
-5.60983725279647
  20
42.058564270517
  30
712.264
  0
SEQEND
  8
Unknown Area Type
  0
TEXT
  8
Unknown Area Type
 62
7
  1
PNOA-H_AMS_1956-57_33k_ES_PAN_2
 40
0.00045
  10
-5.61327957974133
  20
42.03865038959965
  0
POLYLINE
  8
Unknown Area Type
  70
9
  66
1
  0
VERTEX
  8
Unknown Area Type
  70
32
  10
-5.59533727872677
  20
42.05593045496016
  30
709.103
  0
VERTEX
  8
Unknown Area Type
  70
32
  10
-5.57591989963945
  20
42.05851153304531
  30
771.562
  0
VERTEX
  8
Unknown Area Type
  70
32
  10
-5.56500529077664
  20
42.0556041715756
  30
768.062
  0
VERTEX
  8
Unknown Area Type
  70
32
  10
-5.56556876607188
  20
42.02247775540111
  30
706.874
  0
VERTEX
  8
Unknown Area Type
  70
32
  10
-5.59201486812539
  20
42.01732634693476
  30
708.328
  0
VERTEX
  8
Unknown Area Type
  70
32
  10
-5.59203899936394
  20
42.01732580165525
  30
708.336
  0
VERTEX
  8
Unknown Area Type
  70
32
  10
-5.59751943605266
  20
42.02052942392814
  30
724.266
  0
VERTEX
  8
Unknown Area Type
  70
32
  10
-5.59676679956279
  20
42.05572248878377
  30
710.136
  0
VERTEX
  8
Unknown Area Type
  70
32
  10
-5.59676149669002
  20
42.05574062007819
  30
710.136
  0
VERTEX
  8
Unknown Area Type
  70
32
  10
-5.5967254615463
  20
42.05574593874518
  30
710.079
  0
VERTEX
  8
Unknown Area Type
  70
32
  10
-5.59537935055727
  20
42.05592500012653
  30
709.329
  0
VERTEX
  8
Unknown Area Type
  70
32
  10
-5.59533727872677
  20
42.05593045496016
  30
709.103
  0
SEQEND
  8
Unknown Area Type
  0
TEXT
  8
Unknown Area Type
 62
7
  1
PNOA-H_AMS_1956-57_33k_ES_PAN_2
 40
0.00045
  10
-5.581262567233
  20
42.03860952711459
  0
POLYLINE
  8
Unknown Area Type
  70
9
  66
1
  0
VERTEX
  8
Unknown Area Type
  70
32
  10
-5.59533727872677
  20
42.05593045496016
  30
709.103
  0
VERTEX
  8
Unknown Area Type
  70
32
  10
-5.57591989963945
  20
42.05851153304531
  30
771.562
  0
VERTEX
  8
Unknown Area Type
  70
32
  10
-5.56500529077664
  20
42.0556041715756
  30
768.062
  0
VERTEX
  8
Unknown Area Type
  70
32
  10
-5.56556876607188
  20
42.02247775540111
  30
706.874
  0
VERTEX
  8
Unknown Area Type
  70
32
  10
-5.59201486812539
  20
42.01732634693476
  30
708.328
  0
VERTEX
  8
Unknown Area Type
  70
32
  10
-5.59203899936394
  20
42.01732580165525
  30
708.336
  0
VERTEX
  8
Unknown Area Type
  70
32
  10
-5.59751943605266
  20
42.02052942392814
  30
724.266
  0
VERTEX
  8
Unknown Area Type
  70
32
  10
-5.59676679956279
  20
42.05572248878377
  30
710.136
  0
VERTEX
  8
Unknown Area Type
  70
32
  10
-5.59676149669002
  20
42.05574062007819
  30
710.136
  0
VERTEX
  8
Unknown Area Type
  70
32
  10
-5.5967254615463
  20
42.05574593874518
  30
710.079
  0
VERTEX
  8
Unknown Area Type
  70
32
  10
-5.59537935055727
  20
42.05592500012653
  30
709.329
  0
VERTEX
  8
Unknown Area Type
  70
32
  10
-5.59533727872677
  20
42.05593045496016
  30
709.103
  0
SEQEND
  8
Unknown Area Type
  0
TEXT
  8
Unknown Area Type
 62
7
  1
PNOA-H_AMS_1956-57_33k_ES_PAN_2
 40
0.00045
  10
-5.581262567233
  20
42.03860952711459
  0
POLYLINE
  8
Unknown Area Type
  70
9
  66
1
  0
VERTEX
  8
Unknown Area Type
  70
32
  10
-5.54137992684886
  20
42.05799875570874
  30
732.561
  0
VERTEX
  8
Unknown Area Type
  70
32
  10
-5.54123360544317
  20
42.0579659751094
  30
732.086
  0
VERTEX
  8
Unknown Area Type
  70
32
  10
-5.53232960183173
  20
42.05543869503322
  30
735.737
  0
VERTEX
  8
Unknown Area Type
  70
32
  10
-5.53215839711397
  20
42.0231525930804
  30
737.663
  0
VERTEX
  8
Unknown Area Type
  70
32
  10
-5.5547490143406
  20
42.01634320691818
  30
734.276
  0
VERTEX
  8
Unknown Area Type
  70
32
  10
-5.56556858509757
  20
42.02247325660811
  30
706.865
  0
VERTEX
  8
Unknown Area Type
  70
32
  10
-5.56500510963194
  20
42.05559967280664
  30
768.022
  0
VERTEX
  8
Unknown Area Type
  70
32
  10
-5.54143407942754
  20
42.05799305298515
  30
732.796
  0
VERTEX
  8
Unknown Area Type
  70
32
  10
-5.54137992684886
  20
42.05799875570874
  30
732.561
  0
SEQEND
  8
Unknown Area Type
  0
TEXT
  8
Unknown Area Type
 62
7
  1
PNOA-H_AMS_1956-57_33k_ES_PAN_2
 40
0.00045
  10
-5.54886380147971
  20
42.03767674138331
  0
POLYLINE
  8
Unknown Area Type
  70
9
  66
1
  0
VERTEX
  8
Unknown Area Type
  70
32
  10
-5.54137992684886
  20
42.05799875570874
  30
732.561
  0
VERTEX
  8
Unknown Area Type
  70
32
  10
-5.54123360544317
  20
42.0579659751094
  30
732.086
  0
VERTEX
  8
Unknown Area Type
  70
32
  10
-5.53232960183173
  20
42.05543869503322
  30
735.737
  0
VERTEX
  8
Unknown Area Type
  70
32
  10
-5.53215839711397
  20
42.0231525930804
  30
737.663
  0
VERTEX
  8
Unknown Area Type
  70
32
  10
-5.5547490143406
  20
42.01634320691818
  30
734.276
  0
VERTEX
  8
Unknown Area Type
  70
32
  10
-5.56556858509757
  20
42.02247325660811
  30
706.865
  0
VERTEX
  8
Unknown Area Type
  70
32
  10
-5.56500510963194
  20
42.05559967280664
  30
768.022
  0
VERTEX
  8
Unknown Area Type
  70
32
  10
-5.54143407942754
  20
42.05799305298515
  30
732.796
  0
VERTEX
  8
Unknown Area Type
  70
32
  10
-5.54137992684886
  20
42.05799875570874
  30
732.561
  0
SEQEND
  8
Unknown Area Type
  0
TEXT
  8
Unknown Area Type
 62
7
  1
PNOA-H_AMS_1956-57_33k_ES_PAN_2
 40
0.00045
  10
-5.54886380147971
  20
42.03767674138331
  0
POLYLINE
  8
Unknown Area Type
  70
9
  66
1
  0
VERTEX
  8
Unknown Area Type
  70
32
  10
-5.81913425850615
  20
42.16666666666671
  30
737.241
  0
VERTEX
  8
Unknown Area Type
  70
32
  10
-5.81249999999996
  20
42.16666666666671
  30
737.178
  0
VERTEX
  8
Unknown Area Type
  70
32
  10
-5.78600359358718
  20
42.16666666666671
  30
755.91
  0
VERTEX
  8
Unknown Area Type
  70
32
  10
-5.78419001837729
  20
42.13822360043009
  30
750.581
  0
VERTEX
  8
Unknown Area Type
  70
32
  10
-5.78418311703179
  20
42.13806617398024
  30
750.108
  0
VERTEX
  8
Unknown Area Type
  70
32
  10
-5.78420689587765
  20
42.13805659115193
  30
750.218
  0
VERTEX
  8
Unknown Area Type
  70
32
  10
-5.79665694023041
  20
42.1351645286538
  30
744.366
  0
VERTEX
  8
Unknown Area Type
  70
32
  10
-5.79669904292086
  20
42.13515899895125
  30
744.293
  0
VERTEX
  8
Unknown Area Type
  70
32
  10
-5.79680860844075
  20
42.13517433696256
  30
744
  0
VERTEX
  8
Unknown Area Type
  70
32
  10
-5.81758721066387
  20
42.13814613934173
  30
732.233
  0
SEQEND
  8
Unknown Area Type
  0
TEXT
  8
Unknown Area Type
 62
7
  1
PNOA-H_AMS_1956-57_33k_ES_PAN_2
 40
0.00045
  10
-5.80191122185038
  20
42.15805282972912
  0
POLYLINE
  8
Unknown Area Type
  70
9
  66
1
  0
VERTEX
  8
Unknown Area Type
  70
32
  10
-5.8191342675467
  20
42.16666683333337
  30
737.241
  0
VERTEX
  8
Unknown Area Type
  70
32
  10
-5.78600360421411
  20
42.16666683333337
  30
755.91
  0
VERTEX
  8
Unknown Area Type
  70
32
  10
-5.78600359358718
  20
42.16666666666671
  30
755.91
  0
VERTEX
  8
Unknown Area Type
  70
32
  10
-5.81249999999996
  20
42.16666666666671
  30
737.178
  0
VERTEX
  8
Unknown Area Type
  70
32
  10
-5.81913425850615
  20
42.16666666666671
  30
737.241
  0
SEQEND
  8
Unknown Area Type
  0
TEXT
  8
Unknown Area Type
 62
7
  1
PNOA-H_AMS_1956-57_33k_ES_PAN_2
 40
0.00045
  10
-5.80256893056694
  20
42.16666675000004
  0
POLYLINE
  8
Unknown Area Type
  70
9
  66
1
  0
VERTEX
  8
Unknown Area Type
  70
32
  10
-5.81913425850615
  20
42.16666666666671
  30
737.241
  0
VERTEX
  8
Unknown Area Type
  70
32
  10
-5.81249999999996
  20
42.16666666666671
  30
737.178
  0
VERTEX
  8
Unknown Area Type
  70
32
  10
-5.78600359358718
  20
42.16666666666671
  30
755.91
  0
VERTEX
  8
Unknown Area Type
  70
32
  10
-5.78419001837729
  20
42.13822360043009
  30
750.581
  0
VERTEX
  8
Unknown Area Type
  70
32
  10
-5.78418311703179
  20
42.13806617398024
  30
750.108
  0
VERTEX
  8
Unknown Area Type
  70
32
  10
-5.78420689587765
  20
42.13805659115193
  30
750.218
  0
VERTEX
  8
Unknown Area Type
  70
32
  10
-5.79665694023041
  20
42.1351645286538
  30
744.366
  0
VERTEX
  8
Unknown Area Type
  70
32
  10
-5.79669904292086
  20
42.13515899895125
  30
744.293
  0
VERTEX
  8
Unknown Area Type
  70
32
  10
-5.79680860844075
  20
42.13517433696256
  30
744
  0
VERTEX
  8
Unknown Area Type
  70
32
  10
-5.81758721066387
  20
42.13814613934173
  30
732.233
  0
SEQEND
  8
Unknown Area Type
  0
TEXT
  8
Unknown Area Type
 62
7
  1
PNOA-H_AMS_1956-57_33k_ES_PAN_2
 40
0.00045
  10
-5.80191122185038
  20
42.15805282972912
  0
POLYLINE
  8
Unknown Area Type
  70
9
  66
1
  0
VERTEX
  8
Unknown Area Type
  70
32
  10
-5.68571383075166
  20
42.16666666666671
  30
762.904
  0
VERTEX
  8
Unknown Area Type
  70
32
  10
-5.65240265550783
  20
42.16666666666671
  30
765.541
  0
VERTEX
  8
Unknown Area Type
  70
32
  10
-5.64928410733366
  20
42.14108252297929
  30
765.754
  0
VERTEX
  8
Unknown Area Type
  70
32
  10
-5.66773416900913
  20
42.13756135114064
  30
775.298
  0
VERTEX
  8
Unknown Area Type
  70
32
  10
-5.68399188779836
  20
42.13975748686406
  30
784.807
  0
SEQEND
  8
Unknown Area Type
  0
TEXT
  8
Unknown Area Type
 62
7
  1
PNOA-H_AMS_1956-57_33k_ES_PAN_2
 40
0.00045
  10
-5.66793342910105
  20
42.15976433032125
  0
POLYLINE
  8
Unknown Area Type
  70
9
  66
1
  0
VERTEX
  8
Unknown Area Type
  70
32
  10
-5.68571384141681
  20
42.16666683333337
  30
762.904
  0
VERTEX
  8
Unknown Area Type
  70
32
  10
-5.65240267582346
  20
42.16666683333337
  30
765.541
  0
VERTEX
  8
Unknown Area Type
  70
32
  10
-5.65240265550783
  20
42.16666666666671
  30
765.541
  0
VERTEX
  8
Unknown Area Type
  70
32
  10
-5.68571383075166
  20
42.16666666666671
  30
762.904
  0
SEQEND
  8
Unknown Area Type
  0
TEXT
  8
Unknown Area Type
 62
7
  1
PNOA-H_AMS_1956-57_33k_ES_PAN_2
 40
0.00045
  10
-5.66905824846232
  20
42.16666675000004
  0
POLYLINE
  8
Unknown Area Type
  70
9
  66
1
  0
VERTEX
  8
Unknown Area Type
  70
32
  10
-5.68571383075166
  20
42.16666666666671
  30
762.904
  0
VERTEX
  8
Unknown Area Type
  70
32
  10
-5.65240265550783
  20
42.16666666666671
  30
765.541
  0
VERTEX
  8
Unknown Area Type
  70
32
  10
-5.64928410733366
  20
42.14108252297929
  30
765.754
  0
VERTEX
  8
Unknown Area Type
  70
32
  10
-5.66773416900913
  20
42.13756135114064
  30
775.298
  0
VERTEX
  8
Unknown Area Type
  70
32
  10
-5.68399188779836
  20
42.13975748686406
  30
784.807
  0
SEQEND
  8
Unknown Area Type
  0
TEXT
  8
Unknown Area Type
 62
7
  1
PNOA-H_AMS_1956-57_33k_ES_PAN_2
 40
0.00045
  10
-5.66793342910105
  20
42.15976433032125
  0
POLYLINE
  8
Unknown Area Type
  70
9
  66
1
  0
VERTEX
  8
Unknown Area Type
  70
32
  10
-5.85097095251514
  20
42.15124754910151
  30
754.452
  0
VERTEX
  8
Unknown Area Type
  70
32
  10
-5.84729151125051
  20
42.1559587157366
  30
741.277
  0
VERTEX
  8
Unknown Area Type
  70
32
  10
-5.84729191479607
  20
42.15596771101745
  30
741.268
  0
VERTEX
  8
Unknown Area Type
  70
32
  10
-5.83894716129657
  20
42.16666666666671
  30
740.373
  0
VERTEX
  8
Unknown Area Type
  70
32
  10
-5.81913060483818
  20
42.16666666666671
  30
738.189
  0
VERTEX
  8
Unknown Area Type
  70
32
  10
-5.81760836268138
  20
42.13862290294026
  30
733.806
  0
VERTEX
  8
Unknown Area Type
  70
32
  10
-5.81758721066387
  20
42.13814613934173
  30
732.233
  0
VERTEX
  8
Unknown Area Type
  70
32
  10
-5.83029645680981
  20
42.13499640802058
  30
732.224
  0
VERTEX
  8
Unknown Area Type
  70
32
  10
-5.84987605088515
  20
42.13737056563622
  30
844.075
  0
SEQEND
  8
Unknown Area Type
  0
TEXT
  8
Unknown Area Type
 62
7
  1
PNOA-H_AMS_1956-57_33k_ES_PAN_2
 40
0.00045
  10
-5.8342791715583
  20
42.15406463921459
  0
POLYLINE
  8
Unknown Area Type
  70
9
  66
1
  0
VERTEX
  8
Unknown Area Type
  70
32
  10
-5.8389470313033
  20
42.16666683333337
  30
740.373
  0
VERTEX
  8
Unknown Area Type
  70
32
  10
-5.819130613885
  20
42.16666683333337
  30
738.189
  0
VERTEX
  8
Unknown Area Type
  70
32
  10
-5.81913060483818
  20
42.16666666666671
  30
738.189
  0
VERTEX
  8
Unknown Area Type
  70
32
  10
-5.83894716129657
  20
42.16666666666671
  30
740.373
  0
SEQEND
  8
Unknown Area Type
  0
TEXT
  8
Unknown Area Type
 62
7
  1
PNOA-H_AMS_1956-57_33k_ES_PAN_2
 40
0.00045
  10
-5.82903888306737
  20
42.16666675000004
  0
POLYLINE
  8
Unknown Area Type
  70
9
  66
1
  0
VERTEX
  8
Unknown Area Type
  70
32
  10
-5.85097095251514
  20
42.15124754910151
  30
754.452
  0
VERTEX
  8
Unknown Area Type
  70
32
  10
-5.84729151125051
  20
42.1559587157366
  30
741.277
  0
VERTEX
  8
Unknown Area Type
  70
32
  10
-5.84729191479607
  20
42.15596771101745
  30
741.268
  0
VERTEX
  8
Unknown Area Type
  70
32
  10
-5.83894716129657
  20
42.16666666666671
  30
740.373
  0
VERTEX
  8
Unknown Area Type
  70
32
  10
-5.81913060483818
  20
42.16666666666671
  30
738.189
  0
VERTEX
  8
Unknown Area Type
  70
32
  10
-5.81760836268138
  20
42.13862290294026
  30
733.806
  0
VERTEX
  8
Unknown Area Type
  70
32
  10
-5.81758721066387
  20
42.13814613934173
  30
732.233
  0
VERTEX
  8
Unknown Area Type
  70
32
  10
-5.83029645680981
  20
42.13499640802058
  30
732.224
  0
VERTEX
  8
Unknown Area Type
  70
32
  10
-5.84987605088515
  20
42.13737056563622
  30
844.075
  0
SEQEND
  8
Unknown Area Type
  0
TEXT
  8
Unknown Area Type
 62
7
  1
PNOA-H_AMS_1956-57_33k_ES_PAN_2
 40
0.00045
  10
-5.8342791715583
  20
42.15406463921459
  0
POLYLINE
  8
Unknown Area Type
  70
9
  66
1
  0
VERTEX
  8
Unknown Area Type
  70
32
  10
-5.85416666666668
  20
42.16666666666671
  30
761.267
  0
VERTEX
  8
Unknown Area Type
  70
32
  10
-5.83894125805547
  20
42.16666666666671
  30
740.657
  0
VERTEX
  8
Unknown Area Type
  70
32
  10
-5.84889357575355
  20
42.1539017258331
  30
742.019
  0
VERTEX
  8
Unknown Area Type
  70
32
  10
-5.84890546282571
  20
42.15389692777513
  30
742.067
  0
VERTEX
  8
Unknown Area Type
  70
32
  10
-5.85094758367249
  20
42.15126614086871
  30
754.272
  0
VERTEX
  8
Unknown Area Type
  70
32
  10
-5.85096490830623
  20
42.15124769941399
  30
754.434
  0
VERTEX
  8
Unknown Area Type
  70
32
  10
-5.85098384893635
  20
42.1512652389943
  30
754.394
  0
VERTEX
  8
Unknown Area Type
  70
32
  10
-5.85416666666668
  20
42.15645286067711
  30
757.222
  0
SEQEND
  8
Unknown Area Type
  0
TEXT
  8
Unknown Area Type
 62
7
  1
PNOA-H_AMS_1956-57_33k_ES_PAN_2
 40
0.00045
  10
-5.84655396236107
  20
42.15895718304034
  0
POLYLINE
  8
Unknown Area Type
  70
9
  66
1
  0
VERTEX
  8
Unknown Area Type
  70
32
  10
-5.85416700000001
  20
42.16666683333337
  30
761.267
  0
VERTEX
  8
Unknown Area Type
  70
32
  10
-5.85416666666668
  20
42.16666683333337
  30
761.267
  0
VERTEX
  8
Unknown Area Type
  70
32
  10
-5.85416666666668
  20
42.16666666666671
  30
761.267
  0
VERTEX
  8
Unknown Area Type
  70
32
  10
-5.85416700000001
  20
42.16666666666671
  30
761.267
  0
SEQEND
  8
Unknown Area Type
  0
TEXT
  8
Unknown Area Type
 62
7
  1
PNOA-H_AMS_1956-57_33k_ES_PAN_2
 40
0.00045
  10
-5.85416683333334
  20
42.16666675000004
  0
POLYLINE
  8
Unknown Area Type
  70
9
  66
1
  0
VERTEX
  8
Unknown Area Type
  70
32
  10
-5.85416666666668
  20
42.16666683333337
  30
761.267
  0
VERTEX
  8
Unknown Area Type
  70
32
  10
-5.83894112811209
  20
42.16666683333338
  30
740.657
  0
VERTEX
  8
Unknown Area Type
  70
32
  10
-5.83894125805547
  20
42.16666666666671
  30
740.657
  0
VERTEX
  8
Unknown Area Type
  70
32
  10
-5.85416666666668
  20
42.16666666666671
  30
761.267
  0
SEQEND
  8
Unknown Area Type
  0
TEXT
  8
Unknown Area Type
 62
7
  1
PNOA-H_AMS_1956-57_33k_ES_PAN_2
 40
0.00045
  10
-5.84655389738938
  20
42.16666675000005
  0
POLYLINE
  8
Unknown Area Type
  70
9
  66
1
  0
VERTEX
  8
Unknown Area Type
  70
32
  10
-5.85416700000001
  20
42.16666666666671
  30
761.267
  0
VERTEX
  8
Unknown Area Type
  70
32
  10
-5.85416666666668
  20
42.16666666666671
  30
761.267
  0
VERTEX
  8
Unknown Area Type
  70
32
  10
-5.85416666666668
  20
42.15645286067711
  30
757.222
  0
VERTEX
  8
Unknown Area Type
  70
32
  10
-5.85416700000001
  20
42.15645340397155
  30
757.222
  0
SEQEND
  8
Unknown Area Type
  0
TEXT
  8
Unknown Area Type
 62
7
  1
PNOA-H_AMS_1956-57_33k_ES_PAN_2
 40
0.00045
  10
-5.85416683333334
  20
42.1615597636719
  0
POLYLINE
  8
Unknown Area Type
  70
9
  66
1
  0
VERTEX
  8
Unknown Area Type
  70
32
  10
-5.85416666666668
  20
42.16666666666671
  30
761.267
  0
VERTEX
  8
Unknown Area Type
  70
32
  10
-5.83894125805547
  20
42.16666666666671
  30
740.657
  0
VERTEX
  8
Unknown Area Type
  70
32
  10
-5.84889357575355
  20
42.1539017258331
  30
742.019
  0
VERTEX
  8
Unknown Area Type
  70
32
  10
-5.84890546282571
  20
42.15389692777513
  30
742.067
  0
VERTEX
  8
Unknown Area Type
  70
32
  10
-5.85094758367249
  20
42.15126614086871
  30
754.272
  0
VERTEX
  8
Unknown Area Type
  70
32
  10
-5.85096490830623
  20
42.15124769941399
  30
754.434
  0
VERTEX
  8
Unknown Area Type
  70
32
  10
-5.85098384893635
  20
42.1512652389943
  30
754.394
  0
VERTEX
  8
Unknown Area Type
  70
32
  10
-5.85416666666668
  20
42.15645286067711
  30
757.222
  0
SEQEND
  8
Unknown Area Type
  0
TEXT
  8
Unknown Area Type
 62
7
  1
PNOA-H_AMS_1956-57_33k_ES_PAN_2
 40
0.00045
  10
-5.84655396236107
  20
42.15895718304034
  0
POLYLINE
  8
Unknown Area Type
  70
9
  66
1
  0
VERTEX
  8
Unknown Area Type
  70
32
  10
-5.85416666666668
  20
42.06250000000004
  30
795.131
  0
VERTEX
  8
Unknown Area Type
  70
32
  10
-5.85416666666668
  20
42.08333333333336
  30
765.259
  0
VERTEX
  8
Unknown Area Type
  70
32
  10
-5.85416666666668
  20
42.09503662299032
  30
754.74
  0
VERTEX
  8
Unknown Area Type
  70
32
  10
-5.84522745182194
  20
42.09286900134855
  30
748.116
  0
VERTEX
  8
Unknown Area Type
  70
32
  10
-5.84494544244084
  20
42.0599252398066
  30
807.826
  0
VERTEX
  8
Unknown Area Type
  70
32
  10
-5.84494424456189
  20
42.05976317196866
  30
808.606
  0
VERTEX
  8
Unknown Area Type
  70
32
  10
-5.84495531103035
  20
42.05974038387667
  30
808.733
  0
VERTEX
  8
Unknown Area Type
  70
32
  10
-5.85416666666668
  20
42.05734837696529
  30
792.99
  0
SEQEND
  8
Unknown Area Type
  0
TEXT
  8
Unknown Area Type
 62
7
  1
PNOA-H_AMS_1956-57_33k_ES_PAN_2
 40
0.00045
  10
-5.84955545561428
  20
42.07619249997781
  0
POLYLINE
  8
Unknown Area Type
  70
9
  66
1
  0
VERTEX
  8
Unknown Area Type
  70
32
  10
-5.85416700000001
  20
42.09503670381851
  30
754.74
  0
VERTEX
  8
Unknown Area Type
  70
32
  10
-5.85416666666668
  20
42.09503662299032
  30
754.74
  0
VERTEX
  8
Unknown Area Type
  70
32
  10
-5.85416666666668
  20
42.08333333333336
  30
765.259
  0
VERTEX
  8
Unknown Area Type
  70
32
  10
-5.85416666666668
  20
42.06250000000004
  30
795.131
  0
VERTEX
  8
Unknown Area Type
  70
32
  10
-5.85416666666668
  20
42.05734837696529
  30
792.99
  0
VERTEX
  8
Unknown Area Type
  70
32
  10
-5.85416700000001
  20
42.05734829040522
  30
792.989
  0
SEQEND
  8
Unknown Area Type
  0
TEXT
  8
Unknown Area Type
 62
7
  1
PNOA-H_AMS_1956-57_33k_ES_PAN_2
 40
0.00045
  10
-5.85416683333334
  20
42.07619249711186
  0
POLYLINE
  8
Unknown Area Type
  70
9
  66
1
  0
VERTEX
  8
Unknown Area Type
  70
32
  10
-5.85416666666668
  20
42.06250000000004
  30
795.131
  0
VERTEX
  8
Unknown Area Type
  70
32
  10
-5.85416666666668
  20
42.08333333333336
  30
765.259
  0
VERTEX
  8
Unknown Area Type
  70
32
  10
-5.85416666666668
  20
42.09503662299032
  30
754.74
  0
VERTEX
  8
Unknown Area Type
  70
32
  10
-5.84522745182194
  20
42.09286900134855
  30
748.116
  0
VERTEX
  8
Unknown Area Type
  70
32
  10
-5.84494544244084
  20
42.0599252398066
  30
807.826
  0
VERTEX
  8
Unknown Area Type
  70
32
  10
-5.84494424456189
  20
42.05976317196866
  30
808.606
  0
VERTEX
  8
Unknown Area Type
  70
32
  10
-5.84495531103035
  20
42.05974038387667
  30
808.733
  0
VERTEX
  8
Unknown Area Type
  70
32
  10
-5.85416666666668
  20
42.05734837696529
  30
792.99
  0
SEQEND
  8
Unknown Area Type
  0
TEXT
  8
Unknown Area Type
 62
7
  1
PNOA-H_AMS_1956-57_33k_ES_PAN_2
 40
0.00045
  10
-5.84955545561428
  20
42.07619249997781
  0
POLYLINE
  8
Unknown Area Type
  70
9
  66
1
  0
VERTEX
  8
Unknown Area Type
  70
32
  10
-5.84448126336852
  20
42.0930811303413
  30
735.601
  0
VERTEX
  8
Unknown Area Type
  70
32
  10
-5.83048146663131
  20
42.09705224017423
  30
734.42
  0
VERTEX
  8
Unknown Area Type
  70
32
  10
-5.83040939694838
  20
42.09706302460012
  30
734.416
  0
VERTEX
  8
Unknown Area Type
  70
32
  10
-5.811701636085
  20
42.09277744322089
  30
729.101
  0
VERTEX
  8
Unknown Area Type
  70
32
  10
-5.81096560011826
  20
42.05983112254506
  30
755.445
  0
VERTEX
  8
Unknown Area Type
  70
32
  10
-5.81097628187778
  20
42.05979934165229
  30
755.537
  0
VERTEX
  8
Unknown Area Type
  70
32
  10
-5.82584222925684
  20
42.05589484928276
  30
774.161
  0
VERTEX
  8
Unknown Area Type
  70
32
  10
-5.84494947640408
  20
42.059745031335
  30
808.727
  0
VERTEX
  8
Unknown Area Type
  70
32
  10
-5.84522745182194
  20
42.09286900134855
  30
748.116
  0
VERTEX
  8
Unknown Area Type
  70
32
  10
-5.84449917838861
  20
42.09307618322712
  30
735.619
  0
VERTEX
  8
Unknown Area Type
  70
32
  10
-5.84448126336852
  20
42.0930811303413
  30
735.601
  0
SEQEND
  8
Unknown Area Type
  0
TEXT
  8
Unknown Area Type
 62
7
  1
PNOA-H_AMS_1956-57_33k_ES_PAN_2
 40
0.00045
  10
-5.82809657213249
  20
42.07644006103752
  0
POLYLINE
  8
Unknown Area Type
  70
9
  66
1
  0
VERTEX
  8
Unknown Area Type
  70
32
  10
-5.84448126336852
  20
42.0930811303413
  30
735.601
  0
VERTEX
  8
Unknown Area Type
  70
32
  10
-5.83048146663131
  20
42.09705224017423
  30
734.42
  0
VERTEX
  8
Unknown Area Type
  70
32
  10
-5.83040939694838
  20
42.09706302460012
  30
734.416
  0
VERTEX
  8
Unknown Area Type
  70
32
  10
-5.811701636085
  20
42.09277744322089
  30
729.101
  0
VERTEX
  8
Unknown Area Type
  70
32
  10
-5.81096560011826
  20
42.05983112254506
  30
755.445
  0
VERTEX
  8
Unknown Area Type
  70
32
  10
-5.81097628187778
  20
42.05979934165229
  30
755.537
  0
VERTEX
  8
Unknown Area Type
  70
32
  10
-5.82584222925684
  20
42.05589484928276
  30
774.161
  0
VERTEX
  8
Unknown Area Type
  70
32
  10
-5.84494947640408
  20
42.059745031335
  30
808.727
  0
VERTEX
  8
Unknown Area Type
  70
32
  10
-5.84522745182194
  20
42.09286900134855
  30
748.116
  0
VERTEX
  8
Unknown Area Type
  70
32
  10
-5.84449917838861
  20
42.09307618322712
  30
735.619
  0
VERTEX
  8
Unknown Area Type
  70
32
  10
-5.84448126336852
  20
42.0930811303413
  30
735.601
  0
SEQEND
  8
Unknown Area Type
  0
TEXT
  8
Unknown Area Type
 62
7
  1
PNOA-H_AMS_1956-57_33k_ES_PAN_2
 40
0.00045
  10
-5.82809657213249
  20
42.07644006103752
  0
POLYLINE
  8
Unknown Area Type
  70
9
  66
1
  0
VERTEX
  8
Unknown Area Type
  70
32
  10
-5.72075578974939
  20
42.09535863690972
  30
751.483
  0
VERTEX
  8
Unknown Area Type
  70
32
  10
-5.7113248061254
  20
42.09338017454139
  30
765.181
  0
VERTEX
  8
Unknown Area Type
  70
32
  10
-5.70940108323644
  20
42.05970002308769
  30
742.058
  0
VERTEX
  8
Unknown Area Type
  70
32
  10
-5.72502420847223
  20
42.05639857088197
  30
731.62
  0
VERTEX
  8
Unknown Area Type
  70
32
  10
-5.72543741029245
  20
42.05631220521818
  30
730.271
  0
VERTEX
  8
Unknown Area Type
  70
32
  10
-5.72547966119921
  20
42.05631120114225
  30
730.188
  0
VERTEX
  8
Unknown Area Type
  70
32
  10
-5.74303204770714
  20
42.05968854703895
  30
716.003
  0
VERTEX
  8
Unknown Area Type
  70
32
  10
-5.74306261555744
  20
42.05969682140303
  30
716.014
  0
VERTEX
  8
Unknown Area Type
  70
32
  10
-5.74307272014876
  20
42.05979113747097
  30
715.922
  0
VERTEX
  8
Unknown Area Type
  70
32
  10
-5.74497909456294
  20
42.09279563165903
  30
743.504
  0
VERTEX
  8
Unknown Area Type
  70
32
  10
-5.7317980329407
  20
42.09767617380651
  30
724.094
  0
VERTEX
  8
Unknown Area Type
  70
32
  10
-5.7207741008598
  20
42.09536270518256
  30
751.384
  0
VERTEX
  8
Unknown Area Type
  70
32
  10
-5.72075578974939
  20
42.09535863690972
  30
751.483
  0
SEQEND
  8
Unknown Area Type
  0
TEXT
  8
Unknown Area Type
 62
7
  1
PNOA-H_AMS_1956-57_33k_ES_PAN_2
 40
0.00045
  10
-5.72719015718749
  20
42.07667354011883
  0
POLYLINE
  8
Unknown Area Type
  70
9
  66
1
  0
VERTEX
  8
Unknown Area Type
  70
32
  10
-5.72075578974939
  20
42.09535863690972
  30
751.483
  0
VERTEX
  8
Unknown Area Type
  70
32
  10
-5.7113248061254
  20
42.09338017454139
  30
765.181
  0
VERTEX
  8
Unknown Area Type
  70
32
  10
-5.70940108323644
  20
42.05970002308769
  30
742.058
  0
VERTEX
  8
Unknown Area Type
  70
32
  10
-5.72502420847223
  20
42.05639857088197
  30
731.62
  0
VERTEX
  8
Unknown Area Type
  70
32
  10
-5.72543741029245
  20
42.05631220521818
  30
730.271
  0
VERTEX
  8
Unknown Area Type
  70
32
  10
-5.72547966119921
  20
42.05631120114225
  30
730.188
  0
VERTEX
  8
Unknown Area Type
  70
32
  10
-5.74303204770714
  20
42.05968854703895
  30
716.003
  0
VERTEX
  8
Unknown Area Type
  70
32
  10
-5.74306261555744
  20
42.05969682140303
  30
716.014
  0
VERTEX
  8
Unknown Area Type
  70
32
  10
-5.74307272014876
  20
42.05979113747097
  30
715.922
  0
VERTEX
  8
Unknown Area Type
  70
32
  10
-5.74497909456294
  20
42.09279563165903
  30
743.504
  0
VERTEX
  8
Unknown Area Type
  70
32
  10
-5.7317980329407
  20
42.09767617380651
  30
724.094
  0
VERTEX
  8
Unknown Area Type
  70
32
  10
-5.7207741008598
  20
42.09536270518256
  30
751.384
  0
VERTEX
  8
Unknown Area Type
  70
32
  10
-5.72075578974939
  20
42.09535863690972
  30
751.483
  0
SEQEND
  8
Unknown Area Type
  0
TEXT
  8
Unknown Area Type
 62
7
  1
PNOA-H_AMS_1956-57_33k_ES_PAN_2
 40
0.00045
  10
-5.72719015718749
  20
42.07667354011883
  0
POLYLINE
  8
Unknown Area Type
  70
9
  66
1
  0
VERTEX
  8
Unknown Area Type
  70
32
  10
-5.79509632062711
  20
42.09652442620299
  30
724.511
  0
VERTEX
  8
Unknown Area Type
  70
32
  10
-5.77789450241279
  20
42.09275042020026
  30
724.084
  0
VERTEX
  8
Unknown Area Type
  70
32
  10
-5.77728118266978
  20
42.05944509650052
  30
785.842
  0
VERTEX
  8
Unknown Area Type
  70
32
  10
-5.79224646663486
  20
42.05583072513176
  30
783.121
  0
VERTEX
  8
Unknown Area Type
  70
32
  10
-5.81097044467127
  20
42.05980398745582
  30
755.522
  0
VERTEX
  8
Unknown Area Type
  70
32
  10
-5.811701636085
  20
42.09277744322089
  30
729.101
  0
VERTEX
  8
Unknown Area Type
  70
32
  10
-5.79827662954329
  20
42.09721682112454
  30
724.879
  0
VERTEX
  8
Unknown Area Type
  70
32
  10
-5.79822811684972
  20
42.0972135023115
  30
724.87
  0
VERTEX
  8
Unknown Area Type
  70
32
  10
-5.79510839922871
  20
42.0965241317725
  30
724.516
  0
VERTEX
  8
Unknown Area Type
  70
32
  10
-5.79509632062711
  20
42.09652442620299
  30
724.511
  0
SEQEND
  8
Unknown Area Type
  0
TEXT
  8
Unknown Area Type
 62
7
  1
PNOA-H_AMS_1956-57_33k_ES_PAN_2
 40
0.00045
  10
-5.79449160025402
  20
42.0763475849505
  0
POLYLINE
  8
Unknown Area Type
  70
9
  66
1
  0
VERTEX
  8
Unknown Area Type
  70
32
  10
-5.79509632062711
  20
42.09652442620299
  30
724.511
  0
VERTEX
  8
Unknown Area Type
  70
32
  10
-5.77789450241279
  20
42.09275042020026
  30
724.084
  0
VERTEX
  8
Unknown Area Type
  70
32
  10
-5.77728118266978
  20
42.05944509650052
  30
785.842
  0
VERTEX
  8
Unknown Area Type
  70
32
  10
-5.79224646663486
  20
42.05583072513176
  30
783.121
  0
VERTEX
  8
Unknown Area Type
  70
32
  10
-5.81097044467127
  20
42.05980398745582
  30
755.522
  0
VERTEX
  8
Unknown Area Type
  70
32
  10
-5.811701636085
  20
42.09277744322089
  30
729.101
  0
VERTEX
  8
Unknown Area Type
  70
32
  10
-5.79827662954329
  20
42.09721682112454
  30
724.879
  0
VERTEX
  8
Unknown Area Type
  70
32
  10
-5.79822811684972
  20
42.0972135023115
  30
724.87
  0
VERTEX
  8
Unknown Area Type
  70
32
  10
-5.79510839922871
  20
42.0965241317725
  30
724.516
  0
VERTEX
  8
Unknown Area Type
  70
32
  10
-5.79509632062711
  20
42.09652442620299
  30
724.511
  0
SEQEND
  8
Unknown Area Type
  0
TEXT
  8
Unknown Area Type
 62
7
  1
PNOA-H_AMS_1956-57_33k_ES_PAN_2
 40
0.00045
  10
-5.79449160025402
  20
42.0763475849505
  0
POLYLINE
  8
Unknown Area Type
  70
9
  66
1
  0
VERTEX
  8
Unknown Area Type
  70
32
  10
-5.69609952832987
  20
42.09788167872683
  30
774.901
  0
VERTEX
  8
Unknown Area Type
  70
32
  10
-5.67739701629666
  20
42.09380361619737
  30
783.399
  0
VERTEX
  8
Unknown Area Type
  70
32
  10
-5.67541177776254
  20
42.06010172136714
  30
769.145
  0
VERTEX
  8
Unknown Area Type
  70
32
  10
-5.69352280492569
  20
42.05643580294439
  30
760.778
  0
VERTEX
  8
Unknown Area Type
  70
32
  10
-5.70935825544159
  20
42.05968752658149
  30
741.701
  0
VERTEX
  8
Unknown Area Type
  70
32
  10
-5.70940108323644
  20
42.05970002308769
  30
742.058
  0
VERTEX
  8
Unknown Area Type
  70
32
  10
-5.70941553948328
  20
42.05989780314736
  30
741.33
  0
VERTEX
  8
Unknown Area Type
  70
32
  10
-5.7113248061254
  20
42.09338017454139
  30
765.181
  0
VERTEX
  8
Unknown Area Type
  70
32
  10
-5.6983634312886
  20
42.0983732603959
  30
771.266
  0
VERTEX
  8
Unknown Area Type
  70
32
  10
-5.69833323145571
  20
42.09837397103664
  30
771.471
  0
VERTEX
  8
Unknown Area Type
  70
32
  10
-5.69611783880261
  20
42.09788575096185
  30
774.906
  0
VERTEX
  8
Unknown Area Type
  70
32
  10
-5.69609952832987
  20
42.09788167872683
  30
774.901
  0
SEQEND
  8
Unknown Area Type
  0
TEXT
  8
Unknown Area Type
 62
7
  1
PNOA-H_AMS_1956-57_33k_ES_PAN_2
 40
0.00045
  10
-5.69336833344656
  20
42.07687574284229
  0
POLYLINE
  8
Unknown Area Type
  70
9
  66
1
  0
VERTEX
  8
Unknown Area Type
  70
32
  10
-5.69609952832987
  20
42.09788167872683
  30
774.901
  0
VERTEX
  8
Unknown Area Type
  70
32
  10
-5.67739701629666
  20
42.09380361619737
  30
783.399
  0
VERTEX
  8
Unknown Area Type
  70
32
  10
-5.67541177776254
  20
42.06010172136714
  30
769.145
  0
VERTEX
  8
Unknown Area Type
  70
32
  10
-5.69352280492569
  20
42.05643580294439
  30
760.778
  0
VERTEX
  8
Unknown Area Type
  70
32
  10
-5.70935825544159
  20
42.05968752658149
  30
741.701
  0
VERTEX
  8
Unknown Area Type
  70
32
  10
-5.70940108323644
  20
42.05970002308769
  30
742.058
  0
VERTEX
  8
Unknown Area Type
  70
32
  10
-5.70941553948328
  20
42.05989780314736
  30
741.33
  0
VERTEX
  8
Unknown Area Type
  70
32
  10
-5.7113248061254
  20
42.09338017454139
  30
765.181
  0
VERTEX
  8
Unknown Area Type
  70
32
  10
-5.6983634312886
  20
42.0983732603959
  30
771.266
  0
VERTEX
  8
Unknown Area Type
  70
32
  10
-5.69833323145571
  20
42.09837397103664
  30
771.471
  0
VERTEX
  8
Unknown Area Type
  70
32
  10
-5.69611783880261
  20
42.09788575096185
  30
774.906
  0
VERTEX
  8
Unknown Area Type
  70
32
  10
-5.69609952832987
  20
42.09788167872683
  30
774.901
  0
SEQEND
  8
Unknown Area Type
  0
TEXT
  8
Unknown Area Type
 62
7
  1
PNOA-H_AMS_1956-57_33k_ES_PAN_2
 40
0.00045
  10
-5.69336833344656
  20
42.07687574284229
  0
POLYLINE
  8
Unknown Area Type
  70
9
  66
1
  0
VERTEX
  8
Unknown Area Type
  70
32
  10
-5.77028448659214
  20
42.0952759382505
  30
722.694
  0
VERTEX
  8
Unknown Area Type
  70
32
  10
-5.76478350408945
  20
42.09709722604521
  30
722.405
  0
VERTEX
  8
Unknown Area Type
  70
32
  10
-5.74497909456294
  20
42.09279563165903
  30
743.504
  0
VERTEX
  8
Unknown Area Type
  70
32
  10
-5.74306668406422
  20
42.05979128184618
  30
715.934
  0
VERTEX
  8
Unknown Area Type
  70
32
  10
-5.74306261555744
  20
42.05969682140303
  30
716.014
  0
VERTEX
  8
Unknown Area Type
  70
32
  10
-5.74307449396984
  20
42.05969203453689
  30
715.999
  0
VERTEX
  8
Unknown Area Type
  70
32
  10
-5.75876433821802
  20
42.05574049893004
  30
785.136
  0
VERTEX
  8
Unknown Area Type
  70
32
  10
-5.77728118266978
  20
42.05944509650052
  30
785.842
  0
VERTEX
  8
Unknown Area Type
  70
32
  10
-5.77789450241279
  20
42.09275042020026
  30
724.084
  0
VERTEX
  8
Unknown Area Type
  70
32
  10
-5.77030240861687
  20
42.09527100254691
  30
722.707
  0
VERTEX
  8
Unknown Area Type
  70
32
  10
-5.77028448659214
  20
42.0952759382505
  30
722.694
  0
SEQEND
  8
Unknown Area Type
  0
TEXT
  8
Unknown Area Type
 62
7
  1
PNOA-H_AMS_1956-57_33k_ES_PAN_2
 40
0.00045
  10
-5.76047876081474
  20
42.07612102974319
  0
POLYLINE
  8
Unknown Area Type
  70
9
  66
1
  0
VERTEX
  8
Unknown Area Type
  70
32
  10
-5.77028448659214
  20
42.0952759382505
  30
722.694
  0
VERTEX
  8
Unknown Area Type
  70
32
  10
-5.76478350408945
  20
42.09709722604521
  30
722.405
  0
VERTEX
  8
Unknown Area Type
  70
32
  10
-5.74497909456294
  20
42.09279563165903
  30
743.504
  0
VERTEX
  8
Unknown Area Type
  70
32
  10
-5.74306668406422
  20
42.05979128184618
  30
715.934
  0
VERTEX
  8
Unknown Area Type
  70
32
  10
-5.74306261555744
  20
42.05969682140303
  30
716.014
  0
VERTEX
  8
Unknown Area Type
  70
32
  10
-5.74307449396984
  20
42.05969203453689
  30
715.999
  0
VERTEX
  8
Unknown Area Type
  70
32
  10
-5.75876433821802
  20
42.05574049893004
  30
785.136
  0
VERTEX
  8
Unknown Area Type
  70
32
  10
-5.77728118266978
  20
42.05944509650052
  30
785.842
  0
VERTEX
  8
Unknown Area Type
  70
32
  10
-5.77789450241279
  20
42.09275042020026
  30
724.084
  0
VERTEX
  8
Unknown Area Type
  70
32
  10
-5.77030240861687
  20
42.09527100254691
  30
722.707
  0
VERTEX
  8
Unknown Area Type
  70
32
  10
-5.77028448659214
  20
42.0952759382505
  30
722.694
  0
SEQEND
  8
Unknown Area Type
  0
TEXT
  8
Unknown Area Type
 62
7
  1
PNOA-H_AMS_1956-57_33k_ES_PAN_2
 40
0.00045
  10
-5.76047876081474
  20
42.07612102974319
  0
POLYLINE
  8
Unknown Area Type
  70
9
  66
1
  0
VERTEX
  8
Unknown Area Type
  70
32
  10
-5.62179341227879
  20
42.09756037118881
  30
722.351
  0
VERTEX
  8
Unknown Area Type
  70
32
  10
-5.61012184760196
  20
42.09557523064859
  30
718.59
  0
VERTEX
  8
Unknown Area Type
  70
32
  10
-5.6098370684687
  20
42.05855977190974
  30
712.235
  0
VERTEX
  8
Unknown Area Type
  70
32
  10
-5.62753069540859
  20
42.05582333540121
  30
715.414
  0
VERTEX
  8
Unknown Area Type
  70
32
  10
-5.6432126721627
  20
42.05924534004528
  30
721.71
  0
VERTEX
  8
Unknown Area Type
  70
32
  10
-5.64268266387305
  20
42.09524375393118
  30
747.247
  0
VERTEX
  8
Unknown Area Type
  70
32
  10
-5.6328688478272
  20
42.09944093399978
  30
732.245
  0
VERTEX
  8
Unknown Area Type
  70
32
  10
-5.62182379903079
  20
42.09756417923576
  30
722.347
  0
VERTEX
  8
Unknown Area Type
  70
32
  10
-5.62179341227879
  20
42.09756037118881
  30
722.351
  0
SEQEND
  8
Unknown Area Type
  0
TEXT
  8
Unknown Area Type
 62
7
  1
PNOA-H_AMS_1956-57_33k_ES_PAN_2
 40
0.00045
  10
-5.62652504363402
  20
42.07716894856416
  0
POLYLINE
  8
Unknown Area Type
  70
9
  66
1
  0
VERTEX
  8
Unknown Area Type
  70
32
  10
-5.62179341227879
  20
42.09756037118881
  30
722.351
  0
VERTEX
  8
Unknown Area Type
  70
32
  10
-5.61012184760196
  20
42.09557523064859
  30
718.59
  0
VERTEX
  8
Unknown Area Type
  70
32
  10
-5.6098370684687
  20
42.05855977190974
  30
712.235
  0
VERTEX
  8
Unknown Area Type
  70
32
  10
-5.62753069540859
  20
42.05582333540121
  30
715.414
  0
VERTEX
  8
Unknown Area Type
  70
32
  10
-5.6432126721627
  20
42.05924534004528
  30
721.71
  0
VERTEX
  8
Unknown Area Type
  70
32
  10
-5.64268266387305
  20
42.09524375393118
  30
747.247
  0
VERTEX
  8
Unknown Area Type
  70
32
  10
-5.6328688478272
  20
42.09944093399978
  30
732.245
  0
VERTEX
  8
Unknown Area Type
  70
32
  10
-5.62182379903079
  20
42.09756417923576
  30
722.347
  0
VERTEX
  8
Unknown Area Type
  70
32
  10
-5.62179341227879
  20
42.09756037118881
  30
722.351
  0
SEQEND
  8
Unknown Area Type
  0
TEXT
  8
Unknown Area Type
 62
7
  1
PNOA-H_AMS_1956-57_33k_ES_PAN_2
 40
0.00045
  10
-5.62652504363402
  20
42.07716894856416
  0
POLYLINE
  8
Unknown Area Type
  70
9
  66
1
  0
VERTEX
  8
Unknown Area Type
  70
32
  10
-5.59709584939543
  20
42.09919402236014
  30
716.183
  0
VERTEX
  8
Unknown Area Type
  70
32
  10
-5.57603057129737
  20
42.09589581561031
  30
715.228
  0
VERTEX
  8
Unknown Area Type
  70
32
  10
-5.57583582349716
  20
42.09586416772342
  30
715.225
  0
VERTEX
  8
Unknown Area Type
  70
32
  10
-5.57583108719989
  20
42.09574720154657
  30
715.198
  0
VERTEX
  8
Unknown Area Type
  70
32
  10
-5.57592593642244
  20
42.05851139746473
  30
771.568
  0
VERTEX
  8
Unknown Area Type
  70
32
  10
-5.59677960595342
  20
42.0557402100686
  30
710.169
  0
VERTEX
  8
Unknown Area Type
  70
32
  10
-5.60966638409965
  20
42.05852313052114
  30
712.084
  0
VERTEX
  8
Unknown Area Type
  70
32
  10
-5.60983103184326
  20
42.0585599092741
  30
712.234
  0
VERTEX
  8
Unknown Area Type
  70
32
  10
-5.60983928040468
  20
42.05861375519632
  30
712.262
  0
VERTEX
  8
Unknown Area Type
  70
32
  10
-5.61012203218903
  20
42.09557972922571
  30
718.591
  0
VERTEX
  8
Unknown Area Type
  70
32
  10
-5.5999619024247
  20
42.09964239555475
  30
716.984
  0
VERTEX
  8
Unknown Area Type
  70
32
  10
-5.59712623578214
  20
42.09919783697293
  30
716.187
  0
VERTEX
  8
Unknown Area Type
  70
32
  10
-5.59709584939543
  20
42.09919402236014
  30
716.183
  0
SEQEND
  8
Unknown Area Type
  0
TEXT
  8
Unknown Area Type
 62
7
  1
PNOA-H_AMS_1956-57_33k_ES_PAN_2
 40
0.00045
  10
-5.59297660274367
  20
42.07739623494574
  0
POLYLINE
  8
Unknown Area Type
  70
9
  66
1
  0
VERTEX
  8
Unknown Area Type
  70
32
  10
-5.59709584939543
  20
42.09919402236014
  30
716.183
  0
VERTEX
  8
Unknown Area Type
  70
32
  10
-5.57603057129737
  20
42.09589581561031
  30
715.228
  0
VERTEX
  8
Unknown Area Type
  70
32
  10
-5.57583582349716
  20
42.09586416772342
  30
715.225
  0
VERTEX
  8
Unknown Area Type
  70
32
  10
-5.57583108719989
  20
42.09574720154657
  30
715.198
  0
VERTEX
  8
Unknown Area Type
  70
32
  10
-5.57592593642244
  20
42.05851139746473
  30
771.568
  0
VERTEX
  8
Unknown Area Type
  70
32
  10
-5.59677960595342
  20
42.0557402100686
  30
710.169
  0
VERTEX
  8
Unknown Area Type
  70
32
  10
-5.60966638409965
  20
42.05852313052114
  30
712.084
  0
VERTEX
  8
Unknown Area Type
  70
32
  10
-5.60983103184326
  20
42.0585599092741
  30
712.234
  0
VERTEX
  8
Unknown Area Type
  70
32
  10
-5.60983928040468
  20
42.05861375519632
  30
712.262
  0
VERTEX
  8
Unknown Area Type
  70
32
  10
-5.61012203218903
  20
42.09557972922571
  30
718.591
  0
VERTEX
  8
Unknown Area Type
  70
32
  10
-5.5999619024247
  20
42.09964239555475
  30
716.984
  0
VERTEX
  8
Unknown Area Type
  70
32
  10
-5.59712623578214
  20
42.09919783697293
  30
716.187
  0
VERTEX
  8
Unknown Area Type
  70
32
  10
-5.59709584939543
  20
42.09919402236014
  30
716.183
  0
SEQEND
  8
Unknown Area Type
  0
TEXT
  8
Unknown Area Type
 62
7
  1
PNOA-H_AMS_1956-57_33k_ES_PAN_2
 40
0.00045
  10
-5.59297660274367
  20
42.07739623494574
  0
POLYLINE
  8
Unknown Area Type
  70
9
  66
1
  0
VERTEX
  8
Unknown Area Type
  70
32
  10
-5.67128364800147
  20
42.0963641675671
  30
761.624
  0
VERTEX
  8
Unknown Area Type
  70
32
  10
-5.66535400525359
  20
42.09884807987076
  30
755.816
  0
VERTEX
  8
Unknown Area Type
  70
32
  10
-5.66523508678352
  20
42.09889587141088
  30
755.617
  0
VERTEX
  8
Unknown Area Type
  70
32
  10
-5.66520488588308
  20
42.09889657334022
  30
755.603
  0
VERTEX
  8
Unknown Area Type
  70
32
  10
-5.64268266387305
  20
42.09524375393118
  30
747.247
  0
VERTEX
  8
Unknown Area Type
  70
32
  10
-5.64321248547489
  20
42.05924084155903
  30
721.711
  0
VERTEX
  8
Unknown Area Type
  70
32
  10
-5.65924765456734
  20
42.05660976486608
  30
748.102
  0
VERTEX
  8
Unknown Area Type
  70
32
  10
-5.67541177776254
  20
42.06010172136714
  30
769.145
  0
VERTEX
  8
Unknown Area Type
  70
32
  10
-5.67739701629666
  20
42.09380361619737
  30
783.399
  0
VERTEX
  8
Unknown Area Type
  70
32
  10
-5.67129553890596
  20
42.09635938781552
  30
761.648
  0
VERTEX
  8
Unknown Area Type
  70
32
  10
-5.67128364800147
  20
42.0963641675671
  30
761.624
  0
SEQEND
  8
Unknown Area Type
  0
TEXT
  8
Unknown Area Type
 62
7
  1
PNOA-H_AMS_1956-57_33k_ES_PAN_2
 40
0.00045
  10
-5.6600399145946
  20
42.07741810915641
  0
POLYLINE
  8
Unknown Area Type
  70
9
  66
1
  0
VERTEX
  8
Unknown Area Type
  70
32
  10
-5.67128364800147
  20
42.0963641675671
  30
761.624
  0
VERTEX
  8
Unknown Area Type
  70
32
  10
-5.66535400525359
  20
42.09884807987076
  30
755.816
  0
VERTEX
  8
Unknown Area Type
  70
32
  10
-5.66523508678352
  20
42.09889587141088
  30
755.617
  0
VERTEX
  8
Unknown Area Type
  70
32
  10
-5.66520488588308
  20
42.09889657334022
  30
755.603
  0
VERTEX
  8
Unknown Area Type
  70
32
  10
-5.64268266387305
  20
42.09524375393118
  30
747.247
  0
VERTEX
  8
Unknown Area Type
  70
32
  10
-5.64321248547489
  20
42.05924084155903
  30
721.711
  0
VERTEX
  8
Unknown Area Type
  70
32
  10
-5.65924765456734
  20
42.05660976486608
  30
748.102
  0
VERTEX
  8
Unknown Area Type
  70
32
  10
-5.67541177776254
  20
42.06010172136714
  30
769.145
  0
VERTEX
  8
Unknown Area Type
  70
32
  10
-5.67739701629666
  20
42.09380361619737
  30
783.399
  0
VERTEX
  8
Unknown Area Type
  70
32
  10
-5.67129553890596
  20
42.09635938781552
  30
761.648
  0
VERTEX
  8
Unknown Area Type
  70
32
  10
-5.67128364800147
  20
42.0963641675671
  30
761.624
  0
SEQEND
  8
Unknown Area Type
  0
TEXT
  8
Unknown Area Type
 62
7
  1
PNOA-H_AMS_1956-57_33k_ES_PAN_2
 40
0.00045
  10
-5.6600399145946
  20
42.07741810915641
  0
POLYLINE
  8
Unknown Area Type
  70
9
  66
1
  0
VERTEX
  8
Unknown Area Type
  70
32
  10
-5.57227292740215
  20
42.09746158002585
  30
723.976
  0
VERTEX
  8
Unknown Area Type
  70
32
  10
-5.56814579447305
  20
42.09931466984089
  30
732.04
  0
VERTEX
  8
Unknown Area Type
  70
32
  10
-5.56807366948692
  20
42.09932529059198
  30
732.2
  0
VERTEX
  8
Unknown Area Type
  70
32
  10
-5.54068395874406
  20
42.09658528857519
  30
784.339
  0
VERTEX
  8
Unknown Area Type
  70
32
  10
-5.54135577925894
  20
42.05799929075552
  30
732.461
  0
VERTEX
  8
Unknown Area Type
  70
32
  10
-5.56500510963194
  20
42.05559967280664
  30
768.022
  0
VERTEX
  8
Unknown Area Type
  70
32
  10
-5.57592593642244
  20
42.05851139746473
  30
771.568
  0
VERTEX
  8
Unknown Area Type
  70
32
  10
-5.57583582349716
  20
42.09586416772342
  30
715.225
  0
VERTEX
  8
Unknown Area Type
  70
32
  10
-5.57228482646309
  20
42.09745681033557
  30
723.716
  0
VERTEX
  8
Unknown Area Type
  70
32
  10
-5.57227292740215
  20
42.09746158002585
  30
723.976
  0
SEQEND
  8
Unknown Area Type
  0
TEXT
  8
Unknown Area Type
 62
7
  1
PNOA-H_AMS_1956-57_33k_ES_PAN_2
 40
0.00045
  10
-5.55830492168452
  20
42.07731222855634
  0
POLYLINE
  8
Unknown Area Type
  70
9
  66
1
  0
VERTEX
  8
Unknown Area Type
  70
32
  10
-5.57227292740215
  20
42.09746158002585
  30
723.976
  0
VERTEX
  8
Unknown Area Type
  70
32
  10
-5.56814579447305
  20
42.09931466984089
  30
732.04
  0
VERTEX
  8
Unknown Area Type
  70
32
  10
-5.56807366948692
  20
42.09932529059198
  30
732.2
  0
VERTEX
  8
Unknown Area Type
  70
32
  10
-5.54068395874406
  20
42.09658528857519
  30
784.339
  0
VERTEX
  8
Unknown Area Type
  70
32
  10
-5.54135577925894
  20
42.05799929075552
  30
732.461
  0
VERTEX
  8
Unknown Area Type
  70
32
  10
-5.56500510963194
  20
42.05559967280664
  30
768.022
  0
VERTEX
  8
Unknown Area Type
  70
32
  10
-5.57592593642244
  20
42.05851139746473
  30
771.568
  0
VERTEX
  8
Unknown Area Type
  70
32
  10
-5.57583582349716
  20
42.09586416772342
  30
715.225
  0
VERTEX
  8
Unknown Area Type
  70
32
  10
-5.57228482646309
  20
42.09745681033557
  30
723.716
  0
VERTEX
  8
Unknown Area Type
  70
32
  10
-5.57227292740215
  20
42.09746158002585
  30
723.976
  0
SEQEND
  8
Unknown Area Type
  0
TEXT
  8
Unknown Area Type
 62
7
  1
PNOA-H_AMS_1956-57_33k_ES_PAN_2
 40
0.00045
  10
-5.55830492168452
  20
42.07731222855634
  0
POLYLINE
  8
Unknown Area Type
  70
9
  66
1
  0
VERTEX
  8
Unknown Area Type
  70
32
  10
-5.53232960183173
  20
42.05543869503322
  30
735.737
  0
VERTEX
  8
Unknown Area Type
  70
32
  10
-5.53223337233172
  20
42.05544982523624
  30
735.085
  0
VERTEX
  8
Unknown Area Type
  70
32
  10
-5.52083333333329
  20
42.05653011585115
  30
728.281
  0
VERTEX
  8
Unknown Area Type
  70
32
  10
-5.52083333333329
  20
42.04166666666664
  30
736.582
  0
VERTEX
  8
Unknown Area Type
  70
32
  10
-5.52083333333329
  20
42.02083333333333
  30
734.084
  0
VERTEX
  8
Unknown Area Type
  70
32
  10
-5.52083333333329
  20
42.01768575366701
  30
733.647
  0
VERTEX
  8
Unknown Area Type
  70
32
  10
-5.53215839711397
  20
42.0231525930804
  30
737.663
  0
VERTEX
  8
Unknown Area Type
  70
32
  10
-5.53233528085305
  20
42.05542956398631
  30
735.772
  0
SEQEND
  8
Unknown Area Type
  0
TEXT
  8
Unknown Area Type
 62
7
  1
PNOA-H_AMS_1956-57_33k_ES_PAN_2
 40
0.00045
  10
-5.52658430709317
  20
42.03710793475908
  0
POLYLINE
  8
Unknown Area Type
  70
9
  66
1
  0
VERTEX
  8
Unknown Area Type
  70
32
  10
-5.53232960183173
  20
42.05543869503322
  30
735.737
  0
VERTEX
  8
Unknown Area Type
  70
32
  10
-5.53223337233172
  20
42.05544982523624
  30
735.085
  0
VERTEX
  8
Unknown Area Type
  70
32
  10
-5.52083333333329
  20
42.05653011585115
  30
728.281
  0
VERTEX
  8
Unknown Area Type
  70
32
  10
-5.52083333333329
  20
42.04166666666664
  30
736.582
  0
VERTEX
  8
Unknown Area Type
  70
32
  10
-5.52083333333329
  20
42.02083333333333
  30
734.084
  0
VERTEX
  8
Unknown Area Type
  70
32
  10
-5.52083333333329
  20
42.01768575366701
  30
733.647
  0
VERTEX
  8
Unknown Area Type
  70
32
  10
-5.53215839711397
  20
42.0231525930804
  30
737.663
  0
VERTEX
  8
Unknown Area Type
  70
32
  10
-5.53233528085305
  20
42.05542956398631
  30
735.772
  0
SEQEND
  8
Unknown Area Type
  0
TEXT
  8
Unknown Area Type
 62
7
  1
PNOA-H_AMS_1956-57_33k_ES_PAN_2
 40
0.00045
  10
-5.52658430709317
  20
42.03710793475908
  0
POLYLINE
  8
Unknown Area Type
  70
9
  66
1
  0
VERTEX
  8
Unknown Area Type
  70
32
  10
-5.52625986511127
  20
42.09844839966698
  30
771.039
  0
VERTEX
  8
Unknown Area Type
  70
32
  10
-5.52083333333329
  20
42.14003725306934
  30
761.95
  0
VERTEX
  8
Unknown Area Type
  70
32
  10
-5.52083333333329
  20
42.12499999999999
  30
765.182
  0
VERTEX
  8
Unknown Area Type
  70
32
  10
-5.52083333333329
  20
42.10416666666667
  30
769.658
  0
VERTEX
  8
Unknown Area Type
  70
32
  10
-5.52083333333329
  20
42.09824881906719
  30
771.62
  0
VERTEX
  8
Unknown Area Type
  70
32
  10
-5.5262515015004
  20
42.09839004741577
  30
770.333
  0
VERTEX
  8
Unknown Area Type
  70
32
  10
-5.52626376177365
  20
42.09839428014698
  30
770.364
  0
SEQEND
  8
Unknown Area Type
  0
TEXT
  8
Unknown Area Type
 62
7
  1
PNOA-H_AMS_1956-57_33k_ES_PAN_2
 40
0.00045
  10
-5.52354854755347
  20
42.11914303606827
  0
POLYLINE
  8
Unknown Area Type
  70
9
  66
1
  0
VERTEX
  8
Unknown Area Type
  70
32
  10
-5.52625986511127
  20
42.09844839966698
  30
771.039
  0
VERTEX
  8
Unknown Area Type
  70
32
  10
-5.52083333333329
  20
42.14003725306934
  30
761.95
  0
VERTEX
  8
Unknown Area Type
  70
32
  10
-5.52083333333329
  20
42.12499999999999
  30
765.182
  0
VERTEX
  8
Unknown Area Type
  70
32
  10
-5.52083333333329
  20
42.10416666666667
  30
769.658
  0
VERTEX
  8
Unknown Area Type
  70
32
  10
-5.52083333333329
  20
42.09824881906719
  30
771.62
  0
VERTEX
  8
Unknown Area Type
  70
32
  10
-5.5262515015004
  20
42.09839004741577
  30
770.333
  0
VERTEX
  8
Unknown Area Type
  70
32
  10
-5.52626376177365
  20
42.09839428014698
  30
770.364
  0
SEQEND
  8
Unknown Area Type
  0
TEXT
  8
Unknown Area Type
 62
7
  1
PNOA-H_AMS_1956-57_33k_ES_PAN_2
 40
0.00045
  10
-5.52354854755347
  20
42.11914303606827
  0
POLYLINE
  8
Unknown Area Type
  70
9
  66
1
  0
VERTEX
  8
Unknown Area Type
  70
32
  10
-5.54068395874406
  20
42.09658528857519
  30
784.339
  0
VERTEX
  8
Unknown Area Type
  70
32
  10
-5.53768749386771
  20
42.09800697793855
  30
783.845
  0
VERTEX
  8
Unknown Area Type
  70
32
  10
-5.52625168017767
  20
42.09839454628664
  30
770.419
  0
VERTEX
  8
Unknown Area Type
  70
32
  10
-5.52278351578525
  20
42.09829978542221
  30
761.511
  0
VERTEX
  8
Unknown Area Type
  70
32
  10
-5.52276539336949
  20
42.09830018408091
  30
761.482
  0
VERTEX
  8
Unknown Area Type
  70
32
  10
-5.52083333333329
  20
42.09825009408573
  30
763.057
  0
VERTEX
  8
Unknown Area Type
  70
32
  10
-5.52083333333329
  20
42.08333333333336
  30
763.372
  0
VERTEX
  8
Unknown Area Type
  70
32
  10
-5.52083333333329
  20
42.06250000000004
  30
728.552
  0
VERTEX
  8
Unknown Area Type
  70
32
  10
-5.52083333333329
  20
42.0565269625495
  30
728.874
  0
VERTEX
  8
Unknown Area Type
  70
32
  10
-5.53229338164734
  20
42.05543949470598
  30
735.451
  0
VERTEX
  8
Unknown Area Type
  70
32
  10
-5.5323416752262
  20
42.05543842847311
  30
735.842
  0
VERTEX
  8
Unknown Area Type
  70
32
  10
-5.53250663338714
  20
42.05548431749916
  30
737.337
  0
VERTEX
  8
Unknown Area Type
  70
32
  10
-5.54135559976825
  20
42.05799479190546
  30
732.453
  0
SEQEND
  8
Unknown Area Type
  0
TEXT
  8
Unknown Area Type
 62
7
  1
PNOA-H_AMS_1956-57_33k_ES_PAN_2
 40
0.00045
  10
-5.52361157020928
  20
42.07729128188403
  0
POLYLINE
  8
Unknown Area Type
  70
9
  66
1
  0
VERTEX
  8
Unknown Area Type
  70
32
  10
-5.54068395874406
  20
42.09658528857519
  30
784.339
  0
VERTEX
  8
Unknown Area Type
  70
32
  10
-5.53768749386771
  20
42.09800697793855
  30
783.845
  0
VERTEX
  8
Unknown Area Type
  70
32
  10
-5.52625168017767
  20
42.09839454628664
  30
770.419
  0
VERTEX
  8
Unknown Area Type
  70
32
  10
-5.52278351578525
  20
42.09829978542221
  30
761.511
  0
VERTEX
  8
Unknown Area Type
  70
32
  10
-5.52276539336949
  20
42.09830018408091
  30
761.482
  0
VERTEX
  8
Unknown Area Type
  70
32
  10
-5.52083333333329
  20
42.09825009408573
  30
763.057
  0
VERTEX
  8
Unknown Area Type
  70
32
  10
-5.52083333333329
  20
42.08333333333336
  30
763.372
  0
VERTEX
  8
Unknown Area Type
  70
32
  10
-5.52083333333329
  20
42.06250000000004
  30
728.552
  0
VERTEX
  8
Unknown Area Type
  70
32
  10
-5.52083333333329
  20
42.0565269625495
  30
728.874
  0
VERTEX
  8
Unknown Area Type
  70
32
  10
-5.53229338164734
  20
42.05543949470598
  30
735.451
  0
VERTEX
  8
Unknown Area Type
  70
32
  10
-5.5323416752262
  20
42.05543842847311
  30
735.842
  0
VERTEX
  8
Unknown Area Type
  70
32
  10
-5.53250663338714
  20
42.05548431749916
  30
737.337
  0
VERTEX
  8
Unknown Area Type
  70
32
  10
-5.54135559976825
  20
42.05799479190546
  30
732.453
  0
SEQEND
  8
Unknown Area Type
  0
TEXT
  8
Unknown Area Type
 62
7
  1
PNOA-H_AMS_1956-57_33k_ES_PAN_2
 40
0.00045
  10
-5.52361157020928
  20
42.07729128188403
  0
POLYLINE
  8
Unknown Area Type
  70
9
  66
1
  0
VERTEX
  8
Unknown Area Type
  70
32
  10
-5.6191388031419
  20
42.16666666666671
  30
774.91
  0
VERTEX
  8
Unknown Area Type
  70
32
  10
-5.60416666666664
  20
42.16666666666671
  30
774.572
  0
VERTEX
  8
Unknown Area Type
  70
32
  10
-5.58578772071176
  20
42.16666666666671
  30
725.427
  0
VERTEX
  8
Unknown Area Type
  70
32
  10
-5.58502376856039
  20
42.1483128308615
  30
723.147
  0
VERTEX
  8
Unknown Area Type
  70
32
  10
-5.5848071322337
  20
42.14284236320577
  30
721.631
  0
VERTEX
  8
Unknown Area Type
  70
32
  10
-5.60156345108715
  20
42.13981577822852
  30
723.819
  0
VERTEX
  8
Unknown Area Type
  70
32
  10
-5.61836223906665
  20
42.14226111920215
  30
757.608
  0
SEQEND
  8
Unknown Area Type
  0
TEXT
  8
Unknown Area Type
 62
7
  1
PNOA-H_AMS_1956-57_33k_ES_PAN_2
 40
0.00045
  10
-5.60223689890407
  20
42.16163466710108
  0
POLYLINE
  8
Unknown Area Type
  70
9
  66
1
  0
VERTEX
  8
Unknown Area Type
  70
32
  10
-5.61913880844509
  20
42.16666683333337
  30
774.91
  0
VERTEX
  8
Unknown Area Type
  70
32
  10
-5.58578772764902
  20
42.16666683333337
  30
725.427
  0
VERTEX
  8
Unknown Area Type
  70
32
  10
-5.58578772071176
  20
42.16666666666671
  30
725.427
  0
VERTEX
  8
Unknown Area Type
  70
32
  10
-5.60416666666664
  20
42.16666666666671
  30
774.572
  0
VERTEX
  8
Unknown Area Type
  70
32
  10
-5.6191388031419
  20
42.16666666666671
  30
774.91
  0
SEQEND
  8
Unknown Area Type
  0
TEXT
  8
Unknown Area Type
 62
7
  1
PNOA-H_AMS_1956-57_33k_ES_PAN_2
 40
0.00045
  10
-5.60246326457843
  20
42.16666675000004
  0
POLYLINE
  8
Unknown Area Type
  70
9
  66
1
  0
VERTEX
  8
Unknown Area Type
  70
32
  10
-5.6191388031419
  20
42.16666666666671
  30
774.91
  0
VERTEX
  8
Unknown Area Type
  70
32
  10
-5.60416666666664
  20
42.16666666666671
  30
774.572
  0
VERTEX
  8
Unknown Area Type
  70
32
  10
-5.58578772071176
  20
42.16666666666671
  30
725.427
  0
VERTEX
  8
Unknown Area Type
  70
32
  10
-5.58502376856039
  20
42.1483128308615
  30
723.147
  0
VERTEX
  8
Unknown Area Type
  70
32
  10
-5.5848071322337
  20
42.14284236320577
  30
721.631
  0
VERTEX
  8
Unknown Area Type
  70
32
  10
-5.60156345108715
  20
42.13981577822852
  30
723.819
  0
VERTEX
  8
Unknown Area Type
  70
32
  10
-5.61836223906665
  20
42.14226111920215
  30
757.608
  0
SEQEND
  8
Unknown Area Type
  0
TEXT
  8
Unknown Area Type
 62
7
  1
PNOA-H_AMS_1956-57_33k_ES_PAN_2
 40
0.00045
  10
-5.60223689890407
  20
42.16163466710108
  0
POLYLINE
  8
Unknown Area Type
  70
9
  66
1
  0
VERTEX
  8
Unknown Area Type
  70
32
  10
-5.55429469780464
  20
42.16666666666671
  30
730.912
  0
VERTEX
  8
Unknown Area Type
  70
32
  10
-5.52313076882517
  20
42.16666666666671
  30
760.698
  0
VERTEX
  8
Unknown Area Type
  70
32
  10
-5.52295072542902
  20
42.14441371749712
  30
759.868
  0
VERTEX
  8
Unknown Area Type
  70
32
  10
-5.541153159621
  20
42.14190896612666
  30
740.646
  0
VERTEX
  8
Unknown Area Type
  70
32
  10
-5.55234785447234
  20
42.1433083375075
  30
737.628
  0
SEQEND
  8
Unknown Area Type
  0
TEXT
  8
Unknown Area Type
 62
7
  1
PNOA-H_AMS_1956-57_33k_ES_PAN_2
 40
0.00045
  10
-5.53929384853158
  20
42.16356323264127
  0
POLYLINE
  8
Unknown Area Type
  70
9
  66
1
  0
VERTEX
  8
Unknown Area Type
  70
32
  10
-5.55429471169579
  20
42.16666683333337
  30
730.912
  0
VERTEX
  8
Unknown Area Type
  70
32
  10
-5.52313077017363
  20
42.16666683333337
  30
760.698
  0
VERTEX
  8
Unknown Area Type
  70
32
  10
-5.52313076882517
  20
42.16666666666671
  30
760.698
  0
VERTEX
  8
Unknown Area Type
  70
32
  10
-5.55429469780464
  20
42.16666666666671
  30
730.912
  0
SEQEND
  8
Unknown Area Type
  0
TEXT
  8
Unknown Area Type
 62
7
  1
PNOA-H_AMS_1956-57_33k_ES_PAN_2
 40
0.00045
  10
-5.53871274026048
  20
42.16666675000004
  0
POLYLINE
  8
Unknown Area Type
  70
9
  66
1
  0
VERTEX
  8
Unknown Area Type
  70
32
  10
-5.55429469780464
  20
42.16666666666671
  30
730.912
  0
VERTEX
  8
Unknown Area Type
  70
32
  10
-5.52313076882517
  20
42.16666666666671
  30
760.698
  0
VERTEX
  8
Unknown Area Type
  70
32
  10
-5.52295072542902
  20
42.14441371749712
  30
759.868
  0
VERTEX
  8
Unknown Area Type
  70
32
  10
-5.541153159621
  20
42.14190896612666
  30
740.646
  0
VERTEX
  8
Unknown Area Type
  70
32
  10
-5.55234785447234
  20
42.1433083375075
  30
737.628
  0
SEQEND
  8
Unknown Area Type
  0
TEXT
  8
Unknown Area Type
 62
7
  1
PNOA-H_AMS_1956-57_33k_ES_PAN_2
 40
0.00045
  10
-5.53929384853158
  20
42.16356323264127
  0
POLYLINE
  8
Unknown Area Type
  70
9
  66
1
  0
VERTEX
  8
Unknown Area Type
  70
32
  10
-5.52313076882517
  20
42.16666666666671
  30
760.698
  0
VERTEX
  8
Unknown Area Type
  70
32
  10
-5.52083333333329
  20
42.16666666666671
  30
760.697
  0
VERTEX
  8
Unknown Area Type
  70
32
  10
-5.52083333333329
  20
42.14583333333339
  30
760.752
  0
VERTEX
  8
Unknown Area Type
  70
32
  10
-5.52083333333329
  20
42.14400788882773
  30
760.92
  0
VERTEX
  8
Unknown Area Type
  70
32
  10
-5.52295072542902
  20
42.14441371749712
  30
759.868
  0
SEQEND
  8
Unknown Area Type
  0
TEXT
  8
Unknown Area Type
 62
7
  1
PNOA-H_AMS_1956-57_33k_ES_PAN_2
 40
0.00045
  10
-5.52198205107923
  20
42.15533727774722
  0
POLYLINE
  8
Unknown Area Type
  70
9
  66
1
  0
VERTEX
  8
Unknown Area Type
  70
32
  10
-5.52313077017363
  20
42.16666683333337
  30
760.698
  0
VERTEX
  8
Unknown Area Type
  70
32
  10
-5.52083333333329
  20
42.16666683333337
  30
760.697
  0
VERTEX
  8
Unknown Area Type
  70
32
  10
-5.52083333333329
  20
42.16666666666671
  30
760.697
  0
VERTEX
  8
Unknown Area Type
  70
32
  10
-5.52313076882517
  20
42.16666666666671
  30
760.698
  0
SEQEND
  8
Unknown Area Type
  0
TEXT
  8
Unknown Area Type
 62
7
  1
PNOA-H_AMS_1956-57_33k_ES_PAN_2
 40
0.00045
  10
-5.52198205175346
  20
42.16666675000004
  0
POLYLINE
  8
Unknown Area Type
  70
9
  66
1
  0
VERTEX
  8
Unknown Area Type
  70
32
  10
-5.52083333333329
  20
42.16666683333337
  30
760.697
  0
VERTEX
  8
Unknown Area Type
  70
32
  10
-5.52083299999996
  20
42.16666683333337
  30
760.697
  0
VERTEX
  8
Unknown Area Type
  70
32
  10
-5.52083299999996
  20
42.16666666666671
  30
760.697
  0
VERTEX
  8
Unknown Area Type
  70
32
  10
-5.52083333333329
  20
42.16666666666671
  30
760.697
  0
SEQEND
  8
Unknown Area Type
  0
TEXT
  8
Unknown Area Type
 62
7
  1
PNOA-H_AMS_1956-57_33k_ES_PAN_2
 40
0.00045
  10
-5.52083316666663
  20
42.16666675000004
  0
POLYLINE
  8
Unknown Area Type
  70
9
  66
1
  0
VERTEX
  8
Unknown Area Type
  70
32
  10
-5.52313076882517
  20
42.16666666666671
  30
760.698
  0
VERTEX
  8
Unknown Area Type
  70
32
  10
-5.52083333333329
  20
42.16666666666671
  30
760.697
  0
VERTEX
  8
Unknown Area Type
  70
32
  10
-5.52083333333329
  20
42.14583333333339
  30
760.752
  0
VERTEX
  8
Unknown Area Type
  70
32
  10
-5.52083333333329
  20
42.14400788882773
  30
760.92
  0
VERTEX
  8
Unknown Area Type
  70
32
  10
-5.52295072542902
  20
42.14441371749712
  30
759.868
  0
SEQEND
  8
Unknown Area Type
  0
TEXT
  8
Unknown Area Type
 62
7
  1
PNOA-H_AMS_1956-57_33k_ES_PAN_2
 40
0.00045
  10
-5.52198205107923
  20
42.15533727774722
  0
POLYLINE
  8
Unknown Area Type
  70
9
  66
1
  0
VERTEX
  8
Unknown Area Type
  70
32
  10
-5.85416666666668
  20
42.14583333333339
  30
787.578
  0
VERTEX
  8
Unknown Area Type
  70
32
  10
-5.85416666666668
  20
42.15646717549335
  30
747.001
  0
VERTEX
  8
Unknown Area Type
  70
32
  10
-5.85254503503374
  20
42.15382443336346
  30
744.291
  0
VERTEX
  8
Unknown Area Type
  70
32
  10
-5.85253818207157
  20
42.15380659328001
  30
744.362
  0
VERTEX
  8
Unknown Area Type
  70
32
  10
-5.85096470630675
  20
42.15124320178424
  30
754.458
  0
VERTEX
  8
Unknown Area Type
  70
32
  10
-5.84987605088515
  20
42.13737056563622
  30
844.075
  0
VERTEX
  8
Unknown Area Type
  70
32
  10
-5.85416666666668
  20
42.13629450361849
  30
826.35
  0
SEQEND
  8
Unknown Area Type
  0
TEXT
  8
Unknown Area Type
 62
7
  1
PNOA-H_AMS_1956-57_33k_ES_PAN_2
 40
0.00045
  10
-5.85202135877592
  20
42.14638083955592
  0
POLYLINE
  8
Unknown Area Type
  70
9
  66
1
  0
VERTEX
  8
Unknown Area Type
  70
32
  10
-5.85416700000001
  20
42.15646771872032
  30
747.001
  0
VERTEX
  8
Unknown Area Type
  70
32
  10
-5.85416666666668
  20
42.15646717549335
  30
747.001
  0
VERTEX
  8
Unknown Area Type
  70
32
  10
-5.85416666666668
  20
42.14583333333339
  30
787.578
  0
VERTEX
  8
Unknown Area Type
  70
32
  10
-5.85416666666668
  20
42.13629450361849
  30
826.35
  0
VERTEX
  8
Unknown Area Type
  70
32
  10
-5.85416700000001
  20
42.13629442002039
  30
826.349
  0
SEQEND
  8
Unknown Area Type
  0
TEXT
  8
Unknown Area Type
 62
7
  1
PNOA-H_AMS_1956-57_33k_ES_PAN_2
 40
0.00045
  10
-5.85416683333334
  20
42.14638106937036
  0
POLYLINE
  8
Unknown Area Type
  70
9
  66
1
  0
VERTEX
  8
Unknown Area Type
  70
32
  10
-5.85416666666668
  20
42.14583333333339
  30
787.578
  0
VERTEX
  8
Unknown Area Type
  70
32
  10
-5.85416666666668
  20
42.15646717549335
  30
747.001
  0
VERTEX
  8
Unknown Area Type
  70
32
  10
-5.85254503503374
  20
42.15382443336346
  30
744.291
  0
VERTEX
  8
Unknown Area Type
  70
32
  10
-5.85253818207157
  20
42.15380659328001
  30
744.362
  0
VERTEX
  8
Unknown Area Type
  70
32
  10
-5.85096470630675
  20
42.15124320178424
  30
754.458
  0
VERTEX
  8
Unknown Area Type
  70
32
  10
-5.84987605088515
  20
42.13737056563622
  30
844.075
  0
VERTEX
  8
Unknown Area Type
  70
32
  10
-5.85416666666668
  20
42.13629450361849
  30
826.35
  0
SEQEND
  8
Unknown Area Type
  0
TEXT
  8
Unknown Area Type
 62
7
  1
PNOA-H_AMS_1956-57_33k_ES_PAN_2
 40
0.00045
  10
-5.85202135877592
  20
42.14638083955592
  0
POLYLINE
  8
Unknown Area Type
  70
9
  66
1
  0
VERTEX
  8
Unknown Area Type
  70
32
  10
-5.78600441982692
  20
42.16666666666671
  30
755.793
  0
VERTEX
  8
Unknown Area Type
  70
32
  10
-5.77083333333333
  20
42.16666666666671
  30
760.225
  0
VERTEX
  8
Unknown Area Type
  70
32
  10
-5.75335923179451
  20
42.16666666666671
  30
758.733
  0
VERTEX
  8
Unknown Area Type
  70
32
  10
-5.75130923132657
  20
42.13863463784513
  30
751.427
  0
VERTEX
  8
Unknown Area Type
  70
32
  10
-5.76433067683085
  20
42.13562880828728
  30
753.979
  0
VERTEX
  8
Unknown Area Type
  70
32
  10
-5.78418311703179
  20
42.13806617398024
  30
750.108
  0
SEQEND
  8
Unknown Area Type
  0
TEXT
  8
Unknown Area Type
 62
7
  1
PNOA-H_AMS_1956-57_33k_ES_PAN_2
 40
0.00045
  10
-5.76898280408818
  20
42.15831924080832
  0
POLYLINE
  8
Unknown Area Type
  70
9
  66
1
  0
VERTEX
  8
Unknown Area Type
  70
32
  10
-5.78600443044039
  20
42.16666683333337
  30
755.793
  0
VERTEX
  8
Unknown Area Type
  70
32
  10
-5.75335924398295
  20
42.16666683333337
  30
758.733
  0
VERTEX
  8
Unknown Area Type
  70
32
  10
-5.75335923179451
  20
42.16666666666671
  30
758.733
  0
VERTEX
  8
Unknown Area Type
  70
32
  10
-5.77083333333333
  20
42.16666666666671
  30
760.225
  0
VERTEX
  8
Unknown Area Type
  70
32
  10
-5.78600441982692
  20
42.16666666666671
  30
755.793
  0
SEQEND
  8
Unknown Area Type
  0
TEXT
  8
Unknown Area Type
 62
7
  1
PNOA-H_AMS_1956-57_33k_ES_PAN_2
 40
0.00045
  10
-5.76968183111745
  20
42.16666675000004
  0
POLYLINE
  8
Unknown Area Type
  70
9
  66
1
  0
VERTEX
  8
Unknown Area Type
  70
32
  10
-5.78600441982692
  20
42.16666666666671
  30
755.793
  0
VERTEX
  8
Unknown Area Type
  70
32
  10
-5.77083333333333
  20
42.16666666666671
  30
760.225
  0
VERTEX
  8
Unknown Area Type
  70
32
  10
-5.75335923179451
  20
42.16666666666671
  30
758.733
  0
VERTEX
  8
Unknown Area Type
  70
32
  10
-5.75130923132657
  20
42.13863463784513
  30
751.427
  0
VERTEX
  8
Unknown Area Type
  70
32
  10
-5.76433067683085
  20
42.13562880828728
  30
753.979
  0
VERTEX
  8
Unknown Area Type
  70
32
  10
-5.78418311703179
  20
42.13806617398024
  30
750.108
  0
SEQEND
  8
Unknown Area Type
  0
TEXT
  8
Unknown Area Type
 62
7
  1
PNOA-H_AMS_1956-57_33k_ES_PAN_2
 40
0.00045
  10
-5.76898280408818
  20
42.15831924080832
  0
POLYLINE
  8
Unknown Area Type
  70
9
  66
1
  0
VERTEX
  8
Unknown Area Type
  70
32
  10
-5.71968281024276
  20
42.16666666666671
  30
764.595
  0
VERTEX
  8
Unknown Area Type
  70
32
  10
-5.68749999999998
  20
42.16666666666671
  30
762.812
  0
VERTEX
  8
Unknown Area Type
  70
32
  10
-5.68571383075166
  20
42.16666666666671
  30
762.904
  0
VERTEX
  8
Unknown Area Type
  70
32
  10
-5.68399188779836
  20
42.13975748686406
  30
784.807
  0
VERTEX
  8
Unknown Area Type
  70
32
  10
-5.69878613236053
  20
42.13653297208728
  30
774.117
  0
VERTEX
  8
Unknown Area Type
  70
32
  10
-5.71869845393316
  20
42.13914689912485
  30
776.533
  0
SEQEND
  8
Unknown Area Type
  0
TEXT
  8
Unknown Area Type
 62
7
  1
PNOA-H_AMS_1956-57_33k_ES_PAN_2
 40
0.00045
  10
-5.702063899342
  20
42.15888026527512
  0
POLYLINE
  8
Unknown Area Type
  70
9
  66
1
  0
VERTEX
  8
Unknown Area Type
  70
32
  10
-5.71968281620427
  20
42.16666683333337
  30
764.595
  0
VERTEX
  8
Unknown Area Type
  70
32
  10
-5.68571384141681
  20
42.16666683333337
  30
762.904
  0
VERTEX
  8
Unknown Area Type
  70
32
  10
-5.68571383075166
  20
42.16666666666671
  30
762.904
  0
VERTEX
  8
Unknown Area Type
  70
32
  10
-5.68749999999998
  20
42.16666666666671
  30
762.812
  0
VERTEX
  8
Unknown Area Type
  70
32
  10
-5.71968281024276
  20
42.16666666666671
  30
764.595
  0
SEQEND
  8
Unknown Area Type
  0
TEXT
  8
Unknown Area Type
 62
7
  1
PNOA-H_AMS_1956-57_33k_ES_PAN_2
 40
0.00045
  10
-5.70269832347796
  20
42.16666675000004
  0
POLYLINE
  8
Unknown Area Type
  70
9
  66
1
  0
VERTEX
  8
Unknown Area Type
  70
32
  10
-5.71968281024276
  20
42.16666666666671
  30
764.595
  0
VERTEX
  8
Unknown Area Type
  70
32
  10
-5.68749999999998
  20
42.16666666666671
  30
762.812
  0
VERTEX
  8
Unknown Area Type
  70
32
  10
-5.68571383075166
  20
42.16666666666671
  30
762.904
  0
VERTEX
  8
Unknown Area Type
  70
32
  10
-5.68399188779836
  20
42.13975748686406
  30
784.807
  0
VERTEX
  8
Unknown Area Type
  70
32
  10
-5.69878613236053
  20
42.13653297208728
  30
774.117
  0
VERTEX
  8
Unknown Area Type
  70
32
  10
-5.71869845393316
  20
42.13914689912485
  30
776.533
  0
SEQEND
  8
Unknown Area Type
  0
TEXT
  8
Unknown Area Type
 62
7
  1
PNOA-H_AMS_1956-57_33k_ES_PAN_2
 40
0.00045
  10
-5.702063899342
  20
42.15888026527512
  0
POLYLINE
  8
Unknown Area Type
  70
9
  66
1
  0
VERTEX
  8
Unknown Area Type
  70
32
  10
-5.58578974994823
  20
42.16666666666671
  30
725.088
  0
VERTEX
  8
Unknown Area Type
  70
32
  10
-5.56250000000001
  20
42.16666666666671
  30
730.717
  0
VERTEX
  8
Unknown Area Type
  70
32
  10
-5.55429469780464
  20
42.16666666666671
  30
730.912
  0
VERTEX
  8
Unknown Area Type
  70
32
  10
-5.55234785447234
  20
42.1433083375075
  30
737.628
  0
VERTEX
  8
Unknown Area Type
  70
32
  10
-5.56867632637311
  20
42.14043116369822
  30
727.913
  0
VERTEX
  8
Unknown Area Type
  70
32
  10
-5.58480127058918
  20
42.1428469981036
  30
721.63
  0
SEQEND
  8
Unknown Area Type
  0
TEXT
  8
Unknown Area Type
 62
7
  1
PNOA-H_AMS_1956-57_33k_ES_PAN_2
 40
0.00045
  10
-5.56940614725421
  20
42.16222002376527
  0
POLYLINE
  8
Unknown Area Type
  70
9
  66
1
  0
VERTEX
  8
Unknown Area Type
  70
32
  10
-5.58578975686464
  20
42.16666683333337
  30
725.088
  0
VERTEX
  8
Unknown Area Type
  70
32
  10
-5.55429471169579
  20
42.16666683333337
  30
730.912
  0
VERTEX
  8
Unknown Area Type
  70
32
  10
-5.55429469780464
  20
42.16666666666671
  30
730.912
  0
VERTEX
  8
Unknown Area Type
  70
32
  10
-5.56250000000001
  20
42.16666666666671
  30
730.717
  0
VERTEX
  8
Unknown Area Type
  70
32
  10
-5.58578974994823
  20
42.16666666666671
  30
725.088
  0
SEQEND
  8
Unknown Area Type
  0
TEXT
  8
Unknown Area Type
 62
7
  1
PNOA-H_AMS_1956-57_33k_ES_PAN_2
 40
0.00045
  10
-5.57004222733464
  20
42.16666675000004
  0
POLYLINE
  8
Unknown Area Type
  70
9
  66
1
  0
VERTEX
  8
Unknown Area Type
  70
32
  10
-5.58578974994823
  20
42.16666666666671
  30
725.088
  0
VERTEX
  8
Unknown Area Type
  70
32
  10
-5.56250000000001
  20
42.16666666666671
  30
730.717
  0
VERTEX
  8
Unknown Area Type
  70
32
  10
-5.55429469780464
  20
42.16666666666671
  30
730.912
  0
VERTEX
  8
Unknown Area Type
  70
32
  10
-5.55234785447234
  20
42.1433083375075
  30
737.628
  0
VERTEX
  8
Unknown Area Type
  70
32
  10
-5.56867632637311
  20
42.14043116369822
  30
727.913
  0
VERTEX
  8
Unknown Area Type
  70
32
  10
-5.58480127058918
  20
42.1428469981036
  30
721.63
  0
SEQEND
  8
Unknown Area Type
  0
TEXT
  8
Unknown Area Type
 62
7
  1
PNOA-H_AMS_1956-57_33k_ES_PAN_2
 40
0.00045
  10
-5.56940614725421
  20
42.16222002376527
  0
POLYLINE
  8
Unknown Area Type
  70
9
  66
1
  0
VERTEX
  8
Unknown Area Type
  70
32
  10
-5.75336348443846
  20
42.16666666666671
  30
758.753
  0
VERTEX
  8
Unknown Area Type
  70
32
  10
-5.7291666666667
  20
42.16666666666671
  30
764.448
  0
VERTEX
  8
Unknown Area Type
  70
32
  10
-5.71968281024276
  20
42.16666666666671
  30
764.595
  0
VERTEX
  8
Unknown Area Type
  70
32
  10
-5.71869845393316
  20
42.13914689912485
  30
776.533
  0
VERTEX
  8
Unknown Area Type
  70
32
  10
-5.72131077656317
  20
42.13855360529648
  30
777.928
  0
VERTEX
  8
Unknown Area Type
  70
32
  10
-5.7213349512368
  20
42.13855303150617
  30
777.88
  0
VERTEX
  8
Unknown Area Type
  70
32
  10
-5.73175447429714
  20
42.13620248264912
  30
731.091
  0
VERTEX
  8
Unknown Area Type
  70
32
  10
-5.75130923132657
  20
42.13863463784513
  30
751.427
  0
SEQEND
  8
Unknown Area Type
  0
TEXT
  8
Unknown Area Type
 62
7
  1
PNOA-H_AMS_1956-57_33k_ES_PAN_2
 40
0.00045
  10
-5.73643488726636
  20
42.15867090895988
  0
POLYLINE
  8
Unknown Area Type
  70
9
  66
1
  0
VERTEX
  8
Unknown Area Type
  70
32
  10
-5.75336349665218
  20
42.16666683333337
  30
758.753
  0
VERTEX
  8
Unknown Area Type
  70
32
  10
-5.71968281620427
  20
42.16666683333337
  30
764.595
  0
VERTEX
  8
Unknown Area Type
  70
32
  10
-5.71968281024276
  20
42.16666666666671
  30
764.595
  0
VERTEX
  8
Unknown Area Type
  70
32
  10
-5.7291666666667
  20
42.16666666666671
  30
764.448
  0
VERTEX
  8
Unknown Area Type
  70
32
  10
-5.75336348443846
  20
42.16666666666671
  30
758.753
  0
SEQEND
  8
Unknown Area Type
  0
TEXT
  8
Unknown Area Type
 62
7
  1
PNOA-H_AMS_1956-57_33k_ES_PAN_2
 40
0.00045
  10
-5.73652315344747
  20
42.16666675000004
  0
POLYLINE
  8
Unknown Area Type
  70
9
  66
1
  0
VERTEX
  8
Unknown Area Type
  70
32
  10
-5.75336348443846
  20
42.16666666666671
  30
758.753
  0
VERTEX
  8
Unknown Area Type
  70
32
  10
-5.7291666666667
  20
42.16666666666671
  30
764.448
  0
VERTEX
  8
Unknown Area Type
  70
32
  10
-5.71968281024276
  20
42.16666666666671
  30
764.595
  0
VERTEX
  8
Unknown Area Type
  70
32
  10
-5.71869845393316
  20
42.13914689912485
  30
776.533
  0
VERTEX
  8
Unknown Area Type
  70
32
  10
-5.72131077656317
  20
42.13855360529648
  30
777.928
  0
VERTEX
  8
Unknown Area Type
  70
32
  10
-5.7213349512368
  20
42.13855303150617
  30
777.88
  0
VERTEX
  8
Unknown Area Type
  70
32
  10
-5.73175447429714
  20
42.13620248264912
  30
731.091
  0
VERTEX
  8
Unknown Area Type
  70
32
  10
-5.75130923132657
  20
42.13863463784513
  30
751.427
  0
SEQEND
  8
Unknown Area Type
  0
TEXT
  8
Unknown Area Type
 62
7
  1
PNOA-H_AMS_1956-57_33k_ES_PAN_2
 40
0.00045
  10
-5.73643488726636
  20
42.15867090895988
  0
POLYLINE
  8
Unknown Area Type
  70
9
  66
1
  0
VERTEX
  8
Unknown Area Type
  70
32
  10
-5.65240265550783
  20
42.16666666666671
  30
765.541
  0
VERTEX
  8
Unknown Area Type
  70
32
  10
-5.64583333333336
  20
42.16666666666671
  30
765.548
  0
VERTEX
  8
Unknown Area Type
  70
32
  10
-5.61913599655406
  20
42.16666666666671
  30
775.521
  0
VERTEX
  8
Unknown Area Type
  70
32
  10
-5.61836223906665
  20
42.14226111920215
  30
757.608
  0
VERTEX
  8
Unknown Area Type
  70
32
  10
-5.63462332138492
  20
42.13900686930059
  30
778.868
  0
VERTEX
  8
Unknown Area Type
  70
32
  10
-5.63467771864476
  20
42.13900561935069
  30
778.945
  0
VERTEX
  8
Unknown Area Type
  70
32
  10
-5.64928410733366
  20
42.14108252297929
  30
765.754
  0
SEQEND
  8
Unknown Area Type
  0
TEXT
  8
Unknown Area Type
 62
7
  1
PNOA-H_AMS_1956-57_33k_ES_PAN_2
 40
0.00045
  10
-5.63633283686846
  20
42.16104145436557
  0
POLYLINE
  8
Unknown Area Type
  70
9
  66
1
  0
VERTEX
  8
Unknown Area Type
  70
32
  10
-5.65240267582346
  20
42.16666683333337
  30
765.541
  0
VERTEX
  8
Unknown Area Type
  70
32
  10
-5.61913600183809
  20
42.16666683333337
  30
775.521
  0
VERTEX
  8
Unknown Area Type
  70
32
  10
-5.61913599655406
  20
42.16666666666671
  30
775.521
  0
VERTEX
  8
Unknown Area Type
  70
32
  10
-5.64583333333336
  20
42.16666666666671
  30
765.548
  0
VERTEX
  8
Unknown Area Type
  70
32
  10
-5.65240265550783
  20
42.16666666666671
  30
765.541
  0
SEQEND
  8
Unknown Area Type
  0
TEXT
  8
Unknown Area Type
 62
7
  1
PNOA-H_AMS_1956-57_33k_ES_PAN_2
 40
0.00045
  10
-5.63576933618876
  20
42.16666675000004
  0
POLYLINE
  8
Unknown Area Type
  70
9
  66
1
  0
VERTEX
  8
Unknown Area Type
  70
32
  10
-5.65240265550783
  20
42.16666666666671
  30
765.541
  0
VERTEX
  8
Unknown Area Type
  70
32
  10
-5.64583333333336
  20
42.16666666666671
  30
765.548
  0
VERTEX
  8
Unknown Area Type
  70
32
  10
-5.61913599655406
  20
42.16666666666671
  30
775.521
  0
VERTEX
  8
Unknown Area Type
  70
32
  10
-5.61836223906665
  20
42.14226111920215
  30
757.608
  0
VERTEX
  8
Unknown Area Type
  70
32
  10
-5.63462332138492
  20
42.13900686930059
  30
778.868
  0
VERTEX
  8
Unknown Area Type
  70
32
  10
-5.63467771864476
  20
42.13900561935069
  30
778.945
  0
VERTEX
  8
Unknown Area Type
  70
32
  10
-5.64928410733366
  20
42.14108252297929
  30
765.754
  0
SEQEND
  8
Unknown Area Type
  0
TEXT
  8
Unknown Area Type
 62
7
  1
PNOA-H_AMS_1956-57_33k_ES_PAN_2
 40
0.00045
  10
-5.63633283686846
  20
42.16104145436557
  0
POLYLINE
  8
Unknown Area Type
  70
9
  66
1
  0
VERTEX
  8
Unknown Area Type
  70
32
  10
-5.54115920448376
  20
42.14190883216111
  30
740.643
  0
VERTEX
  8
Unknown Area Type
  70
32
  10
-5.54111725044798
  20
42.14191876748311
  30
740.662
  0
VERTEX
  8
Unknown Area Type
  70
32
  10
-5.52296886098724
  20
42.14441331845736
  30
759.837
  0
VERTEX
  8
Unknown Area Type
  70
32
  10
-5.52291427558223
  20
42.14441001672179
  30
759.88
  0
VERTEX
  8
Unknown Area Type
  70
32
  10
-5.52083333333329
  20
42.14400995461274
  30
760.881
  0
VERTEX
  8
Unknown Area Type
  70
32
  10
-5.52083333333329
  20
42.14005341870052
  30
762.845
  0
VERTEX
  8
Unknown Area Type
  70
32
  10
-5.522843872327
  20
42.12466235026707
  30
769.709
  0
VERTEX
  8
Unknown Area Type
  70
32
  10
-5.52284333652518
  20
42.1246488536809
  30
769.738
  0
VERTEX
  8
Unknown Area Type
  70
32
  10
-5.52626376177365
  20
42.09839428014698
  30
770.364
  0
VERTEX
  8
Unknown Area Type
  70
32
  10
-5.53768145315987
  20
42.0980071116089
  30
783.867
  0
VERTEX
  8
Unknown Area Type
  70
32
  10
-5.54115776444404
  20
42.14187284188286
  30
740.645
  0
SEQEND
  8
Unknown Area Type
  0
TEXT
  8
Unknown Area Type
 62
7
  1
PNOA-H_AMS_1956-57_33k_ES_PAN_2
 40
0.00045
  10
-5.53074433401204
  20
42.12079177071499
  0
POLYLINE
  8
Unknown Area Type
  70
9
  66
1
  0
VERTEX
  8
Unknown Area Type
  70
32
  10
-5.54115920448376
  20
42.14190883216111
  30
740.643
  0
VERTEX
  8
Unknown Area Type
  70
32
  10
-5.54111725044798
  20
42.14191876748311
  30
740.662
  0
VERTEX
  8
Unknown Area Type
  70
32
  10
-5.52296886098724
  20
42.14441331845736
  30
759.837
  0
VERTEX
  8
Unknown Area Type
  70
32
  10
-5.52291427558223
  20
42.14441001672179
  30
759.88
  0
VERTEX
  8
Unknown Area Type
  70
32
  10
-5.52083333333329
  20
42.14400995461274
  30
760.881
  0
VERTEX
  8
Unknown Area Type
  70
32
  10
-5.52083333333329
  20
42.14005341870052
  30
762.845
  0
VERTEX
  8
Unknown Area Type
  70
32
  10
-5.522843872327
  20
42.12466235026707
  30
769.709
  0
VERTEX
  8
Unknown Area Type
  70
32
  10
-5.52284333652518
  20
42.1246488536809
  30
769.738
  0
VERTEX
  8
Unknown Area Type
  70
32
  10
-5.52626376177365
  20
42.09839428014698
  30
770.364
  0
VERTEX
  8
Unknown Area Type
  70
32
  10
-5.53768145315987
  20
42.0980071116089
  30
783.867
  0
VERTEX
  8
Unknown Area Type
  70
32
  10
-5.54115776444404
  20
42.14187284188286
  30
740.645
  0
SEQEND
  8
Unknown Area Type
  0
TEXT
  8
Unknown Area Type
 62
7
  1
PNOA-H_AMS_1956-57_33k_ES_PAN_2
 40
0.00045
  10
-5.53074433401204
  20
42.12079177071499
  0
ENDSEC
  0
EOF
