  0
SECTION
  2
HEADER
  9
$ACADVER
  1
AC1009
  9
$LUNITS
  70
2
  9
$DWGCODEPAGE
  3
UTF8
  9
$LIMMIN
  10
-6.18749999999997
  20
42.00000000000001
  9
$LIMMAX
  10
-5.85416666666668
  20
42.16666666666671
  9
$EXTMIN
  10
-6.18749999999997
  20
42.00000000000001
  9
$EXTMAX
  10
-5.85416666666668
  20
42.16666666666671
  999
Created by Global Mapper
  999
Projection: Geographic (Latitude/Longitude)
  999
Datum: ETRS89
  999
Ground Units: arc degrees
  999
CENTRAL LONGITUDE: 0
  0
ENDSEC
  0
SECTION
  2
TABLES
  0
ENDSEC
  0
SECTION
  2
BLOCKS
  0
ENDSEC
  0
SECTION
  2
ENTITIES
  0
POLYLINE
  8
Unknown Area Type
  70
9
  66
1
  0
VERTEX
  8
Unknown Area Type
  70
32
  10
-5.88051915857738
  20
42.01575714932524
  30
753.592
  0
VERTEX
  8
Unknown Area Type
  70
32
  10
-5.86007124735634
  20
42.02013222052266
  30
722.536
  0
VERTEX
  8
Unknown Area Type
  70
32
  10
-5.86004732215631
  20
42.02013731987277
  30
722.494
  0
VERTEX
  8
Unknown Area Type
  70
32
  10
-5.85995000765809
  20
42.02012173564424
  30
722.252
  0
VERTEX
  8
Unknown Area Type
  70
32
  10
-5.85416666666668
  20
42.01867379244462
  30
719.59
  0
VERTEX
  8
Unknown Area Type
  70
32
  10
-5.85416666666668
  20
42.00000000000001
  30
717.058
  0
VERTEX
  8
Unknown Area Type
  70
32
  10
-5.8799124387534
  20
42.00000000000001
  30
744.707
  0
SEQEND
  8
Unknown Area Type
  0
TEXT
  8
Unknown Area Type
 62
7
  1
PNOA-H_AMS_1956-57_33k_ES_PAN_2
 40
0.00045
  10
-5.86734291262203
  20
42.01006865993639
  0
POLYLINE
  8
Unknown Area Type
  70
9
  66
1
  0
VERTEX
  8
Unknown Area Type
  70
32
  10
-5.88051915857738
  20
42.01575714932524
  30
753.592
  0
VERTEX
  8
Unknown Area Type
  70
32
  10
-5.86007124735634
  20
42.02013222052266
  30
722.536
  0
VERTEX
  8
Unknown Area Type
  70
32
  10
-5.86004732215631
  20
42.02013731987277
  30
722.494
  0
VERTEX
  8
Unknown Area Type
  70
32
  10
-5.85995000765809
  20
42.02012173564424
  30
722.252
  0
VERTEX
  8
Unknown Area Type
  70
32
  10
-5.85416666666668
  20
42.01867379244462
  30
719.59
  0
VERTEX
  8
Unknown Area Type
  70
32
  10
-5.85416666666668
  20
42.00000000000001
  30
717.058
  0
VERTEX
  8
Unknown Area Type
  70
32
  10
-5.8799124387534
  20
42.00000000000001
  30
744.707
  0
SEQEND
  8
Unknown Area Type
  0
TEXT
  8
Unknown Area Type
 62
7
  1
PNOA-H_AMS_1956-57_33k_ES_PAN_2
 40
0.00045
  10
-5.86734291262203
  20
42.01006865993639
  0
POLYLINE
  8
Unknown Area Type
  70
9
  66
1
  0
VERTEX
  8
Unknown Area Type
  70
32
  10
-5.85416666666668
  20
42.01867379244462
  30
719.59
  0
VERTEX
  8
Unknown Area Type
  70
32
  10
-5.85416633333334
  20
42.01867370898978
  30
719.59
  0
VERTEX
  8
Unknown Area Type
  70
32
  10
-5.85416633333334
  20
42.00000000000001
  30
717.058
  0
VERTEX
  8
Unknown Area Type
  70
32
  10
-5.85416666666668
  20
42.00000000000001
  30
717.058
  0
SEQEND
  8
Unknown Area Type
  0
TEXT
  8
Unknown Area Type
 62
7
  1
PNOA-H_AMS_1956-57_33k_ES_PAN_2
 40
0.00045
  10
-5.85416650000001
  20
42.00933689622232
  0
POLYLINE
  8
Unknown Area Type
  70
9
  66
1
  0
VERTEX
  8
Unknown Area Type
  70
32
  10
-5.95324584469081
  20
42.01664063732056
  30
763.129
  0
VERTEX
  8
Unknown Area Type
  70
32
  10
-5.92647214719815
  20
42.01965034010407
  30
760.614
  0
VERTEX
  8
Unknown Area Type
  70
32
  10
-5.92641807162394
  20
42.01965622263891
  30
760.307
  0
VERTEX
  8
Unknown Area Type
  70
32
  10
-5.92637585231482
  20
42.01965729992227
  30
760.297
  0
VERTEX
  8
Unknown Area Type
  70
32
  10
-5.92620408584299
  20
42.01959864481693
  30
760.326
  0
VERTEX
  8
Unknown Area Type
  70
32
  10
-5.91658235894769
  20
42.01624157182541
  30
759.494
  0
VERTEX
  8
Unknown Area Type
  70
32
  10
-5.91667520593714
  20
42.00000000000001
  30
755.81
  0
VERTEX
  8
Unknown Area Type
  70
32
  10
-5.93750000000002
  20
42.00000000000001
  30
746.765
  0
VERTEX
  8
Unknown Area Type
  70
32
  10
-5.95292517976048
  20
42.00000000000001
  30
747.052
  0
SEQEND
  8
Unknown Area Type
  0
TEXT
  8
Unknown Area Type
 62
7
  1
PNOA-H_AMS_1956-57_33k_ES_PAN_2
 40
0.00045
  10
-5.93491410181925
  20
42.00982864996114
  0
POLYLINE
  8
Unknown Area Type
  70
9
  66
1
  0
VERTEX
  8
Unknown Area Type
  70
32
  10
-5.95324584469081
  20
42.01664063732056
  30
763.129
  0
VERTEX
  8
Unknown Area Type
  70
32
  10
-5.92647214719815
  20
42.01965034010407
  30
760.614
  0
VERTEX
  8
Unknown Area Type
  70
32
  10
-5.92641807162394
  20
42.01965622263891
  30
760.307
  0
VERTEX
  8
Unknown Area Type
  70
32
  10
-5.92637585231482
  20
42.01965729992227
  30
760.297
  0
VERTEX
  8
Unknown Area Type
  70
32
  10
-5.92620408584299
  20
42.01959864481693
  30
760.326
  0
VERTEX
  8
Unknown Area Type
  70
32
  10
-5.91658235894769
  20
42.01624157182541
  30
759.494
  0
VERTEX
  8
Unknown Area Type
  70
32
  10
-5.91667520593714
  20
42.00000000000001
  30
755.81
  0
VERTEX
  8
Unknown Area Type
  70
32
  10
-5.93750000000002
  20
42.00000000000001
  30
746.765
  0
VERTEX
  8
Unknown Area Type
  70
32
  10
-5.95292517976048
  20
42.00000000000001
  30
747.052
  0
SEQEND
  8
Unknown Area Type
  0
TEXT
  8
Unknown Area Type
 62
7
  1
PNOA-H_AMS_1956-57_33k_ES_PAN_2
 40
0.00045
  10
-5.93491410181925
  20
42.00982864996114
  0
POLYLINE
  8
Unknown Area Type
  70
9
  66
1
  0
VERTEX
  8
Unknown Area Type
  70
32
  10
-5.98887154434501
  20
42.00416383752578
  30
767.675
  0
VERTEX
  8
Unknown Area Type
  70
32
  10
-5.98887386175884
  20
42.00421330663799
  30
767.667
  0
VERTEX
  8
Unknown Area Type
  70
32
  10
-5.98791741341484
  20
42.01691777260935
  30
770.452
  0
VERTEX
  8
Unknown Area Type
  70
32
  10
-5.96075981807661
  20
42.01942767980356
  30
764.45
  0
VERTEX
  8
Unknown Area Type
  70
32
  10
-5.95324584469081
  20
42.01664063732056
  30
763.129
  0
VERTEX
  8
Unknown Area Type
  70
32
  10
-5.95292391600804
  20
42.00000000000001
  30
746.955
  0
VERTEX
  8
Unknown Area Type
  70
32
  10
-5.97916666666665
  20
42.00000000000001
  30
762.448
  0
VERTEX
  8
Unknown Area Type
  70
32
  10
-5.98918440637166
  20
42.00000000000001
  30
761.303
  0
SEQEND
  8
Unknown Area Type
  0
TEXT
  8
Unknown Area Type
 62
7
  1
PNOA-H_AMS_1956-57_33k_ES_PAN_2
 40
0.00045
  10
-5.97105416118985
  20
42.00971383990179
  0
POLYLINE
  8
Unknown Area Type
  70
9
  66
1
  0
VERTEX
  8
Unknown Area Type
  70
32
  10
-5.98887154434501
  20
42.00416383752578
  30
767.675
  0
VERTEX
  8
Unknown Area Type
  70
32
  10
-5.98887386175884
  20
42.00421330663799
  30
767.667
  0
VERTEX
  8
Unknown Area Type
  70
32
  10
-5.98791741341484
  20
42.01691777260935
  30
770.452
  0
VERTEX
  8
Unknown Area Type
  70
32
  10
-5.96075981807661
  20
42.01942767980356
  30
764.45
  0
VERTEX
  8
Unknown Area Type
  70
32
  10
-5.95324584469081
  20
42.01664063732056
  30
763.129
  0
VERTEX
  8
Unknown Area Type
  70
32
  10
-5.95292391600804
  20
42.00000000000001
  30
746.955
  0
VERTEX
  8
Unknown Area Type
  70
32
  10
-5.97916666666665
  20
42.00000000000001
  30
762.448
  0
VERTEX
  8
Unknown Area Type
  70
32
  10
-5.98918440637166
  20
42.00000000000001
  30
761.303
  0
SEQEND
  8
Unknown Area Type
  0
TEXT
  8
Unknown Area Type
 62
7
  1
PNOA-H_AMS_1956-57_33k_ES_PAN_2
 40
0.00045
  10
-5.97105416118985
  20
42.00971383990179
  0
POLYLINE
  8
Unknown Area Type
  70
9
  66
1
  0
VERTEX
  8
Unknown Area Type
  70
32
  10
-5.91658818433748
  20
42.01623692097756
  30
759.47
  0
VERTEX
  8
Unknown Area Type
  70
32
  10
-5.91532241392164
  20
42.01641769232591
  30
759.622
  0
VERTEX
  8
Unknown Area Type
  70
32
  10
-5.91528643300007
  20
42.01642310963821
  30
759.587
  0
VERTEX
  8
Unknown Area Type
  70
32
  10
-5.89297699255283
  20
42.01951404395642
  30
756.725
  0
VERTEX
  8
Unknown Area Type
  70
32
  10
-5.88051915857738
  20
42.01575714932524
  30
753.592
  0
VERTEX
  8
Unknown Area Type
  70
32
  10
-5.8799124387534
  20
42.00000000000001
  30
744.707
  0
VERTEX
  8
Unknown Area Type
  70
32
  10
-5.89583333333331
  20
42.00000000000001
  30
745.052
  0
VERTEX
  8
Unknown Area Type
  70
32
  10
-5.91667840662692
  20
42.00000000000001
  30
755.79
  0
SEQEND
  8
Unknown Area Type
  0
TEXT
  8
Unknown Area Type
 62
7
  1
PNOA-H_AMS_1956-57_33k_ES_PAN_2
 40
0.00045
  10
-5.89829542269016
  20
42.00975702197822
  0
POLYLINE
  8
Unknown Area Type
  70
9
  66
1
  0
VERTEX
  8
Unknown Area Type
  70
32
  10
-5.91658818433748
  20
42.01623692097756
  30
759.47
  0
VERTEX
  8
Unknown Area Type
  70
32
  10
-5.91532241392164
  20
42.01641769232591
  30
759.622
  0
VERTEX
  8
Unknown Area Type
  70
32
  10
-5.91528643300007
  20
42.01642310963821
  30
759.587
  0
VERTEX
  8
Unknown Area Type
  70
32
  10
-5.89297699255283
  20
42.01951404395642
  30
756.725
  0
VERTEX
  8
Unknown Area Type
  70
32
  10
-5.88051915857738
  20
42.01575714932524
  30
753.592
  0
VERTEX
  8
Unknown Area Type
  70
32
  10
-5.8799124387534
  20
42.00000000000001
  30
744.707
  0
VERTEX
  8
Unknown Area Type
  70
32
  10
-5.89583333333331
  20
42.00000000000001
  30
745.052
  0
VERTEX
  8
Unknown Area Type
  70
32
  10
-5.91667840662692
  20
42.00000000000001
  30
755.79
  0
SEQEND
  8
Unknown Area Type
  0
TEXT
  8
Unknown Area Type
 62
7
  1
PNOA-H_AMS_1956-57_33k_ES_PAN_2
 40
0.00045
  10
-5.89829542269016
  20
42.00975702197822
  0
POLYLINE
  8
Unknown Area Type
  70
9
  66
1
  0
VERTEX
  8
Unknown Area Type
  70
32
  10
-6.02505944429457
  20
42.01860964285922
  30
776.176
  0
VERTEX
  8
Unknown Area Type
  70
32
  10
-5.99498428487008
  20
42.01979525448037
  30
771.448
  0
VERTEX
  8
Unknown Area Type
  70
32
  10
-5.98949956537204
  20
42.01756545028729
  30
770.887
  0
VERTEX
  8
Unknown Area Type
  70
32
  10
-5.98949311295078
  20
42.01755661313607
  30
770.903
  0
VERTEX
  8
Unknown Area Type
  70
32
  10
-5.98792989628961
  20
42.01692645273689
  30
770.476
  0
VERTEX
  8
Unknown Area Type
  70
32
  10
-5.98791678131306
  20
42.01690428105149
  30
770.412
  0
VERTEX
  8
Unknown Area Type
  70
32
  10
-5.98918332301501
  20
42.00000000000001
  30
752.111
  0
VERTEX
  8
Unknown Area Type
  70
32
  10
-6.02083333333337
  20
42.00000000000001
  30
753.784
  0
VERTEX
  8
Unknown Area Type
  70
32
  10
-6.02640896539246
  20
42.00000000000001
  30
753.289
  0
SEQEND
  8
Unknown Area Type
  0
TEXT
  8
Unknown Area Type
 62
7
  1
PNOA-H_AMS_1956-57_33k_ES_PAN_2
 40
0.00045
  10
-6.00716287335276
  20
42.00989762724019
  0
POLYLINE
  8
Unknown Area Type
  70
9
  66
1
  0
VERTEX
  8
Unknown Area Type
  70
32
  10
-6.02505944429457
  20
42.01860964285922
  30
776.176
  0
VERTEX
  8
Unknown Area Type
  70
32
  10
-5.99498428487008
  20
42.01979525448037
  30
771.448
  0
VERTEX
  8
Unknown Area Type
  70
32
  10
-5.98949956537204
  20
42.01756545028729
  30
770.887
  0
VERTEX
  8
Unknown Area Type
  70
32
  10
-5.98949311295078
  20
42.01755661313607
  30
770.903
  0
VERTEX
  8
Unknown Area Type
  70
32
  10
-5.98792989628961
  20
42.01692645273689
  30
770.476
  0
VERTEX
  8
Unknown Area Type
  70
32
  10
-5.98791678131306
  20
42.01690428105149
  30
770.412
  0
VERTEX
  8
Unknown Area Type
  70
32
  10
-5.98918332301501
  20
42.00000000000001
  30
752.111
  0
VERTEX
  8
Unknown Area Type
  70
32
  10
-6.02083333333337
  20
42.00000000000001
  30
753.784
  0
VERTEX
  8
Unknown Area Type
  70
32
  10
-6.02640896539246
  20
42.00000000000001
  30
753.289
  0
SEQEND
  8
Unknown Area Type
  0
TEXT
  8
Unknown Area Type
 62
7
  1
PNOA-H_AMS_1956-57_33k_ES_PAN_2
 40
0.00045
  10
-6.00716287335276
  20
42.00989762724019
  0
POLYLINE
  8
Unknown Area Type
  70
9
  66
1
  0
VERTEX
  8
Unknown Area Type
  70
32
  10
-6.13488130138119
  20
42.02055441386948
  30
799.1
  0
VERTEX
  8
Unknown Area Type
  70
32
  10
-6.13487078845172
  20
42.02058621953165
  30
799.23
  0
VERTEX
  8
Unknown Area Type
  70
32
  10
-6.13469922712606
  20
42.02065844863728
  30
799.969
  0
VERTEX
  8
Unknown Area Type
  70
32
  10
-6.13088793182972
  20
42.02223492525601
  30
803.161
  0
VERTEX
  8
Unknown Area Type
  70
32
  10
-6.13087609177811
  20
42.02223975113531
  30
803.311
  0
VERTEX
  8
Unknown Area Type
  70
32
  10
-6.09885903508396
  20
42.01986304356699
  30
784.2
  0
VERTEX
  8
Unknown Area Type
  70
32
  10
-6.10051290942851
  20
42.00000000000001
  30
765.422
  0
VERTEX
  8
Unknown Area Type
  70
32
  10
-6.10416666666663
  20
42.00000000000001
  30
765.136
  0
VERTEX
  8
Unknown Area Type
  70
32
  10
-6.13638891967713
  20
42.00000000000001
  30
780.967
  0
SEQEND
  8
Unknown Area Type
  0
TEXT
  8
Unknown Area Type
 62
7
  1
PNOA-H_AMS_1956-57_33k_ES_PAN_2
 40
0.00045
  10
-6.11823846694957
  20
42.00063736602164
  0
POLYLINE
  8
Unknown Area Type
  70
9
  66
1
  0
VERTEX
  8
Unknown Area Type
  70
32
  10
-6.13488130138119
  20
42.02055441386948
  30
799.1
  0
VERTEX
  8
Unknown Area Type
  70
32
  10
-6.13487078845172
  20
42.02058621953165
  30
799.23
  0
VERTEX
  8
Unknown Area Type
  70
32
  10
-6.13469922712606
  20
42.02065844863728
  30
799.969
  0
VERTEX
  8
Unknown Area Type
  70
32
  10
-6.13088793182972
  20
42.02223492525601
  30
803.161
  0
VERTEX
  8
Unknown Area Type
  70
32
  10
-6.13087609177811
  20
42.02223975113531
  30
803.311
  0
VERTEX
  8
Unknown Area Type
  70
32
  10
-6.09885903508396
  20
42.01986304356699
  30
784.2
  0
VERTEX
  8
Unknown Area Type
  70
32
  10
-6.10051290942851
  20
42.00000000000001
  30
765.422
  0
VERTEX
  8
Unknown Area Type
  70
32
  10
-6.10416666666663
  20
42.00000000000001
  30
765.136
  0
VERTEX
  8
Unknown Area Type
  70
32
  10
-6.13638891967713
  20
42.00000000000001
  30
780.967
  0
SEQEND
  8
Unknown Area Type
  0
TEXT
  8
Unknown Area Type
 62
7
  1
PNOA-H_AMS_1956-57_33k_ES_PAN_2
 40
0.00045
  10
-6.11823846694957
  20
42.00063736602164
  0
POLYLINE
  8
Unknown Area Type
  70
9
  66
1
  0
VERTEX
  8
Unknown Area Type
  70
32
  10
-6.09885903508396
  20
42.01986304356699
  30
784.2
  0
VERTEX
  8
Unknown Area Type
  70
32
  10
-6.09619150981079
  20
42.02101122473196
  30
786.567
  0
VERTEX
  8
Unknown Area Type
  70
32
  10
-6.0961796671383
  20
42.02101604710726
  30
786.59
  0
VERTEX
  8
Unknown Area Type
  70
32
  10
-6.0636327304171
  20
42.01938671082555
  30
773.52
  0
VERTEX
  8
Unknown Area Type
  70
32
  10
-6.06386383901306
  20
42.00000000000001
  30
755.623
  0
VERTEX
  8
Unknown Area Type
  70
32
  10
-6.10051290942851
  20
42.00000000000001
  30
765.422
  0
SEQEND
  8
Unknown Area Type
  0
TEXT
  8
Unknown Area Type
 62
7
  1
PNOA-H_AMS_1956-57_33k_ES_PAN_2
 40
0.00045
  10
-6.0820728199228
  20
42.01050802355364
  0
POLYLINE
  8
Unknown Area Type
  70
9
  66
1
  0
VERTEX
  8
Unknown Area Type
  70
32
  10
-6.09885903508396
  20
42.01986304356699
  30
784.2
  0
VERTEX
  8
Unknown Area Type
  70
32
  10
-6.09619150981079
  20
42.02101122473196
  30
786.567
  0
VERTEX
  8
Unknown Area Type
  70
32
  10
-6.0961796671383
  20
42.02101604710726
  30
786.59
  0
VERTEX
  8
Unknown Area Type
  70
32
  10
-6.0636327304171
  20
42.01938671082555
  30
773.52
  0
VERTEX
  8
Unknown Area Type
  70
32
  10
-6.06386383901306
  20
42.00000000000001
  30
755.623
  0
VERTEX
  8
Unknown Area Type
  70
32
  10
-6.10051290942851
  20
42.00000000000001
  30
765.422
  0
SEQEND
  8
Unknown Area Type
  0
TEXT
  8
Unknown Area Type
 62
7
  1
PNOA-H_AMS_1956-57_33k_ES_PAN_2
 40
0.00045
  10
-6.0820728199228
  20
42.01050802355364
  0
POLYLINE
  8
Unknown Area Type
  70
9
  66
1
  0
VERTEX
  8
Unknown Area Type
  70
32
  10
-6.17028769853685
  20
42.02135502549788
  30
810.136
  0
VERTEX
  8
Unknown Area Type
  70
32
  10
-6.17028256274731
  20
42.02137317785817
  30
810.153
  0
VERTEX
  8
Unknown Area Type
  70
32
  10
-6.16443882928942
  20
42.02359227761136
  30
811.854
  0
VERTEX
  8
Unknown Area Type
  70
32
  10
-6.16442096137839
  20
42.02359727329418
  30
811.853
  0
VERTEX
  8
Unknown Area Type
  70
32
  10
-6.13487659762303
  20
42.02058155811298
  30
799.205
  0
VERTEX
  8
Unknown Area Type
  70
32
  10
-6.13638770257406
  20
42.00000000000001
  30
781.004
  0
VERTEX
  8
Unknown Area Type
  70
32
  10
-6.14583333333334
  20
42.00000000000001
  30
780.393
  0
VERTEX
  8
Unknown Area Type
  70
32
  10
-6.17199371390003
  20
42.00000000000001
  30
806.244
  0
SEQEND
  8
Unknown Area Type
  0
TEXT
  8
Unknown Area Type
 62
7
  1
PNOA-H_AMS_1956-57_33k_ES_PAN_2
 40
0.00045
  10
-6.15408023654084
  20
42.00153133790344
  0
POLYLINE
  8
Unknown Area Type
  70
9
  66
1
  0
VERTEX
  8
Unknown Area Type
  70
32
  10
-6.17028769853685
  20
42.02135502549788
  30
810.136
  0
VERTEX
  8
Unknown Area Type
  70
32
  10
-6.17028256274731
  20
42.02137317785817
  30
810.153
  0
VERTEX
  8
Unknown Area Type
  70
32
  10
-6.16443882928942
  20
42.02359227761136
  30
811.854
  0
VERTEX
  8
Unknown Area Type
  70
32
  10
-6.16442096137839
  20
42.02359727329418
  30
811.853
  0
VERTEX
  8
Unknown Area Type
  70
32
  10
-6.13487659762303
  20
42.02058155811298
  30
799.205
  0
VERTEX
  8
Unknown Area Type
  70
32
  10
-6.13638770257406
  20
42.00000000000001
  30
781.004
  0
VERTEX
  8
Unknown Area Type
  70
32
  10
-6.14583333333334
  20
42.00000000000001
  30
780.393
  0
VERTEX
  8
Unknown Area Type
  70
32
  10
-6.17199371390003
  20
42.00000000000001
  30
806.244
  0
SEQEND
  8
Unknown Area Type
  0
TEXT
  8
Unknown Area Type
 62
7
  1
PNOA-H_AMS_1956-57_33k_ES_PAN_2
 40
0.00045
  10
-6.15408023654084
  20
42.00153133790344
  0
POLYLINE
  8
Unknown Area Type
  70
9
  66
1
  0
VERTEX
  8
Unknown Area Type
  70
32
  10
-6.18749999999997
  20
42.02083333333333
  30
813.488
  0
VERTEX
  8
Unknown Area Type
  70
32
  10
-6.18749999999997
  20
42.02377300185888
  30
813.568
  0
VERTEX
  8
Unknown Area Type
  70
32
  10
-6.17028233916449
  20
42.02136868144723
  30
810.15
  0
VERTEX
  8
Unknown Area Type
  70
32
  10
-6.17199220950245
  20
42.00000000000001
  30
806.288
  0
VERTEX
  8
Unknown Area Type
  70
32
  10
-6.18749999999997
  20
42.00000000000001
  30
806.065
  0
SEQEND
  8
Unknown Area Type
  0
TEXT
  8
Unknown Area Type
 62
7
  1
PNOA-H_AMS_1956-57_33k_ES_PAN_2
 40
0.00045
  10
-6.17889116958223
  20
42.01188650092945
  0
POLYLINE
  8
Unknown Area Type
  70
9
  66
1
  0
VERTEX
  8
Unknown Area Type
  70
32
  10
-6.18749999999997
  20
42.02083333333333
  30
813.488
  0
VERTEX
  8
Unknown Area Type
  70
32
  10
-6.18749999999997
  20
42.02377300185888
  30
813.568
  0
VERTEX
  8
Unknown Area Type
  70
32
  10
-6.17028233916449
  20
42.02136868144723
  30
810.15
  0
VERTEX
  8
Unknown Area Type
  70
32
  10
-6.17199220950245
  20
42.00000000000001
  30
806.288
  0
VERTEX
  8
Unknown Area Type
  70
32
  10
-6.18749999999997
  20
42.00000000000001
  30
806.065
  0
SEQEND
  8
Unknown Area Type
  0
TEXT
  8
Unknown Area Type
 62
7
  1
PNOA-H_AMS_1956-57_33k_ES_PAN_2
 40
0.00045
  10
-6.17889116958223
  20
42.01188650092945
  0
POLYLINE
  8
Unknown Area Type
  70
9
  66
1
  0
VERTEX
  8
Unknown Area Type
  70
32
  10
-6.0636327304171
  20
42.01938671082555
  30
773.52
  0
VERTEX
  8
Unknown Area Type
  70
32
  10
-6.06219775556907
  20
42.02005990993227
  30
770.449
  0
VERTEX
  8
Unknown Area Type
  70
32
  10
-6.02712407268303
  20
42.01961779032645
  30
776.345
  0
VERTEX
  8
Unknown Area Type
  70
32
  10
-6.02505965762466
  20
42.0186141398904
  30
776.169
  0
VERTEX
  8
Unknown Area Type
  70
32
  10
-6.02641014469917
  20
42.00000000000001
  30
753.296
  0
VERTEX
  8
Unknown Area Type
  70
32
  10
-6.0625
  20
42.00000000000001
  30
755.639
  0
VERTEX
  8
Unknown Area Type
  70
32
  10
-6.06386397843876
  20
42.00000000000001
  30
755.624
  0
SEQEND
  8
Unknown Area Type
  0
TEXT
  8
Unknown Area Type
 62
7
  1
PNOA-H_AMS_1956-57_33k_ES_PAN_2
 40
0.00045
  10
-6.04446181803171
  20
42.01002995496614
  0
POLYLINE
  8
Unknown Area Type
  70
9
  66
1
  0
VERTEX
  8
Unknown Area Type
  70
32
  10
-6.0636327304171
  20
42.01938671082555
  30
773.52
  0
VERTEX
  8
Unknown Area Type
  70
32
  10
-6.06219775556907
  20
42.02005990993227
  30
770.449
  0
VERTEX
  8
Unknown Area Type
  70
32
  10
-6.02712407268303
  20
42.01961779032645
  30
776.345
  0
VERTEX
  8
Unknown Area Type
  70
32
  10
-6.02505965762466
  20
42.0186141398904
  30
776.169
  0
VERTEX
  8
Unknown Area Type
  70
32
  10
-6.02641014469917
  20
42.00000000000001
  30
753.296
  0
VERTEX
  8
Unknown Area Type
  70
32
  10
-6.0625
  20
42.00000000000001
  30
755.639
  0
VERTEX
  8
Unknown Area Type
  70
32
  10
-6.06386397843876
  20
42.00000000000001
  30
755.624
  0
SEQEND
  8
Unknown Area Type
  0
TEXT
  8
Unknown Area Type
 62
7
  1
PNOA-H_AMS_1956-57_33k_ES_PAN_2
 40
0.00045
  10
-6.04446181803171
  20
42.01002995496614
  0
POLYLINE
  8
Unknown Area Type
  70
9
  66
1
  0
VERTEX
  8
Unknown Area Type
  70
32
  10
-6.14399621636905
  20
42.14133849439874
  30
909.949
  0
VERTEX
  8
Unknown Area Type
  70
32
  10
-6.14367044308042
  20
42.14123486608633
  30
910.047
  0
VERTEX
  8
Unknown Area Type
  70
32
  10
-6.12870898729698
  20
42.13607457223181
  30
901.412
  0
VERTEX
  8
Unknown Area Type
  70
32
  10
-6.12857968452837
  20
42.13602857342653
  30
901.247
  0
VERTEX
  8
Unknown Area Type
  70
32
  10
-6.12857658307585
  20
42.13596562240733
  30
901.175
  0
VERTEX
  8
Unknown Area Type
  70
32
  10
-6.1299636684735
  20
42.10088885737613
  30
827.114
  0
VERTEX
  8
Unknown Area Type
  70
32
  10
-6.14329779893025
  20
42.09776395518884
  30
781.953
  0
VERTEX
  8
Unknown Area Type
  70
32
  10
-6.16346623266736
  20
42.10068065314218
  30
808.234
  0
VERTEX
  8
Unknown Area Type
  70
32
  10
-6.16358810472716
  20
42.10069980273966
  30
808.499
  0
VERTEX
  8
Unknown Area Type
  70
32
  10
-6.16358877592366
  20
42.10071329187296
  30
808.491
  0
VERTEX
  8
Unknown Area Type
  70
32
  10
-6.16208026928446
  20
42.13686530376757
  30
835.627
  0
VERTEX
  8
Unknown Area Type
  70
32
  10
-6.14401434130366
  20
42.14133799724988
  30
909.922
  0
VERTEX
  8
Unknown Area Type
  70
32
  10
-6.14399621636905
  20
42.14133849439874
  30
909.949
  0
SEQEND
  8
Unknown Area Type
  0
TEXT
  8
Unknown Area Type
 62
7
  1
PNOA-H_AMS_1956-57_33k_ES_PAN_2
 40
0.00045
  10
-6.14608278078339
  20
42.11949468623649
  0
POLYLINE
  8
Unknown Area Type
  70
9
  66
1
  0
VERTEX
  8
Unknown Area Type
  70
32
  10
-6.14399621636905
  20
42.14133849439874
  30
909.949
  0
VERTEX
  8
Unknown Area Type
  70
32
  10
-6.14367044308042
  20
42.14123486608633
  30
910.047
  0
VERTEX
  8
Unknown Area Type
  70
32
  10
-6.12870898729698
  20
42.13607457223181
  30
901.412
  0
VERTEX
  8
Unknown Area Type
  70
32
  10
-6.12857968452837
  20
42.13602857342653
  30
901.247
  0
VERTEX
  8
Unknown Area Type
  70
32
  10
-6.12857658307585
  20
42.13596562240733
  30
901.175
  0
VERTEX
  8
Unknown Area Type
  70
32
  10
-6.1299636684735
  20
42.10088885737613
  30
827.114
  0
VERTEX
  8
Unknown Area Type
  70
32
  10
-6.14329779893025
  20
42.09776395518884
  30
781.953
  0
VERTEX
  8
Unknown Area Type
  70
32
  10
-6.16346623266736
  20
42.10068065314218
  30
808.234
  0
VERTEX
  8
Unknown Area Type
  70
32
  10
-6.16358810472716
  20
42.10069980273966
  30
808.499
  0
VERTEX
  8
Unknown Area Type
  70
32
  10
-6.16358877592366
  20
42.10071329187296
  30
808.491
  0
VERTEX
  8
Unknown Area Type
  70
32
  10
-6.16208026928446
  20
42.13686530376757
  30
835.627
  0
VERTEX
  8
Unknown Area Type
  70
32
  10
-6.14401434130366
  20
42.14133799724988
  30
909.922
  0
VERTEX
  8
Unknown Area Type
  70
32
  10
-6.14399621636905
  20
42.14133849439874
  30
909.949
  0
SEQEND
  8
Unknown Area Type
  0
TEXT
  8
Unknown Area Type
 62
7
  1
PNOA-H_AMS_1956-57_33k_ES_PAN_2
 40
0.00045
  10
-6.14608278078339
  20
42.11949468623649
  0
POLYLINE
  8
Unknown Area Type
  70
9
  66
1
  0
VERTEX
  8
Unknown Area Type
  70
32
  10
-6.11110626921725
  20
42.14053844120053
  30
842.754
  0
VERTEX
  8
Unknown Area Type
  70
32
  10
-6.09443666849069
  20
42.13552355307822
  30
906.437
  0
VERTEX
  8
Unknown Area Type
  70
32
  10
-6.09602865454828
  20
42.10091432319325
  30
875.437
  0
VERTEX
  8
Unknown Area Type
  70
32
  10
-6.09603459981297
  20
42.10078809035747
  30
875.456
  0
VERTEX
  8
Unknown Area Type
  70
32
  10
-6.09605161921715
  20
42.10076511782414
  30
875.456
  0
VERTEX
  8
Unknown Area Type
  70
32
  10
-6.10956623990673
  20
42.09771130468917
  30
867.516
  0
VERTEX
  8
Unknown Area Type
  70
32
  10
-6.10990709002182
  20
42.09763452033292
  30
861.474
  0
VERTEX
  8
Unknown Area Type
  70
32
  10
-6.10994935386081
  20
42.09763337383848
  30
860.877
  0
VERTEX
  8
Unknown Area Type
  70
32
  10
-6.1299636684735
  20
42.10088885737613
  30
827.114
  0
VERTEX
  8
Unknown Area Type
  70
32
  10
-6.12857946299572
  20
42.1360240769252
  30
901.241
  0
VERTEX
  8
Unknown Area Type
  70
32
  10
-6.11112417416068
  20
42.14053345268222
  30
842.934
  0
VERTEX
  8
Unknown Area Type
  70
32
  10
-6.11110626921725
  20
42.14053844120053
  30
842.754
  0
SEQEND
  8
Unknown Area Type
  0
TEXT
  8
Unknown Area Type
 62
7
  1
PNOA-H_AMS_1956-57_33k_ES_PAN_2
 40
0.00045
  10
-6.11220041011729
  20
42.11912543866403
  0
POLYLINE
  8
Unknown Area Type
  70
9
  66
1
  0
VERTEX
  8
Unknown Area Type
  70
32
  10
-6.11110626921725
  20
42.14053844120053
  30
842.754
  0
VERTEX
  8
Unknown Area Type
  70
32
  10
-6.09443666849069
  20
42.13552355307822
  30
906.437
  0
VERTEX
  8
Unknown Area Type
  70
32
  10
-6.09602865454828
  20
42.10091432319325
  30
875.437
  0
VERTEX
  8
Unknown Area Type
  70
32
  10
-6.09603459981297
  20
42.10078809035747
  30
875.456
  0
VERTEX
  8
Unknown Area Type
  70
32
  10
-6.09605161921715
  20
42.10076511782414
  30
875.456
  0
VERTEX
  8
Unknown Area Type
  70
32
  10
-6.10956623990673
  20
42.09771130468917
  30
867.516
  0
VERTEX
  8
Unknown Area Type
  70
32
  10
-6.10990709002182
  20
42.09763452033292
  30
861.474
  0
VERTEX
  8
Unknown Area Type
  70
32
  10
-6.10994935386081
  20
42.09763337383848
  30
860.877
  0
VERTEX
  8
Unknown Area Type
  70
32
  10
-6.1299636684735
  20
42.10088885737613
  30
827.114
  0
VERTEX
  8
Unknown Area Type
  70
32
  10
-6.12857946299572
  20
42.1360240769252
  30
901.241
  0
VERTEX
  8
Unknown Area Type
  70
32
  10
-6.11112417416068
  20
42.14053345268222
  30
842.934
  0
VERTEX
  8
Unknown Area Type
  70
32
  10
-6.11110626921725
  20
42.14053844120053
  30
842.754
  0
SEQEND
  8
Unknown Area Type
  0
TEXT
  8
Unknown Area Type
 62
7
  1
PNOA-H_AMS_1956-57_33k_ES_PAN_2
 40
0.00045
  10
-6.11220041011729
  20
42.11912543866403
  0
POLYLINE
  8
Unknown Area Type
  70
9
  66
1
  0
VERTEX
  8
Unknown Area Type
  70
32
  10
-6.18749999999997
  20
42.10416666666667
  30
816.564
  0
VERTEX
  8
Unknown Area Type
  70
32
  10
-6.18749999999997
  20
42.12499999999999
  30
839.432
  0
VERTEX
  8
Unknown Area Type
  70
32
  10
-6.18749999999997
  20
42.13913978679295
  30
846.723
  0
VERTEX
  8
Unknown Area Type
  70
32
  10
-6.17557859269016
  20
42.14150344593573
  30
842.175
  0
VERTEX
  8
Unknown Area Type
  70
32
  10
-6.16208026928446
  20
42.13686530376757
  30
835.627
  0
VERTEX
  8
Unknown Area Type
  70
32
  10
-6.16358273825075
  20
42.10071345849076
  30
808.474
  0
VERTEX
  8
Unknown Area Type
  70
32
  10
-6.16358810472716
  20
42.10069980273966
  30
808.499
  0
VERTEX
  8
Unknown Area Type
  70
32
  10
-6.16366569950378
  20
42.10067965117072
  30
808.729
  0
VERTEX
  8
Unknown Area Type
  70
32
  10
-6.17558992822445
  20
42.09792758575649
  30
809.573
  0
VERTEX
  8
Unknown Area Type
  70
32
  10
-6.18749999999997
  20
42.09962643405456
  30
816.21
  0
SEQEND
  8
Unknown Area Type
  0
TEXT
  8
Unknown Area Type
 62
7
  1
PNOA-H_AMS_1956-57_33k_ES_PAN_2
 40
0.00045
  10
-6.17901955442569
  20
42.11961834190701
  0
POLYLINE
  8
Unknown Area Type
  70
9
  66
1
  0
VERTEX
  8
Unknown Area Type
  70
32
  10
-6.18749999999997
  20
42.10416666666667
  30
816.564
  0
VERTEX
  8
Unknown Area Type
  70
32
  10
-6.18749999999997
  20
42.12499999999999
  30
839.432
  0
VERTEX
  8
Unknown Area Type
  70
32
  10
-6.18749999999997
  20
42.13913978679295
  30
846.723
  0
VERTEX
  8
Unknown Area Type
  70
32
  10
-6.17557859269016
  20
42.14150344593573
  30
842.175
  0
VERTEX
  8
Unknown Area Type
  70
32
  10
-6.16208026928446
  20
42.13686530376757
  30
835.627
  0
VERTEX
  8
Unknown Area Type
  70
32
  10
-6.16358273825075
  20
42.10071345849076
  30
808.474
  0
VERTEX
  8
Unknown Area Type
  70
32
  10
-6.16358810472716
  20
42.10069980273966
  30
808.499
  0
VERTEX
  8
Unknown Area Type
  70
32
  10
-6.16366569950378
  20
42.10067965117072
  30
808.729
  0
VERTEX
  8
Unknown Area Type
  70
32
  10
-6.17558992822445
  20
42.09792758575649
  30
809.573
  0
VERTEX
  8
Unknown Area Type
  70
32
  10
-6.18749999999997
  20
42.09962643405456
  30
816.21
  0
SEQEND
  8
Unknown Area Type
  0
TEXT
  8
Unknown Area Type
 62
7
  1
PNOA-H_AMS_1956-57_33k_ES_PAN_2
 40
0.00045
  10
-6.17901955442569
  20
42.11961834190701
  0
POLYLINE
  8
Unknown Area Type
  70
9
  66
1
  0
VERTEX
  8
Unknown Area Type
  70
32
  10
-6.04479504718358
  20
42.13967148679574
  30
862.257
  0
VERTEX
  8
Unknown Area Type
  70
32
  10
-6.0272922372574
  20
42.1348310010176
  30
858.464
  0
VERTEX
  8
Unknown Area Type
  70
32
  10
-6.02997415646407
  20
42.10012164160347
  30
753.119
  0
VERTEX
  8
Unknown Area Type
  70
32
  10
-6.04356540091674
  20
42.09683494427146
  30
781.901
  0
VERTEX
  8
Unknown Area Type
  70
32
  10
-6.06281812711362
  20
42.10029351300409
  30
792.398
  0
VERTEX
  8
Unknown Area Type
  70
32
  10
-6.06080574226137
  20
42.13559350729435
  30
814.831
  0
VERTEX
  8
Unknown Area Type
  70
32
  10
-6.04536429081178
  20
42.13980945308604
  30
855.42
  0
VERTEX
  8
Unknown Area Type
  70
32
  10
-6.0453103435837
  20
42.13981989143201
  30
855.743
  0
VERTEX
  8
Unknown Area Type
  70
32
  10
-6.04480734692367
  20
42.13967566267501
  30
862.125
  0
VERTEX
  8
Unknown Area Type
  70
32
  10
-6.04479504718358
  20
42.13967148679574
  30
862.257
  0
SEQEND
  8
Unknown Area Type
  0
TEXT
  8
Unknown Area Type
 62
7
  1
PNOA-H_AMS_1956-57_33k_ES_PAN_2
 40
0.00045
  10
-6.04505521936123
  20
42.11842443141342
  0
POLYLINE
  8
Unknown Area Type
  70
9
  66
1
  0
VERTEX
  8
Unknown Area Type
  70
32
  10
-6.04479504718358
  20
42.13967148679574
  30
862.257
  0
VERTEX
  8
Unknown Area Type
  70
32
  10
-6.0272922372574
  20
42.1348310010176
  30
858.464
  0
VERTEX
  8
Unknown Area Type
  70
32
  10
-6.02997415646407
  20
42.10012164160347
  30
753.119
  0
VERTEX
  8
Unknown Area Type
  70
32
  10
-6.04356540091674
  20
42.09683494427146
  30
781.901
  0
VERTEX
  8
Unknown Area Type
  70
32
  10
-6.06281812711362
  20
42.10029351300409
  30
792.398
  0
VERTEX
  8
Unknown Area Type
  70
32
  10
-6.06080574226137
  20
42.13559350729435
  30
814.831
  0
VERTEX
  8
Unknown Area Type
  70
32
  10
-6.04536429081178
  20
42.13980945308604
  30
855.42
  0
VERTEX
  8
Unknown Area Type
  70
32
  10
-6.0453103435837
  20
42.13981989143201
  30
855.743
  0
VERTEX
  8
Unknown Area Type
  70
32
  10
-6.04480734692367
  20
42.13967566267501
  30
862.125
  0
VERTEX
  8
Unknown Area Type
  70
32
  10
-6.04479504718358
  20
42.13967148679574
  30
862.257
  0
SEQEND
  8
Unknown Area Type
  0
TEXT
  8
Unknown Area Type
 62
7
  1
PNOA-H_AMS_1956-57_33k_ES_PAN_2
 40
0.00045
  10
-6.04505521936123
  20
42.11842443141342
  0
POLYLINE
  8
Unknown Area Type
  70
9
  66
1
  0
VERTEX
  8
Unknown Area Type
  70
32
  10
-5.94698620712065
  20
42.13740985281407
  30
811.52
  0
VERTEX
  8
Unknown Area Type
  70
32
  10
-5.92727300391434
  20
42.13352484985234
  30
790.065
  0
VERTEX
  8
Unknown Area Type
  70
32
  10
-5.93169192312731
  20
42.09819226732874
  30
766.328
  0
VERTEX
  8
Unknown Area Type
  70
32
  10
-5.94425074398895
  20
42.09470059022776
  30
747.711
  0
VERTEX
  8
Unknown Area Type
  70
32
  10
-5.9636134283419
  20
42.09856929871036
  30
759.552
  0
VERTEX
  8
Unknown Area Type
  70
32
  10
-5.96033155945742
  20
42.13390517199405
  30
806.085
  0
VERTEX
  8
Unknown Area Type
  70
32
  10
-5.94701016793882
  20
42.13740473423578
  30
811.403
  0
VERTEX
  8
Unknown Area Type
  70
32
  10
-5.94698620712065
  20
42.13740985281407
  30
811.52
  0
SEQEND
  8
Unknown Area Type
  0
TEXT
  8
Unknown Area Type
 62
7
  1
PNOA-H_AMS_1956-57_33k_ES_PAN_2
 40
0.00045
  10
-5.94544332964205
  20
42.11602076110765
  0
POLYLINE
  8
Unknown Area Type
  70
9
  66
1
  0
VERTEX
  8
Unknown Area Type
  70
32
  10
-5.94698620712065
  20
42.13740985281407
  30
811.52
  0
VERTEX
  8
Unknown Area Type
  70
32
  10
-5.92727300391434
  20
42.13352484985234
  30
790.065
  0
VERTEX
  8
Unknown Area Type
  70
32
  10
-5.93169192312731
  20
42.09819226732874
  30
766.328
  0
VERTEX
  8
Unknown Area Type
  70
32
  10
-5.94425074398895
  20
42.09470059022776
  30
747.711
  0
VERTEX
  8
Unknown Area Type
  70
32
  10
-5.9636134283419
  20
42.09856929871036
  30
759.552
  0
VERTEX
  8
Unknown Area Type
  70
32
  10
-5.96033155945742
  20
42.13390517199405
  30
806.085
  0
VERTEX
  8
Unknown Area Type
  70
32
  10
-5.94701016793882
  20
42.13740473423578
  30
811.403
  0
VERTEX
  8
Unknown Area Type
  70
32
  10
-5.94698620712065
  20
42.13740985281407
  30
811.52
  0
SEQEND
  8
Unknown Area Type
  0
TEXT
  8
Unknown Area Type
 62
7
  1
PNOA-H_AMS_1956-57_33k_ES_PAN_2
 40
0.00045
  10
-5.94544332964205
  20
42.11602076110765
  0
POLYLINE
  8
Unknown Area Type
  70
9
  66
1
  0
VERTEX
  8
Unknown Area Type
  70
32
  10
-6.09417435335204
  20
42.13560267502378
  30
906.628
  0
VERTEX
  8
Unknown Area Type
  70
32
  10
-6.07812948109028
  20
42.14030308221712
  30
836.285
  0
VERTEX
  8
Unknown Area Type
  70
32
  10
-6.06080574226137
  20
42.13559350729435
  30
814.831
  0
VERTEX
  8
Unknown Area Type
  70
32
  10
-6.06281812711362
  20
42.10029351300409
  30
792.398
  0
VERTEX
  8
Unknown Area Type
  70
32
  10
-6.07668940597735
  20
42.09720703058975
  30
824.142
  0
VERTEX
  8
Unknown Area Type
  70
32
  10
-6.09603976204172
  20
42.10076994062086
  30
875.445
  0
VERTEX
  8
Unknown Area Type
  70
32
  10
-6.09444205252665
  20
42.13550990004703
  30
906.251
  0
VERTEX
  8
Unknown Area Type
  70
32
  10
-6.09442480484814
  20
42.13552837590135
  30
906.554
  0
VERTEX
  8
Unknown Area Type
  70
32
  10
-6.09419225841475
  20
42.13559768915036
  30
906.646
  0
VERTEX
  8
Unknown Area Type
  70
32
  10
-6.09417435335204
  20
42.13560267502378
  30
906.628
  0
SEQEND
  8
Unknown Area Type
  0
TEXT
  8
Unknown Area Type
 62
7
  1
PNOA-H_AMS_1956-57_33k_ES_PAN_2
 40
0.00045
  10
-6.07842284522176
  20
42.11887000885329
  0
POLYLINE
  8
Unknown Area Type
  70
9
  66
1
  0
VERTEX
  8
Unknown Area Type
  70
32
  10
-6.09417435335204
  20
42.13560267502378
  30
906.628
  0
VERTEX
  8
Unknown Area Type
  70
32
  10
-6.07812948109028
  20
42.14030308221712
  30
836.285
  0
VERTEX
  8
Unknown Area Type
  70
32
  10
-6.06080574226137
  20
42.13559350729435
  30
814.831
  0
VERTEX
  8
Unknown Area Type
  70
32
  10
-6.06281812711362
  20
42.10029351300409
  30
792.398
  0
VERTEX
  8
Unknown Area Type
  70
32
  10
-6.07668940597735
  20
42.09720703058975
  30
824.142
  0
VERTEX
  8
Unknown Area Type
  70
32
  10
-6.09603976204172
  20
42.10076994062086
  30
875.445
  0
VERTEX
  8
Unknown Area Type
  70
32
  10
-6.09444205252665
  20
42.13550990004703
  30
906.251
  0
VERTEX
  8
Unknown Area Type
  70
32
  10
-6.09442480484814
  20
42.13552837590135
  30
906.554
  0
VERTEX
  8
Unknown Area Type
  70
32
  10
-6.09419225841475
  20
42.13559768915036
  30
906.646
  0
VERTEX
  8
Unknown Area Type
  70
32
  10
-6.09417435335204
  20
42.13560267502378
  30
906.628
  0
SEQEND
  8
Unknown Area Type
  0
TEXT
  8
Unknown Area Type
 62
7
  1
PNOA-H_AMS_1956-57_33k_ES_PAN_2
 40
0.00045
  10
-6.07842284522176
  20
42.11887000885329
  0
POLYLINE
  8
Unknown Area Type
  70
9
  66
1
  0
VERTEX
  8
Unknown Area Type
  70
32
  10
-6.01989101122551
  20
42.13680473968338
  30
804.932
  0
VERTEX
  8
Unknown Area Type
  70
32
  10
-6.01262073446146
  20
42.13874304219313
  30
793.011
  0
VERTEX
  8
Unknown Area Type
  70
32
  10
-5.99330092600208
  20
42.1341837132555
  30
787.883
  0
VERTEX
  8
Unknown Area Type
  70
32
  10
-5.99608207655719
  20
42.09977412124211
  30
753.784
  0
VERTEX
  8
Unknown Area Type
  70
32
  10
-5.9960936235553
  20
42.09963423813131
  30
756.043
  0
VERTEX
  8
Unknown Area Type
  70
32
  10
-5.99611089155754
  20
42.09961577637661
  30
756.445
  0
VERTEX
  8
Unknown Area Type
  70
32
  10
-6.00986555356751
  20
42.09629728370052
  30
746.477
  0
VERTEX
  8
Unknown Area Type
  70
32
  10
-6.02997415646407
  20
42.10012164160347
  30
753.119
  0
VERTEX
  8
Unknown Area Type
  70
32
  10
-6.02729202289909
  20
42.134826504087
  30
858.469
  0
VERTEX
  8
Unknown Area Type
  70
32
  10
-6.01990892313452
  20
42.13679976522199
  30
804.851
  0
VERTEX
  8
Unknown Area Type
  70
32
  10
-6.01989101122551
  20
42.13680473968338
  30
804.932
  0
SEQEND
  8
Unknown Area Type
  0
TEXT
  8
Unknown Area Type
 62
7
  1
PNOA-H_AMS_1956-57_33k_ES_PAN_2
 40
0.00045
  10
-6.0116376734122
  20
42.11757113759907
  0
POLYLINE
  8
Unknown Area Type
  70
9
  66
1
  0
VERTEX
  8
Unknown Area Type
  70
32
  10
-6.01989101122551
  20
42.13680473968338
  30
804.932
  0
VERTEX
  8
Unknown Area Type
  70
32
  10
-6.01262073446146
  20
42.13874304219313
  30
793.011
  0
VERTEX
  8
Unknown Area Type
  70
32
  10
-5.99330092600208
  20
42.1341837132555
  30
787.883
  0
VERTEX
  8
Unknown Area Type
  70
32
  10
-5.99608207655719
  20
42.09977412124211
  30
753.784
  0
VERTEX
  8
Unknown Area Type
  70
32
  10
-5.9960936235553
  20
42.09963423813131
  30
756.043
  0
VERTEX
  8
Unknown Area Type
  70
32
  10
-5.99611089155754
  20
42.09961577637661
  30
756.445
  0
VERTEX
  8
Unknown Area Type
  70
32
  10
-6.00986555356751
  20
42.09629728370052
  30
746.477
  0
VERTEX
  8
Unknown Area Type
  70
32
  10
-6.02997415646407
  20
42.10012164160347
  30
753.119
  0
VERTEX
  8
Unknown Area Type
  70
32
  10
-6.02729202289909
  20
42.134826504087
  30
858.469
  0
VERTEX
  8
Unknown Area Type
  70
32
  10
-6.01990892313452
  20
42.13679976522199
  30
804.851
  0
VERTEX
  8
Unknown Area Type
  70
32
  10
-6.01989101122551
  20
42.13680473968338
  30
804.932
  0
SEQEND
  8
Unknown Area Type
  0
TEXT
  8
Unknown Area Type
 62
7
  1
PNOA-H_AMS_1956-57_33k_ES_PAN_2
 40
0.00045
  10
-6.0116376734122
  20
42.11757113759907
  0
POLYLINE
  8
Unknown Area Type
  70
9
  66
1
  0
VERTEX
  8
Unknown Area Type
  70
32
  10
-5.99436427438238
  20
42.12106685802682
  30
774.007
  0
VERTEX
  8
Unknown Area Type
  70
32
  10
-5.99330092600208
  20
42.1341837132555
  30
787.883
  0
VERTEX
  8
Unknown Area Type
  70
32
  10
-5.98045753017319
  20
42.13790431089043
  30
827.17
  0
VERTEX
  8
Unknown Area Type
  70
32
  10
-5.96033155945742
  20
42.13390517199405
  30
806.085
  0
VERTEX
  8
Unknown Area Type
  70
32
  10
-5.96360344700632
  20
42.0986145830997
  30
759.342
  0
VERTEX
  8
Unknown Area Type
  70
32
  10
-5.96360759932878
  20
42.0985739520204
  30
759.53
  0
VERTEX
  8
Unknown Area Type
  70
32
  10
-5.96362529595337
  20
42.09856448931056
  30
759.583
  0
VERTEX
  8
Unknown Area Type
  70
32
  10
-5.97677066357049
  20
42.09549985088051
  30
744.363
  0
VERTEX
  8
Unknown Area Type
  70
32
  10
-5.99609902640688
  20
42.09962058906779
  30
756.269
  0
VERTEX
  8
Unknown Area Type
  70
32
  10
-5.99436215511799
  20
42.12102188725033
  30
773.866
  0
VERTEX
  8
Unknown Area Type
  70
32
  10
-5.99436427438238
  20
42.12106685802682
  30
774.007
  0
SEQEND
  8
Unknown Area Type
  0
TEXT
  8
Unknown Area Type
 62
7
  1
PNOA-H_AMS_1956-57_33k_ES_PAN_2
 40
0.00045
  10
-5.97821556605728
  20
42.11663140193455
  0
POLYLINE
  8
Unknown Area Type
  70
9
  66
1
  0
VERTEX
  8
Unknown Area Type
  70
32
  10
-5.99436427438238
  20
42.12106685802682
  30
774.007
  0
VERTEX
  8
Unknown Area Type
  70
32
  10
-5.99330092600208
  20
42.1341837132555
  30
787.883
  0
VERTEX
  8
Unknown Area Type
  70
32
  10
-5.98045753017319
  20
42.13790431089043
  30
827.17
  0
VERTEX
  8
Unknown Area Type
  70
32
  10
-5.96033155945742
  20
42.13390517199405
  30
806.085
  0
VERTEX
  8
Unknown Area Type
  70
32
  10
-5.96360344700632
  20
42.0986145830997
  30
759.342
  0
VERTEX
  8
Unknown Area Type
  70
32
  10
-5.96360759932878
  20
42.0985739520204
  30
759.53
  0
VERTEX
  8
Unknown Area Type
  70
32
  10
-5.96362529595337
  20
42.09856448931056
  30
759.583
  0
VERTEX
  8
Unknown Area Type
  70
32
  10
-5.97677066357049
  20
42.09549985088051
  30
744.363
  0
VERTEX
  8
Unknown Area Type
  70
32
  10
-5.99609902640688
  20
42.09962058906779
  30
756.269
  0
VERTEX
  8
Unknown Area Type
  70
32
  10
-5.99436215511799
  20
42.12102188725033
  30
773.866
  0
VERTEX
  8
Unknown Area Type
  70
32
  10
-5.99436427438238
  20
42.12106685802682
  30
774.007
  0
SEQEND
  8
Unknown Area Type
  0
TEXT
  8
Unknown Area Type
 62
7
  1
PNOA-H_AMS_1956-57_33k_ES_PAN_2
 40
0.00045
  10
-5.97821556605728
  20
42.11663140193455
  0
POLYLINE
  8
Unknown Area Type
  70
9
  66
1
  0
VERTEX
  8
Unknown Area Type
  70
32
  10
-5.92070197129352
  20
42.13520082931148
  30
770.162
  0
VERTEX
  8
Unknown Area Type
  70
32
  10
-5.91439355381363
  20
42.13680672022036
  30
770.697
  0
VERTEX
  8
Unknown Area Type
  70
32
  10
-5.89461567499839
  20
42.13357961085759
  30
786.578
  0
VERTEX
  8
Unknown Area Type
  70
32
  10
-5.89741378551893
  20
42.09743815162609
  30
942.493
  0
VERTEX
  8
Unknown Area Type
  70
32
  10
-5.91049173706075
  20
42.09362636614365
  30
803.872
  0
VERTEX
  8
Unknown Area Type
  70
32
  10
-5.93169775453565
  20
42.09818761556974
  30
766.307
  0
VERTEX
  8
Unknown Area Type
  70
32
  10
-5.92727300391434
  20
42.13352484985234
  30
790.065
  0
VERTEX
  8
Unknown Area Type
  70
32
  10
-5.92072593371688
  20
42.13519571618828
  30
770.165
  0
VERTEX
  8
Unknown Area Type
  70
32
  10
-5.92070197129352
  20
42.13520082931148
  30
770.162
  0
SEQEND
  8
Unknown Area Type
  0
TEXT
  8
Unknown Area Type
 62
7
  1
PNOA-H_AMS_1956-57_33k_ES_PAN_2
 40
0.00045
  10
-5.91315673578838
  20
42.11540185850481
  0
POLYLINE
  8
Unknown Area Type
  70
9
  66
1
  0
VERTEX
  8
Unknown Area Type
  70
32
  10
-5.92070197129352
  20
42.13520082931148
  30
770.162
  0
VERTEX
  8
Unknown Area Type
  70
32
  10
-5.91439355381363
  20
42.13680672022036
  30
770.697
  0
VERTEX
  8
Unknown Area Type
  70
32
  10
-5.89461567499839
  20
42.13357961085759
  30
786.578
  0
VERTEX
  8
Unknown Area Type
  70
32
  10
-5.89741378551893
  20
42.09743815162609
  30
942.493
  0
VERTEX
  8
Unknown Area Type
  70
32
  10
-5.91049173706075
  20
42.09362636614365
  30
803.872
  0
VERTEX
  8
Unknown Area Type
  70
32
  10
-5.93169775453565
  20
42.09818761556974
  30
766.307
  0
VERTEX
  8
Unknown Area Type
  70
32
  10
-5.92727300391434
  20
42.13352484985234
  30
790.065
  0
VERTEX
  8
Unknown Area Type
  70
32
  10
-5.92072593371688
  20
42.13519571618828
  30
770.165
  0
VERTEX
  8
Unknown Area Type
  70
32
  10
-5.92070197129352
  20
42.13520082931148
  30
770.162
  0
SEQEND
  8
Unknown Area Type
  0
TEXT
  8
Unknown Area Type
 62
7
  1
PNOA-H_AMS_1956-57_33k_ES_PAN_2
 40
0.00045
  10
-5.91315673578838
  20
42.11540185850481
  0
POLYLINE
  8
Unknown Area Type
  70
9
  66
1
  0
VERTEX
  8
Unknown Area Type
  70
32
  10
-5.86293498831717
  20
42.13410046176888
  30
790.542
  0
VERTEX
  8
Unknown Area Type
  70
32
  10
-5.85416666666668
  20
42.13629767301308
  30
826.449
  0
VERTEX
  8
Unknown Area Type
  70
32
  10
-5.85416666666668
  20
42.12499999999999
  30
783.314
  0
VERTEX
  8
Unknown Area Type
  70
32
  10
-5.85416666666668
  20
42.10416666666667
  30
766.778
  0
VERTEX
  8
Unknown Area Type
  70
32
  10
-5.85416666666668
  20
42.09503523640538
  30
756.559
  0
VERTEX
  8
Unknown Area Type
  70
32
  10
-5.86290975768309
  20
42.09715668763049
  30
761.219
  0
SEQEND
  8
Unknown Area Type
  0
TEXT
  8
Unknown Area Type
 62
7
  1
PNOA-H_AMS_1956-57_33k_ES_PAN_2
 40
0.00045
  10
-5.85855082749192
  20
42.11566645470923
  0
POLYLINE
  8
Unknown Area Type
  70
9
  66
1
  0
VERTEX
  8
Unknown Area Type
  70
32
  10
-5.86293498831717
  20
42.13410046176888
  30
790.542
  0
VERTEX
  8
Unknown Area Type
  70
32
  10
-5.85416666666668
  20
42.13629767301308
  30
826.449
  0
VERTEX
  8
Unknown Area Type
  70
32
  10
-5.85416666666668
  20
42.12499999999999
  30
783.314
  0
VERTEX
  8
Unknown Area Type
  70
32
  10
-5.85416666666668
  20
42.10416666666667
  30
766.778
  0
VERTEX
  8
Unknown Area Type
  70
32
  10
-5.85416666666668
  20
42.09503523640538
  30
756.559
  0
VERTEX
  8
Unknown Area Type
  70
32
  10
-5.86290975768309
  20
42.09715668763049
  30
761.219
  0
SEQEND
  8
Unknown Area Type
  0
TEXT
  8
Unknown Area Type
 62
7
  1
PNOA-H_AMS_1956-57_33k_ES_PAN_2
 40
0.00045
  10
-5.85855082749192
  20
42.11566645470923
  0
POLYLINE
  8
Unknown Area Type
  70
9
  66
1
  0
VERTEX
  8
Unknown Area Type
  70
32
  10
-5.85416666666668
  20
42.10416666666667
  30
766.778
  0
VERTEX
  8
Unknown Area Type
  70
32
  10
-5.85416666666668
  20
42.12499999999999
  30
783.314
  0
VERTEX
  8
Unknown Area Type
  70
32
  10
-5.85416666666668
  20
42.13629767301308
  30
826.449
  0
VERTEX
  8
Unknown Area Type
  70
32
  10
-5.85416633333334
  20
42.13629775654147
  30
826.45
  0
VERTEX
  8
Unknown Area Type
  70
32
  10
-5.85416633333334
  20
42.09503515552433
  30
756.559
  0
VERTEX
  8
Unknown Area Type
  70
32
  10
-5.85416666666668
  20
42.09503523640538
  30
756.559
  0
SEQEND
  8
Unknown Area Type
  0
TEXT
  8
Unknown Area Type
 62
7
  1
PNOA-H_AMS_1956-57_33k_ES_PAN_2
 40
0.00045
  10
-5.85416650000001
  20
42.1156664560329
  0
POLYLINE
  8
Unknown Area Type
  70
9
  66
1
  0
VERTEX
  8
Unknown Area Type
  70
32
  10
-5.87113662935868
  20
42.13527767207757
  30
809.437
  0
VERTEX
  8
Unknown Area Type
  70
32
  10
-5.86293498831717
  20
42.13410046176888
  30
790.542
  0
VERTEX
  8
Unknown Area Type
  70
32
  10
-5.86290955522191
  20
42.09715219000512
  30
761.067
  0
VERTEX
  8
Unknown Area Type
  70
32
  10
-5.87762158121721
  20
42.09293411829456
  30
802.493
  0
VERTEX
  8
Unknown Area Type
  70
32
  10
-5.87774133438136
  20
42.09290859943104
  30
804.616
  0
VERTEX
  8
Unknown Area Type
  70
32
  10
-5.89741378551893
  20
42.09743815162609
  30
942.493
  0
VERTEX
  8
Unknown Area Type
  70
32
  10
-5.89462130736924
  20
42.13357046335452
  30
786.442
  0
VERTEX
  8
Unknown Area Type
  70
32
  10
-5.89460379536571
  20
42.13358441344885
  30
786.754
  0
VERTEX
  8
Unknown Area Type
  70
32
  10
-5.89449022142313
  20
42.13361429685584
  30
787.54
  0
VERTEX
  8
Unknown Area Type
  70
32
  10
-5.88187791702623
  20
42.13682273438829
  30
802.079
  0
VERTEX
  8
Unknown Area Type
  70
32
  10
-5.87116100300844
  20
42.13528156432292
  30
809.387
  0
VERTEX
  8
Unknown Area Type
  70
32
  10
-5.87113662935868
  20
42.13527767207757
  30
809.437
  0
SEQEND
  8
Unknown Area Type
  0
TEXT
  8
Unknown Area Type
 62
7
  1
PNOA-H_AMS_1956-57_33k_ES_PAN_2
 40
0.00045
  10
-5.88016162141599
  20
42.11501934002039
  0
POLYLINE
  8
Unknown Area Type
  70
9
  66
1
  0
VERTEX
  8
Unknown Area Type
  70
32
  10
-5.87113662935868
  20
42.13527767207757
  30
809.437
  0
VERTEX
  8
Unknown Area Type
  70
32
  10
-5.86293498831717
  20
42.13410046176888
  30
790.542
  0
VERTEX
  8
Unknown Area Type
  70
32
  10
-5.86290955522191
  20
42.09715219000512
  30
761.067
  0
VERTEX
  8
Unknown Area Type
  70
32
  10
-5.87762158121721
  20
42.09293411829456
  30
802.493
  0
VERTEX
  8
Unknown Area Type
  70
32
  10
-5.87774133438136
  20
42.09290859943104
  30
804.616
  0
VERTEX
  8
Unknown Area Type
  70
32
  10
-5.89741378551893
  20
42.09743815162609
  30
942.493
  0
VERTEX
  8
Unknown Area Type
  70
32
  10
-5.89462130736924
  20
42.13357046335452
  30
786.442
  0
VERTEX
  8
Unknown Area Type
  70
32
  10
-5.89460379536571
  20
42.13358441344885
  30
786.754
  0
VERTEX
  8
Unknown Area Type
  70
32
  10
-5.89449022142313
  20
42.13361429685584
  30
787.54
  0
VERTEX
  8
Unknown Area Type
  70
32
  10
-5.88187791702623
  20
42.13682273438829
  30
802.079
  0
VERTEX
  8
Unknown Area Type
  70
32
  10
-5.87116100300844
  20
42.13528156432292
  30
809.387
  0
VERTEX
  8
Unknown Area Type
  70
32
  10
-5.87113662935868
  20
42.13527767207757
  30
809.437
  0
SEQEND
  8
Unknown Area Type
  0
TEXT
  8
Unknown Area Type
 62
7
  1
PNOA-H_AMS_1956-57_33k_ES_PAN_2
 40
0.00045
  10
-5.88016162141599
  20
42.11501934002039
  0
POLYLINE
  8
Unknown Area Type
  70
9
  66
1
  0
VERTEX
  8
Unknown Area Type
  70
32
  10
-6.10925018148797
  20
42.05995216971581
  30
765.547
  0
VERTEX
  8
Unknown Area Type
  70
32
  10
-6.10915857175472
  20
42.05993214092496
  30
765.18
  0
VERTEX
  8
Unknown Area Type
  70
32
  10
-6.09599881200924
  20
42.05583065605791
  30
756.169
  0
VERTEX
  8
Unknown Area Type
  70
32
  10
-6.096173636622
  20
42.02101620992934
  30
786.604
  0
VERTEX
  8
Unknown Area Type
  70
32
  10
-6.09885300469189
  20
42.01986320652624
  30
784.18
  0
VERTEX
  8
Unknown Area Type
  70
32
  10
-6.13087006134521
  20
42.0222399157841
  30
803.308
  0
VERTEX
  8
Unknown Area Type
  70
32
  10
-6.12966681890499
  20
42.05590268788925
  30
793.322
  0
VERTEX
  8
Unknown Area Type
  70
32
  10
-6.10927409840334
  20
42.05994701854507
  30
765.614
  0
VERTEX
  8
Unknown Area Type
  70
32
  10
-6.10925018148797
  20
42.05995216971581
  30
765.547
  0
SEQEND
  8
Unknown Area Type
  0
TEXT
  8
Unknown Area Type
 62
7
  1
PNOA-H_AMS_1956-57_33k_ES_PAN_2
 40
0.00045
  10
-6.11343492732145
  20
42.04003225311583
  0
POLYLINE
  8
Unknown Area Type
  70
9
  66
1
  0
VERTEX
  8
Unknown Area Type
  70
32
  10
-6.10925018148797
  20
42.05995216971581
  30
765.547
  0
VERTEX
  8
Unknown Area Type
  70
32
  10
-6.10915857175472
  20
42.05993214092496
  30
765.18
  0
VERTEX
  8
Unknown Area Type
  70
32
  10
-6.09599881200924
  20
42.05583065605791
  30
756.169
  0
VERTEX
  8
Unknown Area Type
  70
32
  10
-6.096173636622
  20
42.02101620992934
  30
786.604
  0
VERTEX
  8
Unknown Area Type
  70
32
  10
-6.09885300469189
  20
42.01986320652624
  30
784.18
  0
VERTEX
  8
Unknown Area Type
  70
32
  10
-6.13087006134521
  20
42.0222399157841
  30
803.308
  0
VERTEX
  8
Unknown Area Type
  70
32
  10
-6.12966681890499
  20
42.05590268788925
  30
793.322
  0
VERTEX
  8
Unknown Area Type
  70
32
  10
-6.10927409840334
  20
42.05994701854507
  30
765.614
  0
VERTEX
  8
Unknown Area Type
  70
32
  10
-6.10925018148797
  20
42.05995216971581
  30
765.547
  0
SEQEND
  8
Unknown Area Type
  0
TEXT
  8
Unknown Area Type
 62
7
  1
PNOA-H_AMS_1956-57_33k_ES_PAN_2
 40
0.00045
  10
-6.11343492732145
  20
42.04003225311583
  0
POLYLINE
  8
Unknown Area Type
  70
9
  66
1
  0
VERTEX
  8
Unknown Area Type
  70
32
  10
-6.18749999999997
  20
42.04166666666664
  30
828.801
  0
VERTEX
  8
Unknown Area Type
  70
32
  10
-6.18749999999997
  20
42.05784032067274
  30
812.989
  0
VERTEX
  8
Unknown Area Type
  70
32
  10
-6.17514486520202
  20
42.06030752838334
  30
808.751
  0
VERTEX
  8
Unknown Area Type
  70
32
  10
-6.16297720967228
  20
42.05595216334704
  30
812.583
  0
VERTEX
  8
Unknown Area Type
  70
32
  10
-6.16442073819114
  20
42.02359277685947
  30
811.885
  0
VERTEX
  8
Unknown Area Type
  70
32
  10
-6.17028233916449
  20
42.02136868144723
  30
810.15
  0
VERTEX
  8
Unknown Area Type
  70
32
  10
-6.18749999999997
  20
42.02377418796797
  30
826.105
  0
SEQEND
  8
Unknown Area Type
  0
TEXT
  8
Unknown Area Type
 62
7
  1
PNOA-H_AMS_1956-57_33k_ES_PAN_2
 40
0.00045
  10
-6.18074416674206
  20
42.04100890546458
  0
POLYLINE
  8
Unknown Area Type
  70
9
  66
1
  0
VERTEX
  8
Unknown Area Type
  70
32
  10
-6.18749999999997
  20
42.04166666666664
  30
828.801
  0
VERTEX
  8
Unknown Area Type
  70
32
  10
-6.18749999999997
  20
42.05784032067274
  30
812.989
  0
VERTEX
  8
Unknown Area Type
  70
32
  10
-6.17514486520202
  20
42.06030752838334
  30
808.751
  0
VERTEX
  8
Unknown Area Type
  70
32
  10
-6.16297720967228
  20
42.05595216334704
  30
812.583
  0
VERTEX
  8
Unknown Area Type
  70
32
  10
-6.16442073819114
  20
42.02359277685947
  30
811.885
  0
VERTEX
  8
Unknown Area Type
  70
32
  10
-6.17028233916449
  20
42.02136868144723
  30
810.15
  0
VERTEX
  8
Unknown Area Type
  70
32
  10
-6.18749999999997
  20
42.02377418796797
  30
826.105
  0
SEQEND
  8
Unknown Area Type
  0
TEXT
  8
Unknown Area Type
 62
7
  1
PNOA-H_AMS_1956-57_33k_ES_PAN_2
 40
0.00045
  10
-6.18074416674206
  20
42.04100890546458
  0
POLYLINE
  8
Unknown Area Type
  70
9
  66
1
  0
VERTEX
  8
Unknown Area Type
  70
32
  10
-6.16371367264773
  20
42.03951993679846
  30
813.827
  0
VERTEX
  8
Unknown Area Type
  70
32
  10
-6.16297720967228
  20
42.05595216334704
  30
812.583
  0
VERTEX
  8
Unknown Area Type
  70
32
  10
-6.14162466935995
  20
42.05997018912296
  30
798.982
  0
VERTEX
  8
Unknown Area Type
  70
32
  10
-6.12966703989348
  20
42.05590718444885
  30
793.3
  0
VERTEX
  8
Unknown Area Type
  70
32
  10
-6.13085720104336
  20
42.02246989999981
  30
802.891
  0
VERTEX
  8
Unknown Area Type
  70
32
  10
-6.13086491416205
  20
42.02225806675609
  30
803.25
  0
VERTEX
  8
Unknown Area Type
  70
32
  10
-6.13087587096494
  20
42.02223525455447
  30
803.301
  0
VERTEX
  8
Unknown Area Type
  70
32
  10
-6.13470481524605
  20
42.0206492906611
  30
799.947
  0
VERTEX
  8
Unknown Area Type
  70
32
  10
-6.13487056736991
  20
42.02058172296669
  30
799.214
  0
VERTEX
  8
Unknown Area Type
  70
32
  10
-6.13489468838208
  20
42.02058106354997
  30
799.181
  0
VERTEX
  8
Unknown Area Type
  70
32
  10
-6.16441470782495
  20
42.02359294327487
  30
811.896
  0
VERTEX
  8
Unknown Area Type
  70
32
  10
-6.16442028751069
  20
42.02370535414196
  30
811.196
  0
VERTEX
  8
Unknown Area Type
  70
32
  10
-6.16371054698542
  20
42.03945698684411
  30
814.087
  0
VERTEX
  8
Unknown Area Type
  70
32
  10
-6.16371367264773
  20
42.03951993679846
  30
813.827
  0
SEQEND
  8
Unknown Area Type
  0
TEXT
  8
Unknown Area Type
 62
7
  1
PNOA-H_AMS_1956-57_33k_ES_PAN_2
 40
0.00045
  10
-6.14704419685393
  20
42.04038408785086
  0
POLYLINE
  8
Unknown Area Type
  70
9
  66
1
  0
VERTEX
  8
Unknown Area Type
  70
32
  10
-6.16371367264773
  20
42.03951993679846
  30
813.827
  0
VERTEX
  8
Unknown Area Type
  70
32
  10
-6.16297720967228
  20
42.05595216334704
  30
812.583
  0
VERTEX
  8
Unknown Area Type
  70
32
  10
-6.14162466935995
  20
42.05997018912296
  30
798.982
  0
VERTEX
  8
Unknown Area Type
  70
32
  10
-6.12966703989348
  20
42.05590718444885
  30
793.3
  0
VERTEX
  8
Unknown Area Type
  70
32
  10
-6.13085720104336
  20
42.02246989999981
  30
802.891
  0
VERTEX
  8
Unknown Area Type
  70
32
  10
-6.13086491416205
  20
42.02225806675609
  30
803.25
  0
VERTEX
  8
Unknown Area Type
  70
32
  10
-6.13087587096494
  20
42.02223525455447
  30
803.301
  0
VERTEX
  8
Unknown Area Type
  70
32
  10
-6.13470481524605
  20
42.0206492906611
  30
799.947
  0
VERTEX
  8
Unknown Area Type
  70
32
  10
-6.13487056736991
  20
42.02058172296669
  30
799.214
  0
VERTEX
  8
Unknown Area Type
  70
32
  10
-6.13489468838208
  20
42.02058106354997
  30
799.181
  0
VERTEX
  8
Unknown Area Type
  70
32
  10
-6.16441470782495
  20
42.02359294327487
  30
811.896
  0
VERTEX
  8
Unknown Area Type
  70
32
  10
-6.16442028751069
  20
42.02370535414196
  30
811.196
  0
VERTEX
  8
Unknown Area Type
  70
32
  10
-6.16371054698542
  20
42.03945698684411
  30
814.087
  0
VERTEX
  8
Unknown Area Type
  70
32
  10
-6.16371367264773
  20
42.03951993679846
  30
813.827
  0
SEQEND
  8
Unknown Area Type
  0
TEXT
  8
Unknown Area Type
 62
7
  1
PNOA-H_AMS_1956-57_33k_ES_PAN_2
 40
0.00045
  10
-6.14704419685393
  20
42.04038408785086
  0
POLYLINE
  8
Unknown Area Type
  70
9
  66
1
  0
VERTEX
  8
Unknown Area Type
  70
32
  10
-6.04240672922562
  20
42.06009282466269
  30
755.981
  0
VERTEX
  8
Unknown Area Type
  70
32
  10
-6.02772862373815
  20
42.05611829266598
  30
746.476
  0
VERTEX
  8
Unknown Area Type
  70
32
  10
-6.02712407268303
  20
42.01961779032645
  30
776.345
  0
VERTEX
  8
Unknown Area Type
  70
32
  10
-6.06219172495031
  20
42.02006007096607
  30
770.45
  0
VERTEX
  8
Unknown Area Type
  70
32
  10
-6.06116335593861
  20
42.05573035988385
  30
784.58
  0
VERTEX
  8
Unknown Area Type
  70
32
  10
-6.04243065242554
  20
42.0600876872657
  30
756.019
  0
VERTEX
  8
Unknown Area Type
  70
32
  10
-6.04240672922562
  20
42.06009282466269
  30
755.981
  0
SEQEND
  8
Unknown Area Type
  0
TEXT
  8
Unknown Area Type
 62
7
  1
PNOA-H_AMS_1956-57_33k_ES_PAN_2
 40
0.00045
  10
-6.04465830097252
  20
42.03970311664794
  0
POLYLINE
  8
Unknown Area Type
  70
9
  66
1
  0
VERTEX
  8
Unknown Area Type
  70
32
  10
-6.04240672922562
  20
42.06009282466269
  30
755.981
  0
VERTEX
  8
Unknown Area Type
  70
32
  10
-6.02772862373815
  20
42.05611829266598
  30
746.476
  0
VERTEX
  8
Unknown Area Type
  70
32
  10
-6.02712407268303
  20
42.01961779032645
  30
776.345
  0
VERTEX
  8
Unknown Area Type
  70
32
  10
-6.06219172495031
  20
42.02006007096607
  30
770.45
  0
VERTEX
  8
Unknown Area Type
  70
32
  10
-6.06116335593861
  20
42.05573035988385
  30
784.58
  0
VERTEX
  8
Unknown Area Type
  70
32
  10
-6.04243065242554
  20
42.0600876872657
  30
756.019
  0
VERTEX
  8
Unknown Area Type
  70
32
  10
-6.04240672922562
  20
42.06009282466269
  30
755.981
  0
SEQEND
  8
Unknown Area Type
  0
TEXT
  8
Unknown Area Type
 62
7
  1
PNOA-H_AMS_1956-57_33k_ES_PAN_2
 40
0.00045
  10
-6.04465830097252
  20
42.03970311664794
  0
POLYLINE
  8
Unknown Area Type
  70
9
  66
1
  0
VERTEX
  8
Unknown Area Type
  70
32
  10
-6.01619579575343
  20
42.05881763966697
  30
745.955
  0
VERTEX
  8
Unknown Area Type
  70
32
  10
-6.00959824493011
  20
42.06035979725876
  30
744.258
  0
VERTEX
  8
Unknown Area Type
  70
32
  10
-6.00949629223266
  20
42.06037598107935
  30
744.26
  0
VERTEX
  8
Unknown Area Type
  70
32
  10
-5.99371447666965
  20
42.05627294592193
  30
745.778
  0
VERTEX
  8
Unknown Area Type
  70
32
  10
-5.99499031583885
  20
42.01979509697843
  30
771.45
  0
VERTEX
  8
Unknown Area Type
  70
32
  10
-6.02505944429457
  20
42.01860964285922
  30
776.176
  0
VERTEX
  8
Unknown Area Type
  70
32
  10
-6.02712385919997
  20
42.01961329330464
  30
776.346
  0
VERTEX
  8
Unknown Area Type
  70
32
  10
-6.02772862373815
  20
42.05611829266598
  30
746.476
  0
VERTEX
  8
Unknown Area Type
  70
32
  10
-6.01621972091487
  20
42.05881250768807
  30
745.949
  0
VERTEX
  8
Unknown Area Type
  70
32
  10
-6.01619579575343
  20
42.05881763966697
  30
745.955
  0
SEQEND
  8
Unknown Area Type
  0
TEXT
  8
Unknown Area Type
 62
7
  1
PNOA-H_AMS_1956-57_33k_ES_PAN_2
 40
0.00045
  10
-6.01072191432021
  20
42.03963461492798
  0
POLYLINE
  8
Unknown Area Type
  70
9
  66
1
  0
VERTEX
  8
Unknown Area Type
  70
32
  10
-6.01619579575343
  20
42.05881763966697
  30
745.955
  0
VERTEX
  8
Unknown Area Type
  70
32
  10
-6.00959824493011
  20
42.06035979725876
  30
744.258
  0
VERTEX
  8
Unknown Area Type
  70
32
  10
-6.00949629223266
  20
42.06037598107935
  30
744.26
  0
VERTEX
  8
Unknown Area Type
  70
32
  10
-5.99371447666965
  20
42.05627294592193
  30
745.778
  0
VERTEX
  8
Unknown Area Type
  70
32
  10
-5.99499031583885
  20
42.01979509697843
  30
771.45
  0
VERTEX
  8
Unknown Area Type
  70
32
  10
-6.02505944429457
  20
42.01860964285922
  30
776.176
  0
VERTEX
  8
Unknown Area Type
  70
32
  10
-6.02712385919997
  20
42.01961329330464
  30
776.346
  0
VERTEX
  8
Unknown Area Type
  70
32
  10
-6.02772862373815
  20
42.05611829266598
  30
746.476
  0
VERTEX
  8
Unknown Area Type
  70
32
  10
-6.01621972091487
  20
42.05881250768807
  30
745.949
  0
VERTEX
  8
Unknown Area Type
  70
32
  10
-6.01619579575343
  20
42.05881763966697
  30
745.955
  0
SEQEND
  8
Unknown Area Type
  0
TEXT
  8
Unknown Area Type
 62
7
  1
PNOA-H_AMS_1956-57_33k_ES_PAN_2
 40
0.00045
  10
-6.01072191432021
  20
42.03963461492798
  0
POLYLINE
  8
Unknown Area Type
  70
9
  66
1
  0
VERTEX
  8
Unknown Area Type
  70
32
  10
-5.94313562977713
  20
42.0601397903072
  30
724.526
  0
VERTEX
  8
Unknown Area Type
  70
32
  10
-5.94308110629992
  20
42.06013668703601
  30
724.516
  0
VERTEX
  8
Unknown Area Type
  70
32
  10
-5.92569327669583
  20
42.05609697120886
  30
722.77
  0
VERTEX
  8
Unknown Area Type
  70
32
  10
-5.92638188364484
  20
42.01965714602559
  30
760.294
  0
VERTEX
  8
Unknown Area Type
  70
32
  10
-5.95325790648962
  20
42.01664032672122
  30
763.121
  0
VERTEX
  8
Unknown Area Type
  70
32
  10
-5.96076584919844
  20
42.01942752410093
  30
764.439
  0
VERTEX
  8
Unknown Area Type
  70
32
  10
-5.96038282297918
  20
42.05577850378388
  30
727.049
  0
VERTEX
  8
Unknown Area Type
  70
32
  10
-5.94315956219015
  20
42.06013467338084
  30
724.524
  0
VERTEX
  8
Unknown Area Type
  70
32
  10
-5.94313562977713
  20
42.0601397903072
  30
724.526
  0
SEQEND
  8
Unknown Area Type
  0
TEXT
  8
Unknown Area Type
 62
7
  1
PNOA-H_AMS_1956-57_33k_ES_PAN_2
 40
0.00045
  10
-5.94322989875177
  20
42.03894020408075
  0
POLYLINE
  8
Unknown Area Type
  70
9
  66
1
  0
VERTEX
  8
Unknown Area Type
  70
32
  10
-5.94313562977713
  20
42.0601397903072
  30
724.526
  0
VERTEX
  8
Unknown Area Type
  70
32
  10
-5.94308110629992
  20
42.06013668703601
  30
724.516
  0
VERTEX
  8
Unknown Area Type
  70
32
  10
-5.92569327669583
  20
42.05609697120886
  30
722.77
  0
VERTEX
  8
Unknown Area Type
  70
32
  10
-5.92638188364484
  20
42.01965714602559
  30
760.294
  0
VERTEX
  8
Unknown Area Type
  70
32
  10
-5.95325790648962
  20
42.01664032672122
  30
763.121
  0
VERTEX
  8
Unknown Area Type
  70
32
  10
-5.96076584919844
  20
42.01942752410093
  30
764.439
  0
VERTEX
  8
Unknown Area Type
  70
32
  10
-5.96038282297918
  20
42.05577850378388
  30
727.049
  0
VERTEX
  8
Unknown Area Type
  70
32
  10
-5.94315956219015
  20
42.06013467338084
  30
724.524
  0
VERTEX
  8
Unknown Area Type
  70
32
  10
-5.94313562977713
  20
42.0601397903072
  30
724.526
  0
SEQEND
  8
Unknown Area Type
  0
TEXT
  8
Unknown Area Type
 62
7
  1
PNOA-H_AMS_1956-57_33k_ES_PAN_2
 40
0.00045
  10
-5.94322989875177
  20
42.03894020408075
  0
POLYLINE
  8
Unknown Area Type
  70
9
  66
1
  0
VERTEX
  8
Unknown Area Type
  70
32
  10
-6.09035568214579
  20
42.05707252083653
  30
755.077
  0
VERTEX
  8
Unknown Area Type
  70
32
  10
-6.07621687349365
  20
42.0601813039688
  30
801.188
  0
VERTEX
  8
Unknown Area Type
  70
32
  10
-6.06116335593861
  20
42.05573035988385
  30
784.58
  0
VERTEX
  8
Unknown Area Type
  70
32
  10
-6.06218785390162
  20
42.02010520074725
  30
770.269
  0
VERTEX
  8
Unknown Area Type
  70
32
  10
-6.06219753961148
  20
42.02005541305754
  30
770.467
  0
VERTEX
  8
Unknown Area Type
  70
32
  10
-6.06362669987004
  20
42.01938687193265
  30
773.513
  0
VERTEX
  8
Unknown Area Type
  70
32
  10
-6.096173636622
  20
42.02101620992934
  30
786.604
  0
VERTEX
  8
Unknown Area Type
  70
32
  10
-6.09599859339636
  20
42.05582615935427
  30
756.165
  0
VERTEX
  8
Unknown Area Type
  70
32
  10
-6.0903795997577
  20
42.05706737359259
  30
755.084
  0
VERTEX
  8
Unknown Area Type
  70
32
  10
-6.09035568214579
  20
42.05707252083653
  30
755.077
  0
SEQEND
  8
Unknown Area Type
  0
TEXT
  8
Unknown Area Type
 62
7
  1
PNOA-H_AMS_1956-57_33k_ES_PAN_2
 40
0.00045
  10
-6.07866884424953
  20
42.03988939676973
  0
POLYLINE
  8
Unknown Area Type
  70
9
  66
1
  0
VERTEX
  8
Unknown Area Type
  70
32
  10
-6.09035568214579
  20
42.05707252083653
  30
755.077
  0
VERTEX
  8
Unknown Area Type
  70
32
  10
-6.07621687349365
  20
42.0601813039688
  30
801.188
  0
VERTEX
  8
Unknown Area Type
  70
32
  10
-6.06116335593861
  20
42.05573035988385
  30
784.58
  0
VERTEX
  8
Unknown Area Type
  70
32
  10
-6.06218785390162
  20
42.02010520074725
  30
770.269
  0
VERTEX
  8
Unknown Area Type
  70
32
  10
-6.06219753961148
  20
42.02005541305754
  30
770.467
  0
VERTEX
  8
Unknown Area Type
  70
32
  10
-6.06362669987004
  20
42.01938687193265
  30
773.513
  0
VERTEX
  8
Unknown Area Type
  70
32
  10
-6.096173636622
  20
42.02101620992934
  30
786.604
  0
VERTEX
  8
Unknown Area Type
  70
32
  10
-6.09599859339636
  20
42.05582615935427
  30
756.165
  0
VERTEX
  8
Unknown Area Type
  70
32
  10
-6.0903795997577
  20
42.05706737359259
  30
755.084
  0
VERTEX
  8
Unknown Area Type
  70
32
  10
-6.09035568214579
  20
42.05707252083653
  30
755.077
  0
SEQEND
  8
Unknown Area Type
  0
TEXT
  8
Unknown Area Type
 62
7
  1
PNOA-H_AMS_1956-57_33k_ES_PAN_2
 40
0.00045
  10
-6.07866884424953
  20
42.03988939676973
  0
POLYLINE
  8
Unknown Area Type
  70
9
  66
1
  0
VERTEX
  8
Unknown Area Type
  70
32
  10
-5.91040604344556
  20
42.06003409627934
  30
746.991
  0
VERTEX
  8
Unknown Area Type
  70
32
  10
-5.91029658703282
  20
42.06001886352921
  30
747.078
  0
VERTEX
  8
Unknown Area Type
  70
32
  10
-5.89242491830554
  20
42.05618898014073
  30
772.219
  0
VERTEX
  8
Unknown Area Type
  70
32
  10
-5.89297236406376
  20
42.01981133982738
  30
756.569
  0
VERTEX
  8
Unknown Area Type
  70
32
  10
-5.89297699255283
  20
42.01951404395642
  30
756.725
  0
VERTEX
  8
Unknown Area Type
  70
32
  10
-5.89299488300806
  20
42.01950908996411
  30
756.767
  0
VERTEX
  8
Unknown Area Type
  70
32
  10
-5.91659442106761
  20
42.01624126508104
  30
759.491
  0
VERTEX
  8
Unknown Area Type
  70
32
  10
-5.92638188364484
  20
42.01965714602559
  30
760.294
  0
VERTEX
  8
Unknown Area Type
  70
32
  10
-5.92569910487577
  20
42.05609231983254
  30
722.749
  0
VERTEX
  8
Unknown Area Type
  70
32
  10
-5.91042997883532
  20
42.06002898610681
  30
747.05
  0
VERTEX
  8
Unknown Area Type
  70
32
  10
-5.91040604344556
  20
42.06003409627934
  30
746.991
  0
SEQEND
  8
Unknown Area Type
  0
TEXT
  8
Unknown Area Type
 62
7
  1
PNOA-H_AMS_1956-57_33k_ES_PAN_2
 40
0.00045
  10
-5.90940366464315
  20
42.03853130627284
  0
POLYLINE
  8
Unknown Area Type
  70
9
  66
1
  0
VERTEX
  8
Unknown Area Type
  70
32
  10
-5.91040604344556
  20
42.06003409627934
  30
746.991
  0
VERTEX
  8
Unknown Area Type
  70
32
  10
-5.91029658703282
  20
42.06001886352921
  30
747.078
  0
VERTEX
  8
Unknown Area Type
  70
32
  10
-5.89242491830554
  20
42.05618898014073
  30
772.219
  0
VERTEX
  8
Unknown Area Type
  70
32
  10
-5.89297236406376
  20
42.01981133982738
  30
756.569
  0
VERTEX
  8
Unknown Area Type
  70
32
  10
-5.89297699255283
  20
42.01951404395642
  30
756.725
  0
VERTEX
  8
Unknown Area Type
  70
32
  10
-5.89299488300806
  20
42.01950908996411
  30
756.767
  0
VERTEX
  8
Unknown Area Type
  70
32
  10
-5.91659442106761
  20
42.01624126508104
  30
759.491
  0
VERTEX
  8
Unknown Area Type
  70
32
  10
-5.92638188364484
  20
42.01965714602559
  30
760.294
  0
VERTEX
  8
Unknown Area Type
  70
32
  10
-5.92569910487577
  20
42.05609231983254
  30
722.749
  0
VERTEX
  8
Unknown Area Type
  70
32
  10
-5.91042997883532
  20
42.06002898610681
  30
747.05
  0
VERTEX
  8
Unknown Area Type
  70
32
  10
-5.91040604344556
  20
42.06003409627934
  30
746.991
  0
SEQEND
  8
Unknown Area Type
  0
TEXT
  8
Unknown Area Type
 62
7
  1
PNOA-H_AMS_1956-57_33k_ES_PAN_2
 40
0.00045
  10
-5.90940366464315
  20
42.03853130627284
  0
POLYLINE
  8
Unknown Area Type
  70
9
  66
1
  0
VERTEX
  8
Unknown Area Type
  70
32
  10
-5.86002866115935
  20
42.0203944406687
  30
723.334
  0
VERTEX
  8
Unknown Area Type
  70
32
  10
-5.85947493921751
  20
42.05597520746841
  30
783.577
  0
VERTEX
  8
Unknown Area Type
  70
32
  10
-5.85416666666668
  20
42.0573533925285
  30
792.767
  0
VERTEX
  8
Unknown Area Type
  70
32
  10
-5.85416666666668
  20
42.04166666666664
  30
759.496
  0
VERTEX
  8
Unknown Area Type
  70
32
  10
-5.85416666666668
  20
42.02083333333333
  30
719.892
  0
VERTEX
  8
Unknown Area Type
  70
32
  10
-5.85416666666668
  20
42.01866831377403
  30
719.655
  0
VERTEX
  8
Unknown Area Type
  70
32
  10
-5.8600046966303
  20
42.02012937735881
  30
722.372
  0
VERTEX
  8
Unknown Area Type
  70
32
  10
-5.86002922696909
  20
42.02013777110924
  30
722.455
  0
SEQEND
  8
Unknown Area Type
  0
TEXT
  8
Unknown Area Type
 62
7
  1
PNOA-H_AMS_1956-57_33k_ES_PAN_2
 40
0.00045
  10
-5.85709794681789
  20
42.03801085315126
  0
POLYLINE
  8
Unknown Area Type
  70
9
  66
1
  0
VERTEX
  8
Unknown Area Type
  70
32
  10
-5.86002866115935
  20
42.0203944406687
  30
723.334
  0
VERTEX
  8
Unknown Area Type
  70
32
  10
-5.85947493921751
  20
42.05597520746841
  30
783.577
  0
VERTEX
  8
Unknown Area Type
  70
32
  10
-5.85416666666668
  20
42.0573533925285
  30
792.767
  0
VERTEX
  8
Unknown Area Type
  70
32
  10
-5.85416666666668
  20
42.04166666666664
  30
759.496
  0
VERTEX
  8
Unknown Area Type
  70
32
  10
-5.85416666666668
  20
42.02083333333333
  30
719.892
  0
VERTEX
  8
Unknown Area Type
  70
32
  10
-5.85416666666668
  20
42.01866831377403
  30
719.655
  0
VERTEX
  8
Unknown Area Type
  70
32
  10
-5.8600046966303
  20
42.02012937735881
  30
722.372
  0
VERTEX
  8
Unknown Area Type
  70
32
  10
-5.86002922696909
  20
42.02013777110924
  30
722.455
  0
SEQEND
  8
Unknown Area Type
  0
TEXT
  8
Unknown Area Type
 62
7
  1
PNOA-H_AMS_1956-57_33k_ES_PAN_2
 40
0.00045
  10
-5.85709794681789
  20
42.03801085315126
  0
POLYLINE
  8
Unknown Area Type
  70
9
  66
1
  0
VERTEX
  8
Unknown Area Type
  70
32
  10
-5.85416666666668
  20
42.02083333333333
  30
719.892
  0
VERTEX
  8
Unknown Area Type
  70
32
  10
-5.85416666666668
  20
42.04166666666664
  30
759.496
  0
VERTEX
  8
Unknown Area Type
  70
32
  10
-5.85416666666668
  20
42.0573533925285
  30
792.767
  0
VERTEX
  8
Unknown Area Type
  70
32
  10
-5.85416633333334
  20
42.05735347907172
  30
792.767
  0
VERTEX
  8
Unknown Area Type
  70
32
  10
-5.85416633333334
  20
42.01866823035185
  30
719.655
  0
VERTEX
  8
Unknown Area Type
  70
32
  10
-5.85416666666668
  20
42.01866831377403
  30
719.655
  0
SEQEND
  8
Unknown Area Type
  0
TEXT
  8
Unknown Area Type
 62
7
  1
PNOA-H_AMS_1956-57_33k_ES_PAN_2
 40
0.00045
  10
-5.85416650000001
  20
42.03801085471179
  0
POLYLINE
  8
Unknown Area Type
  70
9
  66
1
  0
VERTEX
  8
Unknown Area Type
  70
32
  10
-5.89232938005299
  20
42.0562139033136
  30
772.254
  0
VERTEX
  8
Unknown Area Type
  70
32
  10
-5.87771402508762
  20
42.05982354187552
  30
823.518
  0
VERTEX
  8
Unknown Area Type
  70
32
  10
-5.85947493921751
  20
42.05597520746841
  30
783.577
  0
VERTEX
  8
Unknown Area Type
  70
32
  10
-5.86002922696909
  20
42.02013777110924
  30
722.455
  0
VERTEX
  8
Unknown Area Type
  70
32
  10
-5.8800883641849
  20
42.01584451431608
  30
752.45
  0
VERTEX
  8
Unknown Area Type
  70
32
  10
-5.88053122099095
  20
42.01575684637335
  30
753.593
  0
VERTEX
  8
Unknown Area Type
  70
32
  10
-5.89297678852285
  20
42.01950954638894
  30
756.741
  0
VERTEX
  8
Unknown Area Type
  70
32
  10
-5.89242686820612
  20
42.05609887710378
  30
772.783
  0
VERTEX
  8
Unknown Area Type
  70
32
  10
-5.89242491830554
  20
42.05618898014073
  30
772.219
  0
VERTEX
  8
Unknown Area Type
  70
32
  10
-5.89235331568563
  20
42.05620879691293
  30
772.228
  0
VERTEX
  8
Unknown Area Type
  70
32
  10
-5.89232938005299
  20
42.0562139033136
  30
772.254
  0
SEQEND
  8
Unknown Area Type
  0
TEXT
  8
Unknown Area Type
 62
7
  1
PNOA-H_AMS_1956-57_33k_ES_PAN_2
 40
0.00045
  10
-5.87622619068083
  20
42.03808866569085
  0
POLYLINE
  8
Unknown Area Type
  70
9
  66
1
  0
VERTEX
  8
Unknown Area Type
  70
32
  10
-5.89232938005299
  20
42.0562139033136
  30
772.254
  0
VERTEX
  8
Unknown Area Type
  70
32
  10
-5.87771402508762
  20
42.05982354187552
  30
823.518
  0
VERTEX
  8
Unknown Area Type
  70
32
  10
-5.85947493921751
  20
42.05597520746841
  30
783.577
  0
VERTEX
  8
Unknown Area Type
  70
32
  10
-5.86002922696909
  20
42.02013777110924
  30
722.455
  0
VERTEX
  8
Unknown Area Type
  70
32
  10
-5.8800883641849
  20
42.01584451431608
  30
752.45
  0
VERTEX
  8
Unknown Area Type
  70
32
  10
-5.88053122099095
  20
42.01575684637335
  30
753.593
  0
VERTEX
  8
Unknown Area Type
  70
32
  10
-5.89297678852285
  20
42.01950954638894
  30
756.741
  0
VERTEX
  8
Unknown Area Type
  70
32
  10
-5.89242686820612
  20
42.05609887710378
  30
772.783
  0
VERTEX
  8
Unknown Area Type
  70
32
  10
-5.89242491830554
  20
42.05618898014073
  30
772.219
  0
VERTEX
  8
Unknown Area Type
  70
32
  10
-5.89235331568563
  20
42.05620879691293
  30
772.228
  0
VERTEX
  8
Unknown Area Type
  70
32
  10
-5.89232938005299
  20
42.0562139033136
  30
772.254
  0
SEQEND
  8
Unknown Area Type
  0
TEXT
  8
Unknown Area Type
 62
7
  1
PNOA-H_AMS_1956-57_33k_ES_PAN_2
 40
0.00045
  10
-5.87622619068083
  20
42.03808866569085
  0
POLYLINE
  8
Unknown Area Type
  70
9
  66
1
  0
VERTEX
  8
Unknown Area Type
  70
32
  10
-5.96074469325848
  20
42.02196308184973
  30
763.245
  0
VERTEX
  8
Unknown Area Type
  70
32
  10
-5.96076584919844
  20
42.01942752410093
  30
764.439
  0
VERTEX
  8
Unknown Area Type
  70
32
  10
-5.98789932120702
  20
42.01691824397332
  30
770.44
  0
VERTEX
  8
Unknown Area Type
  70
32
  10
-5.98792344415069
  20
42.01691761548739
  30
770.456
  0
VERTEX
  8
Unknown Area Type
  70
32
  10
-5.98802807373802
  20
42.01695991622044
  30
770.321
  0
VERTEX
  8
Unknown Area Type
  70
32
  10
-5.99499052705915
  20
42.01979959413305
  30
771.453
  0
VERTEX
  8
Unknown Area Type
  70
32
  10
-5.99371447666965
  20
42.05627294592193
  30
745.778
  0
VERTEX
  8
Unknown Area Type
  70
32
  10
-5.97684652262606
  20
42.06003955064529
  30
735.223
  0
VERTEX
  8
Unknown Area Type
  70
32
  10
-5.97680427849765
  20
42.06004064732539
  30
735.196
  0
VERTEX
  8
Unknown Area Type
  70
32
  10
-5.97670645911215
  20
42.06001617077638
  30
735.237
  0
VERTEX
  8
Unknown Area Type
  70
32
  10
-5.96038282297918
  20
42.05577850378388
  30
727.049
  0
VERTEX
  8
Unknown Area Type
  70
32
  10
-5.96074367365553
  20
42.02207117259079
  30
762.841
  0
VERTEX
  8
Unknown Area Type
  70
32
  10
-5.96074469325848
  20
42.02196308184973
  30
763.245
  0
SEQEND
  8
Unknown Area Type
  0
TEXT
  8
Unknown Area Type
 62
7
  1
PNOA-H_AMS_1956-57_33k_ES_PAN_2
 40
0.00045
  10
-5.97768717562101
  20
42.03885558048954
  0
POLYLINE
  8
Unknown Area Type
  70
9
  66
1
  0
VERTEX
  8
Unknown Area Type
  70
32
  10
-5.96074469325848
  20
42.02196308184973
  30
763.245
  0
VERTEX
  8
Unknown Area Type
  70
32
  10
-5.96076584919844
  20
42.01942752410093
  30
764.439
  0
VERTEX
  8
Unknown Area Type
  70
32
  10
-5.98789932120702
  20
42.01691824397332
  30
770.44
  0
VERTEX
  8
Unknown Area Type
  70
32
  10
-5.98792344415069
  20
42.01691761548739
  30
770.456
  0
VERTEX
  8
Unknown Area Type
  70
32
  10
-5.98802807373802
  20
42.01695991622044
  30
770.321
  0
VERTEX
  8
Unknown Area Type
  70
32
  10
-5.99499052705915
  20
42.01979959413305
  30
771.453
  0
VERTEX
  8
Unknown Area Type
  70
32
  10
-5.99371447666965
  20
42.05627294592193
  30
745.778
  0
VERTEX
  8
Unknown Area Type
  70
32
  10
-5.97684652262606
  20
42.06003955064529
  30
735.223
  0
VERTEX
  8
Unknown Area Type
  70
32
  10
-5.97680427849765
  20
42.06004064732539
  30
735.196
  0
VERTEX
  8
Unknown Area Type
  70
32
  10
-5.97670645911215
  20
42.06001617077638
  30
735.237
  0
VERTEX
  8
Unknown Area Type
  70
32
  10
-5.96038282297918
  20
42.05577850378388
  30
727.049
  0
VERTEX
  8
Unknown Area Type
  70
32
  10
-5.96074367365553
  20
42.02207117259079
  30
762.841
  0
VERTEX
  8
Unknown Area Type
  70
32
  10
-5.96074469325848
  20
42.02196308184973
  30
763.245
  0
SEQEND
  8
Unknown Area Type
  0
TEXT
  8
Unknown Area Type
 62
7
  1
PNOA-H_AMS_1956-57_33k_ES_PAN_2
 40
0.00045
  10
-5.97768717562101
  20
42.03885558048954
  0
POLYLINE
  8
Unknown Area Type
  70
9
  66
1
  0
VERTEX
  8
Unknown Area Type
  70
32
  10
-6.18749999999997
  20
42.14583333333339
  30
845.764
  0
VERTEX
  8
Unknown Area Type
  70
32
  10
-6.18749999999997
  20
42.16180271702771
  30
946.68
  0
VERTEX
  8
Unknown Area Type
  70
32
  10
-6.18004995594583
  20
42.16542291440318
  30
958.401
  0
VERTEX
  8
Unknown Area Type
  70
32
  10
-6.18004436303059
  20
42.16543207460482
  30
958.163
  0
VERTEX
  8
Unknown Area Type
  70
32
  10
-6.18003205017355
  20
42.16542791373114
  30
957.905
  0
VERTEX
  8
Unknown Area Type
  70
32
  10
-6.17995050953349
  20
42.16525007576643
  30
956.488
  0
VERTEX
  8
Unknown Area Type
  70
32
  10
-6.17525444475143
  20
42.15497946584274
  30
906.319
  0
VERTEX
  8
Unknown Area Type
  70
32
  10
-6.17559067564288
  20
42.14150311117645
  30
842.16
  0
VERTEX
  8
Unknown Area Type
  70
32
  10
-6.18749999999997
  20
42.13914114318926
  30
846.197
  0
SEQEND
  8
Unknown Area Type
  0
TEXT
  8
Unknown Area Type
 62
7
  1
PNOA-H_AMS_1956-57_33k_ES_PAN_2
 40
0.00045
  10
-6.1813772223757
  20
42.15228660889704
  0
POLYLINE
  8
Unknown Area Type
  70
9
  66
1
  0
VERTEX
  8
Unknown Area Type
  70
32
  10
-6.18749999999997
  20
42.14583333333339
  30
845.764
  0
VERTEX
  8
Unknown Area Type
  70
32
  10
-6.18749999999997
  20
42.16180271702771
  30
946.68
  0
VERTEX
  8
Unknown Area Type
  70
32
  10
-6.18004995594583
  20
42.16542291440318
  30
958.401
  0
VERTEX
  8
Unknown Area Type
  70
32
  10
-6.18004436303059
  20
42.16543207460482
  30
958.163
  0
VERTEX
  8
Unknown Area Type
  70
32
  10
-6.18003205017355
  20
42.16542791373114
  30
957.905
  0
VERTEX
  8
Unknown Area Type
  70
32
  10
-6.17995050953349
  20
42.16525007576643
  30
956.488
  0
VERTEX
  8
Unknown Area Type
  70
32
  10
-6.17525444475143
  20
42.15497946584274
  30
906.319
  0
VERTEX
  8
Unknown Area Type
  70
32
  10
-6.17559067564288
  20
42.14150311117645
  30
842.16
  0
VERTEX
  8
Unknown Area Type
  70
32
  10
-6.18749999999997
  20
42.13914114318926
  30
846.197
  0
SEQEND
  8
Unknown Area Type
  0
TEXT
  8
Unknown Area Type
 62
7
  1
PNOA-H_AMS_1956-57_33k_ES_PAN_2
 40
0.00045
  10
-6.1813772223757
  20
42.15228660889704
  0
POLYLINE
  8
Unknown Area Type
  70
9
  66
1
  0
VERTEX
  8
Unknown Area Type
  70
32
  10
-6.14318346494054
  20
42.16328811762535
  30
918.635
  0
VERTEX
  8
Unknown Area Type
  70
32
  10
-6.14316533372787
  20
42.16328861485144
  30
918.632
  0
VERTEX
  8
Unknown Area Type
  70
32
  10
-6.14316243763076
  20
42.16323016142896
  30
918.603
  0
VERTEX
  8
Unknown Area Type
  70
32
  10
-6.14399017472408
  20
42.14133866011439
  30
909.951
  0
VERTEX
  8
Unknown Area Type
  70
32
  10
-6.16208631039894
  20
42.13686513711362
  30
835.622
  0
VERTEX
  8
Unknown Area Type
  70
32
  10
-6.17559067564288
  20
42.14150311117645
  30
842.16
  0
VERTEX
  8
Unknown Area Type
  70
32
  10
-6.17526026252721
  20
42.15497480215291
  30
906.289
  0
VERTEX
  8
Unknown Area Type
  70
32
  10
-6.1751949170684
  20
42.15499912501873
  30
906.697
  0
VERTEX
  8
Unknown Area Type
  70
32
  10
-6.14320137337319
  20
42.16328312397946
  30
918.638
  0
VERTEX
  8
Unknown Area Type
  70
32
  10
-6.14318346494054
  20
42.16328811762535
  30
918.635
  0
SEQEND
  8
Unknown Area Type
  0
TEXT
  8
Unknown Area Type
 62
7
  1
PNOA-H_AMS_1956-57_33k_ES_PAN_2
 40
0.00045
  10
-6.15952046153284
  20
42.15007524312949
  0
POLYLINE
  8
Unknown Area Type
  70
9
  66
1
  0
VERTEX
  8
Unknown Area Type
  70
32
  10
-6.14318346494054
  20
42.16328811762535
  30
918.635
  0
VERTEX
  8
Unknown Area Type
  70
32
  10
-6.14316533372787
  20
42.16328861485144
  30
918.632
  0
VERTEX
  8
Unknown Area Type
  70
32
  10
-6.14316243763076
  20
42.16323016142896
  30
918.603
  0
VERTEX
  8
Unknown Area Type
  70
32
  10
-6.14399017472408
  20
42.14133866011439
  30
909.951
  0
VERTEX
  8
Unknown Area Type
  70
32
  10
-6.16208631039894
  20
42.13686513711362
  30
835.622
  0
VERTEX
  8
Unknown Area Type
  70
32
  10
-6.17559067564288
  20
42.14150311117645
  30
842.16
  0
VERTEX
  8
Unknown Area Type
  70
32
  10
-6.17526026252721
  20
42.15497480215291
  30
906.289
  0
VERTEX
  8
Unknown Area Type
  70
32
  10
-6.1751949170684
  20
42.15499912501873
  30
906.697
  0
VERTEX
  8
Unknown Area Type
  70
32
  10
-6.14320137337319
  20
42.16328312397946
  30
918.638
  0
VERTEX
  8
Unknown Area Type
  70
32
  10
-6.14318346494054
  20
42.16328811762535
  30
918.635
  0
SEQEND
  8
Unknown Area Type
  0
TEXT
  8
Unknown Area Type
 62
7
  1
PNOA-H_AMS_1956-57_33k_ES_PAN_2
 40
0.00045
  10
-6.15952046153284
  20
42.15007524312949
  0
POLYLINE
  8
Unknown Area Type
  70
9
  66
1
  0
VERTEX
  8
Unknown Area Type
  70
32
  10
-5.91707022430946
  20
42.16666666666671
  30
835.295
  0
VERTEX
  8
Unknown Area Type
  70
32
  10
-5.89817679165371
  20
42.16666666666671
  30
857.867
  0
VERTEX
  8
Unknown Area Type
  70
32
  10
-5.88309319018222
  20
42.15066482804301
  30
825.541
  0
VERTEX
  8
Unknown Area Type
  70
32
  10
-5.88185978900554
  20
42.13682319008357
  30
802.06
  0
VERTEX
  8
Unknown Area Type
  70
32
  10
-5.89142224927962
  20
42.13438962510249
  30
802.793
  0
VERTEX
  8
Unknown Area Type
  70
32
  10
-5.89144641884462
  20
42.13438901552212
  30
802.832
  0
VERTEX
  8
Unknown Area Type
  70
32
  10
-5.89463380189007
  20
42.13357915317536
  30
786.352
  0
VERTEX
  8
Unknown Area Type
  70
32
  10
-5.91439334742825
  20
42.13680222283049
  30
770.703
  0
VERTEX
  8
Unknown Area Type
  70
32
  10
-5.91440000908337
  20
42.13681556138864
  30
770.654
  0
SEQEND
  8
Unknown Area Type
  0
TEXT
  8
Unknown Area Type
 62
7
  1
PNOA-H_AMS_1956-57_33k_ES_PAN_2
 40
0.00045
  10
-5.89980991926968
  20
42.1514096510606
  0
POLYLINE
  8
Unknown Area Type
  70
9
  66
1
  0
VERTEX
  8
Unknown Area Type
  70
32
  10
-5.91707023921798
  20
42.16666683333337
  30
835.296
  0
VERTEX
  8
Unknown Area Type
  70
32
  10
-5.89817694875651
  20
42.16666683333337
  30
857.867
  0
VERTEX
  8
Unknown Area Type
  70
32
  10
-5.89817679165371
  20
42.16666666666671
  30
857.867
  0
VERTEX
  8
Unknown Area Type
  70
32
  10
-5.91707022430946
  20
42.16666666666671
  30
835.295
  0
SEQEND
  8
Unknown Area Type
  0
TEXT
  8
Unknown Area Type
 62
7
  1
PNOA-H_AMS_1956-57_33k_ES_PAN_2
 40
0.00045
  10
-5.90762351543584
  20
42.16666675000004
  0
POLYLINE
  8
Unknown Area Type
  70
9
  66
1
  0
VERTEX
  8
Unknown Area Type
  70
32
  10
-5.91707022430946
  20
42.16666666666671
  30
835.295
  0
VERTEX
  8
Unknown Area Type
  70
32
  10
-5.89817679165371
  20
42.16666666666671
  30
857.867
  0
VERTEX
  8
Unknown Area Type
  70
32
  10
-5.88309319018222
  20
42.15066482804301
  30
825.541
  0
VERTEX
  8
Unknown Area Type
  70
32
  10
-5.88185978900554
  20
42.13682319008357
  30
802.06
  0
VERTEX
  8
Unknown Area Type
  70
32
  10
-5.89142224927962
  20
42.13438962510249
  30
802.793
  0
VERTEX
  8
Unknown Area Type
  70
32
  10
-5.89144641884462
  20
42.13438901552212
  30
802.832
  0
VERTEX
  8
Unknown Area Type
  70
32
  10
-5.89463380189007
  20
42.13357915317536
  30
786.352
  0
VERTEX
  8
Unknown Area Type
  70
32
  10
-5.91439334742825
  20
42.13680222283049
  30
770.703
  0
VERTEX
  8
Unknown Area Type
  70
32
  10
-5.91440000908337
  20
42.13681556138864
  30
770.654
  0
SEQEND
  8
Unknown Area Type
  0
TEXT
  8
Unknown Area Type
 62
7
  1
PNOA-H_AMS_1956-57_33k_ES_PAN_2
 40
0.00045
  10
-5.89980991926968
  20
42.1514096510606
  0
POLYLINE
  8
Unknown Area Type
  70
9
  66
1
  0
VERTEX
  8
Unknown Area Type
  70
32
  10
-5.98060449029951
  20
42.16666666666671
  30
826.677
  0
VERTEX
  8
Unknown Area Type
  70
32
  10
-5.97916666666665
  20
42.16666666666671
  30
826.678
  0
VERTEX
  8
Unknown Area Type
  70
32
  10
-5.94917333583195
  20
42.16666666666671
  30
796.359
  0
VERTEX
  8
Unknown Area Type
  70
32
  10
-5.9469741223625
  20
42.13741016347227
  30
811.551
  0
VERTEX
  8
Unknown Area Type
  70
32
  10
-5.96028947525576
  20
42.13391076134545
  30
806.019
  0
VERTEX
  8
Unknown Area Type
  70
32
  10
-5.96035572734956
  20
42.13390454790451
  30
806.136
  0
VERTEX
  8
Unknown Area Type
  70
32
  10
-5.96041677593783
  20
42.13391647927762
  30
806.222
  0
VERTEX
  8
Unknown Area Type
  70
32
  10
-5.98046961465893
  20
42.13790399670273
  30
827.201
  0
SEQEND
  8
Unknown Area Type
  0
TEXT
  8
Unknown Area Type
 62
7
  1
PNOA-H_AMS_1956-57_33k_ES_PAN_2
 40
0.00045
  10
-5.9638052258643
  20
42.1557443775071
  0
POLYLINE
  8
Unknown Area Type
  70
9
  66
1
  0
VERTEX
  8
Unknown Area Type
  70
32
  10
-5.98060449108106
  20
42.16666683333337
  30
826.677
  0
VERTEX
  8
Unknown Area Type
  70
32
  10
-5.9491733483603
  20
42.16666683333337
  30
796.359
  0
VERTEX
  8
Unknown Area Type
  70
32
  10
-5.94917333583195
  20
42.16666666666671
  30
796.359
  0
VERTEX
  8
Unknown Area Type
  70
32
  10
-5.97916666666665
  20
42.16666666666671
  30
826.678
  0
VERTEX
  8
Unknown Area Type
  70
32
  10
-5.98060449029951
  20
42.16666666666671
  30
826.677
  0
SEQEND
  8
Unknown Area Type
  0
TEXT
  8
Unknown Area Type
 62
7
  1
PNOA-H_AMS_1956-57_33k_ES_PAN_2
 40
0.00045
  10
-5.9648889134565
  20
42.16666675000004
  0
POLYLINE
  8
Unknown Area Type
  70
9
  66
1
  0
VERTEX
  8
Unknown Area Type
  70
32
  10
-5.98060449029951
  20
42.16666666666671
  30
826.677
  0
VERTEX
  8
Unknown Area Type
  70
32
  10
-5.97916666666665
  20
42.16666666666671
  30
826.678
  0
VERTEX
  8
Unknown Area Type
  70
32
  10
-5.94917333583195
  20
42.16666666666671
  30
796.359
  0
VERTEX
  8
Unknown Area Type
  70
32
  10
-5.9469741223625
  20
42.13741016347227
  30
811.551
  0
VERTEX
  8
Unknown Area Type
  70
32
  10
-5.96028947525576
  20
42.13391076134545
  30
806.019
  0
VERTEX
  8
Unknown Area Type
  70
32
  10
-5.96035572734956
  20
42.13390454790451
  30
806.136
  0
VERTEX
  8
Unknown Area Type
  70
32
  10
-5.96041677593783
  20
42.13391647927762
  30
806.222
  0
VERTEX
  8
Unknown Area Type
  70
32
  10
-5.98046961465893
  20
42.13790399670273
  30
827.201
  0
SEQEND
  8
Unknown Area Type
  0
TEXT
  8
Unknown Area Type
 62
7
  1
PNOA-H_AMS_1956-57_33k_ES_PAN_2
 40
0.00045
  10
-5.9638052258643
  20
42.1557443775071
  0
POLYLINE
  8
Unknown Area Type
  70
9
  66
1
  0
VERTEX
  8
Unknown Area Type
  70
32
  10
-6.18749999999997
  20
42.16666666666671
  30
949.337
  0
VERTEX
  8
Unknown Area Type
  70
32
  10
-6.18001115527087
  20
42.16666666666671
  30
953.939
  0
VERTEX
  8
Unknown Area Type
  70
32
  10
-6.18003831930423
  20
42.16543224229576
  30
958.012
  0
VERTEX
  8
Unknown Area Type
  70
32
  10
-6.18749999999997
  20
42.16180343416343
  30
946.347
  0
SEQEND
  8
Unknown Area Type
  0
TEXT
  8
Unknown Area Type
 62
7
  1
PNOA-H_AMS_1956-57_33k_ES_PAN_2
 40
0.00045
  10
-6.18375557763542
  20
42.16423505041507
  0
POLYLINE
  8
Unknown Area Type
  70
9
  66
1
  0
VERTEX
  8
Unknown Area Type
  70
32
  10
-6.18749999999997
  20
42.16666683333337
  30
949.337
  0
VERTEX
  8
Unknown Area Type
  70
32
  10
-6.18001115160329
  20
42.16666683333337
  30
953.938
  0
VERTEX
  8
Unknown Area Type
  70
32
  10
-6.18001115527087
  20
42.16666666666671
  30
953.939
  0
VERTEX
  8
Unknown Area Type
  70
32
  10
-6.18749999999997
  20
42.16666666666671
  30
949.337
  0
SEQEND
  8
Unknown Area Type
  0
TEXT
  8
Unknown Area Type
 62
7
  1
PNOA-H_AMS_1956-57_33k_ES_PAN_2
 40
0.00045
  10
-6.18375557580163
  20
42.16666675000004
  0
POLYLINE
  8
Unknown Area Type
  70
9
  66
1
  0
VERTEX
  8
Unknown Area Type
  70
32
  10
-6.18749999999997
  20
42.16666666666671
  30
949.337
  0
VERTEX
  8
Unknown Area Type
  70
32
  10
-6.18001115527087
  20
42.16666666666671
  30
953.939
  0
VERTEX
  8
Unknown Area Type
  70
32
  10
-6.18003831930423
  20
42.16543224229576
  30
958.012
  0
VERTEX
  8
Unknown Area Type
  70
32
  10
-6.18749999999997
  20
42.16180343416343
  30
946.347
  0
SEQEND
  8
Unknown Area Type
  0
TEXT
  8
Unknown Area Type
 62
7
  1
PNOA-H_AMS_1956-57_33k_ES_PAN_2
 40
0.00045
  10
-6.18375557763542
  20
42.16423505041507
  0
POLYLINE
  8
Unknown Area Type
  70
9
  66
1
  0
VERTEX
  8
Unknown Area Type
  70
32
  10
-6.18001085680738
  20
42.16666666666671
  30
953.968
  0
VERTEX
  8
Unknown Area Type
  70
32
  10
-6.14583333333334
  20
42.16666666666671
  30
918.405
  0
VERTEX
  8
Unknown Area Type
  70
32
  10
-6.14184450205136
  20
42.1666666666667
  30
918.253
  0
VERTEX
  8
Unknown Area Type
  70
32
  10
-6.14315951276684
  20
42.16329327700995
  30
918.634
  0
VERTEX
  8
Unknown Area Type
  70
32
  10
-6.17524840199157
  20
42.15497963324793
  30
906.318
  0
VERTEX
  8
Unknown Area Type
  70
32
  10
-6.17526048751123
  20
42.15497929843722
  30
906.32
  0
VERTEX
  8
Unknown Area Type
  70
32
  10
-6.18003809389953
  20
42.16542774604054
  30
958.059
  0
SEQEND
  8
Unknown Area Type
  0
TEXT
  8
Unknown Area Type
 62
7
  1
PNOA-H_AMS_1956-57_33k_ES_PAN_2
 40
0.00045
  10
-6.16094129797544
  20
42.16082298255196
  0
POLYLINE
  8
Unknown Area Type
  70
9
  66
1
  0
VERTEX
  8
Unknown Area Type
  70
32
  10
-6.18001085314329
  20
42.16666683333337
  30
953.967
  0
VERTEX
  8
Unknown Area Type
  70
32
  10
-6.14184443708156
  20
42.16666683333337
  30
918.253
  0
VERTEX
  8
Unknown Area Type
  70
32
  10
-6.14184450205136
  20
42.1666666666667
  30
918.253
  0
VERTEX
  8
Unknown Area Type
  70
32
  10
-6.14583333333334
  20
42.16666666666671
  30
918.405
  0
VERTEX
  8
Unknown Area Type
  70
32
  10
-6.18001085680738
  20
42.16666666666671
  30
953.968
  0
SEQEND
  8
Unknown Area Type
  0
TEXT
  8
Unknown Area Type
 62
7
  1
PNOA-H_AMS_1956-57_33k_ES_PAN_2
 40
0.00045
  10
-6.16092764694447
  20
42.16666675000003
  0
POLYLINE
  8
Unknown Area Type
  70
9
  66
1
  0
VERTEX
  8
Unknown Area Type
  70
32
  10
-6.18001085680738
  20
42.16666666666671
  30
953.968
  0
VERTEX
  8
Unknown Area Type
  70
32
  10
-6.14583333333334
  20
42.16666666666671
  30
918.405
  0
VERTEX
  8
Unknown Area Type
  70
32
  10
-6.14184450205136
  20
42.1666666666667
  30
918.253
  0
VERTEX
  8
Unknown Area Type
  70
32
  10
-6.14315951276684
  20
42.16329327700995
  30
918.634
  0
VERTEX
  8
Unknown Area Type
  70
32
  10
-6.17524840199157
  20
42.15497963324793
  30
906.318
  0
VERTEX
  8
Unknown Area Type
  70
32
  10
-6.17526048751123
  20
42.15497929843722
  30
906.32
  0
VERTEX
  8
Unknown Area Type
  70
32
  10
-6.18003809389953
  20
42.16542774604054
  30
958.059
  0
SEQEND
  8
Unknown Area Type
  0
TEXT
  8
Unknown Area Type
 62
7
  1
PNOA-H_AMS_1956-57_33k_ES_PAN_2
 40
0.00045
  10
-6.16094129797544
  20
42.16082298255196
  0
POLYLINE
  8
Unknown Area Type
  70
9
  66
1
  0
VERTEX
  8
Unknown Area Type
  70
32
  10
-5.86043325370512
  20
42.16666666666671
  30
762.789
  0
VERTEX
  8
Unknown Area Type
  70
32
  10
-5.85416666666668
  20
42.16666666666671
  30
761.267
  0
VERTEX
  8
Unknown Area Type
  70
32
  10
-5.85416666666668
  20
42.15645286067711
  30
757.222
  0
SEQEND
  8
Unknown Area Type
  0
TEXT
  8
Unknown Area Type
 62
7
  1
PNOA-H_AMS_1956-57_33k_ES_PAN_2
 40
0.00045
  10
-5.8572999601859
  20
42.16155976367191
  0
POLYLINE
  8
Unknown Area Type
  70
9
  66
1
  0
VERTEX
  8
Unknown Area Type
  70
32
  10
-5.86043335596193
  20
42.16666683333337
  30
762.789
  0
VERTEX
  8
Unknown Area Type
  70
32
  10
-5.85416666666668
  20
42.16666683333337
  30
761.267
  0
VERTEX
  8
Unknown Area Type
  70
32
  10
-5.85416666666668
  20
42.16666666666671
  30
761.267
  0
VERTEX
  8
Unknown Area Type
  70
32
  10
-5.86043325370512
  20
42.16666666666671
  30
762.789
  0
SEQEND
  8
Unknown Area Type
  0
TEXT
  8
Unknown Area Type
 62
7
  1
PNOA-H_AMS_1956-57_33k_ES_PAN_2
 40
0.00045
  10
-5.8573000113143
  20
42.16666675000004
  0
POLYLINE
  8
Unknown Area Type
  70
9
  66
1
  0
VERTEX
  8
Unknown Area Type
  70
32
  10
-5.85416666666668
  20
42.16666683333337
  30
761.267
  0
VERTEX
  8
Unknown Area Type
  70
32
  10
-5.85416633333334
  20
42.16666683333337
  30
761.267
  0
VERTEX
  8
Unknown Area Type
  70
32
  10
-5.85416633333334
  20
42.16666666666671
  30
761.267
  0
VERTEX
  8
Unknown Area Type
  70
32
  10
-5.85416666666668
  20
42.16666666666671
  30
761.267
  0
SEQEND
  8
Unknown Area Type
  0
TEXT
  8
Unknown Area Type
 62
7
  1
PNOA-H_AMS_1956-57_33k_ES_PAN_2
 40
0.00045
  10
-5.85416650000001
  20
42.16666675000004
  0
POLYLINE
  8
Unknown Area Type
  70
9
  66
1
  0
VERTEX
  8
Unknown Area Type
  70
32
  10
-5.86043325370512
  20
42.16666666666671
  30
762.789
  0
VERTEX
  8
Unknown Area Type
  70
32
  10
-5.85416666666668
  20
42.16666666666671
  30
761.267
  0
VERTEX
  8
Unknown Area Type
  70
32
  10
-5.85416666666668
  20
42.15645286067711
  30
757.222
  0
SEQEND
  8
Unknown Area Type
  0
TEXT
  8
Unknown Area Type
 62
7
  1
PNOA-H_AMS_1956-57_33k_ES_PAN_2
 40
0.00045
  10
-5.8572999601859
  20
42.16155976367191
  0
POLYLINE
  8
Unknown Area Type
  70
9
  66
1
  0
VERTEX
  8
Unknown Area Type
  70
32
  10
-5.85416666666668
  20
42.16666666666671
  30
761.267
  0
VERTEX
  8
Unknown Area Type
  70
32
  10
-5.85416633333334
  20
42.16666666666671
  30
761.267
  0
VERTEX
  8
Unknown Area Type
  70
32
  10
-5.85416633333334
  20
42.15645231738264
  30
757.221
  0
VERTEX
  8
Unknown Area Type
  70
32
  10
-5.85416666666668
  20
42.15645286067711
  30
757.222
  0
SEQEND
  8
Unknown Area Type
  0
TEXT
  8
Unknown Area Type
 62
7
  1
PNOA-H_AMS_1956-57_33k_ES_PAN_2
 40
0.00045
  10
-5.85416650000001
  20
42.16155949202468
  0
POLYLINE
  8
Unknown Area Type
  70
9
  66
1
  0
VERTEX
  8
Unknown Area Type
  70
32
  10
-5.89583333333331
  20
42.16666666666671
  30
855.808
  0
VERTEX
  8
Unknown Area Type
  70
32
  10
-5.87367508000919
  20
42.1666666666667
  30
791.936
  0
VERTEX
  8
Unknown Area Type
  70
32
  10
-5.88309923416561
  20
42.15066467603974
  30
825.565
  0
VERTEX
  8
Unknown Area Type
  70
32
  10
-5.8981808538777
  20
42.16666666666671
  30
858.198
  0
SEQEND
  8
Unknown Area Type
  0
TEXT
  8
Unknown Area Type
 62
7
  1
PNOA-H_AMS_1956-57_33k_ES_PAN_2
 40
0.00045
  10
-5.88592796694344
  20
42.15866567135322
  0
POLYLINE
  8
Unknown Area Type
  70
9
  66
1
  0
VERTEX
  8
Unknown Area Type
  70
32
  10
-5.89818101095836
  20
42.16666683333337
  30
858.198
  0
VERTEX
  8
Unknown Area Type
  70
32
  10
-5.87367498185313
  20
42.16666683333337
  30
791.935
  0
VERTEX
  8
Unknown Area Type
  70
32
  10
-5.87367508000919
  20
42.1666666666667
  30
791.936
  0
VERTEX
  8
Unknown Area Type
  70
32
  10
-5.89583333333331
  20
42.16666666666671
  30
855.808
  0
VERTEX
  8
Unknown Area Type
  70
32
  10
-5.8981808538777
  20
42.16666666666671
  30
858.198
  0
SEQEND
  8
Unknown Area Type
  0
TEXT
  8
Unknown Area Type
 62
7
  1
PNOA-H_AMS_1956-57_33k_ES_PAN_2
 40
0.00045
  10
-5.88592799640575
  20
42.16666675000003
  0
POLYLINE
  8
Unknown Area Type
  70
9
  66
1
  0
VERTEX
  8
Unknown Area Type
  70
32
  10
-5.89583333333331
  20
42.16666666666671
  30
855.808
  0
VERTEX
  8
Unknown Area Type
  70
32
  10
-5.87367508000919
  20
42.1666666666667
  30
791.936
  0
VERTEX
  8
Unknown Area Type
  70
32
  10
-5.88309923416561
  20
42.15066467603974
  30
825.565
  0
VERTEX
  8
Unknown Area Type
  70
32
  10
-5.8981808538777
  20
42.16666666666671
  30
858.198
  0
SEQEND
  8
Unknown Area Type
  0
TEXT
  8
Unknown Area Type
 62
7
  1
PNOA-H_AMS_1956-57_33k_ES_PAN_2
 40
0.00045
  10
-5.88592796694344
  20
42.15866567135322
  0
POLYLINE
  8
Unknown Area Type
  70
9
  66
1
  0
VERTEX
  8
Unknown Area Type
  70
32
  10
-6.18749999999997
  20
42.06250000000004
  30
815.539
  0
VERTEX
  8
Unknown Area Type
  70
32
  10
-6.18749999999997
  20
42.08333333333336
  30
809.294
  0
VERTEX
  8
Unknown Area Type
  70
32
  10
-6.18749999999997
  20
42.09962677779393
  30
823.141
  0
VERTEX
  8
Unknown Area Type
  70
32
  10
-6.17560200290129
  20
42.09792725127493
  30
809.631
  0
VERTEX
  8
Unknown Area Type
  70
32
  10
-6.17515089897811
  20
42.06030736128659
  30
808.753
  0
VERTEX
  8
Unknown Area Type
  70
32
  10
-6.18749999999997
  20
42.05783693852754
  30
816.07
  0
SEQEND
  8
Unknown Area Type
  0
TEXT
  8
Unknown Area Type
 62
7
  1
PNOA-H_AMS_1956-57_33k_ES_PAN_2
 40
0.00045
  10
-6.18132544948904
  20
42.07873185816074
  0
POLYLINE
  8
Unknown Area Type
  70
9
  66
1
  0
VERTEX
  8
Unknown Area Type
  70
32
  10
-6.18749999999997
  20
42.06250000000004
  30
815.539
  0
VERTEX
  8
Unknown Area Type
  70
32
  10
-6.18749999999997
  20
42.08333333333336
  30
809.294
  0
VERTEX
  8
Unknown Area Type
  70
32
  10
-6.18749999999997
  20
42.09962677779393
  30
823.141
  0
VERTEX
  8
Unknown Area Type
  70
32
  10
-6.17560200290129
  20
42.09792725127493
  30
809.631
  0
VERTEX
  8
Unknown Area Type
  70
32
  10
-6.17515089897811
  20
42.06030736128659
  30
808.753
  0
VERTEX
  8
Unknown Area Type
  70
32
  10
-6.18749999999997
  20
42.05783693852754
  30
816.07
  0
SEQEND
  8
Unknown Area Type
  0
TEXT
  8
Unknown Area Type
 62
7
  1
PNOA-H_AMS_1956-57_33k_ES_PAN_2
 40
0.00045
  10
-6.18132544948904
  20
42.07873185816074
  0
POLYLINE
  8
Unknown Area Type
  70
9
  66
1
  0
VERTEX
  8
Unknown Area Type
  70
32
  10
-6.16360018007029
  20
42.10069946950328
  30
808.537
  0
VERTEX
  8
Unknown Area Type
  70
32
  10
-6.14330383644137
  20
42.09776378964767
  30
781.962
  0
VERTEX
  8
Unknown Area Type
  70
32
  10
-6.1416304814353
  20
42.05996552728471
  30
798.984
  0
VERTEX
  8
Unknown Area Type
  70
32
  10
-6.16298324310718
  20
42.05595199690389
  30
812.585
  0
VERTEX
  8
Unknown Area Type
  70
32
  10
-6.17515089897811
  20
42.06030736128659
  30
808.753
  0
VERTEX
  8
Unknown Area Type
  70
32
  10
-6.17560200290129
  20
42.09792725127493
  30
809.631
  0
VERTEX
  8
Unknown Area Type
  70
32
  10
-6.16362410702132
  20
42.10069430664908
  30
808.619
  0
VERTEX
  8
Unknown Area Type
  70
32
  10
-6.16360018007029
  20
42.10069946950328
  30
808.537
  0
SEQEND
  8
Unknown Area Type
  0
TEXT
  8
Unknown Area Type
 62
7
  1
PNOA-H_AMS_1956-57_33k_ES_PAN_2
 40
0.00045
  10
-6.15861672336335
  20
42.07837401858708
  0
POLYLINE
  8
Unknown Area Type
  70
9
  66
1
  0
VERTEX
  8
Unknown Area Type
  70
32
  10
-6.16360018007029
  20
42.10069946950328
  30
808.537
  0
VERTEX
  8
Unknown Area Type
  70
32
  10
-6.14330383644137
  20
42.09776378964767
  30
781.962
  0
VERTEX
  8
Unknown Area Type
  70
32
  10
-6.1416304814353
  20
42.05996552728471
  30
798.984
  0
VERTEX
  8
Unknown Area Type
  70
32
  10
-6.16298324310718
  20
42.05595199690389
  30
812.585
  0
VERTEX
  8
Unknown Area Type
  70
32
  10
-6.17515089897811
  20
42.06030736128659
  30
808.753
  0
VERTEX
  8
Unknown Area Type
  70
32
  10
-6.17560200290129
  20
42.09792725127493
  30
809.631
  0
VERTEX
  8
Unknown Area Type
  70
32
  10
-6.16362410702132
  20
42.10069430664908
  30
808.619
  0
VERTEX
  8
Unknown Area Type
  70
32
  10
-6.16360018007029
  20
42.10069946950328
  30
808.537
  0
SEQEND
  8
Unknown Area Type
  0
TEXT
  8
Unknown Area Type
 62
7
  1
PNOA-H_AMS_1956-57_33k_ES_PAN_2
 40
0.00045
  10
-6.15861672336335
  20
42.07837401858708
  0
POLYLINE
  8
Unknown Area Type
  70
9
  66
1
  0
VERTEX
  8
Unknown Area Type
  70
32
  10
-6.14188157101972
  20
42.09809994678358
  30
782.385
  0
VERTEX
  8
Unknown Area Type
  70
32
  10
-6.13016114766816
  20
42.10084744499855
  30
827.243
  0
VERTEX
  8
Unknown Area Type
  70
32
  10
-6.12993951693412
  20
42.10088951677087
  30
826.877
  0
VERTEX
  8
Unknown Area Type
  70
32
  10
-6.10992520309597
  20
42.09763402898006
  30
861.204
  0
VERTEX
  8
Unknown Area Type
  70
32
  10
-6.10923207911512
  20
42.05995266060766
  30
765.489
  0
VERTEX
  8
Unknown Area Type
  70
32
  10
-6.10924996190861
  20
42.05994767307187
  30
765.537
  0
VERTEX
  8
Unknown Area Type
  70
32
  10
-6.12966681890499
  20
42.05590268788925
  30
793.322
  0
VERTEX
  8
Unknown Area Type
  70
32
  10
-6.14163070329929
  20
42.05997002378957
  30
798.984
  0
VERTEX
  8
Unknown Area Type
  70
32
  10
-6.14330383644137
  20
42.09776378964767
  30
781.962
  0
VERTEX
  8
Unknown Area Type
  70
32
  10
-6.14190549904429
  20
42.09809478843708
  30
782.371
  0
VERTEX
  8
Unknown Area Type
  70
32
  10
-6.14188157101972
  20
42.09809994678358
  30
782.385
  0
SEQEND
  8
Unknown Area Type
  0
TEXT
  8
Unknown Area Type
 62
7
  1
PNOA-H_AMS_1956-57_33k_ES_PAN_2
 40
0.00045
  10
-6.12626825359272
  20
42.07843359495586
  0
POLYLINE
  8
Unknown Area Type
  70
9
  66
1
  0
VERTEX
  8
Unknown Area Type
  70
32
  10
-6.14188157101972
  20
42.09809994678358
  30
782.385
  0
VERTEX
  8
Unknown Area Type
  70
32
  10
-6.13016114766816
  20
42.10084744499855
  30
827.243
  0
VERTEX
  8
Unknown Area Type
  70
32
  10
-6.12993951693412
  20
42.10088951677087
  30
826.877
  0
VERTEX
  8
Unknown Area Type
  70
32
  10
-6.10992520309597
  20
42.09763402898006
  30
861.204
  0
VERTEX
  8
Unknown Area Type
  70
32
  10
-6.10923207911512
  20
42.05995266060766
  30
765.489
  0
VERTEX
  8
Unknown Area Type
  70
32
  10
-6.10924996190861
  20
42.05994767307187
  30
765.537
  0
VERTEX
  8
Unknown Area Type
  70
32
  10
-6.12966681890499
  20
42.05590268788925
  30
793.322
  0
VERTEX
  8
Unknown Area Type
  70
32
  10
-6.14163070329929
  20
42.05997002378957
  30
798.984
  0
VERTEX
  8
Unknown Area Type
  70
32
  10
-6.14330383644137
  20
42.09776378964767
  30
781.962
  0
VERTEX
  8
Unknown Area Type
  70
32
  10
-6.14190549904429
  20
42.09809478843708
  30
782.371
  0
VERTEX
  8
Unknown Area Type
  70
32
  10
-6.14188157101972
  20
42.09809994678358
  30
782.385
  0
SEQEND
  8
Unknown Area Type
  0
TEXT
  8
Unknown Area Type
 62
7
  1
PNOA-H_AMS_1956-57_33k_ES_PAN_2
 40
0.00045
  10
-6.12626825359272
  20
42.07843359495586
  0
POLYLINE
  8
Unknown Area Type
  70
9
  66
1
  0
VERTEX
  8
Unknown Area Type
  70
32
  10
-6.0588392381355
  20
42.05627416393979
  30
782.906
  0
VERTEX
  8
Unknown Area Type
  70
32
  10
-6.06116938993664
  20
42.05573019879389
  30
784.585
  0
VERTEX
  8
Unknown Area Type
  70
32
  10
-6.07622290782788
  20
42.06018114207361
  30
801.157
  0
VERTEX
  8
Unknown Area Type
  70
32
  10
-6.07667733029634
  20
42.09720735465862
  30
824.131
  0
VERTEX
  8
Unknown Area Type
  70
32
  10
-6.06284227996048
  20
42.10029286774381
  30
792.452
  0
VERTEX
  8
Unknown Area Type
  70
32
  10
-6.06270857288672
  20
42.10027842937429
  30
792.427
  0
VERTEX
  8
Unknown Area Type
  70
32
  10
-6.04355936292457
  20
42.09683510456207
  30
781.913
  0
VERTEX
  8
Unknown Area Type
  70
32
  10
-6.04239466019236
  20
42.06009314489619
  30
755.968
  0
VERTEX
  8
Unknown Area Type
  70
32
  10
-6.05881510188454
  20
42.05627480781439
  30
782.888
  0
VERTEX
  8
Unknown Area Type
  70
32
  10
-6.0588392381355
  20
42.05627416393979
  30
782.906
  0
SEQEND
  8
Unknown Area Type
  0
TEXT
  8
Unknown Area Type
 62
7
  1
PNOA-H_AMS_1956-57_33k_ES_PAN_2
 40
0.00045
  10
-6.05953638811499
  20
42.07790781386478
  0
POLYLINE
  8
Unknown Area Type
  70
9
  66
1
  0
VERTEX
  8
Unknown Area Type
  70
32
  10
-6.0588392381355
  20
42.05627416393979
  30
782.906
  0
VERTEX
  8
Unknown Area Type
  70
32
  10
-6.06116938993664
  20
42.05573019879389
  30
784.585
  0
VERTEX
  8
Unknown Area Type
  70
32
  10
-6.07622290782788
  20
42.06018114207361
  30
801.157
  0
VERTEX
  8
Unknown Area Type
  70
32
  10
-6.07667733029634
  20
42.09720735465862
  30
824.131
  0
VERTEX
  8
Unknown Area Type
  70
32
  10
-6.06284227996048
  20
42.10029286774381
  30
792.452
  0
VERTEX
  8
Unknown Area Type
  70
32
  10
-6.06270857288672
  20
42.10027842937429
  30
792.427
  0
VERTEX
  8
Unknown Area Type
  70
32
  10
-6.04355936292457
  20
42.09683510456207
  30
781.913
  0
VERTEX
  8
Unknown Area Type
  70
32
  10
-6.04239466019236
  20
42.06009314489619
  30
755.968
  0
VERTEX
  8
Unknown Area Type
  70
32
  10
-6.05881510188454
  20
42.05627480781439
  30
782.888
  0
VERTEX
  8
Unknown Area Type
  70
32
  10
-6.0588392381355
  20
42.05627416393979
  30
782.906
  0
SEQEND
  8
Unknown Area Type
  0
TEXT
  8
Unknown Area Type
 62
7
  1
PNOA-H_AMS_1956-57_33k_ES_PAN_2
 40
0.00045
  10
-6.05953638811499
  20
42.07790781386478
  0
POLYLINE
  8
Unknown Area Type
  70
9
  66
1
  0
VERTEX
  8
Unknown Area Type
  70
32
  10
-5.9684997142391
  20
42.09742979771362
  30
758.707
  0
VERTEX
  8
Unknown Area Type
  70
32
  10
-5.96360135114242
  20
42.09856961088776
  30
759.526
  0
VERTEX
  8
Unknown Area Type
  70
32
  10
-5.94425699051824
  20
42.09470493247174
  30
747.684
  0
VERTEX
  8
Unknown Area Type
  70
32
  10
-5.94311752457057
  20
42.06014025499789
  30
724.523
  0
VERTEX
  8
Unknown Area Type
  70
32
  10
-5.96037075385509
  20
42.05577881536578
  30
727.06
  0
VERTEX
  8
Unknown Area Type
  70
32
  10
-5.9768223831244
  20
42.06004017732154
  30
735.207
  0
VERTEX
  8
Unknown Area Type
  70
32
  10
-5.97675858709757
  20
42.0955001644242
  30
744.465
  0
VERTEX
  8
Unknown Area Type
  70
32
  10
-5.96852365817258
  20
42.09742467513809
  30
758.68
  0
VERTEX
  8
Unknown Area Type
  70
32
  10
-5.9684997142391
  20
42.09742979771362
  30
758.707
  0
SEQEND
  8
Unknown Area Type
  0
TEXT
  8
Unknown Area Type
 62
7
  1
PNOA-H_AMS_1956-57_33k_ES_PAN_2
 40
0.00045
  10
-5.95997028559299
  20
42.07686091409838
  0
POLYLINE
  8
Unknown Area Type
  70
9
  66
1
  0
VERTEX
  8
Unknown Area Type
  70
32
  10
-5.9684997142391
  20
42.09742979771362
  30
758.707
  0
VERTEX
  8
Unknown Area Type
  70
32
  10
-5.96360135114242
  20
42.09856961088776
  30
759.526
  0
VERTEX
  8
Unknown Area Type
  70
32
  10
-5.94425699051824
  20
42.09470493247174
  30
747.684
  0
VERTEX
  8
Unknown Area Type
  70
32
  10
-5.94311752457057
  20
42.06014025499789
  30
724.523
  0
VERTEX
  8
Unknown Area Type
  70
32
  10
-5.96037075385509
  20
42.05577881536578
  30
727.06
  0
VERTEX
  8
Unknown Area Type
  70
32
  10
-5.9768223831244
  20
42.06004017732154
  30
735.207
  0
VERTEX
  8
Unknown Area Type
  70
32
  10
-5.97675858709757
  20
42.0955001644242
  30
744.465
  0
VERTEX
  8
Unknown Area Type
  70
32
  10
-5.96852365817258
  20
42.09742467513809
  30
758.68
  0
VERTEX
  8
Unknown Area Type
  70
32
  10
-5.9684997142391
  20
42.09742979771362
  30
758.707
  0
SEQEND
  8
Unknown Area Type
  0
TEXT
  8
Unknown Area Type
 62
7
  1
PNOA-H_AMS_1956-57_33k_ES_PAN_2
 40
0.00045
  10
-5.95997028559299
  20
42.07686091409838
  0
POLYLINE
  8
Unknown Area Type
  70
9
  66
1
  0
VERTEX
  8
Unknown Area Type
  70
32
  10
-5.99611110344849
  20
42.09962027346391
  30
756.432
  0
VERTEX
  8
Unknown Area Type
  70
32
  10
-5.9960809108441
  20
42.09962106247122
  30
756.024
  0
VERTEX
  8
Unknown Area Type
  70
32
  10
-5.97675858709757
  20
42.0955001644242
  30
744.465
  0
VERTEX
  8
Unknown Area Type
  70
32
  10
-5.9768223831244
  20
42.06004017732154
  30
735.207
  0
VERTEX
  8
Unknown Area Type
  70
32
  10
-5.99364248634645
  20
42.05628383070535
  30
745.67
  0
VERTEX
  8
Unknown Area Type
  70
32
  10
-5.9936903389658
  20
42.05627357610047
  30
745.74
  0
VERTEX
  8
Unknown Area Type
  70
32
  10
-5.99374486020091
  20
42.05627665532272
  30
745.844
  0
VERTEX
  8
Unknown Area Type
  70
32
  10
-6.00950836168655
  20
42.06037566430373
  30
744.256
  0
VERTEX
  8
Unknown Area Type
  70
32
  10
-6.00985951543818
  20
42.0962974422163
  30
746.47
  0
VERTEX
  8
Unknown Area Type
  70
32
  10
-5.99613504563848
  20
42.09961514516515
  30
756.463
  0
VERTEX
  8
Unknown Area Type
  70
32
  10
-5.99611110344849
  20
42.09962027346391
  30
756.432
  0
SEQEND
  8
Unknown Area Type
  0
TEXT
  8
Unknown Area Type
 62
7
  1
PNOA-H_AMS_1956-57_33k_ES_PAN_2
 40
0.00045
  10
-5.99330899807003
  20
42.07769327923539
  0
POLYLINE
  8
Unknown Area Type
  70
9
  66
1
  0
VERTEX
  8
Unknown Area Type
  70
32
  10
-5.99611110344849
  20
42.09962027346391
  30
756.432
  0
VERTEX
  8
Unknown Area Type
  70
32
  10
-5.9960809108441
  20
42.09962106247122
  30
756.024
  0
VERTEX
  8
Unknown Area Type
  70
32
  10
-5.97675858709757
  20
42.0955001644242
  30
744.465
  0
VERTEX
  8
Unknown Area Type
  70
32
  10
-5.9768223831244
  20
42.06004017732154
  30
735.207
  0
VERTEX
  8
Unknown Area Type
  70
32
  10
-5.99364248634645
  20
42.05628383070535
  30
745.67
  0
VERTEX
  8
Unknown Area Type
  70
32
  10
-5.9936903389658
  20
42.05627357610047
  30
745.74
  0
VERTEX
  8
Unknown Area Type
  70
32
  10
-5.99374486020091
  20
42.05627665532272
  30
745.844
  0
VERTEX
  8
Unknown Area Type
  70
32
  10
-6.00950836168655
  20
42.06037566430373
  30
744.256
  0
VERTEX
  8
Unknown Area Type
  70
32
  10
-6.00985951543818
  20
42.0962974422163
  30
746.47
  0
VERTEX
  8
Unknown Area Type
  70
32
  10
-5.99613504563848
  20
42.09961514516515
  30
756.463
  0
VERTEX
  8
Unknown Area Type
  70
32
  10
-5.99611110344849
  20
42.09962027346391
  30
756.432
  0
SEQEND
  8
Unknown Area Type
  0
TEXT
  8
Unknown Area Type
 62
7
  1
PNOA-H_AMS_1956-57_33k_ES_PAN_2
 40
0.00045
  10
-5.99330899807003
  20
42.07769327923539
  0
POLYLINE
  8
Unknown Area Type
  70
9
  66
1
  0
VERTEX
  8
Unknown Area Type
  70
32
  10
-6.09242825586071
  20
42.10010647937141
  30
872.35
  0
VERTEX
  8
Unknown Area Type
  70
32
  10
-6.07667733029634
  20
42.09720735465862
  30
824.131
  0
VERTEX
  8
Unknown Area Type
  70
32
  10
-6.07622290782788
  20
42.06018114207361
  30
801.157
  0
VERTEX
  8
Unknown Area Type
  70
32
  10
-6.09599255958692
  20
42.0558263222756
  30
756.162
  0
VERTEX
  8
Unknown Area Type
  70
32
  10
-6.10923207911512
  20
42.05995266060766
  30
765.489
  0
VERTEX
  8
Unknown Area Type
  70
32
  10
-6.10993058103486
  20
42.09762037536087
  30
861.164
  0
VERTEX
  8
Unknown Area Type
  70
32
  10
-6.10992520309597
  20
42.09763402898006
  30
861.204
  0
VERTEX
  8
Unknown Area Type
  70
32
  10
-6.10988941677644
  20
42.09764400490612
  30
861.725
  0
VERTEX
  8
Unknown Area Type
  70
32
  10
-6.09605183817819
  20
42.10076961449227
  30
875.456
  0
VERTEX
  8
Unknown Area Type
  70
32
  10
-6.09244033191252
  20
42.10010615362701
  30
872.349
  0
VERTEX
  8
Unknown Area Type
  70
32
  10
-6.09242825586071
  20
42.10010647937141
  30
872.35
  0
SEQEND
  8
Unknown Area Type
  0
TEXT
  8
Unknown Area Type
 62
7
  1
PNOA-H_AMS_1956-57_33k_ES_PAN_2
 40
0.00045
  10
-6.0930770245632
  20
42.07834462829345
  0
POLYLINE
  8
Unknown Area Type
  70
9
  66
1
  0
VERTEX
  8
Unknown Area Type
  70
32
  10
-6.09242825586071
  20
42.10010647937141
  30
872.35
  0
VERTEX
  8
Unknown Area Type
  70
32
  10
-6.07667733029634
  20
42.09720735465862
  30
824.131
  0
VERTEX
  8
Unknown Area Type
  70
32
  10
-6.07622290782788
  20
42.06018114207361
  30
801.157
  0
VERTEX
  8
Unknown Area Type
  70
32
  10
-6.09599255958692
  20
42.0558263222756
  30
756.162
  0
VERTEX
  8
Unknown Area Type
  70
32
  10
-6.10923207911512
  20
42.05995266060766
  30
765.489
  0
VERTEX
  8
Unknown Area Type
  70
32
  10
-6.10993058103486
  20
42.09762037536087
  30
861.164
  0
VERTEX
  8
Unknown Area Type
  70
32
  10
-6.10992520309597
  20
42.09763402898006
  30
861.204
  0
VERTEX
  8
Unknown Area Type
  70
32
  10
-6.10988941677644
  20
42.09764400490612
  30
861.725
  0
VERTEX
  8
Unknown Area Type
  70
32
  10
-6.09605183817819
  20
42.10076961449227
  30
875.456
  0
VERTEX
  8
Unknown Area Type
  70
32
  10
-6.09244033191252
  20
42.10010615362701
  30
872.349
  0
VERTEX
  8
Unknown Area Type
  70
32
  10
-6.09242825586071
  20
42.10010647937141
  30
872.35
  0
SEQEND
  8
Unknown Area Type
  0
TEXT
  8
Unknown Area Type
 62
7
  1
PNOA-H_AMS_1956-57_33k_ES_PAN_2
 40
0.00045
  10
-6.0930770245632
  20
42.07834462829345
  0
POLYLINE
  8
Unknown Area Type
  70
9
  66
1
  0
VERTEX
  8
Unknown Area Type
  70
32
  10
-6.04275866302058
  20
42.0970319595736
  30
783.737
  0
VERTEX
  8
Unknown Area Type
  70
32
  10
-6.02996811808396
  20
42.10012180118898
  30
753.122
  0
VERTEX
  8
Unknown Area Type
  70
32
  10
-6.00985951543818
  20
42.0962974422163
  30
746.47
  0
VERTEX
  8
Unknown Area Type
  70
32
  10
-6.00950836168655
  20
42.06037566430373
  30
744.256
  0
VERTEX
  8
Unknown Area Type
  70
32
  10
-6.02773465796056
  20
42.05611813333267
  30
746.485
  0
VERTEX
  8
Unknown Area Type
  70
32
  10
-6.04239466019236
  20
42.06009314489619
  30
755.968
  0
VERTEX
  8
Unknown Area Type
  70
32
  10
-6.04355936292457
  20
42.09683510456207
  30
781.913
  0
VERTEX
  8
Unknown Area Type
  70
32
  10
-6.0427765618978
  20
42.09702698192967
  30
783.763
  0
VERTEX
  8
Unknown Area Type
  70
32
  10
-6.04275866302058
  20
42.0970319595736
  30
783.737
  0
SEQEND
  8
Unknown Area Type
  0
TEXT
  8
Unknown Area Type
 62
7
  1
PNOA-H_AMS_1956-57_33k_ES_PAN_2
 40
0.00045
  10
-6.02653422118245
  20
42.07793181640486
  0
POLYLINE
  8
Unknown Area Type
  70
9
  66
1
  0
VERTEX
  8
Unknown Area Type
  70
32
  10
-6.04275866302058
  20
42.0970319595736
  30
783.737
  0
VERTEX
  8
Unknown Area Type
  70
32
  10
-6.02996811808396
  20
42.10012180118898
  30
753.122
  0
VERTEX
  8
Unknown Area Type
  70
32
  10
-6.00985951543818
  20
42.0962974422163
  30
746.47
  0
VERTEX
  8
Unknown Area Type
  70
32
  10
-6.00950836168655
  20
42.06037566430373
  30
744.256
  0
VERTEX
  8
Unknown Area Type
  70
32
  10
-6.02773465796056
  20
42.05611813333267
  30
746.485
  0
VERTEX
  8
Unknown Area Type
  70
32
  10
-6.04239466019236
  20
42.06009314489619
  30
755.968
  0
VERTEX
  8
Unknown Area Type
  70
32
  10
-6.04355936292457
  20
42.09683510456207
  30
781.913
  0
VERTEX
  8
Unknown Area Type
  70
32
  10
-6.0427765618978
  20
42.09702698192967
  30
783.763
  0
VERTEX
  8
Unknown Area Type
  70
32
  10
-6.04275866302058
  20
42.0970319595736
  30
783.737
  0
SEQEND
  8
Unknown Area Type
  0
TEXT
  8
Unknown Area Type
 62
7
  1
PNOA-H_AMS_1956-57_33k_ES_PAN_2
 40
0.00045
  10
-6.02653422118245
  20
42.07793181640486
  0
POLYLINE
  8
Unknown Area Type
  70
9
  66
1
  0
VERTEX
  8
Unknown Area Type
  70
32
  10
-5.87772319813749
  20
42.06096249383348
  30
828.698
  0
VERTEX
  8
Unknown Area Type
  70
32
  10
-5.8777258926252
  20
42.05981874136618
  30
823.392
  0
VERTEX
  8
Unknown Area Type
  70
32
  10
-5.89241284837043
  20
42.05618928457851
  30
772.235
  0
VERTEX
  8
Unknown Area Type
  70
32
  10
-5.91038793773917
  20
42.06003455580584
  30
746.963
  0
VERTEX
  8
Unknown Area Type
  70
32
  10
-5.91049777547933
  20
42.0936262128644
  30
803.847
  0
VERTEX
  8
Unknown Area Type
  70
32
  10
-5.89743190206954
  20
42.09743769381846
  30
942.261
  0
VERTEX
  8
Unknown Area Type
  70
32
  10
-5.89730406173905
  20
42.09741841096668
  30
944.277
  0
VERTEX
  8
Unknown Area Type
  70
32
  10
-5.87772321880503
  20
42.09290905409065
  30
804.32
  0
VERTEX
  8
Unknown Area Type
  70
32
  10
-5.87772421438835
  20
42.06098498181036
  30
828.87
  0
VERTEX
  8
Unknown Area Type
  70
32
  10
-5.87772319813749
  20
42.06096249383348
  30
828.698
  0
SEQEND
  8
Unknown Area Type
  0
TEXT
  8
Unknown Area Type
 62
7
  1
PNOA-H_AMS_1956-57_33k_ES_PAN_2
 40
0.00045
  10
-5.89411042434341
  20
42.07661583640055
  0
POLYLINE
  8
Unknown Area Type
  70
9
  66
1
  0
VERTEX
  8
Unknown Area Type
  70
32
  10
-5.87772319813749
  20
42.06096249383348
  30
828.698
  0
VERTEX
  8
Unknown Area Type
  70
32
  10
-5.8777258926252
  20
42.05981874136618
  30
823.392
  0
VERTEX
  8
Unknown Area Type
  70
32
  10
-5.89241284837043
  20
42.05618928457851
  30
772.235
  0
VERTEX
  8
Unknown Area Type
  70
32
  10
-5.91038793773917
  20
42.06003455580584
  30
746.963
  0
VERTEX
  8
Unknown Area Type
  70
32
  10
-5.91049777547933
  20
42.0936262128644
  30
803.847
  0
VERTEX
  8
Unknown Area Type
  70
32
  10
-5.89743190206954
  20
42.09743769381846
  30
942.261
  0
VERTEX
  8
Unknown Area Type
  70
32
  10
-5.89730406173905
  20
42.09741841096668
  30
944.277
  0
VERTEX
  8
Unknown Area Type
  70
32
  10
-5.87772321880503
  20
42.09290905409065
  30
804.32
  0
VERTEX
  8
Unknown Area Type
  70
32
  10
-5.87772421438835
  20
42.06098498181036
  30
828.87
  0
VERTEX
  8
Unknown Area Type
  70
32
  10
-5.87772319813749
  20
42.06096249383348
  30
828.698
  0
SEQEND
  8
Unknown Area Type
  0
TEXT
  8
Unknown Area Type
 62
7
  1
PNOA-H_AMS_1956-57_33k_ES_PAN_2
 40
0.00045
  10
-5.89411042434341
  20
42.07661583640055
  0
POLYLINE
  8
Unknown Area Type
  70
9
  66
1
  0
VERTEX
  8
Unknown Area Type
  70
32
  10
-5.87772905385247
  20
42.09290440496749
  30
804.474
  0
VERTEX
  8
Unknown Area Type
  70
32
  10
-5.86292767224114
  20
42.09715173764727
  30
761.008
  0
VERTEX
  8
Unknown Area Type
  70
32
  10
-5.86290975768309
  20
42.09715668763049
  30
761.219
  0
VERTEX
  8
Unknown Area Type
  70
32
  10
-5.85416666666668
  20
42.09503662299032
  30
754.74
  0
VERTEX
  8
Unknown Area Type
  70
32
  10
-5.85416666666668
  20
42.08333333333336
  30
765.259
  0
VERTEX
  8
Unknown Area Type
  70
32
  10
-5.85416666666668
  20
42.06250000000004
  30
795.131
  0
VERTEX
  8
Unknown Area Type
  70
32
  10
-5.85416666666668
  20
42.05734837696529
  30
792.99
  0
VERTEX
  8
Unknown Area Type
  70
32
  10
-5.85933734290396
  20
42.05600565459255
  30
784.152
  0
VERTEX
  8
Unknown Area Type
  70
32
  10
-5.85949304458323
  20
42.05597475600906
  30
783.605
  0
VERTEX
  8
Unknown Area Type
  70
32
  10
-5.8777200604775
  20
42.05982339041914
  30
823.483
  0
SEQEND
  8
Unknown Area Type
  0
TEXT
  8
Unknown Area Type
 62
7
  1
PNOA-H_AMS_1956-57_33k_ES_PAN_2
 40
0.00045
  10
-5.86133668674808
  20
42.07656860993441
  0
POLYLINE
  8
Unknown Area Type
  70
9
  66
1
  0
VERTEX
  8
Unknown Area Type
  70
32
  10
-5.87772905385247
  20
42.09290440496749
  30
804.474
  0
VERTEX
  8
Unknown Area Type
  70
32
  10
-5.86292767224114
  20
42.09715173764727
  30
761.008
  0
VERTEX
  8
Unknown Area Type
  70
32
  10
-5.86290975768309
  20
42.09715668763049
  30
761.219
  0
VERTEX
  8
Unknown Area Type
  70
32
  10
-5.85416666666668
  20
42.09503662299032
  30
754.74
  0
VERTEX
  8
Unknown Area Type
  70
32
  10
-5.85416666666668
  20
42.08333333333336
  30
765.259
  0
VERTEX
  8
Unknown Area Type
  70
32
  10
-5.85416666666668
  20
42.06250000000004
  30
795.131
  0
VERTEX
  8
Unknown Area Type
  70
32
  10
-5.85416666666668
  20
42.05734837696529
  30
792.99
  0
VERTEX
  8
Unknown Area Type
  70
32
  10
-5.85933734290396
  20
42.05600565459255
  30
784.152
  0
VERTEX
  8
Unknown Area Type
  70
32
  10
-5.85949304458323
  20
42.05597475600906
  30
783.605
  0
VERTEX
  8
Unknown Area Type
  70
32
  10
-5.8777200604775
  20
42.05982339041914
  30
823.483
  0
SEQEND
  8
Unknown Area Type
  0
TEXT
  8
Unknown Area Type
 62
7
  1
PNOA-H_AMS_1956-57_33k_ES_PAN_2
 40
0.00045
  10
-5.86133668674808
  20
42.07656860993441
  0
POLYLINE
  8
Unknown Area Type
  70
9
  66
1
  0
VERTEX
  8
Unknown Area Type
  70
32
  10
-5.85416666666668
  20
42.06250000000004
  30
795.131
  0
VERTEX
  8
Unknown Area Type
  70
32
  10
-5.85416666666668
  20
42.08333333333336
  30
765.259
  0
VERTEX
  8
Unknown Area Type
  70
32
  10
-5.85416666666668
  20
42.09503662299032
  30
754.74
  0
VERTEX
  8
Unknown Area Type
  70
32
  10
-5.85416633333334
  20
42.09503654216213
  30
754.74
  0
VERTEX
  8
Unknown Area Type
  70
32
  10
-5.85416633333334
  20
42.05734846352536
  30
792.99
  0
VERTEX
  8
Unknown Area Type
  70
32
  10
-5.85416666666668
  20
42.05734837696529
  30
792.99
  0
SEQEND
  8
Unknown Area Type
  0
TEXT
  8
Unknown Area Type
 62
7
  1
PNOA-H_AMS_1956-57_33k_ES_PAN_2
 40
0.00045
  10
-5.85416650000001
  20
42.07619249997781
  0
POLYLINE
  8
Unknown Area Type
  70
9
  66
1
  0
VERTEX
  8
Unknown Area Type
  70
32
  10
-5.94361234293196
  20
42.09488357998124
  30
749.566
  0
VERTEX
  8
Unknown Area Type
  70
32
  10
-5.93170983200964
  20
42.09818730675229
  30
766.32
  0
VERTEX
  8
Unknown Area Type
  70
32
  10
-5.93167963832432
  20
42.09818807879353
  30
766.289
  0
VERTEX
  8
Unknown Area Type
  70
32
  10
-5.91049798127762
  20
42.0936307103038
  30
803.865
  0
VERTEX
  8
Unknown Area Type
  70
32
  10
-5.91038793773917
  20
42.06003455580584
  30
746.963
  0
VERTEX
  8
Unknown Area Type
  70
32
  10
-5.92565727461025
  20
42.05610239242068
  30
722.835
  0
VERTEX
  8
Unknown Area Type
  70
32
  10
-5.92571138103673
  20
42.05609650930273
  30
722.731
  0
VERTEX
  8
Unknown Area Type
  70
32
  10
-5.94311752457057
  20
42.06014025499789
  30
724.523
  0
VERTEX
  8
Unknown Area Type
  70
32
  10
-5.94425678232713
  20
42.09470043516897
  30
747.692
  0
VERTEX
  8
Unknown Area Type
  70
32
  10
-5.94363024986068
  20
42.09487861759792
  30
749.494
  0
VERTEX
  8
Unknown Area Type
  70
32
  10
-5.94361234293196
  20
42.09488357998124
  30
749.566
  0
SEQEND
  8
Unknown Area Type
  0
TEXT
  8
Unknown Area Type
 62
7
  1
PNOA-H_AMS_1956-57_33k_ES_PAN_2
 40
0.00045
  10
-5.92732256489469
  20
42.07685886432778
  0
POLYLINE
  8
Unknown Area Type
  70
9
  66
1
  0
VERTEX
  8
Unknown Area Type
  70
32
  10
-5.94361234293196
  20
42.09488357998124
  30
749.566
  0
VERTEX
  8
Unknown Area Type
  70
32
  10
-5.93170983200964
  20
42.09818730675229
  30
766.32
  0
VERTEX
  8
Unknown Area Type
  70
32
  10
-5.93167963832432
  20
42.09818807879353
  30
766.289
  0
VERTEX
  8
Unknown Area Type
  70
32
  10
-5.91049798127762
  20
42.0936307103038
  30
803.865
  0
VERTEX
  8
Unknown Area Type
  70
32
  10
-5.91038793773917
  20
42.06003455580584
  30
746.963
  0
VERTEX
  8
Unknown Area Type
  70
32
  10
-5.92565727461025
  20
42.05610239242068
  30
722.835
  0
VERTEX
  8
Unknown Area Type
  70
32
  10
-5.92571138103673
  20
42.05609650930273
  30
722.731
  0
VERTEX
  8
Unknown Area Type
  70
32
  10
-5.94311752457057
  20
42.06014025499789
  30
724.523
  0
VERTEX
  8
Unknown Area Type
  70
32
  10
-5.94425678232713
  20
42.09470043516897
  30
747.692
  0
VERTEX
  8
Unknown Area Type
  70
32
  10
-5.94363024986068
  20
42.09487861759792
  30
749.494
  0
VERTEX
  8
Unknown Area Type
  70
32
  10
-5.94361234293196
  20
42.09488357998124
  30
749.566
  0
SEQEND
  8
Unknown Area Type
  0
TEXT
  8
Unknown Area Type
 62
7
  1
PNOA-H_AMS_1956-57_33k_ES_PAN_2
 40
0.00045
  10
-5.92732256489469
  20
42.07685886432778
  0
POLYLINE
  8
Unknown Area Type
  70
9
  66
1
  0
VERTEX
  8
Unknown Area Type
  70
32
  10
-6.14316555650492
  20
42.16329311126852
  30
918.634
  0
VERTEX
  8
Unknown Area Type
  70
32
  10
-6.14185091155269
  20
42.1666666666667
  30
918.268
  0
VERTEX
  8
Unknown Area Type
  70
32
  10
-6.11082838542618
  20
42.16666666666671
  30
883.519
  0
VERTEX
  8
Unknown Area Type
  70
32
  10
-6.11109418569961
  20
42.14053876916274
  30
842.633
  0
VERTEX
  8
Unknown Area Type
  70
32
  10
-6.12857342176665
  20
42.13602424181231
  30
901.236
  0
VERTEX
  8
Unknown Area Type
  70
32
  10
-6.14399017472408
  20
42.14133866011439
  30
909.951
  0
SEQEND
  8
Unknown Area Type
  0
TEXT
  8
Unknown Area Type
 62
7
  1
PNOA-H_AMS_1956-57_33k_ES_PAN_2
 40
0.00045
  10
-6.12735558451943
  20
42.15677697594124
  0
POLYLINE
  8
Unknown Area Type
  70
9
  66
1
  0
VERTEX
  8
Unknown Area Type
  70
32
  10
-6.14185084660415
  20
42.16666683333337
  30
918.268
  0
VERTEX
  8
Unknown Area Type
  70
32
  10
-6.11082838373067
  20
42.16666683333337
  30
883.519
  0
VERTEX
  8
Unknown Area Type
  70
32
  10
-6.11082838542618
  20
42.16666666666671
  30
883.519
  0
VERTEX
  8
Unknown Area Type
  70
32
  10
-6.14185091155269
  20
42.1666666666667
  30
918.268
  0
SEQEND
  8
Unknown Area Type
  0
TEXT
  8
Unknown Area Type
 62
7
  1
PNOA-H_AMS_1956-57_33k_ES_PAN_2
 40
0.00045
  10
-6.12633964764168
  20
42.16666675000003
  0
POLYLINE
  8
Unknown Area Type
  70
9
  66
1
  0
VERTEX
  8
Unknown Area Type
  70
32
  10
-6.14316555650492
  20
42.16329311126852
  30
918.634
  0
VERTEX
  8
Unknown Area Type
  70
32
  10
-6.14185091155269
  20
42.1666666666667
  30
918.268
  0
VERTEX
  8
Unknown Area Type
  70
32
  10
-6.11082838542618
  20
42.16666666666671
  30
883.519
  0
VERTEX
  8
Unknown Area Type
  70
32
  10
-6.11109418569961
  20
42.14053876916274
  30
842.633
  0
VERTEX
  8
Unknown Area Type
  70
32
  10
-6.12857342176665
  20
42.13602424181231
  30
901.236
  0
VERTEX
  8
Unknown Area Type
  70
32
  10
-6.14399017472408
  20
42.14133866011439
  30
909.951
  0
SEQEND
  8
Unknown Area Type
  0
TEXT
  8
Unknown Area Type
 62
7
  1
PNOA-H_AMS_1956-57_33k_ES_PAN_2
 40
0.00045
  10
-6.12735558451943
  20
42.15677697594124
  0
POLYLINE
  8
Unknown Area Type
  70
9
  66
1
  0
VERTEX
  8
Unknown Area Type
  70
32
  10
-6.1110977109949
  20
42.14061071432608
  30
842.559
  0
VERTEX
  8
Unknown Area Type
  70
32
  10
-6.11083372416932
  20
42.16666666666671
  30
883.475
  0
VERTEX
  8
Unknown Area Type
  70
32
  10
-6.10416666666663
  20
42.16666666666671
  30
883.581
  0
VERTEX
  8
Unknown Area Type
  70
32
  10
-6.07880077272229
  20
42.16666666666671
  30
874.04
  0
VERTEX
  8
Unknown Area Type
  70
32
  10
-6.07814156493973
  20
42.14030275772807
  30
836.322
  0
VERTEX
  8
Unknown Area Type
  70
32
  10
-6.09442458573546
  20
42.1355238792536
  30
906.502
  0
VERTEX
  8
Unknown Area Type
  70
32
  10
-6.09454694712816
  20
42.1355520939731
  30
906.44
  0
VERTEX
  8
Unknown Area Type
  70
32
  10
-6.1110080587996
  20
42.14050958885078
  30
842.002
  0
VERTEX
  8
Unknown Area Type
  70
32
  10
-6.11109418569961
  20
42.14053876916274
  30
842.633
  0
SEQEND
  8
Unknown Area Type
  0
TEXT
  8
Unknown Area Type
 62
7
  1
PNOA-H_AMS_1956-57_33k_ES_PAN_2
 40
0.00045
  10
-6.09461951478595
  20
42.15626299256588
  0
POLYLINE
  8
Unknown Area Type
  70
9
  66
1
  0
VERTEX
  8
Unknown Area Type
  70
32
  10
-6.11083372248073
  20
42.16666683333337
  30
883.475
  0
VERTEX
  8
Unknown Area Type
  70
32
  10
-6.07880077688965
  20
42.16666683333337
  30
874.041
  0
VERTEX
  8
Unknown Area Type
  70
32
  10
-6.07880077272229
  20
42.16666666666671
  30
874.04
  0
VERTEX
  8
Unknown Area Type
  70
32
  10
-6.10416666666663
  20
42.16666666666671
  30
883.581
  0
VERTEX
  8
Unknown Area Type
  70
32
  10
-6.11083372416932
  20
42.16666666666671
  30
883.475
  0
SEQEND
  8
Unknown Area Type
  0
TEXT
  8
Unknown Area Type
 62
7
  1
PNOA-H_AMS_1956-57_33k_ES_PAN_2
 40
0.00045
  10
-6.09481724844581
  20
42.16666675000004
  0
POLYLINE
  8
Unknown Area Type
  70
9
  66
1
  0
VERTEX
  8
Unknown Area Type
  70
32
  10
-6.1110977109949
  20
42.14061071432608
  30
842.559
  0
VERTEX
  8
Unknown Area Type
  70
32
  10
-6.11083372416932
  20
42.16666666666671
  30
883.475
  0
VERTEX
  8
Unknown Area Type
  70
32
  10
-6.10416666666663
  20
42.16666666666671
  30
883.581
  0
VERTEX
  8
Unknown Area Type
  70
32
  10
-6.07880077272229
  20
42.16666666666671
  30
874.04
  0
VERTEX
  8
Unknown Area Type
  70
32
  10
-6.07814156493973
  20
42.14030275772807
  30
836.322
  0
VERTEX
  8
Unknown Area Type
  70
32
  10
-6.09442458573546
  20
42.1355238792536
  30
906.502
  0
VERTEX
  8
Unknown Area Type
  70
32
  10
-6.09454694712816
  20
42.1355520939731
  30
906.44
  0
VERTEX
  8
Unknown Area Type
  70
32
  10
-6.1110080587996
  20
42.14050958885078
  30
842.002
  0
VERTEX
  8
Unknown Area Type
  70
32
  10
-6.11109418569961
  20
42.14053876916274
  30
842.633
  0
SEQEND
  8
Unknown Area Type
  0
TEXT
  8
Unknown Area Type
 62
7
  1
PNOA-H_AMS_1956-57_33k_ES_PAN_2
 40
0.00045
  10
-6.09461951478595
  20
42.15626299256588
  0
POLYLINE
  8
Unknown Area Type
  70
9
  66
1
  0
VERTEX
  8
Unknown Area Type
  70
32
  10
-5.88309359872197
  20
42.15067382305028
  30
825.538
  0
VERTEX
  8
Unknown Area Type
  70
32
  10
-5.8736785069039
  20
42.16666666666671
  30
791.945
  0
VERTEX
  8
Unknown Area Type
  70
32
  10
-5.86042524836466
  20
42.16666666666671
  30
757.459
  0
VERTEX
  8
Unknown Area Type
  70
32
  10
-5.85416666666668
  20
42.15646717549335
  30
747.001
  0
VERTEX
  8
Unknown Area Type
  70
32
  10
-5.85416666666668
  20
42.14583333333339
  30
787.578
  0
VERTEX
  8
Unknown Area Type
  70
32
  10
-5.85416666666668
  20
42.13629450361849
  30
826.35
  0
VERTEX
  8
Unknown Area Type
  70
32
  10
-5.86289289343214
  20
42.13410601561151
  30
790.301
  0
VERTEX
  8
Unknown Area Type
  70
32
  10
-5.86295915837742
  20
42.13409985819261
  30
790.669
  0
VERTEX
  8
Unknown Area Type
  70
32
  10
-5.88185978900554
  20
42.13682319008357
  30
802.06
  0
SEQEND
  8
Unknown Area Type
  0
TEXT
  8
Unknown Area Type
 62
7
  1
PNOA-H_AMS_1956-57_33k_ES_PAN_2
 40
0.00045
  10
-5.86648487644828
  20
42.15557353959939
  0
POLYLINE
  8
Unknown Area Type
  70
9
  66
1
  0
VERTEX
  8
Unknown Area Type
  70
32
  10
-5.87367840878614
  20
42.16666683333337
  30
791.945
  0
VERTEX
  8
Unknown Area Type
  70
32
  10
-5.86042535063417
  20
42.16666683333338
  30
757.459
  0
VERTEX
  8
Unknown Area Type
  70
32
  10
-5.86042524836466
  20
42.16666666666671
  30
757.459
  0
VERTEX
  8
Unknown Area Type
  70
32
  10
-5.8736785069039
  20
42.16666666666671
  30
791.945
  0
SEQEND
  8
Unknown Area Type
  0
TEXT
  8
Unknown Area Type
 62
7
  1
PNOA-H_AMS_1956-57_33k_ES_PAN_2
 40
0.00045
  10
-5.86705187763428
  20
42.16666675000005
  0
POLYLINE
  8
Unknown Area Type
  70
9
  66
1
  0
VERTEX
  8
Unknown Area Type
  70
32
  10
-5.88309359872197
  20
42.15067382305028
  30
825.538
  0
VERTEX
  8
Unknown Area Type
  70
32
  10
-5.8736785069039
  20
42.16666666666671
  30
791.945
  0
VERTEX
  8
Unknown Area Type
  70
32
  10
-5.86042524836466
  20
42.16666666666671
  30
757.459
  0
VERTEX
  8
Unknown Area Type
  70
32
  10
-5.85416666666668
  20
42.15646717549335
  30
747.001
  0
VERTEX
  8
Unknown Area Type
  70
32
  10
-5.85416666666668
  20
42.14583333333339
  30
787.578
  0
VERTEX
  8
Unknown Area Type
  70
32
  10
-5.85416666666668
  20
42.13629450361849
  30
826.35
  0
VERTEX
  8
Unknown Area Type
  70
32
  10
-5.86289289343214
  20
42.13410601561151
  30
790.301
  0
VERTEX
  8
Unknown Area Type
  70
32
  10
-5.86295915837742
  20
42.13409985819261
  30
790.669
  0
VERTEX
  8
Unknown Area Type
  70
32
  10
-5.88185978900554
  20
42.13682319008357
  30
802.06
  0
SEQEND
  8
Unknown Area Type
  0
TEXT
  8
Unknown Area Type
 62
7
  1
PNOA-H_AMS_1956-57_33k_ES_PAN_2
 40
0.00045
  10
-5.86648487644828
  20
42.15557353959939
  0
POLYLINE
  8
Unknown Area Type
  70
9
  66
1
  0
VERTEX
  8
Unknown Area Type
  70
32
  10
-5.85416666666668
  20
42.14583333333339
  30
787.578
  0
VERTEX
  8
Unknown Area Type
  70
32
  10
-5.85416666666668
  20
42.15646717549335
  30
747.001
  0
VERTEX
  8
Unknown Area Type
  70
32
  10
-5.85416633333334
  20
42.15646663226637
  30
747
  0
VERTEX
  8
Unknown Area Type
  70
32
  10
-5.85416633333334
  20
42.1362945872166
  30
826.351
  0
VERTEX
  8
Unknown Area Type
  70
32
  10
-5.85416666666668
  20
42.13629450361849
  30
826.35
  0
SEQEND
  8
Unknown Area Type
  0
TEXT
  8
Unknown Area Type
 62
7
  1
PNOA-H_AMS_1956-57_33k_ES_PAN_2
 40
0.00045
  10
-5.85416650000001
  20
42.14638083955592
  0
POLYLINE
  8
Unknown Area Type
  70
9
  66
1
  0
VERTEX
  8
Unknown Area Type
  70
32
  10
-6.04532005206357
  20
42.13989617739207
  30
854.494
  0
VERTEX
  8
Unknown Area Type
  70
32
  10
-6.04524129975172
  20
42.14884939560235
  30
866.789
  0
VERTEX
  8
Unknown Area Type
  70
32
  10
-6.04524647738155
  20
42.14895731987414
  30
866.554
  0
VERTEX
  8
Unknown Area Type
  70
32
  10
-6.04509976363123
  20
42.16666666666671
  30
907.181
  0
VERTEX
  8
Unknown Area Type
  70
32
  10
-6.02083333333337
  20
42.16666666666671
  30
836.144
  0
VERTEX
  8
Unknown Area Type
  70
32
  10
-6.01255647865659
  20
42.16666666666671
  30
836.173
  0
VERTEX
  8
Unknown Area Type
  70
32
  10
-6.01262073446146
  20
42.13874304219313
  30
793.011
  0
VERTEX
  8
Unknown Area Type
  70
32
  10
-6.02729202289909
  20
42.134826504087
  30
858.469
  0
VERTEX
  8
Unknown Area Type
  70
32
  10
-6.04529782811542
  20
42.13981121875722
  30
855.994
  0
VERTEX
  8
Unknown Area Type
  70
32
  10
-6.045316385648
  20
42.13981973091735
  30
855.709
  0
SEQEND
  8
Unknown Area Type
  0
TEXT
  8
Unknown Area Type
 62
7
  1
PNOA-H_AMS_1956-57_33k_ES_PAN_2
 40
0.00045
  10
-6.02892692166479
  20
42.15613875072823
  0
POLYLINE
  8
Unknown Area Type
  70
9
  66
1
  0
VERTEX
  8
Unknown Area Type
  70
32
  10
-6.04509976225048
  20
42.16666683333338
  30
907.182
  0
VERTEX
  8
Unknown Area Type
  70
32
  10
-6.01255647827307
  20
42.16666683333337
  30
836.173
  0
VERTEX
  8
Unknown Area Type
  70
32
  10
-6.01255647865659
  20
42.16666666666671
  30
836.173
  0
VERTEX
  8
Unknown Area Type
  70
32
  10
-6.02083333333337
  20
42.16666666666671
  30
836.144
  0
VERTEX
  8
Unknown Area Type
  70
32
  10
-6.04509976363123
  20
42.16666666666671
  30
907.181
  0
SEQEND
  8
Unknown Area Type
  0
TEXT
  8
Unknown Area Type
 62
7
  1
PNOA-H_AMS_1956-57_33k_ES_PAN_2
 40
0.00045
  10
-6.02882812095215
  20
42.16666675000005
  0
POLYLINE
  8
Unknown Area Type
  70
9
  66
1
  0
VERTEX
  8
Unknown Area Type
  70
32
  10
-6.04532005206357
  20
42.13989617739207
  30
854.494
  0
VERTEX
  8
Unknown Area Type
  70
32
  10
-6.04524129975172
  20
42.14884939560235
  30
866.789
  0
VERTEX
  8
Unknown Area Type
  70
32
  10
-6.04524647738155
  20
42.14895731987414
  30
866.554
  0
VERTEX
  8
Unknown Area Type
  70
32
  10
-6.04509976363123
  20
42.16666666666671
  30
907.181
  0
VERTEX
  8
Unknown Area Type
  70
32
  10
-6.02083333333337
  20
42.16666666666671
  30
836.144
  0
VERTEX
  8
Unknown Area Type
  70
32
  10
-6.01255647865659
  20
42.16666666666671
  30
836.173
  0
VERTEX
  8
Unknown Area Type
  70
32
  10
-6.01262073446146
  20
42.13874304219313
  30
793.011
  0
VERTEX
  8
Unknown Area Type
  70
32
  10
-6.02729202289909
  20
42.134826504087
  30
858.469
  0
VERTEX
  8
Unknown Area Type
  70
32
  10
-6.04529782811542
  20
42.13981121875722
  30
855.994
  0
VERTEX
  8
Unknown Area Type
  70
32
  10
-6.045316385648
  20
42.13981973091735
  30
855.709
  0
SEQEND
  8
Unknown Area Type
  0
TEXT
  8
Unknown Area Type
 62
7
  1
PNOA-H_AMS_1956-57_33k_ES_PAN_2
 40
0.00045
  10
-6.02892692166479
  20
42.15613875072823
  0
POLYLINE
  8
Unknown Area Type
  70
9
  66
1
  0
VERTEX
  8
Unknown Area Type
  70
32
  10
-6.07880223113427
  20
42.16666666666671
  30
873.919
  0
VERTEX
  8
Unknown Area Type
  70
32
  10
-6.0625
  20
42.16666666666671
  30
906.232
  0
VERTEX
  8
Unknown Area Type
  70
32
  10
-6.04509976235369
  20
42.16666666666671
  30
909.988
  0
VERTEX
  8
Unknown Area Type
  70
32
  10
-6.04532221204077
  20
42.1398150735509
  30
855.741
  0
VERTEX
  8
Unknown Area Type
  70
32
  10
-6.0608178254118
  20
42.13559318465882
  30
814.835
  0
VERTEX
  8
Unknown Area Type
  70
32
  10
-6.07814156493973
  20
42.14030275772807
  30
836.322
  0
SEQEND
  8
Unknown Area Type
  0
TEXT
  8
Unknown Area Type
 62
7
  1
PNOA-H_AMS_1956-57_33k_ES_PAN_2
 40
0.00045
  10
-6.06203425930306
  20
42.15655499181116
  0
POLYLINE
  8
Unknown Area Type
  70
9
  66
1
  0
VERTEX
  8
Unknown Area Type
  70
32
  10
-6.07880223531085
  20
42.16666683333337
  30
873.919
  0
VERTEX
  8
Unknown Area Type
  70
32
  10
-6.04509976097296
  20
42.16666683333337
  30
909.988
  0
VERTEX
  8
Unknown Area Type
  70
32
  10
-6.04509976235369
  20
42.16666666666671
  30
909.988
  0
VERTEX
  8
Unknown Area Type
  70
32
  10
-6.0625
  20
42.16666666666671
  30
906.232
  0
VERTEX
  8
Unknown Area Type
  70
32
  10
-6.07880223113427
  20
42.16666666666671
  30
873.919
  0
SEQEND
  8
Unknown Area Type
  0
TEXT
  8
Unknown Area Type
 62
7
  1
PNOA-H_AMS_1956-57_33k_ES_PAN_2
 40
0.00045
  10
-6.0619509981419
  20
42.16666675000004
  0
POLYLINE
  8
Unknown Area Type
  70
9
  66
1
  0
VERTEX
  8
Unknown Area Type
  70
32
  10
-6.07880223113427
  20
42.16666666666671
  30
873.919
  0
VERTEX
  8
Unknown Area Type
  70
32
  10
-6.0625
  20
42.16666666666671
  30
906.232
  0
VERTEX
  8
Unknown Area Type
  70
32
  10
-6.04509976235369
  20
42.16666666666671
  30
909.988
  0
VERTEX
  8
Unknown Area Type
  70
32
  10
-6.04532221204077
  20
42.1398150735509
  30
855.741
  0
VERTEX
  8
Unknown Area Type
  70
32
  10
-6.0608178254118
  20
42.13559318465882
  30
814.835
  0
VERTEX
  8
Unknown Area Type
  70
32
  10
-6.07814156493973
  20
42.14030275772807
  30
836.322
  0
SEQEND
  8
Unknown Area Type
  0
TEXT
  8
Unknown Area Type
 62
7
  1
PNOA-H_AMS_1956-57_33k_ES_PAN_2
 40
0.00045
  10
-6.06203425930306
  20
42.15655499181116
  0
POLYLINE
  8
Unknown Area Type
  70
9
  66
1
  0
VERTEX
  8
Unknown Area Type
  70
32
  10
-6.01255641964055
  20
42.16666666666671
  30
836.174
  0
VERTEX
  8
Unknown Area Type
  70
32
  10
-5.98060449029951
  20
42.16666666666671
  30
826.677
  0
VERTEX
  8
Unknown Area Type
  70
32
  10
-5.98046961465893
  20
42.13790399670273
  30
827.201
  0
VERTEX
  8
Unknown Area Type
  70
32
  10
-5.99328280054653
  20
42.13418418653002
  30
787.943
  0
VERTEX
  8
Unknown Area Type
  70
32
  10
-5.99336802186287
  20
42.13419546910536
  30
788.02
  0
VERTEX
  8
Unknown Area Type
  70
32
  10
-6.01262052111184
  20
42.13873854520473
  30
793.008
  0
SEQEND
  8
Unknown Area Type
  0
TEXT
  8
Unknown Area Type
 62
7
  1
PNOA-H_AMS_1956-57_33k_ES_PAN_2
 40
0.00045
  10
-5.99654487665179
  20
42.15569464487903
  0
POLYLINE
  8
Unknown Area Type
  70
9
  66
1
  0
VERTEX
  8
Unknown Area Type
  70
32
  10
-6.01255641925801
  20
42.16666683333337
  30
836.175
  0
VERTEX
  8
Unknown Area Type
  70
32
  10
-5.98060449108106
  20
42.16666683333337
  30
826.677
  0
VERTEX
  8
Unknown Area Type
  70
32
  10
-5.98060449029951
  20
42.16666666666671
  30
826.677
  0
VERTEX
  8
Unknown Area Type
  70
32
  10
-6.01255641964055
  20
42.16666666666671
  30
836.174
  0
SEQEND
  8
Unknown Area Type
  0
TEXT
  8
Unknown Area Type
 62
7
  1
PNOA-H_AMS_1956-57_33k_ES_PAN_2
 40
0.00045
  10
-5.99658045497003
  20
42.16666675000004
  0
POLYLINE
  8
Unknown Area Type
  70
9
  66
1
  0
VERTEX
  8
Unknown Area Type
  70
32
  10
-6.01255641964055
  20
42.16666666666671
  30
836.174
  0
VERTEX
  8
Unknown Area Type
  70
32
  10
-5.98060449029951
  20
42.16666666666671
  30
826.677
  0
VERTEX
  8
Unknown Area Type
  70
32
  10
-5.98046961465893
  20
42.13790399670273
  30
827.201
  0
VERTEX
  8
Unknown Area Type
  70
32
  10
-5.99328280054653
  20
42.13418418653002
  30
787.943
  0
VERTEX
  8
Unknown Area Type
  70
32
  10
-5.99336802186287
  20
42.13419546910536
  30
788.02
  0
VERTEX
  8
Unknown Area Type
  70
32
  10
-6.01262052111184
  20
42.13873854520473
  30
793.008
  0
SEQEND
  8
Unknown Area Type
  0
TEXT
  8
Unknown Area Type
 62
7
  1
PNOA-H_AMS_1956-57_33k_ES_PAN_2
 40
0.00045
  10
-5.99654487665179
  20
42.15569464487903
  0
POLYLINE
  8
Unknown Area Type
  70
9
  66
1
  0
VERTEX
  8
Unknown Area Type
  70
32
  10
-5.94917713566959
  20
42.16666666666671
  30
796.34
  0
VERTEX
  8
Unknown Area Type
  70
32
  10
-5.93750000000002
  20
42.16666666666671
  30
820.077
  0
VERTEX
  8
Unknown Area Type
  70
32
  10
-5.91706440089302
  20
42.16666666666671
  30
835.281
  0
VERTEX
  8
Unknown Area Type
  70
32
  10
-5.91439355381363
  20
42.13680672022036
  30
770.697
  0
VERTEX
  8
Unknown Area Type
  70
32
  10
-5.92726091968101
  20
42.13352515841135
  30
790.052
  0
VERTEX
  8
Unknown Area Type
  70
32
  10
-5.9469741223625
  20
42.13741016347227
  30
811.551
  0
SEQEND
  8
Unknown Area Type
  0
TEXT
  8
Unknown Area Type
 62
7
  1
PNOA-H_AMS_1956-57_33k_ES_PAN_2
 40
0.00045
  10
-5.93206647465746
  20
42.15595271994808
  0
POLYLINE
  8
Unknown Area Type
  70
9
  66
1
  0
VERTEX
  8
Unknown Area Type
  70
32
  10
-5.94917714821958
  20
42.16666683333337
  30
796.34
  0
VERTEX
  8
Unknown Area Type
  70
32
  10
-5.91706441580065
  20
42.16666683333337
  30
835.281
  0
VERTEX
  8
Unknown Area Type
  70
32
  10
-5.91706440089302
  20
42.16666666666671
  30
835.281
  0
VERTEX
  8
Unknown Area Type
  70
32
  10
-5.93750000000002
  20
42.16666666666671
  30
820.077
  0
VERTEX
  8
Unknown Area Type
  70
32
  10
-5.94917713566959
  20
42.16666666666671
  30
796.34
  0
SEQEND
  8
Unknown Area Type
  0
TEXT
  8
Unknown Area Type
 62
7
  1
PNOA-H_AMS_1956-57_33k_ES_PAN_2
 40
0.00045
  10
-5.9331207745563
  20
42.16666675000004
  0
POLYLINE
  8
Unknown Area Type
  70
9
  66
1
  0
VERTEX
  8
Unknown Area Type
  70
32
  10
-5.94917713566959
  20
42.16666666666671
  30
796.34
  0
VERTEX
  8
Unknown Area Type
  70
32
  10
-5.93750000000002
  20
42.16666666666671
  30
820.077
  0
VERTEX
  8
Unknown Area Type
  70
32
  10
-5.91706440089302
  20
42.16666666666671
  30
835.281
  0
VERTEX
  8
Unknown Area Type
  70
32
  10
-5.91439355381363
  20
42.13680672022036
  30
770.697
  0
VERTEX
  8
Unknown Area Type
  70
32
  10
-5.92726091968101
  20
42.13352515841135
  30
790.052
  0
VERTEX
  8
Unknown Area Type
  70
32
  10
-5.9469741223625
  20
42.13741016347227
  30
811.551
  0
SEQEND
  8
Unknown Area Type
  0
TEXT
  8
Unknown Area Type
 62
7
  1
PNOA-H_AMS_1956-57_33k_ES_PAN_2
 40
0.00045
  10
-5.93206647465746
  20
42.15595271994808
  0
ENDSEC
  0
EOF
