  0
SECTION
  2
HEADER
  9
$ACADVER
  1
AC1009
  9
$LUNITS
  70
2
  9
$DWGCODEPAGE
  3
UTF8
  9
$LIMMIN
  10
-5.52083333333329
  20
42.16666666666671
  9
$LIMMAX
  10
-5.18749999999999
  20
42.33333333333331
  9
$EXTMIN
  10
-5.52083333333329
  20
42.16666666666671
  9
$EXTMAX
  10
-5.18749999999999
  20
42.33333333333331
  999
Created by Global Mapper
  999
Projection: Geographic (Latitude/Longitude)
  999
Datum: ETRS89
  999
Ground Units: arc degrees
  999
CENTRAL LONGITUDE: 0
  0
ENDSEC
  0
SECTION
  2
TABLES
  0
ENDSEC
  0
SECTION
  2
BLOCKS
  0
ENDSEC
  0
SECTION
  2
ENTITIES
  0
POLYLINE
  8
Unknown Area Type
  70
9
  66
1
  0
VERTEX
  8
Unknown Area Type
  70
32
  10
-5.52083333333329
  20
42.18750000000002
  30
763.674
  0
VERTEX
  8
Unknown Area Type
  70
32
  10
-5.52083333333329
  20
42.20833333333334
  30
768.978
  0
VERTEX
  8
Unknown Area Type
  70
32
  10
-5.52083333333329
  20
42.2186213023773
  30
756.927
  0
VERTEX
  8
Unknown Area Type
  70
32
  10
-5.51982709785938
  20
42.21873285474221
  30
757.913
  0
VERTEX
  8
Unknown Area Type
  70
32
  10
-5.51977280627234
  20
42.21873855085893
  30
758.096
  0
VERTEX
  8
Unknown Area Type
  70
32
  10
-5.51973649256188
  20
42.21873934905671
  30
758.201
  0
VERTEX
  8
Unknown Area Type
  70
32
  10
-5.51968735841515
  20
42.21872241810654
  30
758.148
  0
VERTEX
  8
Unknown Area Type
  70
32
  10
-5.51426976071293
  20
42.2168376517883
  30
769.57
  0
VERTEX
  8
Unknown Area Type
  70
32
  10
-5.51264816145064
  20
42.18694345498069
  30
767.392
  0
VERTEX
  8
Unknown Area Type
  70
32
  10
-5.52083333333329
  20
42.18302928931544
  30
762.67
  0
SEQEND
  8
Unknown Area Type
  0
TEXT
  8
Unknown Area Type
 62
7
  1
PNOA-H_AMS_1956-57_33k_ES_PAN_2
 40
0.00045
  10
-5.51674074739196
  20
42.20088431918607
  0
POLYLINE
  8
Unknown Area Type
  70
9
  66
1
  0
VERTEX
  8
Unknown Area Type
  70
32
  10
-5.52083366666662
  20
42.21862126542359
  30
756.927
  0
VERTEX
  8
Unknown Area Type
  70
32
  10
-5.52083333333329
  20
42.2186213023773
  30
756.927
  0
VERTEX
  8
Unknown Area Type
  70
32
  10
-5.52083333333329
  20
42.20833333333334
  30
768.978
  0
VERTEX
  8
Unknown Area Type
  70
32
  10
-5.52083333333329
  20
42.18750000000002
  30
763.674
  0
VERTEX
  8
Unknown Area Type
  70
32
  10
-5.52083333333329
  20
42.18302928931544
  30
762.67
  0
VERTEX
  8
Unknown Area Type
  70
32
  10
-5.52083366666662
  20
42.18302912991477
  30
762.67
  0
SEQEND
  8
Unknown Area Type
  0
TEXT
  8
Unknown Area Type
 62
7
  1
PNOA-H_AMS_1956-57_33k_ES_PAN_2
 40
0.00045
  10
-5.52083349999996
  20
42.20082521614604
  0
POLYLINE
  8
Unknown Area Type
  70
9
  66
1
  0
VERTEX
  8
Unknown Area Type
  70
32
  10
-5.52083333333329
  20
42.18750000000002
  30
763.674
  0
VERTEX
  8
Unknown Area Type
  70
32
  10
-5.52083333333329
  20
42.20833333333334
  30
768.978
  0
VERTEX
  8
Unknown Area Type
  70
32
  10
-5.52083333333329
  20
42.2186213023773
  30
756.927
  0
VERTEX
  8
Unknown Area Type
  70
32
  10
-5.51982709785938
  20
42.21873285474221
  30
757.913
  0
VERTEX
  8
Unknown Area Type
  70
32
  10
-5.51977280627234
  20
42.21873855085893
  30
758.096
  0
VERTEX
  8
Unknown Area Type
  70
32
  10
-5.51973649256188
  20
42.21873934905671
  30
758.201
  0
VERTEX
  8
Unknown Area Type
  70
32
  10
-5.51968735841515
  20
42.21872241810654
  30
758.148
  0
VERTEX
  8
Unknown Area Type
  70
32
  10
-5.51426976071293
  20
42.2168376517883
  30
769.57
  0
VERTEX
  8
Unknown Area Type
  70
32
  10
-5.51264816145064
  20
42.18694345498069
  30
767.392
  0
VERTEX
  8
Unknown Area Type
  70
32
  10
-5.52083333333329
  20
42.18302928931544
  30
762.67
  0
SEQEND
  8
Unknown Area Type
  0
TEXT
  8
Unknown Area Type
 62
7
  1
PNOA-H_AMS_1956-57_33k_ES_PAN_2
 40
0.00045
  10
-5.51674074739196
  20
42.20088431918607
  0
POLYLINE
  8
Unknown Area Type
  70
9
  66
1
  0
VERTEX
  8
Unknown Area Type
  70
32
  10
-5.48780910477791
  20
42.21987344275608
  30
830.49
  0
VERTEX
  8
Unknown Area Type
  70
32
  10
-5.48774199670518
  20
42.21986139086568
  30
830.622
  0
VERTEX
  8
Unknown Area Type
  70
32
  10
-5.47952277995571
  20
42.21710367124002
  30
829.388
  0
VERTEX
  8
Unknown Area Type
  70
32
  10
-5.47869718063201
  20
42.18763747279954
  30
822.43
  0
VERTEX
  8
Unknown Area Type
  70
32
  10
-5.49035126513979
  20
42.18236884169212
  30
826.623
  0
VERTEX
  8
Unknown Area Type
  70
32
  10
-5.51264816145064
  20
42.18694345498069
  30
767.392
  0
VERTEX
  8
Unknown Area Type
  70
32
  10
-5.51426976071293
  20
42.2168376517883
  30
769.57
  0
VERTEX
  8
Unknown Area Type
  70
32
  10
-5.48785734839318
  20
42.21986789303613
  30
830.412
  0
VERTEX
  8
Unknown Area Type
  70
32
  10
-5.48780910477791
  20
42.21987344275608
  30
830.49
  0
SEQEND
  8
Unknown Area Type
  0
TEXT
  8
Unknown Area Type
 62
7
  1
PNOA-H_AMS_1956-57_33k_ES_PAN_2
 40
0.00045
  10
-5.49648386077286
  20
42.20125098804778
  0
POLYLINE
  8
Unknown Area Type
  70
9
  66
1
  0
VERTEX
  8
Unknown Area Type
  70
32
  10
-5.48780910477791
  20
42.21987344275608
  30
830.49
  0
VERTEX
  8
Unknown Area Type
  70
32
  10
-5.48774199670518
  20
42.21986139086568
  30
830.622
  0
VERTEX
  8
Unknown Area Type
  70
32
  10
-5.47952277995571
  20
42.21710367124002
  30
829.388
  0
VERTEX
  8
Unknown Area Type
  70
32
  10
-5.47869718063201
  20
42.18763747279954
  30
822.43
  0
VERTEX
  8
Unknown Area Type
  70
32
  10
-5.49035126513979
  20
42.18236884169212
  30
826.623
  0
VERTEX
  8
Unknown Area Type
  70
32
  10
-5.51264816145064
  20
42.18694345498069
  30
767.392
  0
VERTEX
  8
Unknown Area Type
  70
32
  10
-5.51426976071293
  20
42.2168376517883
  30
769.57
  0
VERTEX
  8
Unknown Area Type
  70
32
  10
-5.48785734839318
  20
42.21986789303613
  30
830.412
  0
VERTEX
  8
Unknown Area Type
  70
32
  10
-5.48780910477791
  20
42.21987344275608
  30
830.49
  0
SEQEND
  8
Unknown Area Type
  0
TEXT
  8
Unknown Area Type
 62
7
  1
PNOA-H_AMS_1956-57_33k_ES_PAN_2
 40
0.00045
  10
-5.49648386077286
  20
42.20125098804778
  0
POLYLINE
  8
Unknown Area Type
  70
9
  66
1
  0
VERTEX
  8
Unknown Area Type
  70
32
  10
-5.42161247542594
  20
42.2213539262327
  30
811.586
  0
VERTEX
  8
Unknown Area Type
  70
32
  10
-5.42123911554637
  20
42.22125374600898
  30
813.892
  0
VERTEX
  8
Unknown Area Type
  70
32
  10
-5.41121199011994
  20
42.21835367090716
  30
822.794
  0
VERTEX
  8
Unknown Area Type
  70
32
  10
-5.40960991266095
  20
42.18785400902065
  30
814.844
  0
VERTEX
  8
Unknown Area Type
  70
32
  10
-5.421279552946
  20
42.18283970824677
  30
766.273
  0
VERTEX
  8
Unknown Area Type
  70
32
  10
-5.44410465285189
  20
42.18757413438773
  30
790.533
  0
VERTEX
  8
Unknown Area Type
  70
32
  10
-5.4445946760602
  20
42.21755212328621
  30
818.228
  0
VERTEX
  8
Unknown Area Type
  70
32
  10
-5.42164256831865
  20
42.22134878779416
  30
811.614
  0
VERTEX
  8
Unknown Area Type
  70
32
  10
-5.42161247542594
  20
42.2213539262327
  30
811.586
  0
SEQEND
  8
Unknown Area Type
  0
TEXT
  8
Unknown Area Type
 62
7
  1
PNOA-H_AMS_1956-57_33k_ES_PAN_2
 40
0.00045
  10
-5.42710254171034
  20
42.20224502437354
  0
POLYLINE
  8
Unknown Area Type
  70
9
  66
1
  0
VERTEX
  8
Unknown Area Type
  70
32
  10
-5.42161247542594
  20
42.2213539262327
  30
811.586
  0
VERTEX
  8
Unknown Area Type
  70
32
  10
-5.42123911554637
  20
42.22125374600898
  30
813.892
  0
VERTEX
  8
Unknown Area Type
  70
32
  10
-5.41121199011994
  20
42.21835367090716
  30
822.794
  0
VERTEX
  8
Unknown Area Type
  70
32
  10
-5.40960991266095
  20
42.18785400902065
  30
814.844
  0
VERTEX
  8
Unknown Area Type
  70
32
  10
-5.421279552946
  20
42.18283970824677
  30
766.273
  0
VERTEX
  8
Unknown Area Type
  70
32
  10
-5.44410465285189
  20
42.18757413438773
  30
790.533
  0
VERTEX
  8
Unknown Area Type
  70
32
  10
-5.4445946760602
  20
42.21755212328621
  30
818.228
  0
VERTEX
  8
Unknown Area Type
  70
32
  10
-5.42164256831865
  20
42.22134878779416
  30
811.614
  0
VERTEX
  8
Unknown Area Type
  70
32
  10
-5.42161247542594
  20
42.2213539262327
  30
811.586
  0
SEQEND
  8
Unknown Area Type
  0
TEXT
  8
Unknown Area Type
 62
7
  1
PNOA-H_AMS_1956-57_33k_ES_PAN_2
 40
0.00045
  10
-5.42710254171034
  20
42.20224502437354
  0
POLYLINE
  8
Unknown Area Type
  70
9
  66
1
  0
VERTEX
  8
Unknown Area Type
  70
32
  10
-5.35697937317204
  20
42.22261542073031
  30
820.649
  0
VERTEX
  8
Unknown Area Type
  70
32
  10
-5.3569369994478
  20
42.2226162918953
  30
820.814
  0
VERTEX
  8
Unknown Area Type
  70
32
  10
-5.35675977691066
  20
42.22257490742257
  30
820.592
  0
VERTEX
  8
Unknown Area Type
  70
32
  10
-5.34251866296343
  20
42.21916999171251
  30
811.12
  0
VERTEX
  8
Unknown Area Type
  70
32
  10
-5.34352643293505
  20
42.18696337696006
  30
778.298
  0
VERTEX
  8
Unknown Area Type
  70
32
  10
-5.3521686233178
  20
42.18326971551098
  30
777.461
  0
VERTEX
  8
Unknown Area Type
  70
32
  10
-5.37616203702359
  20
42.18796671786743
  30
774.234
  0
VERTEX
  8
Unknown Area Type
  70
32
  10
-5.37745163768631
  20
42.2186400040164
  30
794.064
  0
VERTEX
  8
Unknown Area Type
  70
32
  10
-5.35700341928748
  20
42.22261042357368
  30
820.521
  0
VERTEX
  8
Unknown Area Type
  70
32
  10
-5.35697937317204
  20
42.22261542073031
  30
820.649
  0
SEQEND
  8
Unknown Area Type
  0
TEXT
  8
Unknown Area Type
 62
7
  1
PNOA-H_AMS_1956-57_33k_ES_PAN_2
 40
0.00045
  10
-5.35998554759222
  20
42.20341396544661
  0
POLYLINE
  8
Unknown Area Type
  70
9
  66
1
  0
VERTEX
  8
Unknown Area Type
  70
32
  10
-5.35697937317204
  20
42.22261542073031
  30
820.649
  0
VERTEX
  8
Unknown Area Type
  70
32
  10
-5.3569369994478
  20
42.2226162918953
  30
820.814
  0
VERTEX
  8
Unknown Area Type
  70
32
  10
-5.35675977691066
  20
42.22257490742257
  30
820.592
  0
VERTEX
  8
Unknown Area Type
  70
32
  10
-5.34251866296343
  20
42.21916999171251
  30
811.12
  0
VERTEX
  8
Unknown Area Type
  70
32
  10
-5.34352643293505
  20
42.18696337696006
  30
778.298
  0
VERTEX
  8
Unknown Area Type
  70
32
  10
-5.3521686233178
  20
42.18326971551098
  30
777.461
  0
VERTEX
  8
Unknown Area Type
  70
32
  10
-5.37616203702359
  20
42.18796671786743
  30
774.234
  0
VERTEX
  8
Unknown Area Type
  70
32
  10
-5.37745163768631
  20
42.2186400040164
  30
794.064
  0
VERTEX
  8
Unknown Area Type
  70
32
  10
-5.35700341928748
  20
42.22261042357368
  30
820.521
  0
VERTEX
  8
Unknown Area Type
  70
32
  10
-5.35697937317204
  20
42.22261542073031
  30
820.649
  0
SEQEND
  8
Unknown Area Type
  0
TEXT
  8
Unknown Area Type
 62
7
  1
PNOA-H_AMS_1956-57_33k_ES_PAN_2
 40
0.00045
  10
-5.35998554759222
  20
42.20341396544661
  0
POLYLINE
  8
Unknown Area Type
  70
9
  66
1
  0
VERTEX
  8
Unknown Area Type
  70
32
  10
-5.40502991247713
  20
42.31358589947646
  30
858.062
  0
VERTEX
  8
Unknown Area Type
  70
32
  10
-5.40402948616547
  20
42.33333333333331
  30
851.969
  0
VERTEX
  8
Unknown Area Type
  70
32
  10
-5.39583333333332
  20
42.33333333333331
  30
851.24
  0
VERTEX
  8
Unknown Area Type
  70
32
  10
-5.38631772146628
  20
42.33333333333331
  30
864.783
  0
VERTEX
  8
Unknown Area Type
  70
32
  10
-5.38734125590518
  20
42.31203307095693
  30
891.516
  0
VERTEX
  8
Unknown Area Type
  70
32
  10
-5.3873393845203
  20
42.31198358006708
  30
891.49
  0
VERTEX
  8
Unknown Area Type
  70
32
  10
-5.38800881632723
  20
42.29808324529181
  30
872.476
  0
VERTEX
  8
Unknown Area Type
  70
32
  10
-5.39606359427451
  20
42.29680746833765
  30
864.237
  0
VERTEX
  8
Unknown Area Type
  70
32
  10
-5.40484735149931
  20
42.30003205999192
  30
882.947
  0
SEQEND
  8
Unknown Area Type
  0
TEXT
  8
Unknown Area Type
 62
7
  1
PNOA-H_AMS_1956-57_33k_ES_PAN_2
 40
0.00045
  10
-5.39545912348372
  20
42.31917090625742
  0
POLYLINE
  8
Unknown Area Type
  70
9
  66
1
  0
VERTEX
  8
Unknown Area Type
  70
32
  10
-5.40402947772196
  20
42.33333349999998
  30
851.969
  0
VERTEX
  8
Unknown Area Type
  70
32
  10
-5.38631771345751
  20
42.33333349999998
  30
864.782
  0
VERTEX
  8
Unknown Area Type
  70
32
  10
-5.38631772146628
  20
42.33333333333331
  30
864.783
  0
VERTEX
  8
Unknown Area Type
  70
32
  10
-5.39583333333332
  20
42.33333333333331
  30
851.24
  0
VERTEX
  8
Unknown Area Type
  70
32
  10
-5.40402948616547
  20
42.33333333333331
  30
851.969
  0
SEQEND
  8
Unknown Area Type
  0
TEXT
  8
Unknown Area Type
 62
7
  1
PNOA-H_AMS_1956-57_33k_ES_PAN_2
 40
0.00045
  10
-5.39517359981149
  20
42.33333341666665
  0
POLYLINE
  8
Unknown Area Type
  70
9
  66
1
  0
VERTEX
  8
Unknown Area Type
  70
32
  10
-5.40502991247713
  20
42.31358589947646
  30
858.062
  0
VERTEX
  8
Unknown Area Type
  70
32
  10
-5.40402948616547
  20
42.33333333333331
  30
851.969
  0
VERTEX
  8
Unknown Area Type
  70
32
  10
-5.39583333333332
  20
42.33333333333331
  30
851.24
  0
VERTEX
  8
Unknown Area Type
  70
32
  10
-5.38631772146628
  20
42.33333333333331
  30
864.783
  0
VERTEX
  8
Unknown Area Type
  70
32
  10
-5.38734125590518
  20
42.31203307095693
  30
891.516
  0
VERTEX
  8
Unknown Area Type
  70
32
  10
-5.3873393845203
  20
42.31198358006708
  30
891.49
  0
VERTEX
  8
Unknown Area Type
  70
32
  10
-5.38800881632723
  20
42.29808324529181
  30
872.476
  0
VERTEX
  8
Unknown Area Type
  70
32
  10
-5.39606359427451
  20
42.29680746833765
  30
864.237
  0
VERTEX
  8
Unknown Area Type
  70
32
  10
-5.40484735149931
  20
42.30003205999192
  30
882.947
  0
SEQEND
  8
Unknown Area Type
  0
TEXT
  8
Unknown Area Type
 62
7
  1
PNOA-H_AMS_1956-57_33k_ES_PAN_2
 40
0.00045
  10
-5.39545912348372
  20
42.31917090625742
  0
POLYLINE
  8
Unknown Area Type
  70
9
  66
1
  0
VERTEX
  8
Unknown Area Type
  70
32
  10
-5.24706820025041
  20
42.18571530686859
  30
747.621
  0
VERTEX
  8
Unknown Area Type
  70
32
  10
-5.25392920817289
  20
42.18319413954885
  30
746.996
  0
VERTEX
  8
Unknown Area Type
  70
32
  10
-5.27523208994976
  20
42.18802821765315
  30
759.673
  0
VERTEX
  8
Unknown Area Type
  70
32
  10
-5.27623051795086
  20
42.21920845011807
  30
785.423
  0
VERTEX
  8
Unknown Area Type
  70
32
  10
-5.26036156013797
  20
42.22300759057256
  30
783.981
  0
VERTEX
  8
Unknown Area Type
  70
32
  10
-5.26025194873972
  20
42.22299174032425
  30
783.961
  0
VERTEX
  8
Unknown Area Type
  70
32
  10
-5.24335087742485
  20
42.21942875359759
  30
755.338
  0
VERTEX
  8
Unknown Area Type
  70
32
  10
-5.242388211761
  20
42.18743245201127
  30
751.292
  0
VERTEX
  8
Unknown Area Type
  70
32
  10
-5.24705609958022
  20
42.18571554400654
  30
747.635
  0
VERTEX
  8
Unknown Area Type
  70
32
  10
-5.24706820025041
  20
42.18571530686859
  30
747.621
  0
SEQEND
  8
Unknown Area Type
  0
TEXT
  8
Unknown Area Type
 62
7
  1
PNOA-H_AMS_1956-57_33k_ES_PAN_2
 40
0.00045
  10
-5.2593096207268
  20
42.20360310139093
  0
POLYLINE
  8
Unknown Area Type
  70
9
  66
1
  0
VERTEX
  8
Unknown Area Type
  70
32
  10
-5.24706820025041
  20
42.18571530686859
  30
747.621
  0
VERTEX
  8
Unknown Area Type
  70
32
  10
-5.25392920817289
  20
42.18319413954885
  30
746.996
  0
VERTEX
  8
Unknown Area Type
  70
32
  10
-5.27523208994976
  20
42.18802821765315
  30
759.673
  0
VERTEX
  8
Unknown Area Type
  70
32
  10
-5.27623051795086
  20
42.21920845011807
  30
785.423
  0
VERTEX
  8
Unknown Area Type
  70
32
  10
-5.26036156013797
  20
42.22300759057256
  30
783.981
  0
VERTEX
  8
Unknown Area Type
  70
32
  10
-5.26025194873972
  20
42.22299174032425
  30
783.961
  0
VERTEX
  8
Unknown Area Type
  70
32
  10
-5.24335087742485
  20
42.21942875359759
  30
755.338
  0
VERTEX
  8
Unknown Area Type
  70
32
  10
-5.242388211761
  20
42.18743245201127
  30
751.292
  0
VERTEX
  8
Unknown Area Type
  70
32
  10
-5.24705609958022
  20
42.18571554400654
  30
747.635
  0
VERTEX
  8
Unknown Area Type
  70
32
  10
-5.24706820025041
  20
42.18571530686859
  30
747.621
  0
SEQEND
  8
Unknown Area Type
  0
TEXT
  8
Unknown Area Type
 62
7
  1
PNOA-H_AMS_1956-57_33k_ES_PAN_2
 40
0.00045
  10
-5.2593096207268
  20
42.20360310139093
  0
POLYLINE
  8
Unknown Area Type
  70
9
  66
1
  0
VERTEX
  8
Unknown Area Type
  70
32
  10
-5.31716491208528
  20
42.18432016584349
  30
776.408
  0
VERTEX
  8
Unknown Area Type
  70
32
  10
-5.31986864969492
  20
42.18325686213505
  30
775.764
  0
VERTEX
  8
Unknown Area Type
  70
32
  10
-5.34352659921095
  20
42.18696787637266
  30
778.303
  0
VERTEX
  8
Unknown Area Type
  70
32
  10
-5.34251866296343
  20
42.21916999171251
  30
811.12
  0
VERTEX
  8
Unknown Area Type
  70
32
  10
-5.32738920022631
  20
42.22254002899657
  30
801.839
  0
VERTEX
  8
Unknown Area Type
  70
32
  10
-5.30976519733158
  20
42.21868633810031
  30
801.42
  0
VERTEX
  8
Unknown Area Type
  70
32
  10
-5.30916613137555
  20
42.18745339725516
  30
774.169
  0
VERTEX
  8
Unknown Area Type
  70
32
  10
-5.31715281227227
  20
42.18432041036846
  30
776.399
  0
VERTEX
  8
Unknown Area Type
  70
32
  10
-5.31716491208528
  20
42.18432016584349
  30
776.408
  0
SEQEND
  8
Unknown Area Type
  0
TEXT
  8
Unknown Area Type
 62
7
  1
PNOA-H_AMS_1956-57_33k_ES_PAN_2
 40
0.00045
  10
-5.3263467361653
  20
42.20329066417277
  0
POLYLINE
  8
Unknown Area Type
  70
9
  66
1
  0
VERTEX
  8
Unknown Area Type
  70
32
  10
-5.31716491208528
  20
42.18432016584349
  30
776.408
  0
VERTEX
  8
Unknown Area Type
  70
32
  10
-5.31986864969492
  20
42.18325686213505
  30
775.764
  0
VERTEX
  8
Unknown Area Type
  70
32
  10
-5.34352659921095
  20
42.18696787637266
  30
778.303
  0
VERTEX
  8
Unknown Area Type
  70
32
  10
-5.34251866296343
  20
42.21916999171251
  30
811.12
  0
VERTEX
  8
Unknown Area Type
  70
32
  10
-5.32738920022631
  20
42.22254002899657
  30
801.839
  0
VERTEX
  8
Unknown Area Type
  70
32
  10
-5.30976519733158
  20
42.21868633810031
  30
801.42
  0
VERTEX
  8
Unknown Area Type
  70
32
  10
-5.30916613137555
  20
42.18745339725516
  30
774.169
  0
VERTEX
  8
Unknown Area Type
  70
32
  10
-5.31715281227227
  20
42.18432041036846
  30
776.399
  0
VERTEX
  8
Unknown Area Type
  70
32
  10
-5.31716491208528
  20
42.18432016584349
  30
776.408
  0
SEQEND
  8
Unknown Area Type
  0
TEXT
  8
Unknown Area Type
 62
7
  1
PNOA-H_AMS_1956-57_33k_ES_PAN_2
 40
0.00045
  10
-5.3263467361653
  20
42.20329066417277
  0
POLYLINE
  8
Unknown Area Type
  70
9
  66
1
  0
VERTEX
  8
Unknown Area Type
  70
32
  10
-5.46555121166774
  20
42.29788673292946
  30
813.862
  0
VERTEX
  8
Unknown Area Type
  70
32
  10
-5.44385331084869
  20
42.33333333333331
  30
813.94
  0
VERTEX
  8
Unknown Area Type
  70
32
  10
-5.43750000000003
  20
42.33333333333331
  30
813.767
  0
VERTEX
  8
Unknown Area Type
  70
32
  10
-5.43730289195435
  20
42.33333333333331
  30
813.766
  0
VERTEX
  8
Unknown Area Type
  70
32
  10
-5.43668281451594
  20
42.32120224860379
  30
812.601
  0
VERTEX
  8
Unknown Area Type
  70
32
  10
-5.43699196675953
  20
42.29919097428454
  30
880.606
  0
VERTEX
  8
Unknown Area Type
  70
32
  10
-5.46487353918638
  20
42.29761763936791
  30
815.48
  0
VERTEX
  8
Unknown Area Type
  70
32
  10
-5.46500097654566
  20
42.29761940123304
  30
815.401
  0
SEQEND
  8
Unknown Area Type
  0
TEXT
  8
Unknown Area Type
 62
7
  1
PNOA-H_AMS_1956-57_33k_ES_PAN_2
 40
0.00045
  10
-5.45111717470282
  20
42.30992917478435
  0
POLYLINE
  8
Unknown Area Type
  70
9
  66
1
  0
VERTEX
  8
Unknown Area Type
  70
32
  10
-5.44385320882715
  20
42.33333349999998
  30
813.94
  0
VERTEX
  8
Unknown Area Type
  70
32
  10
-5.43730290047347
  20
42.33333349999998
  30
813.766
  0
VERTEX
  8
Unknown Area Type
  70
32
  10
-5.43730289195435
  20
42.33333333333331
  30
813.766
  0
VERTEX
  8
Unknown Area Type
  70
32
  10
-5.43750000000003
  20
42.33333333333331
  30
813.767
  0
VERTEX
  8
Unknown Area Type
  70
32
  10
-5.44385331084869
  20
42.33333333333331
  30
813.94
  0
SEQEND
  8
Unknown Area Type
  0
TEXT
  8
Unknown Area Type
 62
7
  1
PNOA-H_AMS_1956-57_33k_ES_PAN_2
 40
0.00045
  10
-5.44057810140152
  20
42.33333341666665
  0
POLYLINE
  8
Unknown Area Type
  70
9
  66
1
  0
VERTEX
  8
Unknown Area Type
  70
32
  10
-5.46555121166774
  20
42.29788673292946
  30
813.862
  0
VERTEX
  8
Unknown Area Type
  70
32
  10
-5.44385331084869
  20
42.33333333333331
  30
813.94
  0
VERTEX
  8
Unknown Area Type
  70
32
  10
-5.43750000000003
  20
42.33333333333331
  30
813.767
  0
VERTEX
  8
Unknown Area Type
  70
32
  10
-5.43730289195435
  20
42.33333333333331
  30
813.766
  0
VERTEX
  8
Unknown Area Type
  70
32
  10
-5.43668281451594
  20
42.32120224860379
  30
812.601
  0
VERTEX
  8
Unknown Area Type
  70
32
  10
-5.43699196675953
  20
42.29919097428454
  30
880.606
  0
VERTEX
  8
Unknown Area Type
  70
32
  10
-5.46487353918638
  20
42.29761763936791
  30
815.48
  0
VERTEX
  8
Unknown Area Type
  70
32
  10
-5.46500097654566
  20
42.29761940123304
  30
815.401
  0
SEQEND
  8
Unknown Area Type
  0
TEXT
  8
Unknown Area Type
 62
7
  1
PNOA-H_AMS_1956-57_33k_ES_PAN_2
 40
0.00045
  10
-5.45111717470282
  20
42.30992917478435
  0
POLYLINE
  8
Unknown Area Type
  70
9
  66
1
  0
VERTEX
  8
Unknown Area Type
  70
32
  10
-5.47790262538433
  20
42.21734132591201
  30
827.923
  0
VERTEX
  8
Unknown Area Type
  70
32
  10
-5.45480352665372
  20
42.22072905060254
  30
815.148
  0
VERTEX
  8
Unknown Area Type
  70
32
  10
-5.4445946760602
  20
42.21755212328621
  30
818.228
  0
VERTEX
  8
Unknown Area Type
  70
32
  10
-5.44410465285189
  20
42.18757413438773
  30
790.533
  0
VERTEX
  8
Unknown Area Type
  70
32
  10
-5.45568499722152
  20
42.18220252374874
  30
795.266
  0
VERTEX
  8
Unknown Area Type
  70
32
  10
-5.45580685013316
  20
42.1822224276733
  30
794.955
  0
VERTEX
  8
Unknown Area Type
  70
32
  10
-5.47869718063201
  20
42.18763747279954
  30
822.43
  0
VERTEX
  8
Unknown Area Type
  70
32
  10
-5.47952277995571
  20
42.21710367124002
  30
829.388
  0
VERTEX
  8
Unknown Area Type
  70
32
  10
-5.47793876345931
  20
42.21733604203538
  30
828.004
  0
VERTEX
  8
Unknown Area Type
  70
32
  10
-5.47790262538433
  20
42.21734132591201
  30
827.923
  0
SEQEND
  8
Unknown Area Type
  0
TEXT
  8
Unknown Area Type
 62
7
  1
PNOA-H_AMS_1956-57_33k_ES_PAN_2
 40
0.00045
  10
-5.46181404706209
  20
42.20167046507564
  0
POLYLINE
  8
Unknown Area Type
  70
9
  66
1
  0
VERTEX
  8
Unknown Area Type
  70
32
  10
-5.47790262538433
  20
42.21734132591201
  30
827.923
  0
VERTEX
  8
Unknown Area Type
  70
32
  10
-5.45480352665372
  20
42.22072905060254
  30
815.148
  0
VERTEX
  8
Unknown Area Type
  70
32
  10
-5.4445946760602
  20
42.21755212328621
  30
818.228
  0
VERTEX
  8
Unknown Area Type
  70
32
  10
-5.44410465285189
  20
42.18757413438773
  30
790.533
  0
VERTEX
  8
Unknown Area Type
  70
32
  10
-5.45568499722152
  20
42.18220252374874
  30
795.266
  0
VERTEX
  8
Unknown Area Type
  70
32
  10
-5.45580685013316
  20
42.1822224276733
  30
794.955
  0
VERTEX
  8
Unknown Area Type
  70
32
  10
-5.47869718063201
  20
42.18763747279954
  30
822.43
  0
VERTEX
  8
Unknown Area Type
  70
32
  10
-5.47952277995571
  20
42.21710367124002
  30
829.388
  0
VERTEX
  8
Unknown Area Type
  70
32
  10
-5.47793876345931
  20
42.21733604203538
  30
828.004
  0
VERTEX
  8
Unknown Area Type
  70
32
  10
-5.47790262538433
  20
42.21734132591201
  30
827.923
  0
SEQEND
  8
Unknown Area Type
  0
TEXT
  8
Unknown Area Type
 62
7
  1
PNOA-H_AMS_1956-57_33k_ES_PAN_2
 40
0.00045
  10
-5.46181404706209
  20
42.20167046507564
  0
POLYLINE
  8
Unknown Area Type
  70
9
  66
1
  0
VERTEX
  8
Unknown Area Type
  70
32
  10
-5.40356228596574
  20
42.21965801231292
  30
832.002
  0
VERTEX
  8
Unknown Area Type
  70
32
  10
-5.38964595638233
  20
42.22202021090558
  30
826.352
  0
VERTEX
  8
Unknown Area Type
  70
32
  10
-5.37745163768631
  20
42.2186400040164
  30
794.064
  0
VERTEX
  8
Unknown Area Type
  70
32
  10
-5.37616203702359
  20
42.18796671786743
  30
774.234
  0
VERTEX
  8
Unknown Area Type
  70
32
  10
-5.38750572234738
  20
42.18322826689315
  30
790.213
  0
VERTEX
  8
Unknown Area Type
  70
32
  10
-5.38757865505949
  20
42.1832357537805
  30
790.246
  0
VERTEX
  8
Unknown Area Type
  70
32
  10
-5.40960991266095
  20
42.18785400902065
  30
814.844
  0
VERTEX
  8
Unknown Area Type
  70
32
  10
-5.41121199011994
  20
42.21835367090716
  30
822.794
  0
VERTEX
  8
Unknown Area Type
  70
32
  10
-5.40359237974269
  20
42.21965287859616
  30
831.995
  0
VERTEX
  8
Unknown Area Type
  70
32
  10
-5.40356228596574
  20
42.21965801231292
  30
832.002
  0
SEQEND
  8
Unknown Area Type
  0
TEXT
  8
Unknown Area Type
 62
7
  1
PNOA-H_AMS_1956-57_33k_ES_PAN_2
 40
0.00045
  10
-5.39368728670646
  20
42.20292429260066
  0
POLYLINE
  8
Unknown Area Type
  70
9
  66
1
  0
VERTEX
  8
Unknown Area Type
  70
32
  10
-5.40356228596574
  20
42.21965801231292
  30
832.002
  0
VERTEX
  8
Unknown Area Type
  70
32
  10
-5.38964595638233
  20
42.22202021090558
  30
826.352
  0
VERTEX
  8
Unknown Area Type
  70
32
  10
-5.37745163768631
  20
42.2186400040164
  30
794.064
  0
VERTEX
  8
Unknown Area Type
  70
32
  10
-5.37616203702359
  20
42.18796671786743
  30
774.234
  0
VERTEX
  8
Unknown Area Type
  70
32
  10
-5.38750572234738
  20
42.18322826689315
  30
790.213
  0
VERTEX
  8
Unknown Area Type
  70
32
  10
-5.38757865505949
  20
42.1832357537805
  30
790.246
  0
VERTEX
  8
Unknown Area Type
  70
32
  10
-5.40960991266095
  20
42.18785400902065
  30
814.844
  0
VERTEX
  8
Unknown Area Type
  70
32
  10
-5.41121199011994
  20
42.21835367090716
  30
822.794
  0
VERTEX
  8
Unknown Area Type
  70
32
  10
-5.40359237974269
  20
42.21965287859616
  30
831.995
  0
VERTEX
  8
Unknown Area Type
  70
32
  10
-5.40356228596574
  20
42.21965801231292
  30
832.002
  0
SEQEND
  8
Unknown Area Type
  0
TEXT
  8
Unknown Area Type
 62
7
  1
PNOA-H_AMS_1956-57_33k_ES_PAN_2
 40
0.00045
  10
-5.39368728670646
  20
42.20292429260066
  0
POLYLINE
  8
Unknown Area Type
  70
9
  66
1
  0
VERTEX
  8
Unknown Area Type
  70
32
  10
-5.52083333333329
  20
42.3125
  30
750.018
  0
VERTEX
  8
Unknown Area Type
  70
32
  10
-5.52083333333329
  20
42.32144794868945
  30
753.168
  0
VERTEX
  8
Unknown Area Type
  70
32
  10
-5.51431190757936
  20
42.33333333333331
  30
758.61
  0
VERTEX
  8
Unknown Area Type
  70
32
  10
-5.50531389824489
  20
42.33333333333331
  30
772.644
  0
VERTEX
  8
Unknown Area Type
  70
32
  10
-5.50473982428271
  20
42.30969851970394
  30
764.725
  0
VERTEX
  8
Unknown Area Type
  70
32
  10
-5.504731079185
  20
42.30947807952599
  30
764.915
  0
VERTEX
  8
Unknown Area Type
  70
32
  10
-5.5044834449362
  20
42.29941098930465
  30
769.358
  0
VERTEX
  8
Unknown Area Type
  70
32
  10
-5.52083333333329
  20
42.29956686367696
  30
754.242
  0
SEQEND
  8
Unknown Area Type
  0
TEXT
  8
Unknown Area Type
 62
7
  1
PNOA-H_AMS_1956-57_33k_ES_PAN_2
 40
0.00045
  10
-5.51863005852247
  20
42.31250281938804
  0
POLYLINE
  8
Unknown Area Type
  70
9
  66
1
  0
VERTEX
  8
Unknown Area Type
  70
32
  10
-5.51431181613055
  20
42.33333349999998
  30
758.61
  0
VERTEX
  8
Unknown Area Type
  70
32
  10
-5.50531390229311
  20
42.33333349999998
  30
772.644
  0
VERTEX
  8
Unknown Area Type
  70
32
  10
-5.50531389824489
  20
42.33333333333331
  30
772.644
  0
VERTEX
  8
Unknown Area Type
  70
32
  10
-5.51431190757936
  20
42.33333333333331
  30
758.61
  0
SEQEND
  8
Unknown Area Type
  0
TEXT
  8
Unknown Area Type
 62
7
  1
PNOA-H_AMS_1956-57_33k_ES_PAN_2
 40
0.00045
  10
-5.50981290291212
  20
42.33333341666665
  0
POLYLINE
  8
Unknown Area Type
  70
9
  66
1
  0
VERTEX
  8
Unknown Area Type
  70
32
  10
-5.52083366666662
  20
42.32144734118505
  30
753.167
  0
VERTEX
  8
Unknown Area Type
  70
32
  10
-5.52083333333329
  20
42.32144794868945
  30
753.168
  0
VERTEX
  8
Unknown Area Type
  70
32
  10
-5.52083333333329
  20
42.3125
  30
750.018
  0
VERTEX
  8
Unknown Area Type
  70
32
  10
-5.52083333333329
  20
42.29956686367696
  30
754.242
  0
VERTEX
  8
Unknown Area Type
  70
32
  10
-5.52083366666662
  20
42.29956686685485
  30
754.242
  0
SEQEND
  8
Unknown Area Type
  0
TEXT
  8
Unknown Area Type
 62
7
  1
PNOA-H_AMS_1956-57_33k_ES_PAN_2
 40
0.00045
  10
-5.52083349999996
  20
42.31050740618321
  0
POLYLINE
  8
Unknown Area Type
  70
9
  66
1
  0
VERTEX
  8
Unknown Area Type
  70
32
  10
-5.52083333333329
  20
42.3125
  30
750.018
  0
VERTEX
  8
Unknown Area Type
  70
32
  10
-5.52083333333329
  20
42.32144794868945
  30
753.168
  0
VERTEX
  8
Unknown Area Type
  70
32
  10
-5.51431190757936
  20
42.33333333333331
  30
758.61
  0
VERTEX
  8
Unknown Area Type
  70
32
  10
-5.50531389824489
  20
42.33333333333331
  30
772.644
  0
VERTEX
  8
Unknown Area Type
  70
32
  10
-5.50473982428271
  20
42.30969851970394
  30
764.725
  0
VERTEX
  8
Unknown Area Type
  70
32
  10
-5.504731079185
  20
42.30947807952599
  30
764.915
  0
VERTEX
  8
Unknown Area Type
  70
32
  10
-5.5044834449362
  20
42.29941098930465
  30
769.358
  0
VERTEX
  8
Unknown Area Type
  70
32
  10
-5.52083333333329
  20
42.29956686367696
  30
754.242
  0
SEQEND
  8
Unknown Area Type
  0
TEXT
  8
Unknown Area Type
 62
7
  1
PNOA-H_AMS_1956-57_33k_ES_PAN_2
 40
0.00045
  10
-5.51863005852247
  20
42.31250281938804
  0
POLYLINE
  8
Unknown Area Type
  70
9
  66
1
  0
VERTEX
  8
Unknown Area Type
  70
32
  10
-5.40712228860935
  20
42.31404627508104
  30
854.72
  0
VERTEX
  8
Unknown Area Type
  70
32
  10
-5.4050280271321
  20
42.31353640924069
  30
858.239
  0
VERTEX
  8
Unknown Area Type
  70
32
  10
-5.40484266131678
  20
42.30006818014704
  30
882.899
  0
VERTEX
  8
Unknown Area Type
  70
32
  10
-5.4048532407857
  20
42.30002743370165
  30
882.951
  0
VERTEX
  8
Unknown Area Type
  70
32
  10
-5.43138540678544
  20
42.29692811692953
  30
879.895
  0
VERTEX
  8
Unknown Area Type
  70
32
  10
-5.43141570764161
  20
42.29692747411829
  30
879.786
  0
VERTEX
  8
Unknown Area Type
  70
32
  10
-5.43145882154492
  20
42.29694457031954
  30
879.534
  0
VERTEX
  8
Unknown Area Type
  70
32
  10
-5.43699196675953
  20
42.29919097428454
  30
880.606
  0
VERTEX
  8
Unknown Area Type
  70
32
  10
-5.43668437778091
  20
42.32124273961294
  30
812.848
  0
VERTEX
  8
Unknown Area Type
  70
32
  10
-5.40713441245329
  20
42.31404602043904
  30
854.681
  0
VERTEX
  8
Unknown Area Type
  70
32
  10
-5.40712228860935
  20
42.31404627508104
  30
854.72
  0
SEQEND
  8
Unknown Area Type
  0
TEXT
  8
Unknown Area Type
 62
7
  1
PNOA-H_AMS_1956-57_33k_ES_PAN_2
 40
0.00045
  10
-5.42091053609422
  20
42.30908467837916
  0
POLYLINE
  8
Unknown Area Type
  70
9
  66
1
  0
VERTEX
  8
Unknown Area Type
  70
32
  10
-5.40712228860935
  20
42.31404627508104
  30
854.72
  0
VERTEX
  8
Unknown Area Type
  70
32
  10
-5.4050280271321
  20
42.31353640924069
  30
858.239
  0
VERTEX
  8
Unknown Area Type
  70
32
  10
-5.40484266131678
  20
42.30006818014704
  30
882.899
  0
VERTEX
  8
Unknown Area Type
  70
32
  10
-5.4048532407857
  20
42.30002743370165
  30
882.951
  0
VERTEX
  8
Unknown Area Type
  70
32
  10
-5.43138540678544
  20
42.29692811692953
  30
879.895
  0
VERTEX
  8
Unknown Area Type
  70
32
  10
-5.43141570764161
  20
42.29692747411829
  30
879.786
  0
VERTEX
  8
Unknown Area Type
  70
32
  10
-5.43145882154492
  20
42.29694457031954
  30
879.534
  0
VERTEX
  8
Unknown Area Type
  70
32
  10
-5.43699196675953
  20
42.29919097428454
  30
880.606
  0
VERTEX
  8
Unknown Area Type
  70
32
  10
-5.43668437778091
  20
42.32124273961294
  30
812.848
  0
VERTEX
  8
Unknown Area Type
  70
32
  10
-5.40713441245329
  20
42.31404602043904
  30
854.681
  0
VERTEX
  8
Unknown Area Type
  70
32
  10
-5.40712228860935
  20
42.31404627508104
  30
854.72
  0
SEQEND
  8
Unknown Area Type
  0
TEXT
  8
Unknown Area Type
 62
7
  1
PNOA-H_AMS_1956-57_33k_ES_PAN_2
 40
0.00045
  10
-5.42091053609422
  20
42.30908467837916
  0
POLYLINE
  8
Unknown Area Type
  70
9
  66
1
  0
VERTEX
  8
Unknown Area Type
  70
32
  10
-5.22818532313221
  20
42.22313312992405
  30
769.571
  0
VERTEX
  8
Unknown Area Type
  70
32
  10
-5.20998982111235
  20
42.21870780654366
  30
754.631
  0
VERTEX
  8
Unknown Area Type
  70
32
  10
-5.20958374461829
  20
42.1879522184255
  30
788.539
  0
VERTEX
  8
Unknown Area Type
  70
32
  10
-5.22059348570442
  20
42.18369146879596
  30
783.547
  0
VERTEX
  8
Unknown Area Type
  70
32
  10
-5.242388211761
  20
42.18743245201127
  30
751.292
  0
VERTEX
  8
Unknown Area Type
  70
32
  10
-5.24335087742485
  20
42.21942875359759
  30
755.338
  0
VERTEX
  8
Unknown Area Type
  70
32
  10
-5.22820938077092
  20
42.22312815954576
  30
769.601
  0
VERTEX
  8
Unknown Area Type
  70
32
  10
-5.22818532313221
  20
42.22313312992405
  30
769.571
  0
SEQEND
  8
Unknown Area Type
  0
TEXT
  8
Unknown Area Type
 62
7
  1
PNOA-H_AMS_1956-57_33k_ES_PAN_2
 40
0.00045
  10
-5.22646767284279
  20
42.20370570898717
  0
POLYLINE
  8
Unknown Area Type
  70
9
  66
1
  0
VERTEX
  8
Unknown Area Type
  70
32
  10
-5.22818532313221
  20
42.22313312992405
  30
769.571
  0
VERTEX
  8
Unknown Area Type
  70
32
  10
-5.20998982111235
  20
42.21870780654366
  30
754.631
  0
VERTEX
  8
Unknown Area Type
  70
32
  10
-5.20958374461829
  20
42.1879522184255
  30
788.539
  0
VERTEX
  8
Unknown Area Type
  70
32
  10
-5.22059348570442
  20
42.18369146879596
  30
783.547
  0
VERTEX
  8
Unknown Area Type
  70
32
  10
-5.242388211761
  20
42.18743245201127
  30
751.292
  0
VERTEX
  8
Unknown Area Type
  70
32
  10
-5.24335087742485
  20
42.21942875359759
  30
755.338
  0
VERTEX
  8
Unknown Area Type
  70
32
  10
-5.22820938077092
  20
42.22312815954576
  30
769.601
  0
VERTEX
  8
Unknown Area Type
  70
32
  10
-5.22818532313221
  20
42.22313312992405
  30
769.571
  0
SEQEND
  8
Unknown Area Type
  0
TEXT
  8
Unknown Area Type
 62
7
  1
PNOA-H_AMS_1956-57_33k_ES_PAN_2
 40
0.00045
  10
-5.22646767284279
  20
42.20370570898717
  0
POLYLINE
  8
Unknown Area Type
  70
9
  66
1
  0
VERTEX
  8
Unknown Area Type
  70
32
  10
-5.30430274769109
  20
42.22006154569518
  30
801.043
  0
VERTEX
  8
Unknown Area Type
  70
32
  10
-5.29260842364288
  20
42.22299767683774
  30
793.754
  0
VERTEX
  8
Unknown Area Type
  70
32
  10
-5.27623051795086
  20
42.21920845011807
  30
785.423
  0
VERTEX
  8
Unknown Area Type
  70
32
  10
-5.27523208994976
  20
42.18802821765315
  30
759.673
  0
VERTEX
  8
Unknown Area Type
  70
32
  10
-5.28825160463158
  20
42.18321226570617
  30
776.08
  0
VERTEX
  8
Unknown Area Type
  70
32
  10
-5.30916613137555
  20
42.18745339725516
  30
774.169
  0
VERTEX
  8
Unknown Area Type
  70
32
  10
-5.30976519733158
  20
42.21868633810031
  30
801.42
  0
VERTEX
  8
Unknown Area Type
  70
32
  10
-5.30432074412186
  20
42.22005668117973
  30
801.066
  0
VERTEX
  8
Unknown Area Type
  70
32
  10
-5.30430274769109
  20
42.22006154569518
  30
801.043
  0
SEQEND
  8
Unknown Area Type
  0
TEXT
  8
Unknown Area Type
 62
7
  1
PNOA-H_AMS_1956-57_33k_ES_PAN_2
 40
0.00045
  10
-5.29249889430075
  20
42.20352158596224
  0
POLYLINE
  8
Unknown Area Type
  70
9
  66
1
  0
VERTEX
  8
Unknown Area Type
  70
32
  10
-5.30430274769109
  20
42.22006154569518
  30
801.043
  0
VERTEX
  8
Unknown Area Type
  70
32
  10
-5.29260842364288
  20
42.22299767683774
  30
793.754
  0
VERTEX
  8
Unknown Area Type
  70
32
  10
-5.27623051795086
  20
42.21920845011807
  30
785.423
  0
VERTEX
  8
Unknown Area Type
  70
32
  10
-5.27523208994976
  20
42.18802821765315
  30
759.673
  0
VERTEX
  8
Unknown Area Type
  70
32
  10
-5.28825160463158
  20
42.18321226570617
  30
776.08
  0
VERTEX
  8
Unknown Area Type
  70
32
  10
-5.30916613137555
  20
42.18745339725516
  30
774.169
  0
VERTEX
  8
Unknown Area Type
  70
32
  10
-5.30976519733158
  20
42.21868633810031
  30
801.42
  0
VERTEX
  8
Unknown Area Type
  70
32
  10
-5.30432074412186
  20
42.22005668117973
  30
801.066
  0
VERTEX
  8
Unknown Area Type
  70
32
  10
-5.30430274769109
  20
42.22006154569518
  30
801.043
  0
SEQEND
  8
Unknown Area Type
  0
TEXT
  8
Unknown Area Type
 62
7
  1
PNOA-H_AMS_1956-57_33k_ES_PAN_2
 40
0.00045
  10
-5.29249889430075
  20
42.20352158596224
  0
POLYLINE
  8
Unknown Area Type
  70
9
  66
1
  0
VERTEX
  8
Unknown Area Type
  70
32
  10
-5.48231038656726
  20
42.33333333333331
  30
802.567
  0
VERTEX
  8
Unknown Area Type
  70
32
  10
-5.47916666666666
  20
42.33333333333331
  30
803.305
  0
VERTEX
  8
Unknown Area Type
  70
32
  10
-5.47109276793666
  20
42.33333333333331
  30
807.666
  0
VERTEX
  8
Unknown Area Type
  70
32
  10
-5.47008648648104
  20
42.29986482085035
  30
802.278
  0
VERTEX
  8
Unknown Area Type
  70
32
  10
-5.4956491371891
  20
42.29886976557652
  30
778.522
  0
SEQEND
  8
Unknown Area Type
  0
TEXT
  8
Unknown Area Type
 62
7
  1
PNOA-H_AMS_1956-57_33k_ES_PAN_2
 40
0.00045
  10
-5.48286769682536
  20
42.31562928360817
  0
POLYLINE
  8
Unknown Area Type
  70
9
  66
1
  0
VERTEX
  8
Unknown Area Type
  70
32
  10
-5.48231032206074
  20
42.33333349999998
  30
802.567
  0
VERTEX
  8
Unknown Area Type
  70
32
  10
-5.47109277294774
  20
42.33333349999998
  30
807.666
  0
VERTEX
  8
Unknown Area Type
  70
32
  10
-5.47109276793666
  20
42.33333333333331
  30
807.666
  0
VERTEX
  8
Unknown Area Type
  70
32
  10
-5.47916666666666
  20
42.33333333333331
  30
803.305
  0
VERTEX
  8
Unknown Area Type
  70
32
  10
-5.48231038656726
  20
42.33333333333331
  30
802.567
  0
SEQEND
  8
Unknown Area Type
  0
TEXT
  8
Unknown Area Type
 62
7
  1
PNOA-H_AMS_1956-57_33k_ES_PAN_2
 40
0.00045
  10
-5.47670157725196
  20
42.33333341666665
  0
POLYLINE
  8
Unknown Area Type
  70
9
  66
1
  0
VERTEX
  8
Unknown Area Type
  70
32
  10
-5.48231038656726
  20
42.33333333333331
  30
802.567
  0
VERTEX
  8
Unknown Area Type
  70
32
  10
-5.47916666666666
  20
42.33333333333331
  30
803.305
  0
VERTEX
  8
Unknown Area Type
  70
32
  10
-5.47109276793666
  20
42.33333333333331
  30
807.666
  0
VERTEX
  8
Unknown Area Type
  70
32
  10
-5.47008648648104
  20
42.29986482085035
  30
802.278
  0
VERTEX
  8
Unknown Area Type
  70
32
  10
-5.4956491371891
  20
42.29886976557652
  30
778.522
  0
SEQEND
  8
Unknown Area Type
  0
TEXT
  8
Unknown Area Type
 62
7
  1
PNOA-H_AMS_1956-57_33k_ES_PAN_2
 40
0.00045
  10
-5.48286769682536
  20
42.31562928360817
  0
POLYLINE
  8
Unknown Area Type
  70
9
  66
1
  0
VERTEX
  8
Unknown Area Type
  70
32
  10
-5.20998966413186
  20
42.21870330673824
  30
754.63
  0
VERTEX
  8
Unknown Area Type
  70
32
  10
-5.20506796167111
  20
42.22001383425084
  30
755.734
  0
VERTEX
  8
Unknown Area Type
  70
32
  10
-5.20504995696446
  20
42.22001868335976
  30
755.738
  0
VERTEX
  8
Unknown Area Type
  70
32
  10
-5.19471353583442
  20
42.22276561632685
  30
764.276
  0
VERTEX
  8
Unknown Area Type
  70
32
  10
-5.19447339907556
  20
42.22282874970835
  30
766.277
  0
VERTEX
  8
Unknown Area Type
  70
32
  10
-5.19443707451611
  20
42.22282944496708
  30
766.516
  0
VERTEX
  8
Unknown Area Type
  70
32
  10
-5.18749999999999
  20
42.22138154676483
  30
772.262
  0
VERTEX
  8
Unknown Area Type
  70
32
  10
-5.18749999999999
  20
42.20833333333334
  30
782.019
  0
VERTEX
  8
Unknown Area Type
  70
32
  10
-5.18749999999999
  20
42.18750000000002
  30
772.653
  0
VERTEX
  8
Unknown Area Type
  70
32
  10
-5.18749999999999
  20
42.18380932677567
  30
771.551
  0
VERTEX
  8
Unknown Area Type
  70
32
  10
-5.20958374461829
  20
42.1879522184255
  30
788.539
  0
SEQEND
  8
Unknown Area Type
  0
TEXT
  8
Unknown Area Type
 62
7
  1
PNOA-H_AMS_1956-57_33k_ES_PAN_2
 40
0.00045
  10
-5.1928805414555
  20
42.20365976471131
  0
POLYLINE
  8
Unknown Area Type
  70
9
  66
1
  0
VERTEX
  8
Unknown Area Type
  70
32
  10
-5.20998966413186
  20
42.21870330673824
  30
754.63
  0
VERTEX
  8
Unknown Area Type
  70
32
  10
-5.20506796167111
  20
42.22001383425084
  30
755.734
  0
VERTEX
  8
Unknown Area Type
  70
32
  10
-5.20504995696446
  20
42.22001868335976
  30
755.738
  0
VERTEX
  8
Unknown Area Type
  70
32
  10
-5.19471353583442
  20
42.22276561632685
  30
764.276
  0
VERTEX
  8
Unknown Area Type
  70
32
  10
-5.19447339907556
  20
42.22282874970835
  30
766.277
  0
VERTEX
  8
Unknown Area Type
  70
32
  10
-5.19443707451611
  20
42.22282944496708
  30
766.516
  0
VERTEX
  8
Unknown Area Type
  70
32
  10
-5.18749999999999
  20
42.22138154676483
  30
772.262
  0
VERTEX
  8
Unknown Area Type
  70
32
  10
-5.18749999999999
  20
42.20833333333334
  30
782.019
  0
VERTEX
  8
Unknown Area Type
  70
32
  10
-5.18749999999999
  20
42.18750000000002
  30
772.653
  0
VERTEX
  8
Unknown Area Type
  70
32
  10
-5.18749999999999
  20
42.18380932677567
  30
771.551
  0
VERTEX
  8
Unknown Area Type
  70
32
  10
-5.20958374461829
  20
42.1879522184255
  30
788.539
  0
SEQEND
  8
Unknown Area Type
  0
TEXT
  8
Unknown Area Type
 62
7
  1
PNOA-H_AMS_1956-57_33k_ES_PAN_2
 40
0.00045
  10
-5.1928805414555
  20
42.20365976471131
  0
POLYLINE
  8
Unknown Area Type
  70
9
  66
1
  0
VERTEX
  8
Unknown Area Type
  70
32
  10
-5.18749999999999
  20
42.18750000000002
  30
772.653
  0
VERTEX
  8
Unknown Area Type
  70
32
  10
-5.18749999999999
  20
42.20833333333334
  30
782.019
  0
VERTEX
  8
Unknown Area Type
  70
32
  10
-5.18749999999999
  20
42.22138154676483
  30
772.262
  0
VERTEX
  8
Unknown Area Type
  70
32
  10
-5.18749966666666
  20
42.22138147719188
  30
772.263
  0
VERTEX
  8
Unknown Area Type
  70
32
  10
-5.18749966666666
  20
42.18380926424263
  30
771.551
  0
VERTEX
  8
Unknown Area Type
  70
32
  10
-5.18749999999999
  20
42.18380932677567
  30
771.551
  0
SEQEND
  8
Unknown Area Type
  0
TEXT
  8
Unknown Area Type
 62
7
  1
PNOA-H_AMS_1956-57_33k_ES_PAN_2
 40
0.00045
  10
-5.18749983333333
  20
42.20259540550373
  0
POLYLINE
  8
Unknown Area Type
  70
9
  66
1
  0
VERTEX
  8
Unknown Area Type
  70
32
  10
-5.37098484507148
  20
42.33333333333331
  30
858.272
  0
VERTEX
  8
Unknown Area Type
  70
32
  10
-5.35416666666669
  20
42.33333333333331
  30
840.354
  0
VERTEX
  8
Unknown Area Type
  70
32
  10
-5.35286434069386
  20
42.33333333333331
  30
840.37
  0
VERTEX
  8
Unknown Area Type
  70
32
  10
-5.35234481822558
  20
42.29856410614501
  30
868.734
  0
VERTEX
  8
Unknown Area Type
  70
32
  10
-5.36118348762237
  20
42.2969820116411
  30
850.777
  0
VERTEX
  8
Unknown Area Type
  70
32
  10
-5.36122591103646
  20
42.29698113767127
  30
850.9
  0
VERTEX
  8
Unknown Area Type
  70
32
  10
-5.36130570647125
  20
42.2970065101542
  30
851.095
  0
VERTEX
  8
Unknown Area Type
  70
32
  10
-5.36996743333128
  20
42.29993461722952
  30
861.18
  0
SEQEND
  8
Unknown Area Type
  0
TEXT
  8
Unknown Area Type
 62
7
  1
PNOA-H_AMS_1956-57_33k_ES_PAN_2
 40
0.00045
  10
-5.36176830822616
  20
42.31787449229115
  0
POLYLINE
  8
Unknown Area Type
  70
9
  66
1
  0
VERTEX
  8
Unknown Area Type
  70
32
  10
-5.37098485014858
  20
42.33333349999998
  30
858.272
  0
VERTEX
  8
Unknown Area Type
  70
32
  10
-5.35286434318419
  20
42.33333349999998
  30
840.37
  0
VERTEX
  8
Unknown Area Type
  70
32
  10
-5.35286434069386
  20
42.33333333333331
  30
840.37
  0
VERTEX
  8
Unknown Area Type
  70
32
  10
-5.35416666666669
  20
42.33333333333331
  30
840.354
  0
VERTEX
  8
Unknown Area Type
  70
32
  10
-5.37098484507148
  20
42.33333333333331
  30
858.272
  0
SEQEND
  8
Unknown Area Type
  0
TEXT
  8
Unknown Area Type
 62
7
  1
PNOA-H_AMS_1956-57_33k_ES_PAN_2
 40
0.00045
  10
-5.36192459542122
  20
42.33333341666665
  0
POLYLINE
  8
Unknown Area Type
  70
9
  66
1
  0
VERTEX
  8
Unknown Area Type
  70
32
  10
-5.37098484507148
  20
42.33333333333331
  30
858.272
  0
VERTEX
  8
Unknown Area Type
  70
32
  10
-5.35416666666669
  20
42.33333333333331
  30
840.354
  0
VERTEX
  8
Unknown Area Type
  70
32
  10
-5.35286434069386
  20
42.33333333333331
  30
840.37
  0
VERTEX
  8
Unknown Area Type
  70
32
  10
-5.35234481822558
  20
42.29856410614501
  30
868.734
  0
VERTEX
  8
Unknown Area Type
  70
32
  10
-5.36118348762237
  20
42.2969820116411
  30
850.777
  0
VERTEX
  8
Unknown Area Type
  70
32
  10
-5.36122591103646
  20
42.29698113767127
  30
850.9
  0
VERTEX
  8
Unknown Area Type
  70
32
  10
-5.36130570647125
  20
42.2970065101542
  30
851.095
  0
VERTEX
  8
Unknown Area Type
  70
32
  10
-5.36996743333128
  20
42.29993461722952
  30
861.18
  0
SEQEND
  8
Unknown Area Type
  0
TEXT
  8
Unknown Area Type
 62
7
  1
PNOA-H_AMS_1956-57_33k_ES_PAN_2
 40
0.00045
  10
-5.36176830822616
  20
42.31787449229115
  0
POLYLINE
  8
Unknown Area Type
  70
9
  66
1
  0
VERTEX
  8
Unknown Area Type
  70
32
  10
-5.33706906360976
  20
42.33333333333331
  30
834.18
  0
VERTEX
  8
Unknown Area Type
  70
32
  10
-5.31439771511275
  20
42.33333333333331
  30
818.26
  0
VERTEX
  8
Unknown Area Type
  70
32
  10
-5.32475721161808
  20
42.29750599850161
  30
842.91
  0
VERTEX
  8
Unknown Area Type
  70
32
  10
-5.32645340145352
  20
42.29712036842864
  30
842.885
  0
VERTEX
  8
Unknown Area Type
  70
32
  10
-5.33600782926442
  20
42.29995638217043
  30
849.158
  0
SEQEND
  8
Unknown Area Type
  0
TEXT
  8
Unknown Area Type
 62
7
  1
PNOA-H_AMS_1956-57_33k_ES_PAN_2
 40
0.00045
  10
-5.32537326041958
  20
42.31798450525652
  0
POLYLINE
  8
Unknown Area Type
  70
9
  66
1
  0
VERTEX
  8
Unknown Area Type
  70
32
  10
-5.337069068909
  20
42.33333349999998
  30
834.18
  0
VERTEX
  8
Unknown Area Type
  70
32
  10
-5.31439766692097
  20
42.33333349999998
  30
818.26
  0
VERTEX
  8
Unknown Area Type
  70
32
  10
-5.31439771511275
  20
42.33333333333331
  30
818.26
  0
VERTEX
  8
Unknown Area Type
  70
32
  10
-5.33706906360976
  20
42.33333333333331
  30
834.18
  0
SEQEND
  8
Unknown Area Type
  0
TEXT
  8
Unknown Area Type
 62
7
  1
PNOA-H_AMS_1956-57_33k_ES_PAN_2
 40
0.00045
  10
-5.32573336791499
  20
42.33333341666665
  0
POLYLINE
  8
Unknown Area Type
  70
9
  66
1
  0
VERTEX
  8
Unknown Area Type
  70
32
  10
-5.33706906360976
  20
42.33333333333331
  30
834.18
  0
VERTEX
  8
Unknown Area Type
  70
32
  10
-5.31439771511275
  20
42.33333333333331
  30
818.26
  0
VERTEX
  8
Unknown Area Type
  70
32
  10
-5.32475721161808
  20
42.29750599850161
  30
842.91
  0
VERTEX
  8
Unknown Area Type
  70
32
  10
-5.32645340145352
  20
42.29712036842864
  30
842.885
  0
VERTEX
  8
Unknown Area Type
  70
32
  10
-5.33600782926442
  20
42.29995638217043
  30
849.158
  0
SEQEND
  8
Unknown Area Type
  0
TEXT
  8
Unknown Area Type
 62
7
  1
PNOA-H_AMS_1956-57_33k_ES_PAN_2
 40
0.00045
  10
-5.32537326041958
  20
42.31798450525652
  0
POLYLINE
  8
Unknown Area Type
  70
9
  66
1
  0
VERTEX
  8
Unknown Area Type
  70
32
  10
-5.30149524237389
  20
42.33333333333331
  30
814.823
  0
VERTEX
  8
Unknown Area Type
  70
32
  10
-5.27234671668246
  20
42.33333333333331
  30
799.423
  0
VERTEX
  8
Unknown Area Type
  70
32
  10
-5.2729569267775
  20
42.3011250176426
  30
790.343
  0
VERTEX
  8
Unknown Area Type
  70
32
  10
-5.29121584860289
  20
42.29631725850817
  30
807.928
  0
VERTEX
  8
Unknown Area Type
  70
32
  10
-5.29127678224333
  20
42.29632504595295
  30
807.865
  0
VERTEX
  8
Unknown Area Type
  70
32
  10
-5.30259388982615
  20
42.2996419192054
  30
827.52
  0
SEQEND
  8
Unknown Area Type
  0
TEXT
  8
Unknown Area Type
 62
7
  1
PNOA-H_AMS_1956-57_33k_ES_PAN_2
 40
0.00045
  10
-5.28746176004047
  20
42.31753130501215
  0
POLYLINE
  8
Unknown Area Type
  70
9
  66
1
  0
VERTEX
  8
Unknown Area Type
  70
32
  10
-5.30149523693904
  20
42.33333349999998
  30
814.823
  0
VERTEX
  8
Unknown Area Type
  70
32
  10
-5.27234671352484
  20
42.33333349999998
  30
799.423
  0
VERTEX
  8
Unknown Area Type
  70
32
  10
-5.27234671668246
  20
42.33333333333331
  30
799.423
  0
VERTEX
  8
Unknown Area Type
  70
32
  10
-5.30149524237389
  20
42.33333333333331
  30
814.823
  0
SEQEND
  8
Unknown Area Type
  0
TEXT
  8
Unknown Area Type
 62
7
  1
PNOA-H_AMS_1956-57_33k_ES_PAN_2
 40
0.00045
  10
-5.28692097794937
  20
42.33333341666665
  0
POLYLINE
  8
Unknown Area Type
  70
9
  66
1
  0
VERTEX
  8
Unknown Area Type
  70
32
  10
-5.30149524237389
  20
42.33333333333331
  30
814.823
  0
VERTEX
  8
Unknown Area Type
  70
32
  10
-5.27234671668246
  20
42.33333333333331
  30
799.423
  0
VERTEX
  8
Unknown Area Type
  70
32
  10
-5.2729569267775
  20
42.3011250176426
  30
790.343
  0
VERTEX
  8
Unknown Area Type
  70
32
  10
-5.29121584860289
  20
42.29631725850817
  30
807.928
  0
VERTEX
  8
Unknown Area Type
  70
32
  10
-5.29127678224333
  20
42.29632504595295
  30
807.865
  0
VERTEX
  8
Unknown Area Type
  70
32
  10
-5.30259388982615
  20
42.2996419192054
  30
827.52
  0
SEQEND
  8
Unknown Area Type
  0
TEXT
  8
Unknown Area Type
 62
7
  1
PNOA-H_AMS_1956-57_33k_ES_PAN_2
 40
0.00045
  10
-5.28746176004047
  20
42.31753130501215
  0
POLYLINE
  8
Unknown Area Type
  70
9
  66
1
  0
VERTEX
  8
Unknown Area Type
  70
32
  10
-5.27235188499984
  20
42.33333333333331
  30
799.423
  0
VERTEX
  8
Unknown Area Type
  70
32
  10
-5.27083333333334
  20
42.33333333333331
  30
802.948
  0
VERTEX
  8
Unknown Area Type
  70
32
  10
-5.23975870002628
  20
42.33333333333331
  30
834.754
  0
VERTEX
  8
Unknown Area Type
  70
32
  10
-5.23779715247086
  20
42.3017087932605
  30
833.455
  0
VERTEX
  8
Unknown Area Type
  70
32
  10
-5.25551875897338
  20
42.2962102707238
  30
779.555
  0
VERTEX
  8
Unknown Area Type
  70
32
  10
-5.25553694156917
  20
42.29620991292528
  30
779.553
  0
VERTEX
  8
Unknown Area Type
  70
32
  10
-5.25558494653107
  20
42.29619545996823
  30
779.525
  0
VERTEX
  8
Unknown Area Type
  70
32
  10
-5.25566454104752
  20
42.29621640746361
  30
779.498
  0
VERTEX
  8
Unknown Area Type
  70
32
  10
-5.27295676486011
  20
42.30112051809599
  30
790.289
  0
SEQEND
  8
Unknown Area Type
  0
TEXT
  8
Unknown Area Type
 62
7
  1
PNOA-H_AMS_1956-57_33k_ES_PAN_2
 40
0.00045
  10
-5.2553767517373
  20
42.31718820805996
  0
POLYLINE
  8
Unknown Area Type
  70
9
  66
1
  0
VERTEX
  8
Unknown Area Type
  70
32
  10
-5.27235188187024
  20
42.33333349999998
  30
799.423
  0
VERTEX
  8
Unknown Area Type
  70
32
  10
-5.23975871036397
  20
42.33333349999998
  30
834.754
  0
VERTEX
  8
Unknown Area Type
  70
32
  10
-5.23975870002628
  20
42.33333333333331
  30
834.754
  0
VERTEX
  8
Unknown Area Type
  70
32
  10
-5.27083333333334
  20
42.33333333333331
  30
802.948
  0
VERTEX
  8
Unknown Area Type
  70
32
  10
-5.27235188499984
  20
42.33333333333331
  30
799.423
  0
SEQEND
  8
Unknown Area Type
  0
TEXT
  8
Unknown Area Type
 62
7
  1
PNOA-H_AMS_1956-57_33k_ES_PAN_2
 40
0.00045
  10
-5.25605529251306
  20
42.33333341666665
  0
POLYLINE
  8
Unknown Area Type
  70
9
  66
1
  0
VERTEX
  8
Unknown Area Type
  70
32
  10
-5.27235188499984
  20
42.33333333333331
  30
799.423
  0
VERTEX
  8
Unknown Area Type
  70
32
  10
-5.27083333333334
  20
42.33333333333331
  30
802.948
  0
VERTEX
  8
Unknown Area Type
  70
32
  10
-5.23975870002628
  20
42.33333333333331
  30
834.754
  0
VERTEX
  8
Unknown Area Type
  70
32
  10
-5.23779715247086
  20
42.3017087932605
  30
833.455
  0
VERTEX
  8
Unknown Area Type
  70
32
  10
-5.25551875897338
  20
42.2962102707238
  30
779.555
  0
VERTEX
  8
Unknown Area Type
  70
32
  10
-5.25553694156917
  20
42.29620991292528
  30
779.553
  0
VERTEX
  8
Unknown Area Type
  70
32
  10
-5.25558494653107
  20
42.29619545996823
  30
779.525
  0
VERTEX
  8
Unknown Area Type
  70
32
  10
-5.25566454104752
  20
42.29621640746361
  30
779.498
  0
VERTEX
  8
Unknown Area Type
  70
32
  10
-5.27295676486011
  20
42.30112051809599
  30
790.289
  0
SEQEND
  8
Unknown Area Type
  0
TEXT
  8
Unknown Area Type
 62
7
  1
PNOA-H_AMS_1956-57_33k_ES_PAN_2
 40
0.00045
  10
-5.2553767517373
  20
42.31718820805996
  0
POLYLINE
  8
Unknown Area Type
  70
9
  66
1
  0
VERTEX
  8
Unknown Area Type
  70
32
  10
-5.23976438814661
  20
42.33333333333331
  30
834.713
  0
VERTEX
  8
Unknown Area Type
  70
32
  10
-5.22916666666662
  20
42.33333333333331
  30
850.154
  0
VERTEX
  8
Unknown Area Type
  70
32
  10
-5.20518822269572
  20
42.33333333333331
  30
820.834
  0
VERTEX
  8
Unknown Area Type
  70
32
  10
-5.20410247079731
  20
42.30240670461784
  30
806.11
  0
VERTEX
  8
Unknown Area Type
  70
32
  10
-5.21944294312291
  20
42.29723418536967
  30
817.75
  0
VERTEX
  8
Unknown Area Type
  70
32
  10
-5.2377969930536
  20
42.30170429360538
  30
833.446
  0
SEQEND
  8
Unknown Area Type
  0
TEXT
  8
Unknown Area Type
 62
7
  1
PNOA-H_AMS_1956-57_33k_ES_PAN_2
 40
0.00045
  10
-5.22198020874312
  20
42.31829933992142
  0
POLYLINE
  8
Unknown Area Type
  70
9
  66
1
  0
VERTEX
  8
Unknown Area Type
  70
32
  10
-5.23976439851364
  20
42.33333349999998
  30
834.713
  0
VERTEX
  8
Unknown Area Type
  70
32
  10
-5.20518822854694
  20
42.33333349999998
  30
820.834
  0
VERTEX
  8
Unknown Area Type
  70
32
  10
-5.20518822269572
  20
42.33333333333331
  30
820.834
  0
VERTEX
  8
Unknown Area Type
  70
32
  10
-5.22916666666662
  20
42.33333333333331
  30
850.154
  0
VERTEX
  8
Unknown Area Type
  70
32
  10
-5.23976438814661
  20
42.33333333333331
  30
834.713
  0
SEQEND
  8
Unknown Area Type
  0
TEXT
  8
Unknown Area Type
 62
7
  1
PNOA-H_AMS_1956-57_33k_ES_PAN_2
 40
0.00045
  10
-5.22247631060468
  20
42.33333341666665
  0
POLYLINE
  8
Unknown Area Type
  70
9
  66
1
  0
VERTEX
  8
Unknown Area Type
  70
32
  10
-5.23976438814661
  20
42.33333333333331
  30
834.713
  0
VERTEX
  8
Unknown Area Type
  70
32
  10
-5.22916666666662
  20
42.33333333333331
  30
850.154
  0
VERTEX
  8
Unknown Area Type
  70
32
  10
-5.20518822269572
  20
42.33333333333331
  30
820.834
  0
VERTEX
  8
Unknown Area Type
  70
32
  10
-5.20410247079731
  20
42.30240670461784
  30
806.11
  0
VERTEX
  8
Unknown Area Type
  70
32
  10
-5.21944294312291
  20
42.29723418536967
  30
817.75
  0
VERTEX
  8
Unknown Area Type
  70
32
  10
-5.2377969930536
  20
42.30170429360538
  30
833.446
  0
SEQEND
  8
Unknown Area Type
  0
TEXT
  8
Unknown Area Type
 62
7
  1
PNOA-H_AMS_1956-57_33k_ES_PAN_2
 40
0.00045
  10
-5.22198020874312
  20
42.31829933992142
  0
POLYLINE
  8
Unknown Area Type
  70
9
  66
1
  0
VERTEX
  8
Unknown Area Type
  70
32
  10
-5.20518822269572
  20
42.33333333333331
  30
820.834
  0
VERTEX
  8
Unknown Area Type
  70
32
  10
-5.18749999999999
  20
42.33333333333331
  30
817.453
  0
VERTEX
  8
Unknown Area Type
  70
32
  10
-5.18749999999999
  20
42.3125
  30
798.754
  0
VERTEX
  8
Unknown Area Type
  70
32
  10
-5.18749999999999
  20
42.29884515501769
  30
797.261
  0
VERTEX
  8
Unknown Area Type
  70
32
  10
-5.20410247079731
  20
42.30240670461784
  30
806.11
  0
SEQEND
  8
Unknown Area Type
  0
TEXT
  8
Unknown Area Type
 62
7
  1
PNOA-H_AMS_1956-57_33k_ES_PAN_2
 40
0.00045
  10
-5.19634411134786
  20
42.3160892441755
  0
POLYLINE
  8
Unknown Area Type
  70
9
  66
1
  0
VERTEX
  8
Unknown Area Type
  70
32
  10
-5.20518822854694
  20
42.33333349999998
  30
820.834
  0
VERTEX
  8
Unknown Area Type
  70
32
  10
-5.18749999999999
  20
42.33333349999998
  30
817.453
  0
VERTEX
  8
Unknown Area Type
  70
32
  10
-5.18749999999999
  20
42.33333333333331
  30
817.453
  0
VERTEX
  8
Unknown Area Type
  70
32
  10
-5.20518822269572
  20
42.33333333333331
  30
820.834
  0
SEQEND
  8
Unknown Area Type
  0
TEXT
  8
Unknown Area Type
 62
7
  1
PNOA-H_AMS_1956-57_33k_ES_PAN_2
 40
0.00045
  10
-5.19634411427347
  20
42.33333341666665
  0
POLYLINE
  8
Unknown Area Type
  70
9
  66
1
  0
VERTEX
  8
Unknown Area Type
  70
32
  10
-5.18749999999999
  20
42.33333349999998
  30
817.453
  0
VERTEX
  8
Unknown Area Type
  70
32
  10
-5.18749966666666
  20
42.33333349999998
  30
817.453
  0
VERTEX
  8
Unknown Area Type
  70
32
  10
-5.18749966666666
  20
42.33333333333331
  30
817.453
  0
VERTEX
  8
Unknown Area Type
  70
32
  10
-5.18749999999999
  20
42.33333333333331
  30
817.453
  0
SEQEND
  8
Unknown Area Type
  0
TEXT
  8
Unknown Area Type
 62
7
  1
PNOA-H_AMS_1956-57_33k_ES_PAN_2
 40
0.00045
  10
-5.18749983333333
  20
42.33333341666665
  0
POLYLINE
  8
Unknown Area Type
  70
9
  66
1
  0
VERTEX
  8
Unknown Area Type
  70
32
  10
-5.20518822269572
  20
42.33333333333331
  30
820.834
  0
VERTEX
  8
Unknown Area Type
  70
32
  10
-5.18749999999999
  20
42.33333333333331
  30
817.453
  0
VERTEX
  8
Unknown Area Type
  70
32
  10
-5.18749999999999
  20
42.3125
  30
798.754
  0
VERTEX
  8
Unknown Area Type
  70
32
  10
-5.18749999999999
  20
42.29884515501769
  30
797.261
  0
VERTEX
  8
Unknown Area Type
  70
32
  10
-5.20410247079731
  20
42.30240670461784
  30
806.11
  0
SEQEND
  8
Unknown Area Type
  0
TEXT
  8
Unknown Area Type
 62
7
  1
PNOA-H_AMS_1956-57_33k_ES_PAN_2
 40
0.00045
  10
-5.19634411134786
  20
42.3160892441755
  0
POLYLINE
  8
Unknown Area Type
  70
9
  66
1
  0
VERTEX
  8
Unknown Area Type
  70
32
  10
-5.18749999999999
  20
42.3125
  30
798.754
  0
VERTEX
  8
Unknown Area Type
  70
32
  10
-5.18749999999999
  20
42.33333333333331
  30
817.453
  0
VERTEX
  8
Unknown Area Type
  70
32
  10
-5.18749966666666
  20
42.33333333333331
  30
817.453
  0
VERTEX
  8
Unknown Area Type
  70
32
  10
-5.18749966666666
  20
42.29884508351127
  30
797.261
  0
VERTEX
  8
Unknown Area Type
  70
32
  10
-5.18749999999999
  20
42.29884515501769
  30
797.261
  0
SEQEND
  8
Unknown Area Type
  0
TEXT
  8
Unknown Area Type
 62
7
  1
PNOA-H_AMS_1956-57_33k_ES_PAN_2
 40
0.00045
  10
-5.18749983333333
  20
42.31608920842229
  0
POLYLINE
  8
Unknown Area Type
  70
9
  66
1
  0
VERTEX
  8
Unknown Area Type
  70
32
  10
-5.20674177640957
  20
42.26838689310787
  30
791.323
  0
VERTEX
  8
Unknown Area Type
  70
32
  10
-5.2067360320537
  20
42.26839600928613
  30
791.285
  0
VERTEX
  8
Unknown Area Type
  70
32
  10
-5.18749999999999
  20
42.28347980189064
  30
798.143
  0
VERTEX
  8
Unknown Area Type
  70
32
  10
-5.18749999999999
  20
42.27083333333337
  30
795.954
  0
VERTEX
  8
Unknown Area Type
  70
32
  10
-5.18749999999999
  20
42.25587185780788
  30
778.302
  0
VERTEX
  8
Unknown Area Type
  70
32
  10
-5.19462029647698
  20
42.25485901592551
  30
778.081
  0
VERTEX
  8
Unknown Area Type
  70
32
  10
-5.21447695567782
  20
42.26231204422289
  30
785.185
  0
SEQEND
  8
Unknown Area Type
  0
TEXT
  8
Unknown Area Type
 62
7
  1
PNOA-H_AMS_1956-57_33k_ES_PAN_2
 40
0.00045
  10
-5.20098847783891
  20
42.26916940890807
  0
POLYLINE
  8
Unknown Area Type
  70
9
  66
1
  0
VERTEX
  8
Unknown Area Type
  70
32
  10
-5.20674177640957
  20
42.26838689310787
  30
791.323
  0
VERTEX
  8
Unknown Area Type
  70
32
  10
-5.2067360320537
  20
42.26839600928613
  30
791.285
  0
VERTEX
  8
Unknown Area Type
  70
32
  10
-5.18749999999999
  20
42.28347980189064
  30
798.143
  0
VERTEX
  8
Unknown Area Type
  70
32
  10
-5.18749999999999
  20
42.27083333333337
  30
795.954
  0
VERTEX
  8
Unknown Area Type
  70
32
  10
-5.18749999999999
  20
42.25587185780788
  30
778.302
  0
VERTEX
  8
Unknown Area Type
  70
32
  10
-5.19462029647698
  20
42.25485901592551
  30
778.081
  0
VERTEX
  8
Unknown Area Type
  70
32
  10
-5.21447695567782
  20
42.26231204422289
  30
785.185
  0
SEQEND
  8
Unknown Area Type
  0
TEXT
  8
Unknown Area Type
 62
7
  1
PNOA-H_AMS_1956-57_33k_ES_PAN_2
 40
0.00045
  10
-5.20098847783891
  20
42.26916940890807
  0
POLYLINE
  8
Unknown Area Type
  70
9
  66
1
  0
VERTEX
  8
Unknown Area Type
  70
32
  10
-5.18749999999999
  20
42.27083333333337
  30
795.954
  0
VERTEX
  8
Unknown Area Type
  70
32
  10
-5.18749999999999
  20
42.28347980189064
  30
798.143
  0
VERTEX
  8
Unknown Area Type
  70
32
  10
-5.18749966666666
  20
42.28348006327151
  30
798.144
  0
VERTEX
  8
Unknown Area Type
  70
32
  10
-5.18749966666666
  20
42.25587190522359
  30
778.302
  0
VERTEX
  8
Unknown Area Type
  70
32
  10
-5.18749999999999
  20
42.25587185780788
  30
778.302
  0
SEQEND
  8
Unknown Area Type
  0
TEXT
  8
Unknown Area Type
 62
7
  1
PNOA-H_AMS_1956-57_33k_ES_PAN_2
 40
0.00045
  10
-5.18749983333333
  20
42.26967596053969
  0
POLYLINE
  8
Unknown Area Type
  70
9
  66
1
  0
VERTEX
  8
Unknown Area Type
  70
32
  10
-5.52083333333329
  20
42.33333333333331
  30
757.375
  0
VERTEX
  8
Unknown Area Type
  70
32
  10
-5.51430710387314
  20
42.33333333333331
  30
758.637
  0
VERTEX
  8
Unknown Area Type
  70
32
  10
-5.52083333333329
  20
42.32144228735989
  30
753.182
  0
SEQEND
  8
Unknown Area Type
  0
TEXT
  8
Unknown Area Type
 62
7
  1
PNOA-H_AMS_1956-57_33k_ES_PAN_2
 40
0.00045
  10
-5.51757021860322
  20
42.3273878103466
  0
POLYLINE
  8
Unknown Area Type
  70
9
  66
1
  0
VERTEX
  8
Unknown Area Type
  70
32
  10
-5.52083366666662
  20
42.33333349999998
  30
757.374
  0
VERTEX
  8
Unknown Area Type
  70
32
  10
-5.52083333333329
  20
42.33333349999998
  30
757.375
  0
VERTEX
  8
Unknown Area Type
  70
32
  10
-5.52083333333329
  20
42.33333333333331
  30
757.375
  0
VERTEX
  8
Unknown Area Type
  70
32
  10
-5.52083366666662
  20
42.33333333333331
  30
757.374
  0
SEQEND
  8
Unknown Area Type
  0
TEXT
  8
Unknown Area Type
 62
7
  1
PNOA-H_AMS_1956-57_33k_ES_PAN_2
 40
0.00045
  10
-5.52083349999996
  20
42.33333341666665
  0
POLYLINE
  8
Unknown Area Type
  70
9
  66
1
  0
VERTEX
  8
Unknown Area Type
  70
32
  10
-5.52083333333329
  20
42.33333349999998
  30
757.375
  0
VERTEX
  8
Unknown Area Type
  70
32
  10
-5.51430701240054
  20
42.33333349999998
  30
758.637
  0
VERTEX
  8
Unknown Area Type
  70
32
  10
-5.51430710387314
  20
42.33333333333331
  30
758.637
  0
VERTEX
  8
Unknown Area Type
  70
32
  10
-5.52083333333329
  20
42.33333333333331
  30
757.375
  0
SEQEND
  8
Unknown Area Type
  0
TEXT
  8
Unknown Area Type
 62
7
  1
PNOA-H_AMS_1956-57_33k_ES_PAN_2
 40
0.00045
  10
-5.51757017286692
  20
42.33333341666665
  0
POLYLINE
  8
Unknown Area Type
  70
9
  66
1
  0
VERTEX
  8
Unknown Area Type
  70
32
  10
-5.52083366666662
  20
42.33333333333331
  30
757.374
  0
VERTEX
  8
Unknown Area Type
  70
32
  10
-5.52083333333329
  20
42.33333333333331
  30
757.375
  0
VERTEX
  8
Unknown Area Type
  70
32
  10
-5.52083333333329
  20
42.32144228735989
  30
753.182
  0
VERTEX
  8
Unknown Area Type
  70
32
  10
-5.52083366666662
  20
42.32144168001348
  30
753.182
  0
SEQEND
  8
Unknown Area Type
  0
TEXT
  8
Unknown Area Type
 62
7
  1
PNOA-H_AMS_1956-57_33k_ES_PAN_2
 40
0.00045
  10
-5.52083349999996
  20
42.3273875066734
  0
POLYLINE
  8
Unknown Area Type
  70
9
  66
1
  0
VERTEX
  8
Unknown Area Type
  70
32
  10
-5.52083333333329
  20
42.33333333333331
  30
757.375
  0
VERTEX
  8
Unknown Area Type
  70
32
  10
-5.51430710387314
  20
42.33333333333331
  30
758.637
  0
VERTEX
  8
Unknown Area Type
  70
32
  10
-5.52083333333329
  20
42.32144228735989
  30
753.182
  0
SEQEND
  8
Unknown Area Type
  0
TEXT
  8
Unknown Area Type
 62
7
  1
PNOA-H_AMS_1956-57_33k_ES_PAN_2
 40
0.00045
  10
-5.51757021860322
  20
42.3273878103466
  0
POLYLINE
  8
Unknown Area Type
  70
9
  66
1
  0
VERTEX
  8
Unknown Area Type
  70
32
  10
-5.21945506534866
  20
42.29723395064635
  30
817.765
  0
VERTEX
  8
Unknown Area Type
  70
32
  10
-5.2041326221318
  20
42.30240162204647
  30
806.196
  0
VERTEX
  8
Unknown Area Type
  70
32
  10
-5.20412065581256
  20
42.30240635493036
  30
806.175
  0
VERTEX
  8
Unknown Area Type
  70
32
  10
-5.20394376824393
  20
42.30237823681675
  30
806.663
  0
VERTEX
  8
Unknown Area Type
  70
32
  10
-5.18749999999999
  20
42.2988473440827
  30
797.39
  0
VERTEX
  8
Unknown Area Type
  70
32
  10
-5.18749999999999
  20
42.29166666666669
  30
797.603
  0
VERTEX
  8
Unknown Area Type
  70
32
  10
-5.18749999999999
  20
42.28347863551362
  30
797.737
  0
VERTEX
  8
Unknown Area Type
  70
32
  10
-5.21447711321723
  20
42.26231654398034
  30
785.261
  0
VERTEX
  8
Unknown Area Type
  70
32
  10
-5.21831213425495
  20
42.26277372720389
  30
784.363
  0
SEQEND
  8
Unknown Area Type
  0
TEXT
  8
Unknown Area Type
 62
7
  1
PNOA-H_AMS_1956-57_33k_ES_PAN_2
 40
0.00045
  10
-5.20394267389894
  20
42.28236049123173
  0
POLYLINE
  8
Unknown Area Type
  70
9
  66
1
  0
VERTEX
  8
Unknown Area Type
  70
32
  10
-5.21945506534866
  20
42.29723395064635
  30
817.765
  0
VERTEX
  8
Unknown Area Type
  70
32
  10
-5.2041326221318
  20
42.30240162204647
  30
806.196
  0
VERTEX
  8
Unknown Area Type
  70
32
  10
-5.20412065581256
  20
42.30240635493036
  30
806.175
  0
VERTEX
  8
Unknown Area Type
  70
32
  10
-5.20394376824393
  20
42.30237823681675
  30
806.663
  0
VERTEX
  8
Unknown Area Type
  70
32
  10
-5.18749999999999
  20
42.2988473440827
  30
797.39
  0
VERTEX
  8
Unknown Area Type
  70
32
  10
-5.18749999999999
  20
42.29166666666669
  30
797.603
  0
VERTEX
  8
Unknown Area Type
  70
32
  10
-5.18749999999999
  20
42.28347863551362
  30
797.737
  0
VERTEX
  8
Unknown Area Type
  70
32
  10
-5.21447711321723
  20
42.26231654398034
  30
785.261
  0
VERTEX
  8
Unknown Area Type
  70
32
  10
-5.21831213425495
  20
42.26277372720389
  30
784.363
  0
SEQEND
  8
Unknown Area Type
  0
TEXT
  8
Unknown Area Type
 62
7
  1
PNOA-H_AMS_1956-57_33k_ES_PAN_2
 40
0.00045
  10
-5.20394267389894
  20
42.28236049123173
  0
POLYLINE
  8
Unknown Area Type
  70
9
  66
1
  0
VERTEX
  8
Unknown Area Type
  70
32
  10
-5.18749999999999
  20
42.29166666666669
  30
797.603
  0
VERTEX
  8
Unknown Area Type
  70
32
  10
-5.18749999999999
  20
42.2988473440827
  30
797.39
  0
VERTEX
  8
Unknown Area Type
  70
32
  10
-5.18749966666666
  20
42.2988472725076
  30
797.39
  0
VERTEX
  8
Unknown Area Type
  70
32
  10
-5.18749966666666
  20
42.28347889699566
  30
797.737
  0
VERTEX
  8
Unknown Area Type
  70
32
  10
-5.18749999999999
  20
42.28347863551362
  30
797.737
  0
SEQEND
  8
Unknown Area Type
  0
TEXT
  8
Unknown Area Type
 62
7
  1
PNOA-H_AMS_1956-57_33k_ES_PAN_2
 40
0.00045
  10
-5.18749983333333
  20
42.29116298979816
  0
POLYLINE
  8
Unknown Area Type
  70
9
  66
1
  0
VERTEX
  8
Unknown Area Type
  70
32
  10
-5.23269432019519
  20
42.30046197703
  30
831.345
  0
VERTEX
  8
Unknown Area Type
  70
32
  10
-5.21945506534866
  20
42.29723395064635
  30
817.765
  0
VERTEX
  8
Unknown Area Type
  70
32
  10
-5.21831213425495
  20
42.26277372720389
  30
784.363
  0
VERTEX
  8
Unknown Area Type
  70
32
  10
-5.22598554613409
  20
42.2601619515861
  30
797.183
  0
VERTEX
  8
Unknown Area Type
  70
32
  10
-5.25443471330534
  20
42.26276245283088
  30
775.813
  0
VERTEX
  8
Unknown Area Type
  70
32
  10
-5.25557888566743
  20
42.29619557923723
  30
779.528
  0
VERTEX
  8
Unknown Area Type
  70
32
  10
-5.23780321393718
  20
42.30170867491888
  30
833.449
  0
VERTEX
  8
Unknown Area Type
  70
32
  10
-5.2327187247151
  20
42.30046600442335
  30
831.385
  0
VERTEX
  8
Unknown Area Type
  70
32
  10
-5.23269432019519
  20
42.30046197703
  30
831.345
  0
SEQEND
  8
Unknown Area Type
  0
TEXT
  8
Unknown Area Type
 62
7
  1
PNOA-H_AMS_1956-57_33k_ES_PAN_2
 40
0.00045
  10
-5.23694569385438
  20
42.28132977584018
  0
POLYLINE
  8
Unknown Area Type
  70
9
  66
1
  0
VERTEX
  8
Unknown Area Type
  70
32
  10
-5.23269432019519
  20
42.30046197703
  30
831.345
  0
VERTEX
  8
Unknown Area Type
  70
32
  10
-5.21945506534866
  20
42.29723395064635
  30
817.765
  0
VERTEX
  8
Unknown Area Type
  70
32
  10
-5.21831213425495
  20
42.26277372720389
  30
784.363
  0
VERTEX
  8
Unknown Area Type
  70
32
  10
-5.22598554613409
  20
42.2601619515861
  30
797.183
  0
VERTEX
  8
Unknown Area Type
  70
32
  10
-5.25443471330534
  20
42.26276245283088
  30
775.813
  0
VERTEX
  8
Unknown Area Type
  70
32
  10
-5.25557888566743
  20
42.29619557923723
  30
779.528
  0
VERTEX
  8
Unknown Area Type
  70
32
  10
-5.23780321393718
  20
42.30170867491888
  30
833.449
  0
VERTEX
  8
Unknown Area Type
  70
32
  10
-5.2327187247151
  20
42.30046600442335
  30
831.385
  0
VERTEX
  8
Unknown Area Type
  70
32
  10
-5.23269432019519
  20
42.30046197703
  30
831.345
  0
SEQEND
  8
Unknown Area Type
  0
TEXT
  8
Unknown Area Type
 62
7
  1
PNOA-H_AMS_1956-57_33k_ES_PAN_2
 40
0.00045
  10
-5.23694569385438
  20
42.28132977584018
  0
POLYLINE
  8
Unknown Area Type
  70
9
  66
1
  0
VERTEX
  8
Unknown Area Type
  70
32
  10
-5.35286971695503
  20
42.33333333333331
  30
840.375
  0
VERTEX
  8
Unknown Area Type
  70
32
  10
-5.33706951471628
  20
42.33333333333331
  30
837.462
  0
VERTEX
  8
Unknown Area Type
  70
32
  10
-5.33644301331325
  20
42.3135232569126
  30
870.856
  0
VERTEX
  8
Unknown Area Type
  70
32
  10
-5.33642486398006
  20
42.31303282928648
  30
867.682
  0
VERTEX
  8
Unknown Area Type
  70
32
  10
-5.33600782926442
  20
42.29995638217043
  30
849.158
  0
VERTEX
  8
Unknown Area Type
  70
32
  10
-5.35234481822558
  20
42.29856410614501
  30
868.734
  0
SEQEND
  8
Unknown Area Type
  0
TEXT
  8
Unknown Area Type
 62
7
  1
PNOA-H_AMS_1956-57_33k_ES_PAN_2
 40
0.00045
  10
-5.34446760697059
  20
42.31787994659656
  0
POLYLINE
  8
Unknown Area Type
  70
9
  66
1
  0
VERTEX
  8
Unknown Area Type
  70
32
  10
-5.35286971947114
  20
42.33333349999998
  30
840.375
  0
VERTEX
  8
Unknown Area Type
  70
32
  10
-5.33706951998718
  20
42.33333349999998
  30
837.461
  0
VERTEX
  8
Unknown Area Type
  70
32
  10
-5.33706951471628
  20
42.33333333333331
  30
837.462
  0
VERTEX
  8
Unknown Area Type
  70
32
  10
-5.35286971695503
  20
42.33333333333331
  30
840.375
  0
SEQEND
  8
Unknown Area Type
  0
TEXT
  8
Unknown Area Type
 62
7
  1
PNOA-H_AMS_1956-57_33k_ES_PAN_2
 40
0.00045
  10
-5.34496961709371
  20
42.33333341666665
  0
POLYLINE
  8
Unknown Area Type
  70
9
  66
1
  0
VERTEX
  8
Unknown Area Type
  70
32
  10
-5.35286971695503
  20
42.33333333333331
  30
840.375
  0
VERTEX
  8
Unknown Area Type
  70
32
  10
-5.33706951471628
  20
42.33333333333331
  30
837.462
  0
VERTEX
  8
Unknown Area Type
  70
32
  10
-5.33644301331325
  20
42.3135232569126
  30
870.856
  0
VERTEX
  8
Unknown Area Type
  70
32
  10
-5.33642486398006
  20
42.31303282928648
  30
867.682
  0
VERTEX
  8
Unknown Area Type
  70
32
  10
-5.33600782926442
  20
42.29995638217043
  30
849.158
  0
VERTEX
  8
Unknown Area Type
  70
32
  10
-5.35234481822558
  20
42.29856410614501
  30
868.734
  0
SEQEND
  8
Unknown Area Type
  0
TEXT
  8
Unknown Area Type
 62
7
  1
PNOA-H_AMS_1956-57_33k_ES_PAN_2
 40
0.00045
  10
-5.34446760697059
  20
42.31787994659656
  0
POLYLINE
  8
Unknown Area Type
  70
9
  66
1
  0
VERTEX
  8
Unknown Area Type
  70
32
  10
-5.30264843878695
  20
42.29964082333876
  30
827.59
  0
VERTEX
  8
Unknown Area Type
  70
32
  10
-5.30258176783444
  20
42.2996421627278
  30
827.494
  0
VERTEX
  8
Unknown Area Type
  70
32
  10
-5.30240403087284
  20
42.29959170019604
  30
827.591
  0
VERTEX
  8
Unknown Area Type
  70
32
  10
-5.29123403077883
  20
42.29631689504919
  30
807.907
  0
VERTEX
  8
Unknown Area Type
  70
32
  10
-5.29009720901594
  20
42.26193397187183
  30
822.15
  0
VERTEX
  8
Unknown Area Type
  70
32
  10
-5.29377163538539
  20
42.26028903652114
  30
824.118
  0
VERTEX
  8
Unknown Area Type
  70
32
  10
-5.32550999502428
  20
42.26126605502337
  30
827.864
  0
VERTEX
  8
Unknown Area Type
  70
32
  10
-5.32644128014986
  20
42.29712061446126
  30
842.884
  0
VERTEX
  8
Unknown Area Type
  70
32
  10
-5.32473919511293
  20
42.29751086666973
  30
842.889
  0
VERTEX
  8
Unknown Area Type
  70
32
  10
-5.30270282371797
  20
42.29963522799193
  30
827.669
  0
VERTEX
  8
Unknown Area Type
  70
32
  10
-5.30264843878695
  20
42.29964082333876
  30
827.59
  0
SEQEND
  8
Unknown Area Type
  0
TEXT
  8
Unknown Area Type
 62
7
  1
PNOA-H_AMS_1956-57_33k_ES_PAN_2
 40
0.00045
  10
-5.30826926986118
  20
42.27991583341949
  0
POLYLINE
  8
Unknown Area Type
  70
9
  66
1
  0
VERTEX
  8
Unknown Area Type
  70
32
  10
-5.30264843878695
  20
42.29964082333876
  30
827.59
  0
VERTEX
  8
Unknown Area Type
  70
32
  10
-5.30258176783444
  20
42.2996421627278
  30
827.494
  0
VERTEX
  8
Unknown Area Type
  70
32
  10
-5.30240403087284
  20
42.29959170019604
  30
827.591
  0
VERTEX
  8
Unknown Area Type
  70
32
  10
-5.29123403077883
  20
42.29631689504919
  30
807.907
  0
VERTEX
  8
Unknown Area Type
  70
32
  10
-5.29009720901594
  20
42.26193397187183
  30
822.15
  0
VERTEX
  8
Unknown Area Type
  70
32
  10
-5.29377163538539
  20
42.26028903652114
  30
824.118
  0
VERTEX
  8
Unknown Area Type
  70
32
  10
-5.32550999502428
  20
42.26126605502337
  30
827.864
  0
VERTEX
  8
Unknown Area Type
  70
32
  10
-5.32644128014986
  20
42.29712061446126
  30
842.884
  0
VERTEX
  8
Unknown Area Type
  70
32
  10
-5.32473919511293
  20
42.29751086666973
  30
842.889
  0
VERTEX
  8
Unknown Area Type
  70
32
  10
-5.30270282371797
  20
42.29963522799193
  30
827.669
  0
VERTEX
  8
Unknown Area Type
  70
32
  10
-5.30264843878695
  20
42.29964082333876
  30
827.59
  0
SEQEND
  8
Unknown Area Type
  0
TEXT
  8
Unknown Area Type
 62
7
  1
PNOA-H_AMS_1956-57_33k_ES_PAN_2
 40
0.00045
  10
-5.30826926986118
  20
42.27991583341949
  0
POLYLINE
  8
Unknown Area Type
  70
9
  66
1
  0
VERTEX
  8
Unknown Area Type
  70
32
  10
-5.36997349406379
  20
42.29993449190641
  30
861.193
  0
VERTEX
  8
Unknown Area Type
  70
32
  10
-5.3612137900612
  20
42.29698138737854
  30
850.865
  0
VERTEX
  8
Unknown Area Type
  70
32
  10
-5.36098508831294
  20
42.26131535081014
  30
833.807
  0
VERTEX
  8
Unknown Area Type
  70
32
  10
-5.36102698395503
  20
42.26130097961371
  30
833.876
  0
VERTEX
  8
Unknown Area Type
  70
32
  10
-5.38966354163642
  20
42.2594017687581
  30
824.612
  0
VERTEX
  8
Unknown Area Type
  70
32
  10
-5.39580608351729
  20
42.26170052961753
  30
851.596
  0
VERTEX
  8
Unknown Area Type
  70
32
  10
-5.39606359427451
  20
42.29680746833765
  30
864.237
  0
VERTEX
  8
Unknown Area Type
  70
32
  10
-5.38797868403742
  20
42.29808837582839
  30
872.493
  0
VERTEX
  8
Unknown Area Type
  70
32
  10
-5.37002787183316
  20
42.29992886474614
  30
861.325
  0
VERTEX
  8
Unknown Area Type
  70
32
  10
-5.36997349406379
  20
42.29993449190641
  30
861.193
  0
SEQEND
  8
Unknown Area Type
  0
TEXT
  8
Unknown Area Type
 62
7
  1
PNOA-H_AMS_1956-57_33k_ES_PAN_2
 40
0.00045
  10
-5.37852438848886
  20
42.27959800898648
  0
POLYLINE
  8
Unknown Area Type
  70
9
  66
1
  0
VERTEX
  8
Unknown Area Type
  70
32
  10
-5.36997349406379
  20
42.29993449190641
  30
861.193
  0
VERTEX
  8
Unknown Area Type
  70
32
  10
-5.3612137900612
  20
42.29698138737854
  30
850.865
  0
VERTEX
  8
Unknown Area Type
  70
32
  10
-5.36098508831294
  20
42.26131535081014
  30
833.807
  0
VERTEX
  8
Unknown Area Type
  70
32
  10
-5.36102698395503
  20
42.26130097961371
  30
833.876
  0
VERTEX
  8
Unknown Area Type
  70
32
  10
-5.38966354163642
  20
42.2594017687581
  30
824.612
  0
VERTEX
  8
Unknown Area Type
  70
32
  10
-5.39580608351729
  20
42.26170052961753
  30
851.596
  0
VERTEX
  8
Unknown Area Type
  70
32
  10
-5.39606359427451
  20
42.29680746833765
  30
864.237
  0
VERTEX
  8
Unknown Area Type
  70
32
  10
-5.38797868403742
  20
42.29808837582839
  30
872.493
  0
VERTEX
  8
Unknown Area Type
  70
32
  10
-5.37002787183316
  20
42.29992886474614
  30
861.325
  0
VERTEX
  8
Unknown Area Type
  70
32
  10
-5.36997349406379
  20
42.29993449190641
  30
861.193
  0
SEQEND
  8
Unknown Area Type
  0
TEXT
  8
Unknown Area Type
 62
7
  1
PNOA-H_AMS_1956-57_33k_ES_PAN_2
 40
0.00045
  10
-5.37852438848886
  20
42.27959800898648
  0
POLYLINE
  8
Unknown Area Type
  70
9
  66
1
  0
VERTEX
  8
Unknown Area Type
  70
32
  10
-5.35682759622783
  20
42.29776508534525
  30
856.507
  0
VERTEX
  8
Unknown Area Type
  70
32
  10
-5.35235087890368
  20
42.29856398175649
  30
868.742
  0
VERTEX
  8
Unknown Area Type
  70
32
  10
-5.33600176838188
  20
42.29995650569849
  30
849.186
  0
VERTEX
  8
Unknown Area Type
  70
32
  10
-5.32644128014986
  20
42.29712061446126
  30
842.884
  0
VERTEX
  8
Unknown Area Type
  70
32
  10
-5.3255123746636
  20
42.26149564791072
  30
829.018
  0
VERTEX
  8
Unknown Area Type
  70
32
  10
-5.3255098295962
  20
42.26126155561143
  30
827.838
  0
VERTEX
  8
Unknown Area Type
  70
32
  10
-5.32565288674505
  20
42.261195614568
  30
827.878
  0
VERTEX
  8
Unknown Area Type
  70
32
  10
-5.35937195190209
  20
42.26064613477632
  30
830.276
  0
VERTEX
  8
Unknown Area Type
  70
32
  10
-5.36099080948298
  20
42.26130622745811
  30
833.804
  0
VERTEX
  8
Unknown Area Type
  70
32
  10
-5.3612137900612
  20
42.29698138737854
  30
850.865
  0
VERTEX
  8
Unknown Area Type
  70
32
  10
-5.35685773126602
  20
42.29775996294202
  30
856.415
  0
VERTEX
  8
Unknown Area Type
  70
32
  10
-5.35682759622783
  20
42.29776508534525
  30
856.507
  0
SEQEND
  8
Unknown Area Type
  0
TEXT
  8
Unknown Area Type
 62
7
  1
PNOA-H_AMS_1956-57_33k_ES_PAN_2
 40
0.00045
  10
-5.34336179781762
  20
42.28011666120342
  0
POLYLINE
  8
Unknown Area Type
  70
9
  66
1
  0
VERTEX
  8
Unknown Area Type
  70
32
  10
-5.35682759622783
  20
42.29776508534525
  30
856.507
  0
VERTEX
  8
Unknown Area Type
  70
32
  10
-5.35235087890368
  20
42.29856398175649
  30
868.742
  0
VERTEX
  8
Unknown Area Type
  70
32
  10
-5.33600176838188
  20
42.29995650569849
  30
849.186
  0
VERTEX
  8
Unknown Area Type
  70
32
  10
-5.32644128014986
  20
42.29712061446126
  30
842.884
  0
VERTEX
  8
Unknown Area Type
  70
32
  10
-5.3255123746636
  20
42.26149564791072
  30
829.018
  0
VERTEX
  8
Unknown Area Type
  70
32
  10
-5.3255098295962
  20
42.26126155561143
  30
827.838
  0
VERTEX
  8
Unknown Area Type
  70
32
  10
-5.32565288674505
  20
42.261195614568
  30
827.878
  0
VERTEX
  8
Unknown Area Type
  70
32
  10
-5.35937195190209
  20
42.26064613477632
  30
830.276
  0
VERTEX
  8
Unknown Area Type
  70
32
  10
-5.36099080948298
  20
42.26130622745811
  30
833.804
  0
VERTEX
  8
Unknown Area Type
  70
32
  10
-5.3612137900612
  20
42.29698138737854
  30
850.865
  0
VERTEX
  8
Unknown Area Type
  70
32
  10
-5.35685773126602
  20
42.29775996294202
  30
856.415
  0
VERTEX
  8
Unknown Area Type
  70
32
  10
-5.35682759622783
  20
42.29776508534525
  30
856.507
  0
SEQEND
  8
Unknown Area Type
  0
TEXT
  8
Unknown Area Type
 62
7
  1
PNOA-H_AMS_1956-57_33k_ES_PAN_2
 40
0.00045
  10
-5.34336179781762
  20
42.28011666120342
  0
POLYLINE
  8
Unknown Area Type
  70
9
  66
1
  0
VERTEX
  8
Unknown Area Type
  70
32
  10
-5.28233018724644
  20
42.29866036226153
  30
806.076
  0
VERTEX
  8
Unknown Area Type
  70
32
  10
-5.2729569267775
  20
42.3011250176426
  30
790.343
  0
VERTEX
  8
Unknown Area Type
  70
32
  10
-5.25557888566743
  20
42.29619557923723
  30
779.528
  0
VERTEX
  8
Unknown Area Type
  70
32
  10
-5.25443471330534
  20
42.26276245283088
  30
775.813
  0
VERTEX
  8
Unknown Area Type
  70
32
  10
-5.25928269584216
  20
42.26085238428626
  30
792.885
  0
VERTEX
  8
Unknown Area Type
  70
32
  10
-5.29009720901594
  20
42.26193397187183
  30
822.15
  0
VERTEX
  8
Unknown Area Type
  70
32
  10
-5.29123403077883
  20
42.29631689504919
  30
807.907
  0
VERTEX
  8
Unknown Area Type
  70
32
  10
-5.28234820763725
  20
42.29865550067608
  30
806.07
  0
VERTEX
  8
Unknown Area Type
  70
32
  10
-5.28233018724644
  20
42.29866036226153
  30
806.076
  0
SEQEND
  8
Unknown Area Type
  0
TEXT
  8
Unknown Area Type
 62
7
  1
PNOA-H_AMS_1956-57_33k_ES_PAN_2
 40
0.00045
  10
-5.27283453067767
  20
42.28120771529963
  0
POLYLINE
  8
Unknown Area Type
  70
9
  66
1
  0
VERTEX
  8
Unknown Area Type
  70
32
  10
-5.28233018724644
  20
42.29866036226153
  30
806.076
  0
VERTEX
  8
Unknown Area Type
  70
32
  10
-5.2729569267775
  20
42.3011250176426
  30
790.343
  0
VERTEX
  8
Unknown Area Type
  70
32
  10
-5.25557888566743
  20
42.29619557923723
  30
779.528
  0
VERTEX
  8
Unknown Area Type
  70
32
  10
-5.25443471330534
  20
42.26276245283088
  30
775.813
  0
VERTEX
  8
Unknown Area Type
  70
32
  10
-5.25928269584216
  20
42.26085238428626
  30
792.885
  0
VERTEX
  8
Unknown Area Type
  70
32
  10
-5.29009720901594
  20
42.26193397187183
  30
822.15
  0
VERTEX
  8
Unknown Area Type
  70
32
  10
-5.29123403077883
  20
42.29631689504919
  30
807.907
  0
VERTEX
  8
Unknown Area Type
  70
32
  10
-5.28234820763725
  20
42.29865550067608
  30
806.07
  0
VERTEX
  8
Unknown Area Type
  70
32
  10
-5.28233018724644
  20
42.29866036226153
  30
806.076
  0
SEQEND
  8
Unknown Area Type
  0
TEXT
  8
Unknown Area Type
 62
7
  1
PNOA-H_AMS_1956-57_33k_ES_PAN_2
 40
0.00045
  10
-5.27283453067767
  20
42.28120771529963
  0
POLYLINE
  8
Unknown Area Type
  70
9
  66
1
  0
VERTEX
  8
Unknown Area Type
  70
32
  10
-5.43708287220079
  20
42.29918904129959
  30
880.795
  0
VERTEX
  8
Unknown Area Type
  70
32
  10
-5.43697984603335
  20
42.29919123201042
  30
880.584
  0
VERTEX
  8
Unknown Area Type
  70
32
  10
-5.43140964747046
  20
42.29692760268118
  30
879.821
  0
VERTEX
  8
Unknown Area Type
  70
32
  10
-5.43047146274813
  20
42.26133996576016
  30
822.048
  0
VERTEX
  8
Unknown Area Type
  70
32
  10
-5.45624264122613
  20
42.25798091774681
  30
851.832
  0
VERTEX
  8
Unknown Area Type
  70
32
  10
-5.45631584128688
  20
42.2579928573323
  30
851.675
  0
VERTEX
  8
Unknown Area Type
  70
32
  10
-5.46749818397997
  20
42.26154397538599
  30
809.859
  0
VERTEX
  8
Unknown Area Type
  70
32
  10
-5.46498262072258
  20
42.29761529332589
  30
815.442
  0
VERTEX
  8
Unknown Area Type
  70
32
  10
-5.4372099662039
  20
42.29918183598313
  30
881.086
  0
VERTEX
  8
Unknown Area Type
  70
32
  10
-5.43708287220079
  20
42.29918904129959
  30
880.795
  0
SEQEND
  8
Unknown Area Type
  0
TEXT
  8
Unknown Area Type
 62
7
  1
PNOA-H_AMS_1956-57_33k_ES_PAN_2
 40
0.00045
  10
-5.44898513233889
  20
42.27872089125644
  0
POLYLINE
  8
Unknown Area Type
  70
9
  66
1
  0
VERTEX
  8
Unknown Area Type
  70
32
  10
-5.43708287220079
  20
42.29918904129959
  30
880.795
  0
VERTEX
  8
Unknown Area Type
  70
32
  10
-5.43697984603335
  20
42.29919123201042
  30
880.584
  0
VERTEX
  8
Unknown Area Type
  70
32
  10
-5.43140964747046
  20
42.29692760268118
  30
879.821
  0
VERTEX
  8
Unknown Area Type
  70
32
  10
-5.43047146274813
  20
42.26133996576016
  30
822.048
  0
VERTEX
  8
Unknown Area Type
  70
32
  10
-5.45624264122613
  20
42.25798091774681
  30
851.832
  0
VERTEX
  8
Unknown Area Type
  70
32
  10
-5.45631584128688
  20
42.2579928573323
  30
851.675
  0
VERTEX
  8
Unknown Area Type
  70
32
  10
-5.46749818397997
  20
42.26154397538599
  30
809.859
  0
VERTEX
  8
Unknown Area Type
  70
32
  10
-5.46498262072258
  20
42.29761529332589
  30
815.442
  0
VERTEX
  8
Unknown Area Type
  70
32
  10
-5.4372099662039
  20
42.29918183598313
  30
881.086
  0
VERTEX
  8
Unknown Area Type
  70
32
  10
-5.43708287220079
  20
42.29918904129959
  30
880.795
  0
SEQEND
  8
Unknown Area Type
  0
TEXT
  8
Unknown Area Type
 62
7
  1
PNOA-H_AMS_1956-57_33k_ES_PAN_2
 40
0.00045
  10
-5.44898513233889
  20
42.27872089125644
  0
POLYLINE
  8
Unknown Area Type
  70
9
  66
1
  0
VERTEX
  8
Unknown Area Type
  70
32
  10
-5.3247580395411
  20
42.29752849543068
  30
842.878
  0
VERTEX
  8
Unknown Area Type
  70
32
  10
-5.31439824421611
  20
42.33333333333331
  30
818.259
  0
VERTEX
  8
Unknown Area Type
  70
32
  10
-5.31249999999997
  20
42.33333333333331
  30
817.91
  0
VERTEX
  8
Unknown Area Type
  70
32
  10
-5.30149009256473
  20
42.33333333333331
  30
814.831
  0
VERTEX
  8
Unknown Area Type
  70
32
  10
-5.30259388982615
  20
42.2996419192054
  30
827.52
  0
VERTEX
  8
Unknown Area Type
  70
32
  10
-5.3247390295297
  20
42.29750636728384
  30
842.896
  0
VERTEX
  8
Unknown Area Type
  70
32
  10
-5.32475721161808
  20
42.29750599850161
  30
842.91
  0
SEQEND
  8
Unknown Area Type
  0
TEXT
  8
Unknown Area Type
 62
7
  1
PNOA-H_AMS_1956-57_33k_ES_PAN_2
 40
0.00045
  10
-5.31309325438796
  20
42.317353791126
  0
POLYLINE
  8
Unknown Area Type
  70
9
  66
1
  0
VERTEX
  8
Unknown Area Type
  70
32
  10
-5.31439819599267
  20
42.33333349999998
  30
818.258
  0
VERTEX
  8
Unknown Area Type
  70
32
  10
-5.3014900871044
  20
42.33333349999998
  30
814.831
  0
VERTEX
  8
Unknown Area Type
  70
32
  10
-5.30149009256473
  20
42.33333333333331
  30
814.831
  0
VERTEX
  8
Unknown Area Type
  70
32
  10
-5.31249999999997
  20
42.33333333333331
  30
817.91
  0
VERTEX
  8
Unknown Area Type
  70
32
  10
-5.31439824421611
  20
42.33333333333331
  30
818.259
  0
SEQEND
  8
Unknown Area Type
  0
TEXT
  8
Unknown Area Type
 62
7
  1
PNOA-H_AMS_1956-57_33k_ES_PAN_2
 40
0.00045
  10
-5.30794416566025
  20
42.33333341666665
  0
POLYLINE
  8
Unknown Area Type
  70
9
  66
1
  0
VERTEX
  8
Unknown Area Type
  70
32
  10
-5.3247580395411
  20
42.29752849543068
  30
842.878
  0
VERTEX
  8
Unknown Area Type
  70
32
  10
-5.31439824421611
  20
42.33333333333331
  30
818.259
  0
VERTEX
  8
Unknown Area Type
  70
32
  10
-5.31249999999997
  20
42.33333333333331
  30
817.91
  0
VERTEX
  8
Unknown Area Type
  70
32
  10
-5.30149009256473
  20
42.33333333333331
  30
814.831
  0
VERTEX
  8
Unknown Area Type
  70
32
  10
-5.30259388982615
  20
42.2996419192054
  30
827.52
  0
VERTEX
  8
Unknown Area Type
  70
32
  10
-5.3247390295297
  20
42.29750636728384
  30
842.896
  0
VERTEX
  8
Unknown Area Type
  70
32
  10
-5.32475721161808
  20
42.29750599850161
  30
842.91
  0
SEQEND
  8
Unknown Area Type
  0
TEXT
  8
Unknown Area Type
 62
7
  1
PNOA-H_AMS_1956-57_33k_ES_PAN_2
 40
0.00045
  10
-5.31309325438796
  20
42.317353791126
  0
POLYLINE
  8
Unknown Area Type
  70
9
  66
1
  0
VERTEX
  8
Unknown Area Type
  70
32
  10
-5.505312763759
  20
42.33333333333331
  30
774.047
  0
VERTEX
  8
Unknown Area Type
  70
32
  10
-5.48230380729365
  20
42.33333333333331
  30
802.574
  0
VERTEX
  8
Unknown Area Type
  70
32
  10
-5.49564343263912
  20
42.29887889517617
  30
778.463
  0
VERTEX
  8
Unknown Area Type
  70
32
  10
-5.49568531981506
  20
42.29886447497886
  30
778.538
  0
VERTEX
  8
Unknown Area Type
  70
32
  10
-5.49586658839189
  20
42.29884701945763
  30
778.606
  0
VERTEX
  8
Unknown Area Type
  70
32
  10
-5.50191540377729
  20
42.29827837021259
  30
776.572
  0
VERTEX
  8
Unknown Area Type
  70
32
  10
-5.50198224174637
  20
42.29828141378041
  30
776.402
  0
VERTEX
  8
Unknown Area Type
  70
32
  10
-5.50448326654635
  20
42.29940649051663
  30
769.402
  0
SEQEND
  8
Unknown Area Type
  0
TEXT
  8
Unknown Area Type
 62
7
  1
PNOA-H_AMS_1956-57_33k_ES_PAN_2
 40
0.00045
  10
-5.49222471638464
  20
42.32444907731367
  0
POLYLINE
  8
Unknown Area Type
  70
9
  66
1
  0
VERTEX
  8
Unknown Area Type
  70
32
  10
-5.50531276783393
  20
42.33333349999998
  30
774.047
  0
VERTEX
  8
Unknown Area Type
  70
32
  10
-5.4823037427658
  20
42.33333349999998
  30
802.574
  0
VERTEX
  8
Unknown Area Type
  70
32
  10
-5.48230380729365
  20
42.33333333333331
  30
802.574
  0
VERTEX
  8
Unknown Area Type
  70
32
  10
-5.505312763759
  20
42.33333333333331
  30
774.047
  0
SEQEND
  8
Unknown Area Type
  0
TEXT
  8
Unknown Area Type
 62
7
  1
PNOA-H_AMS_1956-57_33k_ES_PAN_2
 40
0.00045
  10
-5.49380825529987
  20
42.33333341666665
  0
POLYLINE
  8
Unknown Area Type
  70
9
  66
1
  0
VERTEX
  8
Unknown Area Type
  70
32
  10
-5.505312763759
  20
42.33333333333331
  30
774.047
  0
VERTEX
  8
Unknown Area Type
  70
32
  10
-5.48230380729365
  20
42.33333333333331
  30
802.574
  0
VERTEX
  8
Unknown Area Type
  70
32
  10
-5.49564343263912
  20
42.29887889517617
  30
778.463
  0
VERTEX
  8
Unknown Area Type
  70
32
  10
-5.49568531981506
  20
42.29886447497886
  30
778.538
  0
VERTEX
  8
Unknown Area Type
  70
32
  10
-5.49586658839189
  20
42.29884701945763
  30
778.606
  0
VERTEX
  8
Unknown Area Type
  70
32
  10
-5.50191540377729
  20
42.29827837021259
  30
776.572
  0
VERTEX
  8
Unknown Area Type
  70
32
  10
-5.50198224174637
  20
42.29828141378041
  30
776.402
  0
VERTEX
  8
Unknown Area Type
  70
32
  10
-5.50448326654635
  20
42.29940649051663
  30
769.402
  0
SEQEND
  8
Unknown Area Type
  0
TEXT
  8
Unknown Area Type
 62
7
  1
PNOA-H_AMS_1956-57_33k_ES_PAN_2
 40
0.00045
  10
-5.49222471638464
  20
42.32444907731367
  0
POLYLINE
  8
Unknown Area Type
  70
9
  66
1
  0
VERTEX
  8
Unknown Area Type
  70
32
  10
-5.43730270927052
  20
42.33333333333331
  30
813.854
  0
VERTEX
  8
Unknown Area Type
  70
32
  10
-5.40402829191249
  20
42.33333333333331
  30
852.013
  0
VERTEX
  8
Unknown Area Type
  70
32
  10
-5.4050280271321
  20
42.31353640924069
  30
858.239
  0
VERTEX
  8
Unknown Area Type
  70
32
  10
-5.43668437778091
  20
42.32124273961294
  30
812.848
  0
SEQEND
  8
Unknown Area Type
  0
TEXT
  8
Unknown Area Type
 62
7
  1
PNOA-H_AMS_1956-57_33k_ES_PAN_2
 40
0.00045
  10
-5.4206641233012
  20
42.32828286997236
  0
POLYLINE
  8
Unknown Area Type
  70
9
  66
1
  0
VERTEX
  8
Unknown Area Type
  70
32
  10
-5.43730271779411
  20
42.33333349999998
  30
813.854
  0
VERTEX
  8
Unknown Area Type
  70
32
  10
-5.40402828349591
  20
42.33333349999998
  30
852.013
  0
VERTEX
  8
Unknown Area Type
  70
32
  10
-5.40402829191249
  20
42.33333333333331
  30
852.013
  0
VERTEX
  8
Unknown Area Type
  70
32
  10
-5.43730270927052
  20
42.33333333333331
  30
813.854
  0
SEQEND
  8
Unknown Area Type
  0
TEXT
  8
Unknown Area Type
 62
7
  1
PNOA-H_AMS_1956-57_33k_ES_PAN_2
 40
0.00045
  10
-5.42066550064501
  20
42.33333341666665
  0
POLYLINE
  8
Unknown Area Type
  70
9
  66
1
  0
VERTEX
  8
Unknown Area Type
  70
32
  10
-5.43730270927052
  20
42.33333333333331
  30
813.854
  0
VERTEX
  8
Unknown Area Type
  70
32
  10
-5.40402829191249
  20
42.33333333333331
  30
852.013
  0
VERTEX
  8
Unknown Area Type
  70
32
  10
-5.4050280271321
  20
42.31353640924069
  30
858.239
  0
VERTEX
  8
Unknown Area Type
  70
32
  10
-5.43668437778091
  20
42.32124273961294
  30
812.848
  0
SEQEND
  8
Unknown Area Type
  0
TEXT
  8
Unknown Area Type
 62
7
  1
PNOA-H_AMS_1956-57_33k_ES_PAN_2
 40
0.00045
  10
-5.4206641233012
  20
42.32828286997236
  0
POLYLINE
  8
Unknown Area Type
  70
9
  66
1
  0
VERTEX
  8
Unknown Area Type
  70
32
  10
-5.43134333192186
  20
42.29693801492779
  30
879.985
  0
VERTEX
  8
Unknown Area Type
  70
32
  10
-5.40484129091155
  20
42.30003218715832
  30
882.944
  0
VERTEX
  8
Unknown Area Type
  70
32
  10
-5.39606376493087
  20
42.29681196749274
  30
864.209
  0
VERTEX
  8
Unknown Area Type
  70
32
  10
-5.39580608351729
  20
42.26170052961753
  30
851.596
  0
VERTEX
  8
Unknown Area Type
  70
32
  10
-5.42310629807406
  20
42.25880326072952
  30
829.906
  0
VERTEX
  8
Unknown Area Type
  70
32
  10
-5.43047146274813
  20
42.26133996576016
  30
822.048
  0
VERTEX
  8
Unknown Area Type
  70
32
  10
-5.43140514413247
  20
42.29665303280775
  30
879.823
  0
VERTEX
  8
Unknown Area Type
  70
32
  10
-5.43140964747046
  20
42.29692760268118
  30
879.821
  0
VERTEX
  8
Unknown Area Type
  70
32
  10
-5.4313855799568
  20
42.29693261596738
  30
879.896
  0
VERTEX
  8
Unknown Area Type
  70
32
  10
-5.43134333192186
  20
42.29693801492779
  30
879.985
  0
SEQEND
  8
Unknown Area Type
  0
TEXT
  8
Unknown Area Type
 62
7
  1
PNOA-H_AMS_1956-57_33k_ES_PAN_2
 40
0.00045
  10
-5.41360799424031
  20
42.27940856037199
  0
POLYLINE
  8
Unknown Area Type
  70
9
  66
1
  0
VERTEX
  8
Unknown Area Type
  70
32
  10
-5.43134333192186
  20
42.29693801492779
  30
879.985
  0
VERTEX
  8
Unknown Area Type
  70
32
  10
-5.40484129091155
  20
42.30003218715832
  30
882.944
  0
VERTEX
  8
Unknown Area Type
  70
32
  10
-5.39606376493087
  20
42.29681196749274
  30
864.209
  0
VERTEX
  8
Unknown Area Type
  70
32
  10
-5.39580608351729
  20
42.26170052961753
  30
851.596
  0
VERTEX
  8
Unknown Area Type
  70
32
  10
-5.42310629807406
  20
42.25880326072952
  30
829.906
  0
VERTEX
  8
Unknown Area Type
  70
32
  10
-5.43047146274813
  20
42.26133996576016
  30
822.048
  0
VERTEX
  8
Unknown Area Type
  70
32
  10
-5.43140514413247
  20
42.29665303280775
  30
879.823
  0
VERTEX
  8
Unknown Area Type
  70
32
  10
-5.43140964747046
  20
42.29692760268118
  30
879.821
  0
VERTEX
  8
Unknown Area Type
  70
32
  10
-5.4313855799568
  20
42.29693261596738
  30
879.896
  0
VERTEX
  8
Unknown Area Type
  70
32
  10
-5.43134333192186
  20
42.29693801492779
  30
879.985
  0
SEQEND
  8
Unknown Area Type
  0
TEXT
  8
Unknown Area Type
 62
7
  1
PNOA-H_AMS_1956-57_33k_ES_PAN_2
 40
0.00045
  10
-5.41360799424031
  20
42.27940856037199
  0
POLYLINE
  8
Unknown Area Type
  70
9
  66
1
  0
VERTEX
  8
Unknown Area Type
  70
32
  10
-5.38632107160966
  20
42.33333333333331
  30
857.332
  0
VERTEX
  8
Unknown Area Type
  70
32
  10
-5.37098406781031
  20
42.33333333333331
  30
858.15
  0
VERTEX
  8
Unknown Area Type
  70
32
  10
-5.36996846293798
  20
42.30012371054925
  30
860.492
  0
VERTEX
  8
Unknown Area Type
  70
32
  10
-5.36997332524616
  20
42.29992999266834
  30
861.207
  0
VERTEX
  8
Unknown Area Type
  70
32
  10
-5.38800881632723
  20
42.29808324529181
  30
872.476
  0
SEQEND
  8
Unknown Area Type
  0
TEXT
  8
Unknown Area Type
 62
7
  1
PNOA-H_AMS_1956-57_33k_ES_PAN_2
 40
0.00045
  10
-5.37898852966258
  20
42.3210018897793
  0
POLYLINE
  8
Unknown Area Type
  70
9
  66
1
  0
VERTEX
  8
Unknown Area Type
  70
32
  10
-5.3863210636298
  20
42.33333349999998
  30
857.332
  0
VERTEX
  8
Unknown Area Type
  70
32
  10
-5.37098407290725
  20
42.33333349999998
  30
858.15
  0
VERTEX
  8
Unknown Area Type
  70
32
  10
-5.37098406781031
  20
42.33333333333331
  30
858.15
  0
VERTEX
  8
Unknown Area Type
  70
32
  10
-5.38632107160966
  20
42.33333333333331
  30
857.332
  0
SEQEND
  8
Unknown Area Type
  0
TEXT
  8
Unknown Area Type
 62
7
  1
PNOA-H_AMS_1956-57_33k_ES_PAN_2
 40
0.00045
  10
-5.37865256970998
  20
42.33333341666665
  0
POLYLINE
  8
Unknown Area Type
  70
9
  66
1
  0
VERTEX
  8
Unknown Area Type
  70
32
  10
-5.38632107160966
  20
42.33333333333331
  30
857.332
  0
VERTEX
  8
Unknown Area Type
  70
32
  10
-5.37098406781031
  20
42.33333333333331
  30
858.15
  0
VERTEX
  8
Unknown Area Type
  70
32
  10
-5.36996846293798
  20
42.30012371054925
  30
860.492
  0
VERTEX
  8
Unknown Area Type
  70
32
  10
-5.36997332524616
  20
42.29992999266834
  30
861.207
  0
VERTEX
  8
Unknown Area Type
  70
32
  10
-5.38800881632723
  20
42.29808324529181
  30
872.476
  0
SEQEND
  8
Unknown Area Type
  0
TEXT
  8
Unknown Area Type
 62
7
  1
PNOA-H_AMS_1956-57_33k_ES_PAN_2
 40
0.00045
  10
-5.37898852966258
  20
42.3210018897793
  0
POLYLINE
  8
Unknown Area Type
  70
9
  66
1
  0
VERTEX
  8
Unknown Area Type
  70
32
  10
-5.4702682947841
  20
42.29986090229124
  30
801.49
  0
VERTEX
  8
Unknown Area Type
  70
32
  10
-5.4700681297059
  20
42.29986071378516
  30
802.337
  0
VERTEX
  8
Unknown Area Type
  70
32
  10
-5.46555762299537
  20
42.2978956004043
  30
813.79
  0
VERTEX
  8
Unknown Area Type
  70
32
  10
-5.46498262072258
  20
42.29761529332589
  30
815.442
  0
VERTEX
  8
Unknown Area Type
  70
32
  10
-5.46749835950427
  20
42.26154847433014
  30
809.864
  0
VERTEX
  8
Unknown Area Type
  70
32
  10
-5.48897270933276
  20
42.25825647182993
  30
779.383
  0
VERTEX
  8
Unknown Area Type
  70
32
  10
-5.502241280173
  20
42.26178588200366
  30
772.762
  0
VERTEX
  8
Unknown Area Type
  70
32
  10
-5.50196388360637
  20
42.29827731186755
  30
776.491
  0
VERTEX
  8
Unknown Area Type
  70
32
  10
-5.49552811364036
  20
42.29887690357583
  30
778.502
  0
VERTEX
  8
Unknown Area Type
  70
32
  10
-5.47052871064643
  20
42.29985078628401
  30
800.441
  0
VERTEX
  8
Unknown Area Type
  70
32
  10
-5.4702682947841
  20
42.29986090229124
  30
801.49
  0
SEQEND
  8
Unknown Area Type
  0
TEXT
  8
Unknown Area Type
 62
7
  1
PNOA-H_AMS_1956-57_33k_ES_PAN_2
 40
0.00045
  10
-5.48361194130625
  20
42.2792080399011
  0
POLYLINE
  8
Unknown Area Type
  70
9
  66
1
  0
VERTEX
  8
Unknown Area Type
  70
32
  10
-5.4702682947841
  20
42.29986090229124
  30
801.49
  0
VERTEX
  8
Unknown Area Type
  70
32
  10
-5.4700681297059
  20
42.29986071378516
  30
802.337
  0
VERTEX
  8
Unknown Area Type
  70
32
  10
-5.46555762299537
  20
42.2978956004043
  30
813.79
  0
VERTEX
  8
Unknown Area Type
  70
32
  10
-5.46498262072258
  20
42.29761529332589
  30
815.442
  0
VERTEX
  8
Unknown Area Type
  70
32
  10
-5.46749835950427
  20
42.26154847433014
  30
809.864
  0
VERTEX
  8
Unknown Area Type
  70
32
  10
-5.48897270933276
  20
42.25825647182993
  30
779.383
  0
VERTEX
  8
Unknown Area Type
  70
32
  10
-5.502241280173
  20
42.26178588200366
  30
772.762
  0
VERTEX
  8
Unknown Area Type
  70
32
  10
-5.50196388360637
  20
42.29827731186755
  30
776.491
  0
VERTEX
  8
Unknown Area Type
  70
32
  10
-5.49552811364036
  20
42.29887690357583
  30
778.502
  0
VERTEX
  8
Unknown Area Type
  70
32
  10
-5.47052871064643
  20
42.29985078628401
  30
800.441
  0
VERTEX
  8
Unknown Area Type
  70
32
  10
-5.4702682947841
  20
42.29986090229124
  30
801.49
  0
SEQEND
  8
Unknown Area Type
  0
TEXT
  8
Unknown Area Type
 62
7
  1
PNOA-H_AMS_1956-57_33k_ES_PAN_2
 40
0.00045
  10
-5.48361194130625
  20
42.2792080399011
  0
POLYLINE
  8
Unknown Area Type
  70
9
  66
1
  0
VERTEX
  8
Unknown Area Type
  70
32
  10
-5.4710977991665
  20
42.33333333333331
  30
807.624
  0
VERTEX
  8
Unknown Area Type
  70
32
  10
-5.4438600915947
  20
42.33333333333331
  30
812.174
  0
VERTEX
  8
Unknown Area Type
  70
32
  10
-5.45783612493409
  20
42.31050690891605
  30
806.696
  0
VERTEX
  8
Unknown Area Type
  70
32
  10
-5.457841660875
  20
42.31049328210823
  30
806.61
  0
VERTEX
  8
Unknown Area Type
  70
32
  10
-5.46554550277682
  20
42.29789586114292
  30
813.805
  0
VERTEX
  8
Unknown Area Type
  70
32
  10
-5.46558203904339
  20
42.29789957784526
  30
813.727
  0
VERTEX
  8
Unknown Area Type
  70
32
  10
-5.47008648648104
  20
42.29986482085035
  30
802.278
  0
SEQEND
  8
Unknown Area Type
  0
TEXT
  8
Unknown Area Type
 62
7
  1
PNOA-H_AMS_1956-57_33k_ES_PAN_2
 40
0.00045
  10
-5.45535445650592
  20
42.32805232033752
  0
POLYLINE
  8
Unknown Area Type
  70
9
  66
1
  0
VERTEX
  8
Unknown Area Type
  70
32
  10
-5.47109780420264
  20
42.33333349999998
  30
807.624
  0
VERTEX
  8
Unknown Area Type
  70
32
  10
-5.44385998954898
  20
42.33333349999998
  30
812.174
  0
VERTEX
  8
Unknown Area Type
  70
32
  10
-5.4438600915947
  20
42.33333333333331
  30
812.174
  0
VERTEX
  8
Unknown Area Type
  70
32
  10
-5.4710977991665
  20
42.33333333333331
  30
807.624
  0
SEQEND
  8
Unknown Area Type
  0
TEXT
  8
Unknown Area Type
 62
7
  1
PNOA-H_AMS_1956-57_33k_ES_PAN_2
 40
0.00045
  10
-5.45747889687581
  20
42.33333341666665
  0
POLYLINE
  8
Unknown Area Type
  70
9
  66
1
  0
VERTEX
  8
Unknown Area Type
  70
32
  10
-5.4710977991665
  20
42.33333333333331
  30
807.624
  0
VERTEX
  8
Unknown Area Type
  70
32
  10
-5.4438600915947
  20
42.33333333333331
  30
812.174
  0
VERTEX
  8
Unknown Area Type
  70
32
  10
-5.45783612493409
  20
42.31050690891605
  30
806.696
  0
VERTEX
  8
Unknown Area Type
  70
32
  10
-5.457841660875
  20
42.31049328210823
  30
806.61
  0
VERTEX
  8
Unknown Area Type
  70
32
  10
-5.46554550277682
  20
42.29789586114292
  30
813.805
  0
VERTEX
  8
Unknown Area Type
  70
32
  10
-5.46558203904339
  20
42.29789957784526
  30
813.727
  0
VERTEX
  8
Unknown Area Type
  70
32
  10
-5.47008648648104
  20
42.29986482085035
  30
802.278
  0
SEQEND
  8
Unknown Area Type
  0
TEXT
  8
Unknown Area Type
 62
7
  1
PNOA-H_AMS_1956-57_33k_ES_PAN_2
 40
0.00045
  10
-5.45535445650592
  20
42.32805232033752
  0
POLYLINE
  8
Unknown Area Type
  70
9
  66
1
  0
VERTEX
  8
Unknown Area Type
  70
32
  10
-5.52083333333329
  20
42.27083333333337
  30
752.438
  0
VERTEX
  8
Unknown Area Type
  70
32
  10
-5.52083333333329
  20
42.29166666666669
  30
754.312
  0
VERTEX
  8
Unknown Area Type
  70
32
  10
-5.52083333333329
  20
42.29956653155708
  30
754.243
  0
VERTEX
  8
Unknown Area Type
  70
32
  10
-5.5044834449362
  20
42.29941098930465
  30
769.358
  0
VERTEX
  8
Unknown Area Type
  70
32
  10
-5.50196388360637
  20
42.29827731186755
  30
776.491
  0
VERTEX
  8
Unknown Area Type
  70
32
  10
-5.5022414581687
  20
42.26179038082898
  30
772.779
  0
VERTEX
  8
Unknown Area Type
  70
32
  10
-5.52083333333329
  20
42.25805753674128
  30
749.328
  0
SEQEND
  8
Unknown Area Type
  0
TEXT
  8
Unknown Area Type
 62
7
  1
PNOA-H_AMS_1956-57_33k_ES_PAN_2
 40
0.00045
  10
-5.52026934900712
  20
42.27886481122535
  0
POLYLINE
  8
Unknown Area Type
  70
9
  66
1
  0
VERTEX
  8
Unknown Area Type
  70
32
  10
-5.52083366666662
  20
42.29956653472819
  30
754.242
  0
VERTEX
  8
Unknown Area Type
  70
32
  10
-5.52083333333329
  20
42.29956653155708
  30
754.243
  0
VERTEX
  8
Unknown Area Type
  70
32
  10
-5.52083333333329
  20
42.29166666666669
  30
754.312
  0
VERTEX
  8
Unknown Area Type
  70
32
  10
-5.52083333333329
  20
42.27083333333337
  30
752.438
  0
VERTEX
  8
Unknown Area Type
  70
32
  10
-5.52083333333329
  20
42.25805753674128
  30
749.328
  0
VERTEX
  8
Unknown Area Type
  70
32
  10
-5.52083366666662
  20
42.2580574698152
  30
749.327
  0
SEQEND
  8
Unknown Area Type
  0
TEXT
  8
Unknown Area Type
 62
7
  1
PNOA-H_AMS_1956-57_33k_ES_PAN_2
 40
0.00045
  10
-5.52083349999996
  20
42.27881200227169
  0
POLYLINE
  8
Unknown Area Type
  70
9
  66
1
  0
VERTEX
  8
Unknown Area Type
  70
32
  10
-5.52083333333329
  20
42.27083333333337
  30
752.438
  0
VERTEX
  8
Unknown Area Type
  70
32
  10
-5.52083333333329
  20
42.29166666666669
  30
754.312
  0
VERTEX
  8
Unknown Area Type
  70
32
  10
-5.52083333333329
  20
42.29956653155708
  30
754.243
  0
VERTEX
  8
Unknown Area Type
  70
32
  10
-5.5044834449362
  20
42.29941098930465
  30
769.358
  0
VERTEX
  8
Unknown Area Type
  70
32
  10
-5.50196388360637
  20
42.29827731186755
  30
776.491
  0
VERTEX
  8
Unknown Area Type
  70
32
  10
-5.5022414581687
  20
42.26179038082898
  30
772.779
  0
VERTEX
  8
Unknown Area Type
  70
32
  10
-5.52083333333329
  20
42.25805753674128
  30
749.328
  0
SEQEND
  8
Unknown Area Type
  0
TEXT
  8
Unknown Area Type
 62
7
  1
PNOA-H_AMS_1956-57_33k_ES_PAN_2
 40
0.00045
  10
-5.52026934900712
  20
42.27886481122535
  0
POLYLINE
  8
Unknown Area Type
  70
9
  66
1
  0
VERTEX
  8
Unknown Area Type
  70
32
  10
-5.52083333333329
  20
42.22916666666665
  30
755.096
  0
VERTEX
  8
Unknown Area Type
  70
32
  10
-5.52083333333329
  20
42.23203582544089
  30
754.259
  0
VERTEX
  8
Unknown Area Type
  70
32
  10
-5.5197485971322
  20
42.21873908299207
  30
758.165
  0
VERTEX
  8
Unknown Area Type
  70
32
  10
-5.52083333333329
  20
42.21861890243156
  30
757.101
  0
SEQEND
  8
Unknown Area Type
  0
TEXT
  8
Unknown Area Type
 62
7
  1
PNOA-H_AMS_1956-57_33k_ES_PAN_2
 40
0.00045
  10
-5.52029096523274
  20
42.22532736393622
  0
POLYLINE
  8
Unknown Area Type
  70
9
  66
1
  0
VERTEX
  8
Unknown Area Type
  70
32
  10
-5.52083366666662
  20
42.23203991145506
  30
754.258
  0
VERTEX
  8
Unknown Area Type
  70
32
  10
-5.52083333333329
  20
42.23203582544089
  30
754.259
  0
VERTEX
  8
Unknown Area Type
  70
32
  10
-5.52083333333329
  20
42.22916666666665
  30
755.096
  0
VERTEX
  8
Unknown Area Type
  70
32
  10
-5.52083333333329
  20
42.21861890243156
  30
757.101
  0
VERTEX
  8
Unknown Area Type
  70
32
  10
-5.52083366666662
  20
42.21861886550074
  30
757.101
  0
SEQEND
  8
Unknown Area Type
  0
TEXT
  8
Unknown Area Type
 62
7
  1
PNOA-H_AMS_1956-57_33k_ES_PAN_2
 40
0.00045
  10
-5.52083349999996
  20
42.2253293884779
  0
POLYLINE
  8
Unknown Area Type
  70
9
  66
1
  0
VERTEX
  8
Unknown Area Type
  70
32
  10
-5.52083333333329
  20
42.22916666666665
  30
755.096
  0
VERTEX
  8
Unknown Area Type
  70
32
  10
-5.52083333333329
  20
42.23203582544089
  30
754.259
  0
VERTEX
  8
Unknown Area Type
  70
32
  10
-5.5197485971322
  20
42.21873908299207
  30
758.165
  0
VERTEX
  8
Unknown Area Type
  70
32
  10
-5.52083333333329
  20
42.21861890243156
  30
757.101
  0
SEQEND
  8
Unknown Area Type
  0
TEXT
  8
Unknown Area Type
 62
7
  1
PNOA-H_AMS_1956-57_33k_ES_PAN_2
 40
0.00045
  10
-5.52029096523274
  20
42.22532736393622
  0
POLYLINE
  8
Unknown Area Type
  70
9
  66
1
  0
VERTEX
  8
Unknown Area Type
  70
32
  10
-5.45466874719679
  20
42.25819023975694
  30
852.572
  0
VERTEX
  8
Unknown Area Type
  70
32
  10
-5.43045934921536
  20
42.26134022261191
  30
821.981
  0
VERTEX
  8
Unknown Area Type
  70
32
  10
-5.4231002415174
  20
42.25880338876043
  30
829.912
  0
VERTEX
  8
Unknown Area Type
  70
32
  10
-5.42160036945975
  20
42.22135418195397
  30
811.583
  0
VERTEX
  8
Unknown Area Type
  70
32
  10
-5.44457046599345
  20
42.21755263954098
  30
818.065
  0
VERTEX
  8
Unknown Area Type
  70
32
  10
-5.4446313384212
  20
42.21756034700634
  30
818.438
  0
VERTEX
  8
Unknown Area Type
  70
32
  10
-5.45481563220119
  20
42.22072879138024
  30
815.208
  0
VERTEX
  8
Unknown Area Type
  70
32
  10
-5.45626686653948
  20
42.25798039862898
  30
851.792
  0
VERTEX
  8
Unknown Area Type
  70
32
  10
-5.45471096709026
  20
42.25818483288548
  30
852.566
  0
VERTEX
  8
Unknown Area Type
  70
32
  10
-5.45466874719679
  20
42.25819023975694
  30
852.572
  0
SEQEND
  8
Unknown Area Type
  0
TEXT
  8
Unknown Area Type
 62
7
  1
PNOA-H_AMS_1956-57_33k_ES_PAN_2
 40
0.00045
  10
-5.43893383665368
  20
42.23936016947843
  0
POLYLINE
  8
Unknown Area Type
  70
9
  66
1
  0
VERTEX
  8
Unknown Area Type
  70
32
  10
-5.45466874719679
  20
42.25819023975694
  30
852.572
  0
VERTEX
  8
Unknown Area Type
  70
32
  10
-5.43045934921536
  20
42.26134022261191
  30
821.981
  0
VERTEX
  8
Unknown Area Type
  70
32
  10
-5.4231002415174
  20
42.25880338876043
  30
829.912
  0
VERTEX
  8
Unknown Area Type
  70
32
  10
-5.42160036945975
  20
42.22135418195397
  30
811.583
  0
VERTEX
  8
Unknown Area Type
  70
32
  10
-5.44457046599345
  20
42.21755263954098
  30
818.065
  0
VERTEX
  8
Unknown Area Type
  70
32
  10
-5.4446313384212
  20
42.21756034700634
  30
818.438
  0
VERTEX
  8
Unknown Area Type
  70
32
  10
-5.45481563220119
  20
42.22072879138024
  30
815.208
  0
VERTEX
  8
Unknown Area Type
  70
32
  10
-5.45626686653948
  20
42.25798039862898
  30
851.792
  0
VERTEX
  8
Unknown Area Type
  70
32
  10
-5.45471096709026
  20
42.25818483288548
  30
852.566
  0
VERTEX
  8
Unknown Area Type
  70
32
  10
-5.45466874719679
  20
42.25819023975694
  30
852.572
  0
SEQEND
  8
Unknown Area Type
  0
TEXT
  8
Unknown Area Type
 62
7
  1
PNOA-H_AMS_1956-57_33k_ES_PAN_2
 40
0.00045
  10
-5.43893383665368
  20
42.23936016947843
  0
POLYLINE
  8
Unknown Area Type
  70
9
  66
1
  0
VERTEX
  8
Unknown Area Type
  70
32
  10
-5.45569709540913
  20
42.18220226462388
  30
795.236
  0
VERTEX
  8
Unknown Area Type
  70
32
  10
-5.45180154487235
  20
42.18401019946095
  30
806.139
  0
VERTEX
  8
Unknown Area Type
  70
32
  10
-5.45178962023948
  20
42.18401495724216
  30
806.207
  0
VERTEX
  8
Unknown Area Type
  70
32
  10
-5.44414060397321
  20
42.18756436243136
  30
790.582
  0
VERTEX
  8
Unknown Area Type
  70
32
  10
-5.44408650387666
  20
42.18757452128045
  30
790.484
  0
VERTEX
  8
Unknown Area Type
  70
32
  10
-5.42128560225557
  20
42.1828395804971
  30
766.274
  0
VERTEX
  8
Unknown Area Type
  70
32
  10
-5.42123783166423
  20
42.16666666666671
  30
761.697
  0
VERTEX
  8
Unknown Area Type
  70
32
  10
-5.43750000000003
  20
42.16666666666671
  30
761.71
  0
VERTEX
  8
Unknown Area Type
  70
32
  10
-5.45575936814103
  20
42.16666666666671
  30
798.244
  0
SEQEND
  8
Unknown Area Type
  0
TEXT
  8
Unknown Area Type
 62
7
  1
PNOA-H_AMS_1956-57_33k_ES_PAN_2
 40
0.00045
  10
-5.43849859990263
  20
42.17712059397358
  0
POLYLINE
  8
Unknown Area Type
  70
9
  66
1
  0
VERTEX
  8
Unknown Area Type
  70
32
  10
-5.45569709540913
  20
42.18220226462388
  30
795.236
  0
VERTEX
  8
Unknown Area Type
  70
32
  10
-5.45180154487235
  20
42.18401019946095
  30
806.139
  0
VERTEX
  8
Unknown Area Type
  70
32
  10
-5.45178962023948
  20
42.18401495724216
  30
806.207
  0
VERTEX
  8
Unknown Area Type
  70
32
  10
-5.44414060397321
  20
42.18756436243136
  30
790.582
  0
VERTEX
  8
Unknown Area Type
  70
32
  10
-5.44408650387666
  20
42.18757452128045
  30
790.484
  0
VERTEX
  8
Unknown Area Type
  70
32
  10
-5.42128560225557
  20
42.1828395804971
  30
766.274
  0
VERTEX
  8
Unknown Area Type
  70
32
  10
-5.42123783166423
  20
42.16666666666671
  30
761.697
  0
VERTEX
  8
Unknown Area Type
  70
32
  10
-5.43750000000003
  20
42.16666666666671
  30
761.71
  0
VERTEX
  8
Unknown Area Type
  70
32
  10
-5.45575936814103
  20
42.16666666666671
  30
798.244
  0
SEQEND
  8
Unknown Area Type
  0
TEXT
  8
Unknown Area Type
 62
7
  1
PNOA-H_AMS_1956-57_33k_ES_PAN_2
 40
0.00045
  10
-5.43849859990263
  20
42.17712059397358
  0
POLYLINE
  8
Unknown Area Type
  70
9
  66
1
  0
VERTEX
  8
Unknown Area Type
  70
32
  10
-5.38751782134061
  20
42.18322801495344
  30
790.219
  0
VERTEX
  8
Unknown Area Type
  70
32
  10
-5.37753329255856
  20
42.1873979552116
  30
778.276
  0
VERTEX
  8
Unknown Area Type
  70
32
  10
-5.37752136137136
  20
42.18740270542025
  30
778.219
  0
VERTEX
  8
Unknown Area Type
  70
32
  10
-5.37620993121096
  20
42.18795221687819
  30
774.267
  0
VERTEX
  8
Unknown Area Type
  70
32
  10
-5.37614388702837
  20
42.18796709401408
  30
774.203
  0
VERTEX
  8
Unknown Area Type
  70
32
  10
-5.35218072262839
  20
42.1832694672979
  30
777.465
  0
VERTEX
  8
Unknown Area Type
  70
32
  10
-5.35319193657576
  20
42.16666666666671
  30
760.992
  0
VERTEX
  8
Unknown Area Type
  70
32
  10
-5.35416666666669
  20
42.16666666666671
  30
760.933
  0
VERTEX
  8
Unknown Area Type
  70
32
  10
-5.38785755533301
  20
42.16666666666671
  30
774.799
  0
SEQEND
  8
Unknown Area Type
  0
TEXT
  8
Unknown Area Type
 62
7
  1
PNOA-H_AMS_1956-57_33k_ES_PAN_2
 40
0.00045
  10
-5.3700191389807
  20
42.17731688034039
  0
POLYLINE
  8
Unknown Area Type
  70
9
  66
1
  0
VERTEX
  8
Unknown Area Type
  70
32
  10
-5.38751782134061
  20
42.18322801495344
  30
790.219
  0
VERTEX
  8
Unknown Area Type
  70
32
  10
-5.37753329255856
  20
42.1873979552116
  30
778.276
  0
VERTEX
  8
Unknown Area Type
  70
32
  10
-5.37752136137136
  20
42.18740270542025
  30
778.219
  0
VERTEX
  8
Unknown Area Type
  70
32
  10
-5.37620993121096
  20
42.18795221687819
  30
774.267
  0
VERTEX
  8
Unknown Area Type
  70
32
  10
-5.37614388702837
  20
42.18796709401408
  30
774.203
  0
VERTEX
  8
Unknown Area Type
  70
32
  10
-5.35218072262839
  20
42.1832694672979
  30
777.465
  0
VERTEX
  8
Unknown Area Type
  70
32
  10
-5.35319193657576
  20
42.16666666666671
  30
760.992
  0
VERTEX
  8
Unknown Area Type
  70
32
  10
-5.35416666666669
  20
42.16666666666671
  30
760.933
  0
VERTEX
  8
Unknown Area Type
  70
32
  10
-5.38785755533301
  20
42.16666666666671
  30
774.799
  0
SEQEND
  8
Unknown Area Type
  0
TEXT
  8
Unknown Area Type
 62
7
  1
PNOA-H_AMS_1956-57_33k_ES_PAN_2
 40
0.00045
  10
-5.3700191389807
  20
42.17731688034039
  0
POLYLINE
  8
Unknown Area Type
  70
9
  66
1
  0
VERTEX
  8
Unknown Area Type
  70
32
  10
-5.31986276447787
  20
42.18326148402911
  30
775.777
  0
VERTEX
  8
Unknown Area Type
  70
32
  10
-5.30919016848905
  20
42.18744841033756
  30
774.227
  0
VERTEX
  8
Unknown Area Type
  70
32
  10
-5.30917823185428
  20
42.187453153558
  30
774.197
  0
VERTEX
  8
Unknown Area Type
  70
32
  10
-5.30914193041765
  20
42.18745388464568
  30
774.115
  0
VERTEX
  8
Unknown Area Type
  70
32
  10
-5.30889795492928
  20
42.18740476399521
  30
773.062
  0
VERTEX
  8
Unknown Area Type
  70
32
  10
-5.28825765455542
  20
42.18321214497054
  30
776.084
  0
VERTEX
  8
Unknown Area Type
  70
32
  10
-5.28788477657382
  20
42.16666666666671
  30
758.671
  0
VERTEX
  8
Unknown Area Type
  70
32
  10
-5.31249999999997
  20
42.16666666666671
  30
758.768
  0
VERTEX
  8
Unknown Area Type
  70
32
  10
-5.31962343414686
  20
42.16666666666671
  30
758.872
  0
SEQEND
  8
Unknown Area Type
  0
TEXT
  8
Unknown Area Type
 62
7
  1
PNOA-H_AMS_1956-57_33k_ES_PAN_2
 40
0.00045
  10
-5.30387377052584
  20
42.17706027565619
  0
POLYLINE
  8
Unknown Area Type
  70
9
  66
1
  0
VERTEX
  8
Unknown Area Type
  70
32
  10
-5.31986276447787
  20
42.18326148402911
  30
775.777
  0
VERTEX
  8
Unknown Area Type
  70
32
  10
-5.30919016848905
  20
42.18744841033756
  30
774.227
  0
VERTEX
  8
Unknown Area Type
  70
32
  10
-5.30917823185428
  20
42.187453153558
  30
774.197
  0
VERTEX
  8
Unknown Area Type
  70
32
  10
-5.30914193041765
  20
42.18745388464568
  30
774.115
  0
VERTEX
  8
Unknown Area Type
  70
32
  10
-5.30889795492928
  20
42.18740476399521
  30
773.062
  0
VERTEX
  8
Unknown Area Type
  70
32
  10
-5.28825765455542
  20
42.18321214497054
  30
776.084
  0
VERTEX
  8
Unknown Area Type
  70
32
  10
-5.28788477657382
  20
42.16666666666671
  30
758.671
  0
VERTEX
  8
Unknown Area Type
  70
32
  10
-5.31249999999997
  20
42.16666666666671
  30
758.768
  0
VERTEX
  8
Unknown Area Type
  70
32
  10
-5.31962343414686
  20
42.16666666666671
  30
758.872
  0
SEQEND
  8
Unknown Area Type
  0
TEXT
  8
Unknown Area Type
 62
7
  1
PNOA-H_AMS_1956-57_33k_ES_PAN_2
 40
0.00045
  10
-5.30387377052584
  20
42.17706027565619
  0
POLYLINE
  8
Unknown Area Type
  70
9
  66
1
  0
VERTEX
  8
Unknown Area Type
  70
32
  10
-5.35218072262839
  20
42.1832694672979
  30
777.465
  0
VERTEX
  8
Unknown Area Type
  70
32
  10
-5.34352054916552
  20
42.18696800003173
  30
778.301
  0
VERTEX
  8
Unknown Area Type
  70
32
  10
-5.31986881427183
  20
42.18326136162636
  30
775.779
  0
VERTEX
  8
Unknown Area Type
  70
32
  10
-5.31962684244764
  20
42.16666666666671
  30
756.707
  0
VERTEX
  8
Unknown Area Type
  70
32
  10
-5.35319399766864
  20
42.16666666666671
  30
761.045
  0
SEQEND
  8
Unknown Area Type
  0
TEXT
  8
Unknown Area Type
 62
7
  1
PNOA-H_AMS_1956-57_33k_ES_PAN_2
 40
0.00045
  10
-5.33641042005814
  20
42.17681733334922
  0
POLYLINE
  8
Unknown Area Type
  70
9
  66
1
  0
VERTEX
  8
Unknown Area Type
  70
32
  10
-5.35218072262839
  20
42.1832694672979
  30
777.465
  0
VERTEX
  8
Unknown Area Type
  70
32
  10
-5.34352054916552
  20
42.18696800003173
  30
778.301
  0
VERTEX
  8
Unknown Area Type
  70
32
  10
-5.31986881427183
  20
42.18326136162636
  30
775.779
  0
VERTEX
  8
Unknown Area Type
  70
32
  10
-5.31962684244764
  20
42.16666666666671
  30
756.707
  0
VERTEX
  8
Unknown Area Type
  70
32
  10
-5.35319399766864
  20
42.16666666666671
  30
761.045
  0
SEQEND
  8
Unknown Area Type
  0
TEXT
  8
Unknown Area Type
 62
7
  1
PNOA-H_AMS_1956-57_33k_ES_PAN_2
 40
0.00045
  10
-5.33641042005814
  20
42.17681733334922
  0
POLYLINE
  8
Unknown Area Type
  70
9
  66
1
  0
VERTEX
  8
Unknown Area Type
  70
32
  10
-5.19445845908717
  20
42.22362153424927
  30
764.648
  0
VERTEX
  8
Unknown Area Type
  70
32
  10
-5.194455236796
  20
42.22282909733915
  30
766.397
  0
VERTEX
  8
Unknown Area Type
  70
32
  10
-5.20998966413186
  20
42.21870330673824
  30
754.63
  0
VERTEX
  8
Unknown Area Type
  70
32
  10
-5.22817926914781
  20
42.22313324758123
  30
769.562
  0
VERTEX
  8
Unknown Area Type
  70
32
  10
-5.22597948859978
  20
42.2601620692101
  30
797.157
  0
VERTEX
  8
Unknown Area Type
  70
32
  10
-5.21832424988655
  20
42.26277349275382
  30
784.408
  0
VERTEX
  8
Unknown Area Type
  70
32
  10
-5.21828184517531
  20
42.26277431332349
  30
784.26
  0
VERTEX
  8
Unknown Area Type
  70
32
  10
-5.21447711321723
  20
42.26231654398034
  30
785.261
  0
VERTEX
  8
Unknown Area Type
  70
32
  10
-5.19461423932193
  20
42.25485913188124
  30
778.039
  0
VERTEX
  8
Unknown Area Type
  70
32
  10
-5.19446188899783
  20
42.22372053091639
  30
764.439
  0
VERTEX
  8
Unknown Area Type
  70
32
  10
-5.19445845908717
  20
42.22362153424927
  30
764.648
  0
SEQEND
  8
Unknown Area Type
  0
TEXT
  8
Unknown Area Type
 62
7
  1
PNOA-H_AMS_1956-57_33k_ES_PAN_2
 40
0.00045
  10
-5.21131749808146
  20
42.24007791536651
  0
POLYLINE
  8
Unknown Area Type
  70
9
  66
1
  0
VERTEX
  8
Unknown Area Type
  70
32
  10
-5.19445845908717
  20
42.22362153424927
  30
764.648
  0
VERTEX
  8
Unknown Area Type
  70
32
  10
-5.194455236796
  20
42.22282909733915
  30
766.397
  0
VERTEX
  8
Unknown Area Type
  70
32
  10
-5.20998966413186
  20
42.21870330673824
  30
754.63
  0
VERTEX
  8
Unknown Area Type
  70
32
  10
-5.22817926914781
  20
42.22313324758123
  30
769.562
  0
VERTEX
  8
Unknown Area Type
  70
32
  10
-5.22597948859978
  20
42.2601620692101
  30
797.157
  0
VERTEX
  8
Unknown Area Type
  70
32
  10
-5.21832424988655
  20
42.26277349275382
  30
784.408
  0
VERTEX
  8
Unknown Area Type
  70
32
  10
-5.21828184517531
  20
42.26277431332349
  30
784.26
  0
VERTEX
  8
Unknown Area Type
  70
32
  10
-5.21447711321723
  20
42.26231654398034
  30
785.261
  0
VERTEX
  8
Unknown Area Type
  70
32
  10
-5.19461423932193
  20
42.25485913188124
  30
778.039
  0
VERTEX
  8
Unknown Area Type
  70
32
  10
-5.19446188899783
  20
42.22372053091639
  30
764.439
  0
VERTEX
  8
Unknown Area Type
  70
32
  10
-5.19445845908717
  20
42.22362153424927
  30
764.648
  0
SEQEND
  8
Unknown Area Type
  0
TEXT
  8
Unknown Area Type
 62
7
  1
PNOA-H_AMS_1956-57_33k_ES_PAN_2
 40
0.00045
  10
-5.21131749808146
  20
42.24007791536651
  0
POLYLINE
  8
Unknown Area Type
  70
9
  66
1
  0
VERTEX
  8
Unknown Area Type
  70
32
  10
-5.32550999502428
  20
42.26126605502337
  30
827.864
  0
VERTEX
  8
Unknown Area Type
  70
32
  10
-5.29377163538539
  20
42.26028903652114
  30
824.118
  0
VERTEX
  8
Unknown Area Type
  70
32
  10
-5.29261431447418
  20
42.2229930562341
  30
793.752
  0
VERTEX
  8
Unknown Area Type
  70
32
  10
-5.30977730376636
  20
42.21868609419472
  30
801.418
  0
VERTEX
  8
Unknown Area Type
  70
32
  10
-5.32738314671632
  20
42.22254015188793
  30
801.809
  0
VERTEX
  8
Unknown Area Type
  70
32
  10
-5.32565861308217
  20
42.26118649285446
  30
827.842
  0
VERTEX
  8
Unknown Area Type
  70
32
  10
-5.32565305218292
  20
42.26120011397952
  30
827.905
  0
VERTEX
  8
Unknown Area Type
  70
32
  10
-5.32552194403724
  20
42.26126130984493
  30
827.871
  0
VERTEX
  8
Unknown Area Type
  70
32
  10
-5.32550999502428
  20
42.26126605502337
  30
827.864
  0
SEQEND
  8
Unknown Area Type
  0
TEXT
  8
Unknown Area Type
 62
7
  1
PNOA-H_AMS_1956-57_33k_ES_PAN_2
 40
0.00045
  10
-5.30999907022944
  20
42.2397599437788
  0
POLYLINE
  8
Unknown Area Type
  70
9
  66
1
  0
VERTEX
  8
Unknown Area Type
  70
32
  10
-5.32550999502428
  20
42.26126605502337
  30
827.864
  0
VERTEX
  8
Unknown Area Type
  70
32
  10
-5.29377163538539
  20
42.26028903652114
  30
824.118
  0
VERTEX
  8
Unknown Area Type
  70
32
  10
-5.29261431447418
  20
42.2229930562341
  30
793.752
  0
VERTEX
  8
Unknown Area Type
  70
32
  10
-5.30977730376636
  20
42.21868609419472
  30
801.418
  0
VERTEX
  8
Unknown Area Type
  70
32
  10
-5.32738314671632
  20
42.22254015188793
  30
801.809
  0
VERTEX
  8
Unknown Area Type
  70
32
  10
-5.32565861308217
  20
42.26118649285446
  30
827.842
  0
VERTEX
  8
Unknown Area Type
  70
32
  10
-5.32565305218292
  20
42.26120011397952
  30
827.905
  0
VERTEX
  8
Unknown Area Type
  70
32
  10
-5.32552194403724
  20
42.26126130984493
  30
827.871
  0
VERTEX
  8
Unknown Area Type
  70
32
  10
-5.32550999502428
  20
42.26126605502337
  30
827.864
  0
SEQEND
  8
Unknown Area Type
  0
TEXT
  8
Unknown Area Type
 62
7
  1
PNOA-H_AMS_1956-57_33k_ES_PAN_2
 40
0.00045
  10
-5.30999907022944
  20
42.2397599437788
  0
POLYLINE
  8
Unknown Area Type
  70
9
  66
1
  0
VERTEX
  8
Unknown Area Type
  70
32
  10
-5.29010932388807
  20
42.26193372984274
  30
822.165
  0
VERTEX
  8
Unknown Area Type
  70
32
  10
-5.25929481076657
  20
42.26085214551702
  30
792.895
  0
VERTEX
  8
Unknown Area Type
  70
32
  10
-5.26034945246011
  20
42.22300782928237
  30
784.001
  0
VERTEX
  8
Unknown Area Type
  70
32
  10
-5.27623657136029
  20
42.21920832993388
  30
785.456
  0
VERTEX
  8
Unknown Area Type
  70
32
  10
-5.29260826077241
  20
42.2229931772913
  30
793.748
  0
VERTEX
  8
Unknown Area Type
  70
32
  10
-5.29377638731839
  20
42.26025291920902
  30
824.106
  0
VERTEX
  8
Unknown Area Type
  70
32
  10
-5.29377179855139
  20
42.26029353603459
  30
824.12
  0
VERTEX
  8
Unknown Area Type
  70
32
  10
-5.29375395309022
  20
42.26030289867366
  30
824.124
  0
VERTEX
  8
Unknown Area Type
  70
32
  10
-5.29011505549333
  20
42.26192460978039
  30
822.175
  0
VERTEX
  8
Unknown Area Type
  70
32
  10
-5.29010932388807
  20
42.26193372984274
  30
822.165
  0
SEQEND
  8
Unknown Area Type
  0
TEXT
  8
Unknown Area Type
 62
7
  1
PNOA-H_AMS_1956-57_33k_ES_PAN_2
 40
0.00045
  10
-5.27653577821048
  20
42.2403657315331
  0
POLYLINE
  8
Unknown Area Type
  70
9
  66
1
  0
VERTEX
  8
Unknown Area Type
  70
32
  10
-5.29010932388807
  20
42.26193372984274
  30
822.165
  0
VERTEX
  8
Unknown Area Type
  70
32
  10
-5.25929481076657
  20
42.26085214551702
  30
792.895
  0
VERTEX
  8
Unknown Area Type
  70
32
  10
-5.26034945246011
  20
42.22300782928237
  30
784.001
  0
VERTEX
  8
Unknown Area Type
  70
32
  10
-5.27623657136029
  20
42.21920832993388
  30
785.456
  0
VERTEX
  8
Unknown Area Type
  70
32
  10
-5.29260826077241
  20
42.2229931772913
  30
793.748
  0
VERTEX
  8
Unknown Area Type
  70
32
  10
-5.29377638731839
  20
42.26025291920902
  30
824.106
  0
VERTEX
  8
Unknown Area Type
  70
32
  10
-5.29377179855139
  20
42.26029353603459
  30
824.12
  0
VERTEX
  8
Unknown Area Type
  70
32
  10
-5.29375395309022
  20
42.26030289867366
  30
824.124
  0
VERTEX
  8
Unknown Area Type
  70
32
  10
-5.29011505549333
  20
42.26192460978039
  30
822.175
  0
VERTEX
  8
Unknown Area Type
  70
32
  10
-5.29010932388807
  20
42.26193372984274
  30
822.165
  0
SEQEND
  8
Unknown Area Type
  0
TEXT
  8
Unknown Area Type
 62
7
  1
PNOA-H_AMS_1956-57_33k_ES_PAN_2
 40
0.00045
  10
-5.27653577821048
  20
42.2403657315331
  0
POLYLINE
  8
Unknown Area Type
  70
9
  66
1
  0
VERTEX
  8
Unknown Area Type
  70
32
  10
-5.23128849499626
  20
42.26064872348763
  30
802.229
  0
VERTEX
  8
Unknown Area Type
  70
32
  10
-5.22597948859978
  20
42.2601620692101
  30
797.157
  0
VERTEX
  8
Unknown Area Type
  70
32
  10
-5.22817926914781
  20
42.22313324758123
  30
769.562
  0
VERTEX
  8
Unknown Area Type
  70
32
  10
-5.24333877028909
  20
42.21942899049571
  30
755.282
  0
VERTEX
  8
Unknown Area Type
  70
32
  10
-5.24343005187981
  20
42.2194407128363
  30
755.373
  0
VERTEX
  8
Unknown Area Type
  70
32
  10
-5.26034945246011
  20
42.22300782928237
  30
784.001
  0
VERTEX
  8
Unknown Area Type
  70
32
  10
-5.25929481076657
  20
42.26085214551702
  30
792.895
  0
VERTEX
  8
Unknown Area Type
  70
32
  10
-5.25481743109833
  20
42.2626153390588
  30
776.452
  0
VERTEX
  8
Unknown Area Type
  70
32
  10
-5.25444077097064
  20
42.26276233369813
  30
775.818
  0
VERTEX
  8
Unknown Area Type
  70
32
  10
-5.25440442497832
  20
42.26276304848982
  30
775.783
  0
VERTEX
  8
Unknown Area Type
  70
32
  10
-5.23130061011423
  20
42.26064848767633
  30
802.22
  0
VERTEX
  8
Unknown Area Type
  70
32
  10
-5.23128849499626
  20
42.26064872348763
  30
802.229
  0
SEQEND
  8
Unknown Area Type
  0
TEXT
  8
Unknown Area Type
 62
7
  1
PNOA-H_AMS_1956-57_33k_ES_PAN_2
 40
0.00045
  10
-5.24316466665738
  20
42.24060154201582
  0
POLYLINE
  8
Unknown Area Type
  70
9
  66
1
  0
VERTEX
  8
Unknown Area Type
  70
32
  10
-5.23128849499626
  20
42.26064872348763
  30
802.229
  0
VERTEX
  8
Unknown Area Type
  70
32
  10
-5.22597948859978
  20
42.2601620692101
  30
797.157
  0
VERTEX
  8
Unknown Area Type
  70
32
  10
-5.22817926914781
  20
42.22313324758123
  30
769.562
  0
VERTEX
  8
Unknown Area Type
  70
32
  10
-5.24333877028909
  20
42.21942899049571
  30
755.282
  0
VERTEX
  8
Unknown Area Type
  70
32
  10
-5.24343005187981
  20
42.2194407128363
  30
755.373
  0
VERTEX
  8
Unknown Area Type
  70
32
  10
-5.26034945246011
  20
42.22300782928237
  30
784.001
  0
VERTEX
  8
Unknown Area Type
  70
32
  10
-5.25929481076657
  20
42.26085214551702
  30
792.895
  0
VERTEX
  8
Unknown Area Type
  70
32
  10
-5.25481743109833
  20
42.2626153390588
  30
776.452
  0
VERTEX
  8
Unknown Area Type
  70
32
  10
-5.25444077097064
  20
42.26276233369813
  30
775.818
  0
VERTEX
  8
Unknown Area Type
  70
32
  10
-5.25440442497832
  20
42.26276304848982
  30
775.783
  0
VERTEX
  8
Unknown Area Type
  70
32
  10
-5.23130061011423
  20
42.26064848767633
  30
802.22
  0
VERTEX
  8
Unknown Area Type
  70
32
  10
-5.23128849499626
  20
42.26064872348763
  30
802.229
  0
SEQEND
  8
Unknown Area Type
  0
TEXT
  8
Unknown Area Type
 62
7
  1
PNOA-H_AMS_1956-57_33k_ES_PAN_2
 40
0.00045
  10
-5.24316466665738
  20
42.24060154201582
  0
POLYLINE
  8
Unknown Area Type
  70
9
  66
1
  0
VERTEX
  8
Unknown Area Type
  70
32
  10
-5.3803158249631
  20
42.26002402229594
  30
854.571
  0
VERTEX
  8
Unknown Area Type
  70
32
  10
-5.36102715190848
  20
42.26130547891127
  30
833.872
  0
VERTEX
  8
Unknown Area Type
  70
32
  10
-5.36096018822991
  20
42.26129785264282
  30
833.822
  0
VERTEX
  8
Unknown Area Type
  70
32
  10
-5.35936589488714
  20
42.26064625944595
  30
830.252
  0
VERTEX
  8
Unknown Area Type
  70
32
  10
-5.35695515961556
  20
42.22261591854079
  30
820.771
  0
VERTEX
  8
Unknown Area Type
  70
32
  10
-5.37742742600699
  20
42.21864050611029
  30
793.965
  0
VERTEX
  8
Unknown Area Type
  70
32
  10
-5.37752494821643
  20
42.21865649481367
  30
794.413
  0
VERTEX
  8
Unknown Area Type
  70
32
  10
-5.38965806275997
  20
42.22201995855355
  30
826.364
  0
VERTEX
  8
Unknown Area Type
  70
32
  10
-5.38965748487362
  20
42.25940189502443
  30
824.568
  0
VERTEX
  8
Unknown Area Type
  70
32
  10
-5.38041862231371
  20
42.26001738485046
  30
854.504
  0
VERTEX
  8
Unknown Area Type
  70
32
  10
-5.3803158249631
  20
42.26002402229594
  30
854.571
  0
SEQEND
  8
Unknown Area Type
  0
TEXT
  8
Unknown Area Type
 62
7
  1
PNOA-H_AMS_1956-57_33k_ES_PAN_2
 40
0.00045
  10
-5.37330700475804
  20
42.23996361211744
  0
POLYLINE
  8
Unknown Area Type
  70
9
  66
1
  0
VERTEX
  8
Unknown Area Type
  70
32
  10
-5.3803158249631
  20
42.26002402229594
  30
854.571
  0
VERTEX
  8
Unknown Area Type
  70
32
  10
-5.36102715190848
  20
42.26130547891127
  30
833.872
  0
VERTEX
  8
Unknown Area Type
  70
32
  10
-5.36096018822991
  20
42.26129785264282
  30
833.822
  0
VERTEX
  8
Unknown Area Type
  70
32
  10
-5.35936589488714
  20
42.26064625944595
  30
830.252
  0
VERTEX
  8
Unknown Area Type
  70
32
  10
-5.35695515961556
  20
42.22261591854079
  30
820.771
  0
VERTEX
  8
Unknown Area Type
  70
32
  10
-5.37742742600699
  20
42.21864050611029
  30
793.965
  0
VERTEX
  8
Unknown Area Type
  70
32
  10
-5.37752494821643
  20
42.21865649481367
  30
794.413
  0
VERTEX
  8
Unknown Area Type
  70
32
  10
-5.38965806275997
  20
42.22201995855355
  30
826.364
  0
VERTEX
  8
Unknown Area Type
  70
32
  10
-5.38965748487362
  20
42.25940189502443
  30
824.568
  0
VERTEX
  8
Unknown Area Type
  70
32
  10
-5.38041862231371
  20
42.26001738485046
  30
854.504
  0
VERTEX
  8
Unknown Area Type
  70
32
  10
-5.3803158249631
  20
42.26002402229594
  30
854.571
  0
SEQEND
  8
Unknown Area Type
  0
TEXT
  8
Unknown Area Type
 62
7
  1
PNOA-H_AMS_1956-57_33k_ES_PAN_2
 40
0.00045
  10
-5.37330700475804
  20
42.23996361211744
  0
POLYLINE
  8
Unknown Area Type
  70
9
  66
1
  0
VERTEX
  8
Unknown Area Type
  70
32
  10
-5.47956154440759
  20
42.25970319507773
  30
804.851
  0
VERTEX
  8
Unknown Area Type
  70
32
  10
-5.46749835950427
  20
42.26154847433014
  30
809.864
  0
VERTEX
  8
Unknown Area Type
  70
32
  10
-5.45626686653948
  20
42.25798039862898
  30
851.792
  0
VERTEX
  8
Unknown Area Type
  70
32
  10
-5.45481563220119
  20
42.22072879138024
  30
815.208
  0
VERTEX
  8
Unknown Area Type
  70
32
  10
-5.45483966892062
  20
42.22072377391272
  30
815.342
  0
VERTEX
  8
Unknown Area Type
  70
32
  10
-5.47948646606606
  20
42.21710445667106
  30
829.284
  0
VERTEX
  8
Unknown Area Type
  70
32
  10
-5.47953488458527
  20
42.21710340942712
  30
829.401
  0
VERTEX
  8
Unknown Area Type
  70
32
  10
-5.48779094715391
  20
42.21987383680545
  30
830.542
  0
VERTEX
  8
Unknown Area Type
  70
32
  10
-5.48898482174286
  20
42.25825620881375
  30
779.348
  0
VERTEX
  8
Unknown Area Type
  70
32
  10
-5.47959164996831
  20
42.25969804109705
  30
804.863
  0
VERTEX
  8
Unknown Area Type
  70
32
  10
-5.47956154440759
  20
42.25970319507773
  30
804.851
  0
SEQEND
  8
Unknown Area Type
  0
TEXT
  8
Unknown Area Type
 62
7
  1
PNOA-H_AMS_1956-57_33k_ES_PAN_2
 40
0.00045
  10
-5.4719004475662
  20
42.23954564551019
  0
POLYLINE
  8
Unknown Area Type
  70
9
  66
1
  0
VERTEX
  8
Unknown Area Type
  70
32
  10
-5.47956154440759
  20
42.25970319507773
  30
804.851
  0
VERTEX
  8
Unknown Area Type
  70
32
  10
-5.46749835950427
  20
42.26154847433014
  30
809.864
  0
VERTEX
  8
Unknown Area Type
  70
32
  10
-5.45626686653948
  20
42.25798039862898
  30
851.792
  0
VERTEX
  8
Unknown Area Type
  70
32
  10
-5.45481563220119
  20
42.22072879138024
  30
815.208
  0
VERTEX
  8
Unknown Area Type
  70
32
  10
-5.45483966892062
  20
42.22072377391272
  30
815.342
  0
VERTEX
  8
Unknown Area Type
  70
32
  10
-5.47948646606606
  20
42.21710445667106
  30
829.284
  0
VERTEX
  8
Unknown Area Type
  70
32
  10
-5.47953488458527
  20
42.21710340942712
  30
829.401
  0
VERTEX
  8
Unknown Area Type
  70
32
  10
-5.48779094715391
  20
42.21987383680545
  30
830.542
  0
VERTEX
  8
Unknown Area Type
  70
32
  10
-5.48898482174286
  20
42.25825620881375
  30
779.348
  0
VERTEX
  8
Unknown Area Type
  70
32
  10
-5.47959164996831
  20
42.25969804109705
  30
804.863
  0
VERTEX
  8
Unknown Area Type
  70
32
  10
-5.47956154440759
  20
42.25970319507773
  30
804.851
  0
SEQEND
  8
Unknown Area Type
  0
TEXT
  8
Unknown Area Type
 62
7
  1
PNOA-H_AMS_1956-57_33k_ES_PAN_2
 40
0.00045
  10
-5.4719004475662
  20
42.23954564551019
  0
POLYLINE
  8
Unknown Area Type
  70
9
  66
1
  0
VERTEX
  8
Unknown Area Type
  70
32
  10
-5.38965535739582
  20
42.23816243905136
  30
823.045
  0
VERTEX
  8
Unknown Area Type
  70
32
  10
-5.38965806275997
  20
42.22201995855355
  30
826.364
  0
VERTEX
  8
Unknown Area Type
  70
32
  10
-5.4112180428629
  20
42.21835354360216
  30
822.794
  0
VERTEX
  8
Unknown Area Type
  70
32
  10
-5.42160036945975
  20
42.22135418195397
  30
811.583
  0
VERTEX
  8
Unknown Area Type
  70
32
  10
-5.42300631584746
  20
42.25635138111148
  30
830.402
  0
VERTEX
  8
Unknown Area Type
  70
32
  10
-5.4231002415174
  20
42.25880338876043
  30
829.912
  0
VERTEX
  8
Unknown Area Type
  70
32
  10
-5.39585453916081
  20
42.26169951683602
  30
851.692
  0
VERTEX
  8
Unknown Area Type
  70
32
  10
-5.39580002656168
  20
42.26170065621378
  30
851.584
  0
VERTEX
  8
Unknown Area Type
  70
32
  10
-5.39575088921739
  20
42.26168367223725
  30
851.523
  0
VERTEX
  8
Unknown Area Type
  70
32
  10
-5.38966371161449
  20
42.25940626796366
  30
824.668
  0
VERTEX
  8
Unknown Area Type
  70
32
  10
-5.38965198321858
  20
42.25909582276959
  30
822.887
  0
VERTEX
  8
Unknown Area Type
  70
32
  10
-5.38966028309483
  20
42.23829291649666
  30
822.733
  0
VERTEX
  8
Unknown Area Type
  70
32
  10
-5.38965535739582
  20
42.23816243905136
  30
823.045
  0
SEQEND
  8
Unknown Area Type
  0
TEXT
  8
Unknown Area Type
 62
7
  1
PNOA-H_AMS_1956-57_33k_ES_PAN_2
 40
0.00045
  10
-5.40637633317499
  20
42.23987747956641
  0
POLYLINE
  8
Unknown Area Type
  70
9
  66
1
  0
VERTEX
  8
Unknown Area Type
  70
32
  10
-5.38965535739582
  20
42.23816243905136
  30
823.045
  0
VERTEX
  8
Unknown Area Type
  70
32
  10
-5.38965806275997
  20
42.22201995855355
  30
826.364
  0
VERTEX
  8
Unknown Area Type
  70
32
  10
-5.4112180428629
  20
42.21835354360216
  30
822.794
  0
VERTEX
  8
Unknown Area Type
  70
32
  10
-5.42160036945975
  20
42.22135418195397
  30
811.583
  0
VERTEX
  8
Unknown Area Type
  70
32
  10
-5.42300631584746
  20
42.25635138111148
  30
830.402
  0
VERTEX
  8
Unknown Area Type
  70
32
  10
-5.4231002415174
  20
42.25880338876043
  30
829.912
  0
VERTEX
  8
Unknown Area Type
  70
32
  10
-5.39585453916081
  20
42.26169951683602
  30
851.692
  0
VERTEX
  8
Unknown Area Type
  70
32
  10
-5.39580002656168
  20
42.26170065621378
  30
851.584
  0
VERTEX
  8
Unknown Area Type
  70
32
  10
-5.39575088921739
  20
42.26168367223725
  30
851.523
  0
VERTEX
  8
Unknown Area Type
  70
32
  10
-5.38966371161449
  20
42.25940626796366
  30
824.668
  0
VERTEX
  8
Unknown Area Type
  70
32
  10
-5.38965198321858
  20
42.25909582276959
  30
822.887
  0
VERTEX
  8
Unknown Area Type
  70
32
  10
-5.38966028309483
  20
42.23829291649666
  30
822.733
  0
VERTEX
  8
Unknown Area Type
  70
32
  10
-5.38965535739582
  20
42.23816243905136
  30
823.045
  0
SEQEND
  8
Unknown Area Type
  0
TEXT
  8
Unknown Area Type
 62
7
  1
PNOA-H_AMS_1956-57_33k_ES_PAN_2
 40
0.00045
  10
-5.40637633317499
  20
42.23987747956641
  0
POLYLINE
  8
Unknown Area Type
  70
9
  66
1
  0
VERTEX
  8
Unknown Area Type
  70
32
  10
-5.52083333333329
  20
42.25000000000006
  30
749.667
  0
VERTEX
  8
Unknown Area Type
  70
32
  10
-5.52083333333329
  20
42.25806177556682
  30
748.822
  0
VERTEX
  8
Unknown Area Type
  70
32
  10
-5.5022414581687
  20
42.26179038082898
  30
772.779
  0
VERTEX
  8
Unknown Area Type
  70
32
  10
-5.48898499877428
  20
42.25826070768732
  30
779.351
  0
VERTEX
  8
Unknown Area Type
  70
32
  10
-5.48829647008757
  20
42.23613125503711
  30
843.199
  0
VERTEX
  8
Unknown Area Type
  70
32
  10
-5.48829381741058
  20
42.23606377163676
  30
842.723
  0
VERTEX
  8
Unknown Area Type
  70
32
  10
-5.48779094715391
  20
42.21987383680545
  30
830.542
  0
VERTEX
  8
Unknown Area Type
  70
32
  10
-5.51424555219642
  20
42.21683818274077
  30
769.638
  0
VERTEX
  8
Unknown Area Type
  70
32
  10
-5.51427581284195
  20
42.21683751904938
  30
769.552
  0
VERTEX
  8
Unknown Area Type
  70
32
  10
-5.51444777258973
  20
42.21689678569058
  30
769.158
  0
VERTEX
  8
Unknown Area Type
  70
32
  10
-5.5197485971322
  20
42.21873908299207
  30
758.165
  0
VERTEX
  8
Unknown Area Type
  70
32
  10
-5.52083333333329
  20
42.23203268122353
  30
754.538
  0
SEQEND
  8
Unknown Area Type
  0
TEXT
  8
Unknown Area Type
 62
7
  1
PNOA-H_AMS_1956-57_33k_ES_PAN_2
 40
0.00045
  10
-5.50535651189729
  20
42.23951043605625
  0
POLYLINE
  8
Unknown Area Type
  70
9
  66
1
  0
VERTEX
  8
Unknown Area Type
  70
32
  10
-5.52083366666662
  20
42.25806170871672
  30
748.822
  0
VERTEX
  8
Unknown Area Type
  70
32
  10
-5.52083333333329
  20
42.25806177556682
  30
748.822
  0
VERTEX
  8
Unknown Area Type
  70
32
  10
-5.52083333333329
  20
42.25000000000006
  30
749.667
  0
VERTEX
  8
Unknown Area Type
  70
32
  10
-5.52083333333329
  20
42.23203268122353
  30
754.538
  0
VERTEX
  8
Unknown Area Type
  70
32
  10
-5.52083366666662
  20
42.23203676627149
  30
754.537
  0
SEQEND
  8
Unknown Area Type
  0
TEXT
  8
Unknown Area Type
 62
7
  1
PNOA-H_AMS_1956-57_33k_ES_PAN_2
 40
0.00045
  10
-5.52083349999996
  20
42.24504722839517
  0
POLYLINE
  8
Unknown Area Type
  70
9
  66
1
  0
VERTEX
  8
Unknown Area Type
  70
32
  10
-5.52083333333329
  20
42.25000000000006
  30
749.667
  0
VERTEX
  8
Unknown Area Type
  70
32
  10
-5.52083333333329
  20
42.25806177556682
  30
748.822
  0
VERTEX
  8
Unknown Area Type
  70
32
  10
-5.5022414581687
  20
42.26179038082898
  30
772.779
  0
VERTEX
  8
Unknown Area Type
  70
32
  10
-5.48898499877428
  20
42.25826070768732
  30
779.351
  0
VERTEX
  8
Unknown Area Type
  70
32
  10
-5.48829647008757
  20
42.23613125503711
  30
843.199
  0
VERTEX
  8
Unknown Area Type
  70
32
  10
-5.48829381741058
  20
42.23606377163676
  30
842.723
  0
VERTEX
  8
Unknown Area Type
  70
32
  10
-5.48779094715391
  20
42.21987383680545
  30
830.542
  0
VERTEX
  8
Unknown Area Type
  70
32
  10
-5.51424555219642
  20
42.21683818274077
  30
769.638
  0
VERTEX
  8
Unknown Area Type
  70
32
  10
-5.51427581284195
  20
42.21683751904938
  30
769.552
  0
VERTEX
  8
Unknown Area Type
  70
32
  10
-5.51444777258973
  20
42.21689678569058
  30
769.158
  0
VERTEX
  8
Unknown Area Type
  70
32
  10
-5.5197485971322
  20
42.21873908299207
  30
758.165
  0
VERTEX
  8
Unknown Area Type
  70
32
  10
-5.52083333333329
  20
42.23203268122353
  30
754.538
  0
SEQEND
  8
Unknown Area Type
  0
TEXT
  8
Unknown Area Type
 62
7
  1
PNOA-H_AMS_1956-57_33k_ES_PAN_2
 40
0.00045
  10
-5.50535651189729
  20
42.23951043605625
  0
POLYLINE
  8
Unknown Area Type
  70
9
  66
1
  0
VERTEX
  8
Unknown Area Type
  70
32
  10
-5.35936589488714
  20
42.26064625944595
  30
830.252
  0
VERTEX
  8
Unknown Area Type
  70
32
  10
-5.32565288674505
  20
42.261195614568
  30
827.878
  0
VERTEX
  8
Unknown Area Type
  70
32
  10
-5.32738314671632
  20
42.22254015188793
  30
801.809
  0
VERTEX
  8
Unknown Area Type
  70
32
  10
-5.34251260984064
  20
42.21917011539436
  30
811.12
  0
VERTEX
  8
Unknown Area Type
  70
32
  10
-5.35695515961556
  20
42.22261591854079
  30
820.771
  0
VERTEX
  8
Unknown Area Type
  70
32
  10
-5.35935733553072
  20
42.26041679496462
  30
830.171
  0
VERTEX
  8
Unknown Area Type
  70
32
  10
-5.35936589488714
  20
42.26064625944595
  30
830.252
  0
SEQEND
  8
Unknown Area Type
  0
TEXT
  8
Unknown Area Type
 62
7
  1
PNOA-H_AMS_1956-57_33k_ES_PAN_2
 40
0.00045
  10
-5.34250948684377
  20
42.24004486947264
  0
POLYLINE
  8
Unknown Area Type
  70
9
  66
1
  0
VERTEX
  8
Unknown Area Type
  70
32
  10
-5.35936589488714
  20
42.26064625944595
  30
830.252
  0
VERTEX
  8
Unknown Area Type
  70
32
  10
-5.32565288674505
  20
42.261195614568
  30
827.878
  0
VERTEX
  8
Unknown Area Type
  70
32
  10
-5.32738314671632
  20
42.22254015188793
  30
801.809
  0
VERTEX
  8
Unknown Area Type
  70
32
  10
-5.34251260984064
  20
42.21917011539436
  30
811.12
  0
VERTEX
  8
Unknown Area Type
  70
32
  10
-5.35695515961556
  20
42.22261591854079
  30
820.771
  0
VERTEX
  8
Unknown Area Type
  70
32
  10
-5.35935733553072
  20
42.26041679496462
  30
830.171
  0
VERTEX
  8
Unknown Area Type
  70
32
  10
-5.35936589488714
  20
42.26064625944595
  30
830.252
  0
SEQEND
  8
Unknown Area Type
  0
TEXT
  8
Unknown Area Type
 62
7
  1
PNOA-H_AMS_1956-57_33k_ES_PAN_2
 40
0.00045
  10
-5.34250948684377
  20
42.24004486947264
  0
POLYLINE
  8
Unknown Area Type
  70
9
  66
1
  0
VERTEX
  8
Unknown Area Type
  70
32
  10
-5.52083333333329
  20
42.18303058481241
  30
762.666
  0
VERTEX
  8
Unknown Area Type
  70
32
  10
-5.51265990348213
  20
42.18693419212825
  30
767.397
  0
VERTEX
  8
Unknown Area Type
  70
32
  10
-5.51265421073497
  20
42.18694332240293
  30
767.393
  0
VERTEX
  8
Unknown Area Type
  70
32
  10
-5.49035731409108
  20
42.18236871030157
  30
826.624
  0
VERTEX
  8
Unknown Area Type
  70
32
  10
-5.49022021105505
  20
42.16666666666671
  30
799.586
  0
VERTEX
  8
Unknown Area Type
  70
32
  10
-5.52083333333329
  20
42.16666666666671
  30
760.697
  0
SEQEND
  8
Unknown Area Type
  0
TEXT
  8
Unknown Area Type
 62
7
  1
PNOA-H_AMS_1956-57_33k_ES_PAN_2
 40
0.00045
  10
-5.50552677219417
  20
42.17680499453482
  0
POLYLINE
  8
Unknown Area Type
  70
9
  66
1
  0
VERTEX
  8
Unknown Area Type
  70
32
  10
-5.52083366666662
  20
42.18303042561334
  30
762.666
  0
VERTEX
  8
Unknown Area Type
  70
32
  10
-5.52083333333329
  20
42.18303058481241
  30
762.666
  0
VERTEX
  8
Unknown Area Type
  70
32
  10
-5.52083333333329
  20
42.16666666666671
  30
760.697
  0
VERTEX
  8
Unknown Area Type
  70
32
  10
-5.52083366666662
  20
42.16666666666671
  30
760.697
  0
SEQEND
  8
Unknown Area Type
  0
TEXT
  8
Unknown Area Type
 62
7
  1
PNOA-H_AMS_1956-57_33k_ES_PAN_2
 40
0.00045
  10
-5.52083349999996
  20
42.17484862573956
  0
POLYLINE
  8
Unknown Area Type
  70
9
  66
1
  0
VERTEX
  8
Unknown Area Type
  70
32
  10
-5.52083333333329
  20
42.18303058481241
  30
762.666
  0
VERTEX
  8
Unknown Area Type
  70
32
  10
-5.51265990348213
  20
42.18693419212825
  30
767.397
  0
VERTEX
  8
Unknown Area Type
  70
32
  10
-5.51265421073497
  20
42.18694332240293
  30
767.393
  0
VERTEX
  8
Unknown Area Type
  70
32
  10
-5.49035731409108
  20
42.18236871030157
  30
826.624
  0
VERTEX
  8
Unknown Area Type
  70
32
  10
-5.49022021105505
  20
42.16666666666671
  30
799.586
  0
VERTEX
  8
Unknown Area Type
  70
32
  10
-5.52083333333329
  20
42.16666666666671
  30
760.697
  0
SEQEND
  8
Unknown Area Type
  0
TEXT
  8
Unknown Area Type
 62
7
  1
PNOA-H_AMS_1956-57_33k_ES_PAN_2
 40
0.00045
  10
-5.50552677219417
  20
42.17680499453482
  0
POLYLINE
  8
Unknown Area Type
  70
9
  66
1
  0
VERTEX
  8
Unknown Area Type
  70
32
  10
-5.52083366666662
  20
42.16666666666671
  30
760.697
  0
VERTEX
  8
Unknown Area Type
  70
32
  10
-5.52083333333329
  20
42.16666666666671
  30
760.697
  0
VERTEX
  8
Unknown Area Type
  70
32
  10
-5.52083333333329
  20
42.16666650000004
  30
760.697
  0
VERTEX
  8
Unknown Area Type
  70
32
  10
-5.52083366666662
  20
42.16666650000004
  30
760.697
  0
SEQEND
  8
Unknown Area Type
  0
TEXT
  8
Unknown Area Type
 62
7
  1
PNOA-H_AMS_1956-57_33k_ES_PAN_2
 40
0.00045
  10
-5.52083349999996
  20
42.16666658333337
  0
POLYLINE
  8
Unknown Area Type
  70
9
  66
1
  0
VERTEX
  8
Unknown Area Type
  70
32
  10
-5.49035144179832
  20
42.18237334062071
  30
826.624
  0
VERTEX
  8
Unknown Area Type
  70
32
  10
-5.49014326134235
  20
42.18246791767496
  30
826.574
  0
VERTEX
  8
Unknown Area Type
  70
32
  10
-5.47871515328701
  20
42.18763258146678
  30
822.499
  0
VERTEX
  8
Unknown Area Type
  70
32
  10
-5.47870323013906
  20
42.18763734201033
  30
822.451
  0
VERTEX
  8
Unknown Area Type
  70
32
  10
-5.45569709540913
  20
42.18220226462388
  30
795.236
  0
VERTEX
  8
Unknown Area Type
  70
32
  10
-5.45575936814103
  20
42.16666666666671
  30
798.244
  0
VERTEX
  8
Unknown Area Type
  70
32
  10
-5.47916666666666
  20
42.16666666666671
  30
799.435
  0
VERTEX
  8
Unknown Area Type
  70
32
  10
-5.49022342186775
  20
42.16666666666671
  30
799.604
  0
VERTEX
  8
Unknown Area Type
  70
32
  10
-5.49036265640517
  20
42.18235058319652
  30
826.623
  0
SEQEND
  8
Unknown Area Type
  0
TEXT
  8
Unknown Area Type
 62
7
  1
PNOA-H_AMS_1956-57_33k_ES_PAN_2
 40
0.00045
  10
-5.47302987590715
  20
42.17715200433852
  0
POLYLINE
  8
Unknown Area Type
  70
9
  66
1
  0
VERTEX
  8
Unknown Area Type
  70
32
  10
-5.49035144179832
  20
42.18237334062071
  30
826.624
  0
VERTEX
  8
Unknown Area Type
  70
32
  10
-5.49014326134235
  20
42.18246791767496
  30
826.574
  0
VERTEX
  8
Unknown Area Type
  70
32
  10
-5.47871515328701
  20
42.18763258146678
  30
822.499
  0
VERTEX
  8
Unknown Area Type
  70
32
  10
-5.47870323013906
  20
42.18763734201033
  30
822.451
  0
VERTEX
  8
Unknown Area Type
  70
32
  10
-5.45569709540913
  20
42.18220226462388
  30
795.236
  0
VERTEX
  8
Unknown Area Type
  70
32
  10
-5.45575936814103
  20
42.16666666666671
  30
798.244
  0
VERTEX
  8
Unknown Area Type
  70
32
  10
-5.47916666666666
  20
42.16666666666671
  30
799.435
  0
VERTEX
  8
Unknown Area Type
  70
32
  10
-5.49022342186775
  20
42.16666666666671
  30
799.604
  0
VERTEX
  8
Unknown Area Type
  70
32
  10
-5.49036265640517
  20
42.18235058319652
  30
826.623
  0
SEQEND
  8
Unknown Area Type
  0
TEXT
  8
Unknown Area Type
 62
7
  1
PNOA-H_AMS_1956-57_33k_ES_PAN_2
 40
0.00045
  10
-5.47302987590715
  20
42.17715200433852
  0
POLYLINE
  8
Unknown Area Type
  70
9
  66
1
  0
VERTEX
  8
Unknown Area Type
  70
32
  10
-5.19461423932193
  20
42.25485913188124
  30
778.039
  0
VERTEX
  8
Unknown Area Type
  70
32
  10
-5.18749999999999
  20
42.25587150698347
  30
778.274
  0
VERTEX
  8
Unknown Area Type
  70
32
  10
-5.18749999999999
  20
42.25000000000006
  30
778.247
  0
VERTEX
  8
Unknown Area Type
  70
32
  10
-5.18749999999999
  20
42.22916666666665
  30
768.688
  0
VERTEX
  8
Unknown Area Type
  70
32
  10
-5.18749999999999
  20
42.22138002389016
  30
772.19
  0
VERTEX
  8
Unknown Area Type
  70
32
  10
-5.194455236796
  20
42.22282909733915
  30
766.397
  0
SEQEND
  8
Unknown Area Type
  0
TEXT
  8
Unknown Area Type
 62
7
  1
PNOA-H_AMS_1956-57_33k_ES_PAN_2
 40
0.00045
  10
-5.19105711966096
  20
42.23862576543682
  0
POLYLINE
  8
Unknown Area Type
  70
9
  66
1
  0
VERTEX
  8
Unknown Area Type
  70
32
  10
-5.19461423932193
  20
42.25485913188124
  30
778.039
  0
VERTEX
  8
Unknown Area Type
  70
32
  10
-5.18749999999999
  20
42.25587150698347
  30
778.274
  0
VERTEX
  8
Unknown Area Type
  70
32
  10
-5.18749999999999
  20
42.25000000000006
  30
778.247
  0
VERTEX
  8
Unknown Area Type
  70
32
  10
-5.18749999999999
  20
42.22916666666665
  30
768.688
  0
VERTEX
  8
Unknown Area Type
  70
32
  10
-5.18749999999999
  20
42.22138002389016
  30
772.19
  0
VERTEX
  8
Unknown Area Type
  70
32
  10
-5.194455236796
  20
42.22282909733915
  30
766.397
  0
SEQEND
  8
Unknown Area Type
  0
TEXT
  8
Unknown Area Type
 62
7
  1
PNOA-H_AMS_1956-57_33k_ES_PAN_2
 40
0.00045
  10
-5.19105711966096
  20
42.23862576543682
  0
POLYLINE
  8
Unknown Area Type
  70
9
  66
1
  0
VERTEX
  8
Unknown Area Type
  70
32
  10
-5.18749999999999
  20
42.22916666666665
  30
768.688
  0
VERTEX
  8
Unknown Area Type
  70
32
  10
-5.18749999999999
  20
42.25000000000006
  30
778.247
  0
VERTEX
  8
Unknown Area Type
  70
32
  10
-5.18749999999999
  20
42.25587150698347
  30
778.274
  0
VERTEX
  8
Unknown Area Type
  70
32
  10
-5.18749966666666
  20
42.25587155441769
  30
778.274
  0
VERTEX
  8
Unknown Area Type
  70
32
  10
-5.18749966666666
  20
42.22137995444257
  30
772.19
  0
VERTEX
  8
Unknown Area Type
  70
32
  10
-5.18749999999999
  20
42.22138002389016
  30
772.19
  0
SEQEND
  8
Unknown Area Type
  0
TEXT
  8
Unknown Area Type
 62
7
  1
PNOA-H_AMS_1956-57_33k_ES_PAN_2
 40
0.00045
  10
-5.18749983333333
  20
42.23862575443013
  0
POLYLINE
  8
Unknown Area Type
  70
9
  66
1
  0
VERTEX
  8
Unknown Area Type
  70
32
  10
-5.28825765455542
  20
42.18321214497054
  30
776.084
  0
VERTEX
  8
Unknown Area Type
  70
32
  10
-5.27537568595963
  20
42.18798033984261
  30
759.801
  0
VERTEX
  8
Unknown Area Type
  70
32
  10
-5.27524419082557
  20
42.18802797753267
  30
759.687
  0
VERTEX
  8
Unknown Area Type
  70
32
  10
-5.27521393863578
  20
42.18802857783147
  30
759.652
  0
VERTEX
  8
Unknown Area Type
  70
32
  10
-5.25392315810672
  20
42.18319425847411
  30
746.965
  0
VERTEX
  8
Unknown Area Type
  70
32
  10
-5.25457460199285
  20
42.16666666666671
  30
766.136
  0
VERTEX
  8
Unknown Area Type
  70
32
  10
-5.27083333333334
  20
42.16666666666671
  30
766.879
  0
VERTEX
  8
Unknown Area Type
  70
32
  10
-5.28788787210546
  20
42.16666666666671
  30
758.676
  0
SEQEND
  8
Unknown Area Type
  0
TEXT
  8
Unknown Area Type
 62
7
  1
PNOA-H_AMS_1956-57_33k_ES_PAN_2
 40
0.00045
  10
-5.27109084267292
  20
42.16869435372044
  0
POLYLINE
  8
Unknown Area Type
  70
9
  66
1
  0
VERTEX
  8
Unknown Area Type
  70
32
  10
-5.28825765455542
  20
42.18321214497054
  30
776.084
  0
VERTEX
  8
Unknown Area Type
  70
32
  10
-5.27537568595963
  20
42.18798033984261
  30
759.801
  0
VERTEX
  8
Unknown Area Type
  70
32
  10
-5.27524419082557
  20
42.18802797753267
  30
759.687
  0
VERTEX
  8
Unknown Area Type
  70
32
  10
-5.27521393863578
  20
42.18802857783147
  30
759.652
  0
VERTEX
  8
Unknown Area Type
  70
32
  10
-5.25392315810672
  20
42.18319425847411
  30
746.965
  0
VERTEX
  8
Unknown Area Type
  70
32
  10
-5.25457460199285
  20
42.16666666666671
  30
766.136
  0
VERTEX
  8
Unknown Area Type
  70
32
  10
-5.27083333333334
  20
42.16666666666671
  30
766.879
  0
VERTEX
  8
Unknown Area Type
  70
32
  10
-5.28788787210546
  20
42.16666666666671
  30
758.676
  0
SEQEND
  8
Unknown Area Type
  0
TEXT
  8
Unknown Area Type
 62
7
  1
PNOA-H_AMS_1956-57_33k_ES_PAN_2
 40
0.00045
  10
-5.27109084267292
  20
42.16869435372044
  0
POLYLINE
  8
Unknown Area Type
  70
9
  66
1
  0
VERTEX
  8
Unknown Area Type
  70
32
  10
-5.42127972471056
  20
42.18284420740808
  30
766.276
  0
VERTEX
  8
Unknown Area Type
  70
32
  10
-5.40977691445284
  20
42.18778746006048
  30
814.758
  0
VERTEX
  8
Unknown Area Type
  70
32
  10
-5.4096220123403
  20
42.18785375472734
  30
814.841
  0
VERTEX
  8
Unknown Area Type
  70
32
  10
-5.40959176314163
  20
42.18785439045823
  30
814.857
  0
VERTEX
  8
Unknown Area Type
  70
32
  10
-5.38751782134061
  20
42.18322801495344
  30
790.219
  0
VERTEX
  8
Unknown Area Type
  70
32
  10
-5.38786050031987
  20
42.16666666666671
  30
765.932
  0
VERTEX
  8
Unknown Area Type
  70
32
  10
-5.39583333333332
  20
42.16666666666671
  30
765.69
  0
VERTEX
  8
Unknown Area Type
  70
32
  10
-5.42123457940468
  20
42.16666666666671
  30
761.697
  0
SEQEND
  8
Unknown Area Type
  0
TEXT
  8
Unknown Area Type
 62
7
  1
PNOA-H_AMS_1956-57_33k_ES_PAN_2
 40
0.00045
  10
-5.40439877302559
  20
42.17726052856247
  0
POLYLINE
  8
Unknown Area Type
  70
9
  66
1
  0
VERTEX
  8
Unknown Area Type
  70
32
  10
-5.42127972471056
  20
42.18284420740808
  30
766.276
  0
VERTEX
  8
Unknown Area Type
  70
32
  10
-5.40977691445284
  20
42.18778746006048
  30
814.758
  0
VERTEX
  8
Unknown Area Type
  70
32
  10
-5.4096220123403
  20
42.18785375472734
  30
814.841
  0
VERTEX
  8
Unknown Area Type
  70
32
  10
-5.40959176314163
  20
42.18785439045823
  30
814.857
  0
VERTEX
  8
Unknown Area Type
  70
32
  10
-5.38751782134061
  20
42.18322801495344
  30
790.219
  0
VERTEX
  8
Unknown Area Type
  70
32
  10
-5.38786050031987
  20
42.16666666666671
  30
765.932
  0
VERTEX
  8
Unknown Area Type
  70
32
  10
-5.39583333333332
  20
42.16666666666671
  30
765.69
  0
VERTEX
  8
Unknown Area Type
  70
32
  10
-5.42123457940468
  20
42.16666666666671
  30
761.697
  0
SEQEND
  8
Unknown Area Type
  0
TEXT
  8
Unknown Area Type
 62
7
  1
PNOA-H_AMS_1956-57_33k_ES_PAN_2
 40
0.00045
  10
-5.40439877302559
  20
42.17726052856247
  0
POLYLINE
  8
Unknown Area Type
  70
9
  66
1
  0
VERTEX
  8
Unknown Area Type
  70
32
  10
-5.22059953595577
  20
42.1836913516273
  30
783.557
  0
VERTEX
  8
Unknown Area Type
  70
32
  10
-5.20960173994223
  20
42.18794736880126
  30
788.514
  0
VERTEX
  8
Unknown Area Type
  70
32
  10
-5.20958979532097
  20
42.18795210182801
  30
788.531
  0
VERTEX
  8
Unknown Area Type
  70
32
  10
-5.18749999999999
  20
42.18381387787136
  30
771.877
  0
VERTEX
  8
Unknown Area Type
  70
32
  10
-5.18749999999999
  20
42.16666666666671
  30
764.176
  0
VERTEX
  8
Unknown Area Type
  70
32
  10
-5.2205053739124
  20
42.16666666666671
  30
771.378
  0
SEQEND
  8
Unknown Area Type
  0
TEXT
  8
Unknown Area Type
 62
7
  1
PNOA-H_AMS_1956-57_33k_ES_PAN_2
 40
0.00045
  10
-5.20404976797788
  20
42.17730938424736
  0
POLYLINE
  8
Unknown Area Type
  70
9
  66
1
  0
VERTEX
  8
Unknown Area Type
  70
32
  10
-5.22059953595577
  20
42.1836913516273
  30
783.557
  0
VERTEX
  8
Unknown Area Type
  70
32
  10
-5.20960173994223
  20
42.18794736880126
  30
788.514
  0
VERTEX
  8
Unknown Area Type
  70
32
  10
-5.20958979532097
  20
42.18795210182801
  30
788.531
  0
VERTEX
  8
Unknown Area Type
  70
32
  10
-5.18749999999999
  20
42.18381387787136
  30
771.877
  0
VERTEX
  8
Unknown Area Type
  70
32
  10
-5.18749999999999
  20
42.16666666666671
  30
764.176
  0
VERTEX
  8
Unknown Area Type
  70
32
  10
-5.2205053739124
  20
42.16666666666671
  30
771.378
  0
SEQEND
  8
Unknown Area Type
  0
TEXT
  8
Unknown Area Type
 62
7
  1
PNOA-H_AMS_1956-57_33k_ES_PAN_2
 40
0.00045
  10
-5.20404976797788
  20
42.17730938424736
  0
POLYLINE
  8
Unknown Area Type
  70
9
  66
1
  0
VERTEX
  8
Unknown Area Type
  70
32
  10
-5.18749999999999
  20
42.18381387787136
  30
771.877
  0
VERTEX
  8
Unknown Area Type
  70
32
  10
-5.18749966666666
  20
42.18381381542586
  30
771.877
  0
VERTEX
  8
Unknown Area Type
  70
32
  10
-5.18749966666666
  20
42.16666666666671
  30
764.176
  0
VERTEX
  8
Unknown Area Type
  70
32
  10
-5.18749999999999
  20
42.16666666666671
  30
764.176
  0
SEQEND
  8
Unknown Area Type
  0
TEXT
  8
Unknown Area Type
 62
7
  1
PNOA-H_AMS_1956-57_33k_ES_PAN_2
 40
0.00045
  10
-5.18749983333333
  20
42.17524027226904
  0
POLYLINE
  8
Unknown Area Type
  70
9
  66
1
  0
VERTEX
  8
Unknown Area Type
  70
32
  10
-5.25392315810672
  20
42.18319425847411
  30
746.965
  0
VERTEX
  8
Unknown Area Type
  70
32
  10
-5.24239426227919
  20
42.18743233368475
  30
751.273
  0
VERTEX
  8
Unknown Area Type
  70
32
  10
-5.22059953595577
  20
42.1836913516273
  30
783.557
  0
VERTEX
  8
Unknown Area Type
  70
32
  10
-5.22050698374958
  20
42.16666666666671
  30
772.276
  0
VERTEX
  8
Unknown Area Type
  70
32
  10
-5.22916666666662
  20
42.16666666666671
  30
772.307
  0
VERTEX
  8
Unknown Area Type
  70
32
  10
-5.25457346177779
  20
42.16666666666671
  30
766.349
  0
SEQEND
  8
Unknown Area Type
  0
TEXT
  8
Unknown Area Type
 62
7
  1
PNOA-H_AMS_1956-57_33k_ES_PAN_2
 40
0.00045
  10
-5.23754022276368
  20
42.17704950017573
  0
POLYLINE
  8
Unknown Area Type
  70
9
  66
1
  0
VERTEX
  8
Unknown Area Type
  70
32
  10
-5.25392315810672
  20
42.18319425847411
  30
746.965
  0
VERTEX
  8
Unknown Area Type
  70
32
  10
-5.24239426227919
  20
42.18743233368475
  30
751.273
  0
VERTEX
  8
Unknown Area Type
  70
32
  10
-5.22059953595577
  20
42.1836913516273
  30
783.557
  0
VERTEX
  8
Unknown Area Type
  70
32
  10
-5.22050698374958
  20
42.16666666666671
  30
772.276
  0
VERTEX
  8
Unknown Area Type
  70
32
  10
-5.22916666666662
  20
42.16666666666671
  30
772.307
  0
VERTEX
  8
Unknown Area Type
  70
32
  10
-5.25457346177779
  20
42.16666666666671
  30
766.349
  0
SEQEND
  8
Unknown Area Type
  0
TEXT
  8
Unknown Area Type
 62
7
  1
PNOA-H_AMS_1956-57_33k_ES_PAN_2
 40
0.00045
  10
-5.23754022276368
  20
42.17704950017573
  0
ENDSEC
  0
EOF
