  0
SECTION
  2
HEADER
  9
$ACADVER
  1
AC1009
  9
$LUNITS
  70
2
  9
$DWGCODEPAGE
  3
UTF8
  9
$LIMMIN
  10
-5.85416666666668
  20
42.16666666666671
  9
$LIMMAX
  10
-5.52083333333329
  20
42.33333333333331
  9
$EXTMIN
  10
-5.85416666666668
  20
42.16666666666671
  9
$EXTMAX
  10
-5.52083333333329
  20
42.33333333333331
  999
Created by Global Mapper
  999
Projection: Geographic (Latitude/Longitude)
  999
Datum: ETRS89
  999
Ground Units: arc degrees
  999
CENTRAL LONGITUDE: 0
  0
ENDSEC
  0
SECTION
  2
TABLES
  0
ENDSEC
  0
SECTION
  2
BLOCKS
  0
ENDSEC
  0
SECTION
  2
ENTITIES
  0
POLYLINE
  8
Unknown Area Type
  70
9
  66
1
  0
VERTEX
  8
Unknown Area Type
  70
32
  10
-5.76384022360381
  20
42.19286517950822
  30
761.885
  0
VERTEX
  8
Unknown Area Type
  70
32
  10
-5.76383404194218
  20
42.18147358580647
  30
759.017
  0
VERTEX
  8
Unknown Area Type
  70
32
  10
-5.78666185993862
  20
42.17689555154367
  30
757.829
  0
VERTEX
  8
Unknown Area Type
  70
32
  10
-5.7990473190055
  20
42.18087582901688
  30
759.817
  0
VERTEX
  8
Unknown Area Type
  70
32
  10
-5.79914552345065
  20
42.21655238890803
  30
767.826
  0
VERTEX
  8
Unknown Area Type
  70
32
  10
-5.79122136569679
  20
42.21899695155297
  30
767.259
  0
VERTEX
  8
Unknown Area Type
  70
32
  10
-5.79117295787784
  20
42.21899813038535
  30
767.288
  0
VERTEX
  8
Unknown Area Type
  70
32
  10
-5.76385746821376
  20
42.21589133984791
  30
769.188
  0
VERTEX
  8
Unknown Area Type
  70
32
  10
-5.76384336148003
  20
42.19293714643727
  30
761.979
  0
VERTEX
  8
Unknown Area Type
  70
32
  10
-5.76384022360381
  20
42.19286517950822
  30
761.885
  0
SEQEND
  8
Unknown Area Type
  0
TEXT
  8
Unknown Area Type
 62
7
  1
PNOA-H_AMS_1956-57_33k_ES_PAN_2
 40
0.00045
  10
-5.7814900789143
  20
42.19791351312948
  0
POLYLINE
  8
Unknown Area Type
  70
9
  66
1
  0
VERTEX
  8
Unknown Area Type
  70
32
  10
-5.76384022360381
  20
42.19286517950822
  30
761.885
  0
VERTEX
  8
Unknown Area Type
  70
32
  10
-5.76383404194218
  20
42.18147358580647
  30
759.017
  0
VERTEX
  8
Unknown Area Type
  70
32
  10
-5.78666185993862
  20
42.17689555154367
  30
757.829
  0
VERTEX
  8
Unknown Area Type
  70
32
  10
-5.7990473190055
  20
42.18087582901688
  30
759.817
  0
VERTEX
  8
Unknown Area Type
  70
32
  10
-5.79914552345065
  20
42.21655238890803
  30
767.826
  0
VERTEX
  8
Unknown Area Type
  70
32
  10
-5.79122136569679
  20
42.21899695155297
  30
767.259
  0
VERTEX
  8
Unknown Area Type
  70
32
  10
-5.79117295787784
  20
42.21899813038535
  30
767.288
  0
VERTEX
  8
Unknown Area Type
  70
32
  10
-5.76385746821376
  20
42.21589133984791
  30
769.188
  0
VERTEX
  8
Unknown Area Type
  70
32
  10
-5.76384336148003
  20
42.19293714643727
  30
761.979
  0
VERTEX
  8
Unknown Area Type
  70
32
  10
-5.76384022360381
  20
42.19286517950822
  30
761.885
  0
SEQEND
  8
Unknown Area Type
  0
TEXT
  8
Unknown Area Type
 62
7
  1
PNOA-H_AMS_1956-57_33k_ES_PAN_2
 40
0.00045
  10
-5.7814900789143
  20
42.19791351312948
  0
POLYLINE
  8
Unknown Area Type
  70
9
  66
1
  0
VERTEX
  8
Unknown Area Type
  70
32
  10
-5.75083548382085
  20
42.21814524063564
  30
768.059
  0
VERTEX
  8
Unknown Area Type
  70
32
  10
-5.72747189532802
  20
42.21561023963145
  30
772.489
  0
VERTEX
  8
Unknown Area Type
  70
32
  10
-5.72607844283354
  20
42.18223806473753
  30
761.468
  0
VERTEX
  8
Unknown Area Type
  70
32
  10
-5.7541709534959
  20
42.1776852679091
  30
761.632
  0
VERTEX
  8
Unknown Area Type
  70
32
  10
-5.76383404194218
  20
42.18147358580647
  30
759.017
  0
VERTEX
  8
Unknown Area Type
  70
32
  10
-5.76385746821376
  20
42.21589133984791
  30
769.188
  0
VERTEX
  8
Unknown Area Type
  70
32
  10
-5.7557470880978
  20
42.21868014408881
  30
767.414
  0
VERTEX
  8
Unknown Area Type
  70
32
  10
-5.75087198580669
  20
42.21814886725702
  30
767.983
  0
VERTEX
  8
Unknown Area Type
  70
32
  10
-5.75083548382085
  20
42.21814524063564
  30
768.059
  0
SEQEND
  8
Unknown Area Type
  0
TEXT
  8
Unknown Area Type
 62
7
  1
PNOA-H_AMS_1956-57_33k_ES_PAN_2
 40
0.00045
  10
-5.74496825515756
  20
42.19834088058484
  0
POLYLINE
  8
Unknown Area Type
  70
9
  66
1
  0
VERTEX
  8
Unknown Area Type
  70
32
  10
-5.75083548382085
  20
42.21814524063564
  30
768.059
  0
VERTEX
  8
Unknown Area Type
  70
32
  10
-5.72747189532802
  20
42.21561023963145
  30
772.489
  0
VERTEX
  8
Unknown Area Type
  70
32
  10
-5.72607844283354
  20
42.18223806473753
  30
761.468
  0
VERTEX
  8
Unknown Area Type
  70
32
  10
-5.7541709534959
  20
42.1776852679091
  30
761.632
  0
VERTEX
  8
Unknown Area Type
  70
32
  10
-5.76383404194218
  20
42.18147358580647
  30
759.017
  0
VERTEX
  8
Unknown Area Type
  70
32
  10
-5.76385746821376
  20
42.21589133984791
  30
769.188
  0
VERTEX
  8
Unknown Area Type
  70
32
  10
-5.7557470880978
  20
42.21868014408881
  30
767.414
  0
VERTEX
  8
Unknown Area Type
  70
32
  10
-5.75087198580669
  20
42.21814886725702
  30
767.983
  0
VERTEX
  8
Unknown Area Type
  70
32
  10
-5.75083548382085
  20
42.21814524063564
  30
768.059
  0
SEQEND
  8
Unknown Area Type
  0
TEXT
  8
Unknown Area Type
 62
7
  1
PNOA-H_AMS_1956-57_33k_ES_PAN_2
 40
0.00045
  10
-5.74496825515756
  20
42.19834088058484
  0
POLYLINE
  8
Unknown Area Type
  70
9
  66
1
  0
VERTEX
  8
Unknown Area Type
  70
32
  10
-5.67638247893223
  20
42.21768803216319
  30
774.112
  0
VERTEX
  8
Unknown Area Type
  70
32
  10
-5.65610519769129
  20
42.21645767112111
  30
772.173
  0
VERTEX
  8
Unknown Area Type
  70
32
  10
-5.6558133608063
  20
42.18304991805274
  30
764.288
  0
VERTEX
  8
Unknown Area Type
  70
32
  10
-5.68658811102999
  20
42.1802345839528
  30
751.871
  0
VERTEX
  8
Unknown Area Type
  70
32
  10
-5.68984455674232
  20
42.1817927014172
  30
763.102
  0
VERTEX
  8
Unknown Area Type
  70
32
  10
-5.69162696845009
  20
42.21635849922028
  30
772.129
  0
VERTEX
  8
Unknown Area Type
  70
32
  10
-5.68662157658662
  20
42.21830851457883
  30
772.579
  0
VERTEX
  8
Unknown Area Type
  70
32
  10
-5.67643713190785
  20
42.21769125874764
  30
774.192
  0
VERTEX
  8
Unknown Area Type
  70
32
  10
-5.67638247893223
  20
42.21768803216319
  30
774.112
  0
SEQEND
  8
Unknown Area Type
  0
TEXT
  8
Unknown Area Type
 62
7
  1
PNOA-H_AMS_1956-57_33k_ES_PAN_2
 40
0.00045
  10
-5.67372061032797
  20
42.19946756369156
  0
POLYLINE
  8
Unknown Area Type
  70
9
  66
1
  0
VERTEX
  8
Unknown Area Type
  70
32
  10
-5.67638247893223
  20
42.21768803216319
  30
774.112
  0
VERTEX
  8
Unknown Area Type
  70
32
  10
-5.65610519769129
  20
42.21645767112111
  30
772.173
  0
VERTEX
  8
Unknown Area Type
  70
32
  10
-5.6558133608063
  20
42.18304991805274
  30
764.288
  0
VERTEX
  8
Unknown Area Type
  70
32
  10
-5.68658811102999
  20
42.1802345839528
  30
751.871
  0
VERTEX
  8
Unknown Area Type
  70
32
  10
-5.68984455674232
  20
42.1817927014172
  30
763.102
  0
VERTEX
  8
Unknown Area Type
  70
32
  10
-5.69162696845009
  20
42.21635849922028
  30
772.129
  0
VERTEX
  8
Unknown Area Type
  70
32
  10
-5.68662157658662
  20
42.21830851457883
  30
772.579
  0
VERTEX
  8
Unknown Area Type
  70
32
  10
-5.67643713190785
  20
42.21769125874764
  30
774.192
  0
VERTEX
  8
Unknown Area Type
  70
32
  10
-5.67638247893223
  20
42.21768803216319
  30
774.112
  0
SEQEND
  8
Unknown Area Type
  0
TEXT
  8
Unknown Area Type
 62
7
  1
PNOA-H_AMS_1956-57_33k_ES_PAN_2
 40
0.00045
  10
-5.67372061032797
  20
42.19946756369156
  0
POLYLINE
  8
Unknown Area Type
  70
9
  66
1
  0
VERTEX
  8
Unknown Area Type
  70
32
  10
-5.82531049010997
  20
42.21881010373957
  30
749.939
  0
VERTEX
  8
Unknown Area Type
  70
32
  10
-5.8230558077546
  20
42.21946000621405
  30
747.934
  0
VERTEX
  8
Unknown Area Type
  70
32
  10
-5.79914552345065
  20
42.21655238890803
  30
767.826
  0
VERTEX
  8
Unknown Area Type
  70
32
  10
-5.7990473190055
  20
42.18087582901688
  30
759.817
  0
VERTEX
  8
Unknown Area Type
  70
32
  10
-5.81942276243888
  20
42.176071962837
  30
739.686
  0
VERTEX
  8
Unknown Area Type
  70
32
  10
-5.81965073881981
  20
42.17602583161397
  30
739.635
  0
VERTEX
  8
Unknown Area Type
  70
32
  10
-5.82935202142002
  20
42.17896116108249
  30
739.344
  0
VERTEX
  8
Unknown Area Type
  70
32
  10
-5.83391913050669
  20
42.18159495537743
  30
743.028
  0
VERTEX
  8
Unknown Area Type
  70
32
  10
-5.83340722240645
  20
42.21646248124934
  30
748.267
  0
VERTEX
  8
Unknown Area Type
  70
32
  10
-5.82532844179825
  20
42.21880515860254
  30
750.141
  0
VERTEX
  8
Unknown Area Type
  70
32
  10
-5.82531049010997
  20
42.21881010373957
  30
749.939
  0
SEQEND
  8
Unknown Area Type
  0
TEXT
  8
Unknown Area Type
 62
7
  1
PNOA-H_AMS_1956-57_33k_ES_PAN_2
 40
0.00045
  10
-5.81648348395905
  20
42.19771157124427
  0
POLYLINE
  8
Unknown Area Type
  70
9
  66
1
  0
VERTEX
  8
Unknown Area Type
  70
32
  10
-5.82531049010997
  20
42.21881010373957
  30
749.939
  0
VERTEX
  8
Unknown Area Type
  70
32
  10
-5.8230558077546
  20
42.21946000621405
  30
747.934
  0
VERTEX
  8
Unknown Area Type
  70
32
  10
-5.79914552345065
  20
42.21655238890803
  30
767.826
  0
VERTEX
  8
Unknown Area Type
  70
32
  10
-5.7990473190055
  20
42.18087582901688
  30
759.817
  0
VERTEX
  8
Unknown Area Type
  70
32
  10
-5.81942276243888
  20
42.176071962837
  30
739.686
  0
VERTEX
  8
Unknown Area Type
  70
32
  10
-5.81965073881981
  20
42.17602583161397
  30
739.635
  0
VERTEX
  8
Unknown Area Type
  70
32
  10
-5.82935202142002
  20
42.17896116108249
  30
739.344
  0
VERTEX
  8
Unknown Area Type
  70
32
  10
-5.83391913050669
  20
42.18159495537743
  30
743.028
  0
VERTEX
  8
Unknown Area Type
  70
32
  10
-5.83340722240645
  20
42.21646248124934
  30
748.267
  0
VERTEX
  8
Unknown Area Type
  70
32
  10
-5.82532844179825
  20
42.21880515860254
  30
750.141
  0
VERTEX
  8
Unknown Area Type
  70
32
  10
-5.82531049010997
  20
42.21881010373957
  30
749.939
  0
SEQEND
  8
Unknown Area Type
  0
TEXT
  8
Unknown Area Type
 62
7
  1
PNOA-H_AMS_1956-57_33k_ES_PAN_2
 40
0.00045
  10
-5.81648348395905
  20
42.19771157124427
  0
POLYLINE
  8
Unknown Area Type
  70
9
  66
1
  0
VERTEX
  8
Unknown Area Type
  70
32
  10
-5.72595347966237
  20
42.21621819830904
  30
772.013
  0
VERTEX
  8
Unknown Area Type
  70
32
  10
-5.72057573394646
  20
42.21835865467163
  30
771.249
  0
VERTEX
  8
Unknown Area Type
  70
32
  10
-5.69162696845009
  20
42.21635849922028
  30
772.129
  0
VERTEX
  8
Unknown Area Type
  70
32
  10
-5.68984455674232
  20
42.1817927014172
  30
763.102
  0
VERTEX
  8
Unknown Area Type
  70
32
  10
-5.72014152407692
  20
42.17932176869007
  30
759.112
  0
VERTEX
  8
Unknown Area Type
  70
32
  10
-5.72607824946611
  20
42.18223356665365
  30
761.467
  0
VERTEX
  8
Unknown Area Type
  70
32
  10
-5.72747189532802
  20
42.21561023963145
  30
772.489
  0
VERTEX
  8
Unknown Area Type
  70
32
  10
-5.72596538816205
  20
42.21621341244147
  30
772.018
  0
VERTEX
  8
Unknown Area Type
  70
32
  10
-5.72595347966237
  20
42.21621819830904
  30
772.013
  0
SEQEND
  8
Unknown Area Type
  0
TEXT
  8
Unknown Area Type
 62
7
  1
PNOA-H_AMS_1956-57_33k_ES_PAN_2
 40
0.00045
  10
-5.70865862183209
  20
42.19889514699852
  0
POLYLINE
  8
Unknown Area Type
  70
9
  66
1
  0
VERTEX
  8
Unknown Area Type
  70
32
  10
-5.72595347966237
  20
42.21621819830904
  30
772.013
  0
VERTEX
  8
Unknown Area Type
  70
32
  10
-5.72057573394646
  20
42.21835865467163
  30
771.249
  0
VERTEX
  8
Unknown Area Type
  70
32
  10
-5.69162696845009
  20
42.21635849922028
  30
772.129
  0
VERTEX
  8
Unknown Area Type
  70
32
  10
-5.68984455674232
  20
42.1817927014172
  30
763.102
  0
VERTEX
  8
Unknown Area Type
  70
32
  10
-5.72014152407692
  20
42.17932176869007
  30
759.112
  0
VERTEX
  8
Unknown Area Type
  70
32
  10
-5.72607824946611
  20
42.18223356665365
  30
761.467
  0
VERTEX
  8
Unknown Area Type
  70
32
  10
-5.72747189532802
  20
42.21561023963145
  30
772.489
  0
VERTEX
  8
Unknown Area Type
  70
32
  10
-5.72596538816205
  20
42.21621341244147
  30
772.018
  0
VERTEX
  8
Unknown Area Type
  70
32
  10
-5.72595347966237
  20
42.21621819830904
  30
772.013
  0
SEQEND
  8
Unknown Area Type
  0
TEXT
  8
Unknown Area Type
 62
7
  1
PNOA-H_AMS_1956-57_33k_ES_PAN_2
 40
0.00045
  10
-5.70865862183209
  20
42.19889514699852
  0
POLYLINE
  8
Unknown Area Type
  70
9
  66
1
  0
VERTEX
  8
Unknown Area Type
  70
32
  10
-5.55263300072412
  20
42.33333333333331
  30
750.194
  0
VERTEX
  8
Unknown Area Type
  70
32
  10
-5.54019033184548
  20
42.33333333333331
  30
749.827
  0
VERTEX
  8
Unknown Area Type
  70
32
  10
-5.53706540811386
  20
42.29938775340279
  30
741.976
  0
VERTEX
  8
Unknown Area Type
  70
32
  10
-5.53857035977915
  20
42.29865201013996
  30
743.678
  0
VERTEX
  8
Unknown Area Type
  70
32
  10
-5.56050057162931
  20
42.29980761399514
  30
752.514
  0
SEQEND
  8
Unknown Area Type
  0
TEXT
  8
Unknown Area Type
 62
7
  1
PNOA-H_AMS_1956-57_33k_ES_PAN_2
 40
0.00045
  10
-5.54878297142302
  20
42.32033284009302
  0
POLYLINE
  8
Unknown Area Type
  70
9
  66
1
  0
VERTEX
  8
Unknown Area Type
  70
32
  10
-5.552632961612
  20
42.33333349999998
  30
750.194
  0
VERTEX
  8
Unknown Area Type
  70
32
  10
-5.54019034718829
  20
42.33333349999998
  30
749.827
  0
VERTEX
  8
Unknown Area Type
  70
32
  10
-5.54019033184548
  20
42.33333333333331
  30
749.827
  0
VERTEX
  8
Unknown Area Type
  70
32
  10
-5.55263300072412
  20
42.33333333333331
  30
750.194
  0
SEQEND
  8
Unknown Area Type
  0
TEXT
  8
Unknown Area Type
 62
7
  1
PNOA-H_AMS_1956-57_33k_ES_PAN_2
 40
0.00045
  10
-5.5464116662848
  20
42.33333341666665
  0
POLYLINE
  8
Unknown Area Type
  70
9
  66
1
  0
VERTEX
  8
Unknown Area Type
  70
32
  10
-5.55263300072412
  20
42.33333333333331
  30
750.194
  0
VERTEX
  8
Unknown Area Type
  70
32
  10
-5.54019033184548
  20
42.33333333333331
  30
749.827
  0
VERTEX
  8
Unknown Area Type
  70
32
  10
-5.53706540811386
  20
42.29938775340279
  30
741.976
  0
VERTEX
  8
Unknown Area Type
  70
32
  10
-5.53857035977915
  20
42.29865201013996
  30
743.678
  0
VERTEX
  8
Unknown Area Type
  70
32
  10
-5.56050057162931
  20
42.29980761399514
  30
752.514
  0
SEQEND
  8
Unknown Area Type
  0
TEXT
  8
Unknown Area Type
 62
7
  1
PNOA-H_AMS_1956-57_33k_ES_PAN_2
 40
0.00045
  10
-5.54878297142302
  20
42.32033284009302
  0
POLYLINE
  8
Unknown Area Type
  70
9
  66
1
  0
VERTEX
  8
Unknown Area Type
  70
32
  10
-5.58819317463878
  20
42.21815073984185
  30
754.354
  0
VERTEX
  8
Unknown Area Type
  70
32
  10
-5.58815081129711
  20
42.21815169633015
  30
754.131
  0
VERTEX
  8
Unknown Area Type
  70
32
  10
-5.58299087334396
  20
42.21594918458087
  30
734.521
  0
VERTEX
  8
Unknown Area Type
  70
32
  10
-5.58289298450383
  20
42.18501768693488
  30
727.47
  0
VERTEX
  8
Unknown Area Type
  70
32
  10
-5.58646386581911
  20
42.18291095141463
  30
727.445
  0
VERTEX
  8
Unknown Area Type
  70
32
  10
-5.61900648926435
  20
42.18383364815022
  30
786.162
  0
VERTEX
  8
Unknown Area Type
  70
32
  10
-5.6196975420136
  20
42.21681821774096
  30
772.178
  0
VERTEX
  8
Unknown Area Type
  70
32
  10
-5.58842296318811
  20
42.21814104864589
  30
754.395
  0
VERTEX
  8
Unknown Area Type
  70
32
  10
-5.58819317463878
  20
42.21815073984185
  30
754.354
  0
SEQEND
  8
Unknown Area Type
  0
TEXT
  8
Unknown Area Type
 62
7
  1
PNOA-H_AMS_1956-57_33k_ES_PAN_2
 40
0.00045
  10
-5.60114947561209
  20
42.2005291725328
  0
POLYLINE
  8
Unknown Area Type
  70
9
  66
1
  0
VERTEX
  8
Unknown Area Type
  70
32
  10
-5.58819317463878
  20
42.21815073984185
  30
754.354
  0
VERTEX
  8
Unknown Area Type
  70
32
  10
-5.58815081129711
  20
42.21815169633015
  30
754.131
  0
VERTEX
  8
Unknown Area Type
  70
32
  10
-5.58299087334396
  20
42.21594918458087
  30
734.521
  0
VERTEX
  8
Unknown Area Type
  70
32
  10
-5.58289298450383
  20
42.18501768693488
  30
727.47
  0
VERTEX
  8
Unknown Area Type
  70
32
  10
-5.58646386581911
  20
42.18291095141463
  30
727.445
  0
VERTEX
  8
Unknown Area Type
  70
32
  10
-5.61900648926435
  20
42.18383364815022
  30
786.162
  0
VERTEX
  8
Unknown Area Type
  70
32
  10
-5.6196975420136
  20
42.21681821774096
  30
772.178
  0
VERTEX
  8
Unknown Area Type
  70
32
  10
-5.58842296318811
  20
42.21814104864589
  30
754.395
  0
VERTEX
  8
Unknown Area Type
  70
32
  10
-5.58819317463878
  20
42.21815073984185
  30
754.354
  0
SEQEND
  8
Unknown Area Type
  0
TEXT
  8
Unknown Area Type
 62
7
  1
PNOA-H_AMS_1956-57_33k_ES_PAN_2
 40
0.00045
  10
-5.60114947561209
  20
42.2005291725328
  0
POLYLINE
  8
Unknown Area Type
  70
9
  66
1
  0
VERTEX
  8
Unknown Area Type
  70
32
  10
-5.58933316467067
  20
42.33333333333331
  30
775.315
  0
VERTEX
  8
Unknown Area Type
  70
32
  10
-5.57324908133795
  20
42.33333333333331
  30
763.162
  0
VERTEX
  8
Unknown Area Type
  70
32
  10
-5.5722136634686
  20
42.29923463251109
  30
752.795
  0
VERTEX
  8
Unknown Area Type
  70
32
  10
-5.5722189903681
  20
42.29921650229428
  30
752.477
  0
VERTEX
  8
Unknown Area Type
  70
32
  10
-5.57224267968688
  20
42.29920246259935
  30
752.19
  0
VERTEX
  8
Unknown Area Type
  70
32
  10
-5.57368475420942
  20
42.29857123196244
  30
753.283
  0
VERTEX
  8
Unknown Area Type
  70
32
  10
-5.59270363134489
  20
42.30045239871603
  30
782.816
  0
SEQEND
  8
Unknown Area Type
  0
TEXT
  8
Unknown Area Type
 62
7
  1
PNOA-H_AMS_1956-57_33k_ES_PAN_2
 40
0.00045
  10
-5.5824586656119
  20
42.32040788622319
  0
POLYLINE
  8
Unknown Area Type
  70
9
  66
1
  0
VERTEX
  8
Unknown Area Type
  70
32
  10
-5.58933314758647
  20
42.33333349999998
  30
775.315
  0
VERTEX
  8
Unknown Area Type
  70
32
  10
-5.57324908639883
  20
42.33333349999998
  30
763.162
  0
VERTEX
  8
Unknown Area Type
  70
32
  10
-5.57324908133795
  20
42.33333333333331
  30
763.162
  0
VERTEX
  8
Unknown Area Type
  70
32
  10
-5.58933316467067
  20
42.33333333333331
  30
775.315
  0
SEQEND
  8
Unknown Area Type
  0
TEXT
  8
Unknown Area Type
 62
7
  1
PNOA-H_AMS_1956-57_33k_ES_PAN_2
 40
0.00045
  10
-5.58129112300431
  20
42.33333341666665
  0
POLYLINE
  8
Unknown Area Type
  70
9
  66
1
  0
VERTEX
  8
Unknown Area Type
  70
32
  10
-5.58933316467067
  20
42.33333333333331
  30
775.315
  0
VERTEX
  8
Unknown Area Type
  70
32
  10
-5.57324908133795
  20
42.33333333333331
  30
763.162
  0
VERTEX
  8
Unknown Area Type
  70
32
  10
-5.5722136634686
  20
42.29923463251109
  30
752.795
  0
VERTEX
  8
Unknown Area Type
  70
32
  10
-5.5722189903681
  20
42.29921650229428
  30
752.477
  0
VERTEX
  8
Unknown Area Type
  70
32
  10
-5.57224267968688
  20
42.29920246259935
  30
752.19
  0
VERTEX
  8
Unknown Area Type
  70
32
  10
-5.57368475420942
  20
42.29857123196244
  30
753.283
  0
VERTEX
  8
Unknown Area Type
  70
32
  10
-5.59270363134489
  20
42.30045239871603
  30
782.816
  0
SEQEND
  8
Unknown Area Type
  0
TEXT
  8
Unknown Area Type
 62
7
  1
PNOA-H_AMS_1956-57_33k_ES_PAN_2
 40
0.00045
  10
-5.5824586656119
  20
42.32040788622319
  0
POLYLINE
  8
Unknown Area Type
  70
9
  66
1
  0
VERTEX
  8
Unknown Area Type
  70
32
  10
-5.54705523712991
  20
42.21570414043939
  30
731.383
  0
VERTEX
  8
Unknown Area Type
  70
32
  10
-5.54704954704037
  20
42.21571327231711
  30
731.369
  0
VERTEX
  8
Unknown Area Type
  70
32
  10
-5.54681442850519
  20
42.21574100975719
  30
731.474
  0
VERTEX
  8
Unknown Area Type
  70
32
  10
-5.52083333333329
  20
42.2186213023773
  30
756.927
  0
VERTEX
  8
Unknown Area Type
  70
32
  10
-5.52083333333329
  20
42.20833333333334
  30
768.978
  0
VERTEX
  8
Unknown Area Type
  70
32
  10
-5.52083333333329
  20
42.18750000000002
  30
763.674
  0
VERTEX
  8
Unknown Area Type
  70
32
  10
-5.52083333333329
  20
42.18302928931544
  30
762.67
  0
VERTEX
  8
Unknown Area Type
  70
32
  10
-5.5232477636609
  20
42.18187470387425
  30
761.277
  0
VERTEX
  8
Unknown Area Type
  70
32
  10
-5.54804924932159
  20
42.18664842065335
  30
737.614
  0
SEQEND
  8
Unknown Area Type
  0
TEXT
  8
Unknown Area Type
 62
7
  1
PNOA-H_AMS_1956-57_33k_ES_PAN_2
 40
0.00045
  10
-5.53034898552799
  20
42.20040289444876
  0
POLYLINE
  8
Unknown Area Type
  70
9
  66
1
  0
VERTEX
  8
Unknown Area Type
  70
32
  10
-5.54705523712991
  20
42.21570414043939
  30
731.383
  0
VERTEX
  8
Unknown Area Type
  70
32
  10
-5.54704954704037
  20
42.21571327231711
  30
731.369
  0
VERTEX
  8
Unknown Area Type
  70
32
  10
-5.54681442850519
  20
42.21574100975719
  30
731.474
  0
VERTEX
  8
Unknown Area Type
  70
32
  10
-5.52083333333329
  20
42.2186213023773
  30
756.927
  0
VERTEX
  8
Unknown Area Type
  70
32
  10
-5.52083333333329
  20
42.20833333333334
  30
768.978
  0
VERTEX
  8
Unknown Area Type
  70
32
  10
-5.52083333333329
  20
42.18750000000002
  30
763.674
  0
VERTEX
  8
Unknown Area Type
  70
32
  10
-5.52083333333329
  20
42.18302928931544
  30
762.67
  0
VERTEX
  8
Unknown Area Type
  70
32
  10
-5.5232477636609
  20
42.18187470387425
  30
761.277
  0
VERTEX
  8
Unknown Area Type
  70
32
  10
-5.54804924932159
  20
42.18664842065335
  30
737.614
  0
SEQEND
  8
Unknown Area Type
  0
TEXT
  8
Unknown Area Type
 62
7
  1
PNOA-H_AMS_1956-57_33k_ES_PAN_2
 40
0.00045
  10
-5.53034898552799
  20
42.20040289444876
  0
POLYLINE
  8
Unknown Area Type
  70
9
  66
1
  0
VERTEX
  8
Unknown Area Type
  70
32
  10
-5.52083333333329
  20
42.18750000000002
  30
763.674
  0
VERTEX
  8
Unknown Area Type
  70
32
  10
-5.52083333333329
  20
42.20833333333334
  30
768.978
  0
VERTEX
  8
Unknown Area Type
  70
32
  10
-5.52083333333329
  20
42.2186213023773
  30
756.927
  0
VERTEX
  8
Unknown Area Type
  70
32
  10
-5.52083299999996
  20
42.21862133933099
  30
756.928
  0
VERTEX
  8
Unknown Area Type
  70
32
  10
-5.52083299999996
  20
42.18302944871611
  30
762.67
  0
VERTEX
  8
Unknown Area Type
  70
32
  10
-5.52083333333329
  20
42.18302928931544
  30
762.67
  0
SEQEND
  8
Unknown Area Type
  0
TEXT
  8
Unknown Area Type
 62
7
  1
PNOA-H_AMS_1956-57_33k_ES_PAN_2
 40
0.00045
  10
-5.52083316666663
  20
42.20082531432322
  0
POLYLINE
  8
Unknown Area Type
  70
9
  66
1
  0
VERTEX
  8
Unknown Area Type
  70
32
  10
-5.65275721311614
  20
42.21794454128217
  30
773.44
  0
VERTEX
  8
Unknown Area Type
  70
32
  10
-5.62113698247194
  20
42.21749673881079
  30
770.264
  0
VERTEX
  8
Unknown Area Type
  70
32
  10
-5.62107004162935
  20
42.21748926407261
  30
770.28
  0
VERTEX
  8
Unknown Area Type
  70
32
  10
-5.6196975420136
  20
42.21681821774096
  30
772.178
  0
VERTEX
  8
Unknown Area Type
  70
32
  10
-5.61900630347605
  20
42.18382914967442
  30
786.117
  0
VERTEX
  8
Unknown Area Type
  70
32
  10
-5.61966607908976
  20
42.18338631680982
  30
787.792
  0
VERTEX
  8
Unknown Area Type
  70
32
  10
-5.65430899539462
  20
42.18225626064788
  30
765.417
  0
VERTEX
  8
Unknown Area Type
  70
32
  10
-5.6558133608063
  20
42.18304991805274
  30
764.288
  0
VERTEX
  8
Unknown Area Type
  70
32
  10
-5.65610936276864
  20
42.21641254774328
  30
772.128
  0
VERTEX
  8
Unknown Area Type
  70
32
  10
-5.65610519769129
  20
42.21645767112111
  30
772.173
  0
VERTEX
  8
Unknown Area Type
  70
32
  10
-5.65606964372481
  20
42.21647650570248
  30
772.277
  0
VERTEX
  8
Unknown Area Type
  70
32
  10
-5.65276912785622
  20
42.21793976285888
  30
773.433
  0
VERTEX
  8
Unknown Area Type
  70
32
  10
-5.65275721311614
  20
42.21794454128217
  30
773.44
  0
SEQEND
  8
Unknown Area Type
  0
TEXT
  8
Unknown Area Type
 62
7
  1
PNOA-H_AMS_1956-57_33k_ES_PAN_2
 40
0.00045
  10
-5.63765633406169
  20
42.20009993130398
  0
POLYLINE
  8
Unknown Area Type
  70
9
  66
1
  0
VERTEX
  8
Unknown Area Type
  70
32
  10
-5.65275721311614
  20
42.21794454128217
  30
773.44
  0
VERTEX
  8
Unknown Area Type
  70
32
  10
-5.62113698247194
  20
42.21749673881079
  30
770.264
  0
VERTEX
  8
Unknown Area Type
  70
32
  10
-5.62107004162935
  20
42.21748926407261
  30
770.28
  0
VERTEX
  8
Unknown Area Type
  70
32
  10
-5.6196975420136
  20
42.21681821774096
  30
772.178
  0
VERTEX
  8
Unknown Area Type
  70
32
  10
-5.61900630347605
  20
42.18382914967442
  30
786.117
  0
VERTEX
  8
Unknown Area Type
  70
32
  10
-5.61966607908976
  20
42.18338631680982
  30
787.792
  0
VERTEX
  8
Unknown Area Type
  70
32
  10
-5.65430899539462
  20
42.18225626064788
  30
765.417
  0
VERTEX
  8
Unknown Area Type
  70
32
  10
-5.6558133608063
  20
42.18304991805274
  30
764.288
  0
VERTEX
  8
Unknown Area Type
  70
32
  10
-5.65610936276864
  20
42.21641254774328
  30
772.128
  0
VERTEX
  8
Unknown Area Type
  70
32
  10
-5.65610519769129
  20
42.21645767112111
  30
772.173
  0
VERTEX
  8
Unknown Area Type
  70
32
  10
-5.65606964372481
  20
42.21647650570248
  30
772.277
  0
VERTEX
  8
Unknown Area Type
  70
32
  10
-5.65276912785622
  20
42.21793976285888
  30
773.433
  0
VERTEX
  8
Unknown Area Type
  70
32
  10
-5.65275721311614
  20
42.21794454128217
  30
773.44
  0
SEQEND
  8
Unknown Area Type
  0
TEXT
  8
Unknown Area Type
 62
7
  1
PNOA-H_AMS_1956-57_33k_ES_PAN_2
 40
0.00045
  10
-5.63765633406169
  20
42.20009993130398
  0
POLYLINE
  8
Unknown Area Type
  70
9
  66
1
  0
VERTEX
  8
Unknown Area Type
  70
32
  10
-5.57714871176679
  20
42.21647241186653
  30
733.49
  0
VERTEX
  8
Unknown Area Type
  70
32
  10
-5.55417089131234
  20
42.21851761411973
  30
732.919
  0
VERTEX
  8
Unknown Area Type
  70
32
  10
-5.54704954704037
  20
42.21571327231711
  30
731.369
  0
VERTEX
  8
Unknown Area Type
  70
32
  10
-5.54804924932159
  20
42.18664842065335
  30
737.614
  0
VERTEX
  8
Unknown Area Type
  70
32
  10
-5.55563037620348
  20
42.18276491393708
  30
726.289
  0
VERTEX
  8
Unknown Area Type
  70
32
  10
-5.58289298450383
  20
42.18501768693488
  30
727.47
  0
VERTEX
  8
Unknown Area Type
  70
32
  10
-5.58299087334396
  20
42.21594918458087
  30
734.521
  0
VERTEX
  8
Unknown Area Type
  70
32
  10
-5.57721509851063
  20
42.2164664166401
  30
733.237
  0
VERTEX
  8
Unknown Area Type
  70
32
  10
-5.57714871176679
  20
42.21647241186653
  30
733.49
  0
SEQEND
  8
Unknown Area Type
  0
TEXT
  8
Unknown Area Type
 62
7
  1
PNOA-H_AMS_1956-57_33k_ES_PAN_2
 40
0.00045
  10
-5.56525542899982
  20
42.20063996265441
  0
POLYLINE
  8
Unknown Area Type
  70
9
  66
1
  0
VERTEX
  8
Unknown Area Type
  70
32
  10
-5.57714871176679
  20
42.21647241186653
  30
733.49
  0
VERTEX
  8
Unknown Area Type
  70
32
  10
-5.55417089131234
  20
42.21851761411973
  30
732.919
  0
VERTEX
  8
Unknown Area Type
  70
32
  10
-5.54704954704037
  20
42.21571327231711
  30
731.369
  0
VERTEX
  8
Unknown Area Type
  70
32
  10
-5.54804924932159
  20
42.18664842065335
  30
737.614
  0
VERTEX
  8
Unknown Area Type
  70
32
  10
-5.55563037620348
  20
42.18276491393708
  30
726.289
  0
VERTEX
  8
Unknown Area Type
  70
32
  10
-5.58289298450383
  20
42.18501768693488
  30
727.47
  0
VERTEX
  8
Unknown Area Type
  70
32
  10
-5.58299087334396
  20
42.21594918458087
  30
734.521
  0
VERTEX
  8
Unknown Area Type
  70
32
  10
-5.57721509851063
  20
42.2164664166401
  30
733.237
  0
VERTEX
  8
Unknown Area Type
  70
32
  10
-5.57714871176679
  20
42.21647241186653
  30
733.49
  0
SEQEND
  8
Unknown Area Type
  0
TEXT
  8
Unknown Area Type
 62
7
  1
PNOA-H_AMS_1956-57_33k_ES_PAN_2
 40
0.00045
  10
-5.56525542899982
  20
42.20063996265441
  0
POLYLINE
  8
Unknown Area Type
  70
9
  66
1
  0
VERTEX
  8
Unknown Area Type
  70
32
  10
-5.5327768513691
  20
42.29968072918673
  30
743.2
  0
VERTEX
  8
Unknown Area Type
  70
32
  10
-5.52083333333329
  20
42.32144794868945
  30
753.168
  0
VERTEX
  8
Unknown Area Type
  70
32
  10
-5.52083333333329
  20
42.3125
  30
750.018
  0
VERTEX
  8
Unknown Area Type
  70
32
  10
-5.52083333333329
  20
42.29956686367696
  30
754.242
  0
SEQEND
  8
Unknown Area Type
  0
TEXT
  8
Unknown Area Type
 62
7
  1
PNOA-H_AMS_1956-57_33k_ES_PAN_2
 40
0.00045
  10
-5.5268050923512
  20
42.31050740618321
  0
POLYLINE
  8
Unknown Area Type
  70
9
  66
1
  0
VERTEX
  8
Unknown Area Type
  70
32
  10
-5.5327768513691
  20
42.29968072918673
  30
743.2
  0
VERTEX
  8
Unknown Area Type
  70
32
  10
-5.52083333333329
  20
42.32144794868945
  30
753.168
  0
VERTEX
  8
Unknown Area Type
  70
32
  10
-5.52083333333329
  20
42.3125
  30
750.018
  0
VERTEX
  8
Unknown Area Type
  70
32
  10
-5.52083333333329
  20
42.29956686367696
  30
754.242
  0
SEQEND
  8
Unknown Area Type
  0
TEXT
  8
Unknown Area Type
 62
7
  1
PNOA-H_AMS_1956-57_33k_ES_PAN_2
 40
0.00045
  10
-5.5268050923512
  20
42.31050740618321
  0
POLYLINE
  8
Unknown Area Type
  70
9
  66
1
  0
VERTEX
  8
Unknown Area Type
  70
32
  10
-5.52083333333329
  20
42.3125
  30
750.018
  0
VERTEX
  8
Unknown Area Type
  70
32
  10
-5.52083333333329
  20
42.32144794868945
  30
753.168
  0
VERTEX
  8
Unknown Area Type
  70
32
  10
-5.52083299999996
  20
42.32144855619386
  30
753.168
  0
VERTEX
  8
Unknown Area Type
  70
32
  10
-5.52083299999996
  20
42.29956686049907
  30
754.242
  0
VERTEX
  8
Unknown Area Type
  70
32
  10
-5.52083333333329
  20
42.29956686367696
  30
754.242
  0
SEQEND
  8
Unknown Area Type
  0
TEXT
  8
Unknown Area Type
 62
7
  1
PNOA-H_AMS_1956-57_33k_ES_PAN_2
 40
0.00045
  10
-5.52083316666663
  20
42.31050770834646
  0
POLYLINE
  8
Unknown Area Type
  70
9
  66
1
  0
VERTEX
  8
Unknown Area Type
  70
32
  10
-5.85416666666668
  20
42.26302546990976
  30
775.312
  0
VERTEX
  8
Unknown Area Type
  70
32
  10
-5.85416096252872
  20
42.26285113255248
  30
775.305
  0
VERTEX
  8
Unknown Area Type
  70
32
  10
-5.85416666666668
  20
42.26284876477246
  30
775.289
  0
SEQEND
  8
Unknown Area Type
  0
TEXT
  8
Unknown Area Type
 62
7
  1
PNOA-H_AMS_1956-57_33k_ES_PAN_2
 40
0.00045
  10
-5.8541638145977
  20
42.26293711734111
  0
POLYLINE
  8
Unknown Area Type
  70
9
  66
1
  0
VERTEX
  8
Unknown Area Type
  70
32
  10
-5.85416700000001
  20
42.26303565768096
  30
775.313
  0
VERTEX
  8
Unknown Area Type
  70
32
  10
-5.85416666666668
  20
42.26302546990976
  30
775.312
  0
VERTEX
  8
Unknown Area Type
  70
32
  10
-5.85416666666668
  20
42.26284876477246
  30
775.289
  0
VERTEX
  8
Unknown Area Type
  70
32
  10
-5.85416700000001
  20
42.26284862640624
  30
775.288
  0
SEQEND
  8
Unknown Area Type
  0
TEXT
  8
Unknown Area Type
 62
7
  1
PNOA-H_AMS_1956-57_33k_ES_PAN_2
 40
0.00045
  10
-5.85416683333334
  20
42.2629421420436
  0
POLYLINE
  8
Unknown Area Type
  70
9
  66
1
  0
VERTEX
  8
Unknown Area Type
  70
32
  10
-5.85416666666668
  20
42.26302546990976
  30
775.312
  0
VERTEX
  8
Unknown Area Type
  70
32
  10
-5.85416096252872
  20
42.26285113255248
  30
775.305
  0
VERTEX
  8
Unknown Area Type
  70
32
  10
-5.85416666666668
  20
42.26284876477246
  30
775.289
  0
SEQEND
  8
Unknown Area Type
  0
TEXT
  8
Unknown Area Type
 62
7
  1
PNOA-H_AMS_1956-57_33k_ES_PAN_2
 40
0.00045
  10
-5.8541638145977
  20
42.26293711734111
  0
POLYLINE
  8
Unknown Area Type
  70
9
  66
1
  0
VERTEX
  8
Unknown Area Type
  70
32
  10
-5.555631872945
  20
42.29955157258581
  30
745.745
  0
VERTEX
  8
Unknown Area Type
  70
32
  10
-5.53857035977915
  20
42.29865201013996
  30
743.678
  0
VERTEX
  8
Unknown Area Type
  70
32
  10
-5.53783433596792
  20
42.26099882520518
  30
737.662
  0
VERTEX
  8
Unknown Area Type
  70
32
  10
-5.53783587918629
  20
42.26088622354192
  30
737.569
  0
VERTEX
  8
Unknown Area Type
  70
32
  10
-5.53784781112414
  20
42.26088145664941
  30
737.556
  0
VERTEX
  8
Unknown Area Type
  70
32
  10
-5.55514031065773
  20
42.25694914151847
  30
740.576
  0
VERTEX
  8
Unknown Area Type
  70
32
  10
-5.57517995514885
  20
42.26070166266446
  30
746.165
  0
VERTEX
  8
Unknown Area Type
  70
32
  10
-5.57519830642965
  20
42.2607057530368
  30
746.176
  0
VERTEX
  8
Unknown Area Type
  70
32
  10
-5.5751995886563
  20
42.26073724303848
  30
746.233
  0
VERTEX
  8
Unknown Area Type
  70
32
  10
-5.57369081387917
  20
42.29857109587729
  30
753.277
  0
VERTEX
  8
Unknown Area Type
  70
32
  10
-5.57223698637237
  20
42.29921159571334
  30
752.383
  0
VERTEX
  8
Unknown Area Type
  70
32
  10
-5.57215857618566
  20
42.29922236092258
  30
752.392
  0
VERTEX
  8
Unknown Area Type
  70
32
  10
-5.5604884519273
  20
42.29980788477754
  30
752.549
  0
VERTEX
  8
Unknown Area Type
  70
32
  10
-5.5556742918902
  20
42.29955062664284
  30
745.809
  0
VERTEX
  8
Unknown Area Type
  70
32
  10
-5.555631872945
  20
42.29955157258581
  30
745.745
  0
SEQEND
  8
Unknown Area Type
  0
TEXT
  8
Unknown Area Type
 62
7
  1
PNOA-H_AMS_1956-57_33k_ES_PAN_2
 40
0.00045
  10
-5.55651721951605
  20
42.2783997761216
  0
POLYLINE
  8
Unknown Area Type
  70
9
  66
1
  0
VERTEX
  8
Unknown Area Type
  70
32
  10
-5.555631872945
  20
42.29955157258581
  30
745.745
  0
VERTEX
  8
Unknown Area Type
  70
32
  10
-5.53857035977915
  20
42.29865201013996
  30
743.678
  0
VERTEX
  8
Unknown Area Type
  70
32
  10
-5.53783433596792
  20
42.26099882520518
  30
737.662
  0
VERTEX
  8
Unknown Area Type
  70
32
  10
-5.53783587918629
  20
42.26088622354192
  30
737.569
  0
VERTEX
  8
Unknown Area Type
  70
32
  10
-5.53784781112414
  20
42.26088145664941
  30
737.556
  0
VERTEX
  8
Unknown Area Type
  70
32
  10
-5.55514031065773
  20
42.25694914151847
  30
740.576
  0
VERTEX
  8
Unknown Area Type
  70
32
  10
-5.57517995514885
  20
42.26070166266446
  30
746.165
  0
VERTEX
  8
Unknown Area Type
  70
32
  10
-5.57519830642965
  20
42.2607057530368
  30
746.176
  0
VERTEX
  8
Unknown Area Type
  70
32
  10
-5.5751995886563
  20
42.26073724303848
  30
746.233
  0
VERTEX
  8
Unknown Area Type
  70
32
  10
-5.57369081387917
  20
42.29857109587729
  30
753.277
  0
VERTEX
  8
Unknown Area Type
  70
32
  10
-5.57223698637237
  20
42.29921159571334
  30
752.383
  0
VERTEX
  8
Unknown Area Type
  70
32
  10
-5.57215857618566
  20
42.29922236092258
  30
752.392
  0
VERTEX
  8
Unknown Area Type
  70
32
  10
-5.5604884519273
  20
42.29980788477754
  30
752.549
  0
VERTEX
  8
Unknown Area Type
  70
32
  10
-5.5556742918902
  20
42.29955062664284
  30
745.809
  0
VERTEX
  8
Unknown Area Type
  70
32
  10
-5.555631872945
  20
42.29955157258581
  30
745.745
  0
SEQEND
  8
Unknown Area Type
  0
TEXT
  8
Unknown Area Type
 62
7
  1
PNOA-H_AMS_1956-57_33k_ES_PAN_2
 40
0.00045
  10
-5.55651721951605
  20
42.2783997761216
  0
POLYLINE
  8
Unknown Area Type
  70
9
  66
1
  0
VERTEX
  8
Unknown Area Type
  70
32
  10
-5.59241251539333
  20
42.26497796410046
  30
810.555
  0
VERTEX
  8
Unknown Area Type
  70
32
  10
-5.59232772631845
  20
42.26497988188748
  30
820.953
  0
VERTEX
  8
Unknown Area Type
  70
32
  10
-5.59235690159804
  20
42.26495220592626
  30
815.446
  0
VERTEX
  8
Unknown Area Type
  70
32
  10
-5.59241728076945
  20
42.26494633756287
  30
805.463
  0
VERTEX
  8
Unknown Area Type
  70
32
  10
-5.59243581870223
  20
42.26495492361416
  30
805.314
  0
VERTEX
  8
Unknown Area Type
  70
32
  10
-5.5924244436905
  20
42.26497319161862
  30
808.298
  0
VERTEX
  8
Unknown Area Type
  70
32
  10
-5.59241251539333
  20
42.26497796410046
  30
810.555
  0
SEQEND
  8
Unknown Area Type
  0
TEXT
  8
Unknown Area Type
 62
7
  1
PNOA-H_AMS_1956-57_33k_ES_PAN_2
 40
0.00045
  10
-5.59238837129431
  20
42.26496102740394
  0
POLYLINE
  8
Unknown Area Type
  70
9
  66
1
  0
VERTEX
  8
Unknown Area Type
  70
32
  10
-5.59241251539333
  20
42.26497796410046
  30
810.555
  0
VERTEX
  8
Unknown Area Type
  70
32
  10
-5.59232772631845
  20
42.26497988188748
  30
820.953
  0
VERTEX
  8
Unknown Area Type
  70
32
  10
-5.59235690159804
  20
42.26495220592626
  30
815.446
  0
VERTEX
  8
Unknown Area Type
  70
32
  10
-5.59241728076945
  20
42.26494633756287
  30
805.463
  0
VERTEX
  8
Unknown Area Type
  70
32
  10
-5.59243581870223
  20
42.26495492361416
  30
805.314
  0
VERTEX
  8
Unknown Area Type
  70
32
  10
-5.5924244436905
  20
42.26497319161862
  30
808.298
  0
VERTEX
  8
Unknown Area Type
  70
32
  10
-5.59241251539333
  20
42.26497796410046
  30
810.555
  0
SEQEND
  8
Unknown Area Type
  0
TEXT
  8
Unknown Area Type
 62
7
  1
PNOA-H_AMS_1956-57_33k_ES_PAN_2
 40
0.00045
  10
-5.59238837129431
  20
42.26496102740394
  0
POLYLINE
  8
Unknown Area Type
  70
9
  66
1
  0
VERTEX
  8
Unknown Area Type
  70
32
  10
-5.61322171443684
  20
42.30159831088424
  30
795.623
  0
VERTEX
  8
Unknown Area Type
  70
32
  10
-5.61305791449246
  20
42.30159754327861
  30
795.601
  0
VERTEX
  8
Unknown Area Type
  70
32
  10
-5.60914672796529
  20
42.29971449739717
  30
793.796
  0
VERTEX
  8
Unknown Area Type
  70
32
  10
-5.61104951262135
  20
42.26107433572218
  30
776.387
  0
VERTEX
  8
Unknown Area Type
  70
32
  10
-5.61105426843729
  20
42.2610427086556
  30
776.417
  0
VERTEX
  8
Unknown Area Type
  70
32
  10
-5.6111021584148
  20
42.26102810962631
  30
776.381
  0
VERTEX
  8
Unknown Area Type
  70
32
  10
-5.61936283517042
  20
42.2586558230761
  30
778.018
  0
VERTEX
  8
Unknown Area Type
  70
32
  10
-5.64439705483993
  20
42.26157502838574
  30
783.255
  0
VERTEX
  8
Unknown Area Type
  70
32
  10
-5.64482289740757
  20
42.30058517203064
  30
792.391
  0
VERTEX
  8
Unknown Area Type
  70
32
  10
-5.61371842927373
  20
42.30158248047813
  30
794.02
  0
VERTEX
  8
Unknown Area Type
  70
32
  10
-5.61322171443684
  20
42.30159831088424
  30
795.623
  0
SEQEND
  8
Unknown Area Type
  0
TEXT
  8
Unknown Area Type
 62
7
  1
PNOA-H_AMS_1956-57_33k_ES_PAN_2
 40
0.00045
  10
-5.62698495466708
  20
42.28034962467937
  0
POLYLINE
  8
Unknown Area Type
  70
9
  66
1
  0
VERTEX
  8
Unknown Area Type
  70
32
  10
-5.61322171443684
  20
42.30159831088424
  30
795.623
  0
VERTEX
  8
Unknown Area Type
  70
32
  10
-5.61305791449246
  20
42.30159754327861
  30
795.601
  0
VERTEX
  8
Unknown Area Type
  70
32
  10
-5.60914672796529
  20
42.29971449739717
  30
793.796
  0
VERTEX
  8
Unknown Area Type
  70
32
  10
-5.61104951262135
  20
42.26107433572218
  30
776.387
  0
VERTEX
  8
Unknown Area Type
  70
32
  10
-5.61105426843729
  20
42.2610427086556
  30
776.417
  0
VERTEX
  8
Unknown Area Type
  70
32
  10
-5.6111021584148
  20
42.26102810962631
  30
776.381
  0
VERTEX
  8
Unknown Area Type
  70
32
  10
-5.61936283517042
  20
42.2586558230761
  30
778.018
  0
VERTEX
  8
Unknown Area Type
  70
32
  10
-5.64439705483993
  20
42.26157502838574
  30
783.255
  0
VERTEX
  8
Unknown Area Type
  70
32
  10
-5.64482289740757
  20
42.30058517203064
  30
792.391
  0
VERTEX
  8
Unknown Area Type
  70
32
  10
-5.61371842927373
  20
42.30158248047813
  30
794.02
  0
VERTEX
  8
Unknown Area Type
  70
32
  10
-5.61322171443684
  20
42.30159831088424
  30
795.623
  0
SEQEND
  8
Unknown Area Type
  0
TEXT
  8
Unknown Area Type
 62
7
  1
PNOA-H_AMS_1956-57_33k_ES_PAN_2
 40
0.00045
  10
-5.62698495466708
  20
42.28034962467937
  0
POLYLINE
  8
Unknown Area Type
  70
9
  66
1
  0
VERTEX
  8
Unknown Area Type
  70
32
  10
-5.5923095572299
  20
42.26498029283369
  30
820.718
  0
VERTEX
  8
Unknown Area Type
  70
32
  10
-5.59230313202993
  20
42.26497143279992
  30
820.634
  0
VERTEX
  8
Unknown Area Type
  70
32
  10
-5.59225320581283
  20
42.26493654057722
  30
814.582
  0
VERTEX
  8
Unknown Area Type
  70
32
  10
-5.59212602226463
  20
42.26493941705534
  30
814.544
  0
VERTEX
  8
Unknown Area Type
  70
32
  10
-5.59206985540939
  20
42.26490016321235
  30
786.804
  0
VERTEX
  8
Unknown Area Type
  70
32
  10
-5.5920665361904
  20
42.26481919005888
  30
776.438
  0
VERTEX
  8
Unknown Area Type
  70
32
  10
-5.5921661747747
  20
42.2647358884027
  30
777.033
  0
VERTEX
  8
Unknown Area Type
  70
32
  10
-5.59222655376317
  20
42.2647300201448
  30
777.515
  0
VERTEX
  8
Unknown Area Type
  70
32
  10
-5.59228290497122
  20
42.26477377242136
  30
775.955
  0
VERTEX
  8
Unknown Area Type
  70
32
  10
-5.59236182185159
  20
42.2647764901665
  30
776.614
  0
VERTEX
  8
Unknown Area Type
  70
32
  10
-5.59246809940252
  20
42.26485513452394
  30
782.059
  0
VERTEX
  8
Unknown Area Type
  70
32
  10
-5.59247141913955
  20
42.26493610765115
  30
788.946
  0
VERTEX
  8
Unknown Area Type
  70
32
  10
-5.59244811585059
  20
42.26495914814422
  30
804.43
  0
VERTEX
  8
Unknown Area Type
  70
32
  10
-5.59241251539333
  20
42.26497796410046
  30
810.555
  0
VERTEX
  8
Unknown Area Type
  70
32
  10
-5.5923095572299
  20
42.26498029283369
  30
820.718
  0
SEQEND
  8
Unknown Area Type
  0
TEXT
  8
Unknown Area Type
 62
7
  1
PNOA-H_AMS_1956-57_33k_ES_PAN_2
 40
0.00045
  10
-5.59226836031534
  20
42.26485307019153
  0
POLYLINE
  8
Unknown Area Type
  70
9
  66
1
  0
VERTEX
  8
Unknown Area Type
  70
32
  10
-5.5923095572299
  20
42.26498029283369
  30
820.718
  0
VERTEX
  8
Unknown Area Type
  70
32
  10
-5.59230313202993
  20
42.26497143279992
  30
820.634
  0
VERTEX
  8
Unknown Area Type
  70
32
  10
-5.59225320581283
  20
42.26493654057722
  30
814.582
  0
VERTEX
  8
Unknown Area Type
  70
32
  10
-5.59212602226463
  20
42.26493941705534
  30
814.544
  0
VERTEX
  8
Unknown Area Type
  70
32
  10
-5.59206985540939
  20
42.26490016321235
  30
786.804
  0
VERTEX
  8
Unknown Area Type
  70
32
  10
-5.5920665361904
  20
42.26481919005888
  30
776.438
  0
VERTEX
  8
Unknown Area Type
  70
32
  10
-5.5921661747747
  20
42.2647358884027
  30
777.033
  0
VERTEX
  8
Unknown Area Type
  70
32
  10
-5.59222655376317
  20
42.2647300201448
  30
777.515
  0
VERTEX
  8
Unknown Area Type
  70
32
  10
-5.59228290497122
  20
42.26477377242136
  30
775.955
  0
VERTEX
  8
Unknown Area Type
  70
32
  10
-5.59236182185159
  20
42.2647764901665
  30
776.614
  0
VERTEX
  8
Unknown Area Type
  70
32
  10
-5.59246809940252
  20
42.26485513452394
  30
782.059
  0
VERTEX
  8
Unknown Area Type
  70
32
  10
-5.59247141913955
  20
42.26493610765115
  30
788.946
  0
VERTEX
  8
Unknown Area Type
  70
32
  10
-5.59244811585059
  20
42.26495914814422
  30
804.43
  0
VERTEX
  8
Unknown Area Type
  70
32
  10
-5.59241251539333
  20
42.26497796410046
  30
810.555
  0
VERTEX
  8
Unknown Area Type
  70
32
  10
-5.5923095572299
  20
42.26498029283369
  30
820.718
  0
SEQEND
  8
Unknown Area Type
  0
TEXT
  8
Unknown Area Type
 62
7
  1
PNOA-H_AMS_1956-57_33k_ES_PAN_2
 40
0.00045
  10
-5.59226836031534
  20
42.26485307019153
  0
POLYLINE
  8
Unknown Area Type
  70
9
  66
1
  0
VERTEX
  8
Unknown Area Type
  70
32
  10
-5.60540540725512
  20
42.2998851669411
  30
793.193
  0
VERTEX
  8
Unknown Area Type
  70
32
  10
-5.5927038160211
  20
42.3004568971943
  30
782.746
  0
VERTEX
  8
Unknown Area Type
  70
32
  10
-5.57369081387917
  20
42.29857109587729
  30
753.277
  0
VERTEX
  8
Unknown Area Type
  70
32
  10
-5.57519830642965
  20
42.2607057530368
  30
746.176
  0
VERTEX
  8
Unknown Area Type
  70
32
  10
-5.58664918040242
  20
42.25775529699771
  30
767.572
  0
VERTEX
  8
Unknown Area Type
  70
32
  10
-5.58684388265653
  20
42.25777341625292
  30
768.206
  0
VERTEX
  8
Unknown Area Type
  70
32
  10
-5.61105426843729
  20
42.2610427086556
  30
776.417
  0
VERTEX
  8
Unknown Area Type
  70
32
  10
-5.60915241589018
  20
42.29970536259509
  30
793.723
  0
VERTEX
  8
Unknown Area Type
  70
32
  10
-5.60914672796529
  20
42.29971449739717
  30
793.796
  0
VERTEX
  8
Unknown Area Type
  70
32
  10
-5.60903178121456
  20
42.2997216170339
  30
794.066
  0
VERTEX
  8
Unknown Area Type
  70
32
  10
-5.60560518988395
  20
42.29987612210439
  30
793.317
  0
VERTEX
  8
Unknown Area Type
  70
32
  10
-5.60540540725512
  20
42.2998851669411
  30
793.193
  0
SEQEND
  8
Unknown Area Type
  0
TEXT
  8
Unknown Area Type
 62
7
  1
PNOA-H_AMS_1956-57_33k_ES_PAN_2
 40
0.00045
  10
-5.59237278692054
  20
42.27947011646197
  0
POLYLINE
  8
Unknown Area Type
  70
9
  66
1
  0
VERTEX
  8
Unknown Area Type
  70
32
  10
-5.60540540725512
  20
42.2998851669411
  30
793.193
  0
VERTEX
  8
Unknown Area Type
  70
32
  10
-5.5927038160211
  20
42.3004568971943
  30
782.746
  0
VERTEX
  8
Unknown Area Type
  70
32
  10
-5.57369081387917
  20
42.29857109587729
  30
753.277
  0
VERTEX
  8
Unknown Area Type
  70
32
  10
-5.57519830642965
  20
42.2607057530368
  30
746.176
  0
VERTEX
  8
Unknown Area Type
  70
32
  10
-5.58664918040242
  20
42.25775529699771
  30
767.572
  0
VERTEX
  8
Unknown Area Type
  70
32
  10
-5.58684388265653
  20
42.25777341625292
  30
768.206
  0
VERTEX
  8
Unknown Area Type
  70
32
  10
-5.61105426843729
  20
42.2610427086556
  30
776.417
  0
VERTEX
  8
Unknown Area Type
  70
32
  10
-5.60915241589018
  20
42.29970536259509
  30
793.723
  0
VERTEX
  8
Unknown Area Type
  70
32
  10
-5.60914672796529
  20
42.29971449739717
  30
793.796
  0
VERTEX
  8
Unknown Area Type
  70
32
  10
-5.60903178121456
  20
42.2997216170339
  30
794.066
  0
VERTEX
  8
Unknown Area Type
  70
32
  10
-5.60560518988395
  20
42.29987612210439
  30
793.317
  0
VERTEX
  8
Unknown Area Type
  70
32
  10
-5.60540540725512
  20
42.2998851669411
  30
793.193
  0
SEQEND
  8
Unknown Area Type
  0
TEXT
  8
Unknown Area Type
 62
7
  1
PNOA-H_AMS_1956-57_33k_ES_PAN_2
 40
0.00045
  10
-5.59237278692054
  20
42.27947011646197
  0
POLYLINE
  8
Unknown Area Type
  70
9
  66
1
  0
VERTEX
  8
Unknown Area Type
  70
32
  10
-5.57325014780314
  20
42.33333333333331
  30
763.076
  0
VERTEX
  8
Unknown Area Type
  70
32
  10
-5.56250000000001
  20
42.33333333333331
  30
757.866
  0
VERTEX
  8
Unknown Area Type
  70
32
  10
-5.55263368079398
  20
42.33333333333331
  30
749.716
  0
VERTEX
  8
Unknown Area Type
  70
32
  10
-5.55850961511533
  20
42.30830358263135
  30
749.948
  0
VERTEX
  8
Unknown Area Type
  70
32
  10
-5.55850906823867
  20
42.30829008685204
  30
749.834
  0
VERTEX
  8
Unknown Area Type
  70
32
  10
-5.56050057162931
  20
42.29980761399514
  30
752.514
  0
VERTEX
  8
Unknown Area Type
  70
32
  10
-5.5722189903681
  20
42.29921650229428
  30
752.477
  0
SEQEND
  8
Unknown Area Type
  0
TEXT
  8
Unknown Area Type
 62
7
  1
PNOA-H_AMS_1956-57_33k_ES_PAN_2
 40
0.00045
  10
-5.56212545179117
  20
42.32049516855129
  0
POLYLINE
  8
Unknown Area Type
  70
9
  66
1
  0
VERTEX
  8
Unknown Area Type
  70
32
  10
-5.57325015284053
  20
42.33333349999998
  30
763.076
  0
VERTEX
  8
Unknown Area Type
  70
32
  10
-5.55263364166765
  20
42.33333349999998
  30
749.716
  0
VERTEX
  8
Unknown Area Type
  70
32
  10
-5.55263368079398
  20
42.33333333333331
  30
749.716
  0
VERTEX
  8
Unknown Area Type
  70
32
  10
-5.56250000000001
  20
42.33333333333331
  30
757.866
  0
VERTEX
  8
Unknown Area Type
  70
32
  10
-5.57325014780314
  20
42.33333333333331
  30
763.076
  0
SEQEND
  8
Unknown Area Type
  0
TEXT
  8
Unknown Area Type
 62
7
  1
PNOA-H_AMS_1956-57_33k_ES_PAN_2
 40
0.00045
  10
-5.56294189725409
  20
42.33333341666665
  0
POLYLINE
  8
Unknown Area Type
  70
9
  66
1
  0
VERTEX
  8
Unknown Area Type
  70
32
  10
-5.57325014780314
  20
42.33333333333331
  30
763.076
  0
VERTEX
  8
Unknown Area Type
  70
32
  10
-5.56250000000001
  20
42.33333333333331
  30
757.866
  0
VERTEX
  8
Unknown Area Type
  70
32
  10
-5.55263368079398
  20
42.33333333333331
  30
749.716
  0
VERTEX
  8
Unknown Area Type
  70
32
  10
-5.55850961511533
  20
42.30830358263135
  30
749.948
  0
VERTEX
  8
Unknown Area Type
  70
32
  10
-5.55850906823867
  20
42.30829008685204
  30
749.834
  0
VERTEX
  8
Unknown Area Type
  70
32
  10
-5.56050057162931
  20
42.29980761399514
  30
752.514
  0
VERTEX
  8
Unknown Area Type
  70
32
  10
-5.5722189903681
  20
42.29921650229428
  30
752.477
  0
SEQEND
  8
Unknown Area Type
  0
TEXT
  8
Unknown Area Type
 62
7
  1
PNOA-H_AMS_1956-57_33k_ES_PAN_2
 40
0.00045
  10
-5.56212545179117
  20
42.32049516855129
  0
POLYLINE
  8
Unknown Area Type
  70
9
  66
1
  0
VERTEX
  8
Unknown Area Type
  70
32
  10
-5.68273456321481
  20
42.30165805940154
  30
794.285
  0
VERTEX
  8
Unknown Area Type
  70
32
  10
-5.68258894567344
  20
42.30165696568471
  30
794.436
  0
VERTEX
  8
Unknown Area Type
  70
32
  10
-5.68002631139779
  20
42.30044268351693
  30
794.105
  0
VERTEX
  8
Unknown Area Type
  70
32
  10
-5.67871948912383
  20
42.2610391270287
  30
785.381
  0
VERTEX
  8
Unknown Area Type
  70
32
  10
-5.68508327109098
  20
42.25887752822516
  30
785.569
  0
VERTEX
  8
Unknown Area Type
  70
32
  10
-5.71492832011086
  20
42.26083098589251
  30
781.951
  0
VERTEX
  8
Unknown Area Type
  70
32
  10
-5.7132946587338
  20
42.30015959542585
  30
795.701
  0
VERTEX
  8
Unknown Area Type
  70
32
  10
-5.71326860339568
  20
42.30068251564939
  30
795.508
  0
VERTEX
  8
Unknown Area Type
  70
32
  10
-5.68327366165063
  20
42.30164093486557
  30
794.285
  0
VERTEX
  8
Unknown Area Type
  70
32
  10
-5.68273456321481
  20
42.30165805940154
  30
794.285
  0
SEQEND
  8
Unknown Area Type
  0
TEXT
  8
Unknown Area Type
 62
7
  1
PNOA-H_AMS_1956-57_33k_ES_PAN_2
 40
0.00045
  10
-5.69682419703355
  20
42.28042505359163
  0
POLYLINE
  8
Unknown Area Type
  70
9
  66
1
  0
VERTEX
  8
Unknown Area Type
  70
32
  10
-5.68273456321481
  20
42.30165805940154
  30
794.285
  0
VERTEX
  8
Unknown Area Type
  70
32
  10
-5.68258894567344
  20
42.30165696568471
  30
794.436
  0
VERTEX
  8
Unknown Area Type
  70
32
  10
-5.68002631139779
  20
42.30044268351693
  30
794.105
  0
VERTEX
  8
Unknown Area Type
  70
32
  10
-5.67871948912383
  20
42.2610391270287
  30
785.381
  0
VERTEX
  8
Unknown Area Type
  70
32
  10
-5.68508327109098
  20
42.25887752822516
  30
785.569
  0
VERTEX
  8
Unknown Area Type
  70
32
  10
-5.71492832011086
  20
42.26083098589251
  30
781.951
  0
VERTEX
  8
Unknown Area Type
  70
32
  10
-5.7132946587338
  20
42.30015959542585
  30
795.701
  0
VERTEX
  8
Unknown Area Type
  70
32
  10
-5.71326860339568
  20
42.30068251564939
  30
795.508
  0
VERTEX
  8
Unknown Area Type
  70
32
  10
-5.68327366165063
  20
42.30164093486557
  30
794.285
  0
VERTEX
  8
Unknown Area Type
  70
32
  10
-5.68273456321481
  20
42.30165805940154
  30
794.285
  0
SEQEND
  8
Unknown Area Type
  0
TEXT
  8
Unknown Area Type
 62
7
  1
PNOA-H_AMS_1956-57_33k_ES_PAN_2
 40
0.00045
  10
-5.69682419703355
  20
42.28042505359163
  0
POLYLINE
  8
Unknown Area Type
  70
9
  66
1
  0
VERTEX
  8
Unknown Area Type
  70
32
  10
-5.7179404634933
  20
42.30283211401234
  30
794.459
  0
VERTEX
  8
Unknown Area Type
  70
32
  10
-5.71790391365741
  20
42.30282847829916
  30
794.345
  0
VERTEX
  8
Unknown Area Type
  70
32
  10
-5.71327485584463
  20
42.30068687022183
  30
795.468
  0
VERTEX
  8
Unknown Area Type
  70
32
  10
-5.7132676371
  20
42.30066002545633
  30
795.561
  0
VERTEX
  8
Unknown Area Type
  70
32
  10
-5.71492832011086
  20
42.26083098589251
  30
781.951
  0
VERTEX
  8
Unknown Area Type
  70
32
  10
-5.71914930258756
  20
42.25933059744588
  30
781.17
  0
VERTEX
  8
Unknown Area Type
  70
32
  10
-5.75000738770224
  20
42.26183169699542
  30
775.832
  0
VERTEX
  8
Unknown Area Type
  70
32
  10
-5.75002574915846
  20
42.26183575902607
  30
775.848
  0
VERTEX
  8
Unknown Area Type
  70
32
  10
-5.75002829208179
  20
42.26189423213126
  30
775.97
  0
VERTEX
  8
Unknown Area Type
  70
32
  10
-5.74866749300464
  20
42.30127521647236
  30
787.741
  0
VERTEX
  8
Unknown Area Type
  70
32
  10
-5.71810993227063
  20
42.30282359174455
  30
794.98
  0
VERTEX
  8
Unknown Area Type
  70
32
  10
-5.7179404634933
  20
42.30283211401234
  30
794.459
  0
SEQEND
  8
Unknown Area Type
  0
TEXT
  8
Unknown Area Type
 62
7
  1
PNOA-H_AMS_1956-57_33k_ES_PAN_2
 40
0.00045
  10
-5.73164824626355
  20
42.28123893370433
  0
POLYLINE
  8
Unknown Area Type
  70
9
  66
1
  0
VERTEX
  8
Unknown Area Type
  70
32
  10
-5.7179404634933
  20
42.30283211401234
  30
794.459
  0
VERTEX
  8
Unknown Area Type
  70
32
  10
-5.71790391365741
  20
42.30282847829916
  30
794.345
  0
VERTEX
  8
Unknown Area Type
  70
32
  10
-5.71327485584463
  20
42.30068687022183
  30
795.468
  0
VERTEX
  8
Unknown Area Type
  70
32
  10
-5.7132676371
  20
42.30066002545633
  30
795.561
  0
VERTEX
  8
Unknown Area Type
  70
32
  10
-5.71492832011086
  20
42.26083098589251
  30
781.951
  0
VERTEX
  8
Unknown Area Type
  70
32
  10
-5.71914930258756
  20
42.25933059744588
  30
781.17
  0
VERTEX
  8
Unknown Area Type
  70
32
  10
-5.75000738770224
  20
42.26183169699542
  30
775.832
  0
VERTEX
  8
Unknown Area Type
  70
32
  10
-5.75002574915846
  20
42.26183575902607
  30
775.848
  0
VERTEX
  8
Unknown Area Type
  70
32
  10
-5.75002829208179
  20
42.26189423213126
  30
775.97
  0
VERTEX
  8
Unknown Area Type
  70
32
  10
-5.74866749300464
  20
42.30127521647236
  30
787.741
  0
VERTEX
  8
Unknown Area Type
  70
32
  10
-5.71810993227063
  20
42.30282359174455
  30
794.98
  0
VERTEX
  8
Unknown Area Type
  70
32
  10
-5.7179404634933
  20
42.30283211401234
  30
794.459
  0
SEQEND
  8
Unknown Area Type
  0
TEXT
  8
Unknown Area Type
 62
7
  1
PNOA-H_AMS_1956-57_33k_ES_PAN_2
 40
0.00045
  10
-5.73164824626355
  20
42.28123893370433
  0
POLYLINE
  8
Unknown Area Type
  70
9
  66
1
  0
VERTEX
  8
Unknown Area Type
  70
32
  10
-5.54019149956443
  20
42.33333333333331
  30
749.823
  0
VERTEX
  8
Unknown Area Type
  70
32
  10
-5.52083333333329
  20
42.33333333333331
  30
757.375
  0
VERTEX
  8
Unknown Area Type
  70
32
  10
-5.52083333333329
  20
42.32144228735989
  30
753.182
  0
VERTEX
  8
Unknown Area Type
  70
32
  10
-5.5327768513691
  20
42.29968072918673
  30
743.2
  0
VERTEX
  8
Unknown Area Type
  70
32
  10
-5.53701068811579
  20
42.29938446208317
  30
742.084
  0
VERTEX
  8
Unknown Area Type
  70
32
  10
-5.53707146803509
  20
42.29938761925055
  30
741.958
  0
SEQEND
  8
Unknown Area Type
  0
TEXT
  8
Unknown Area Type
 62
7
  1
PNOA-H_AMS_1956-57_33k_ES_PAN_2
 40
0.00045
  10
-5.52533766626081
  20
42.32746019703235
  0
POLYLINE
  8
Unknown Area Type
  70
9
  66
1
  0
VERTEX
  8
Unknown Area Type
  70
32
  10
-5.54019151488316
  20
42.33333349999998
  30
749.823
  0
VERTEX
  8
Unknown Area Type
  70
32
  10
-5.52083333333329
  20
42.33333349999998
  30
757.375
  0
VERTEX
  8
Unknown Area Type
  70
32
  10
-5.52083333333329
  20
42.33333333333331
  30
757.375
  0
VERTEX
  8
Unknown Area Type
  70
32
  10
-5.54019149956443
  20
42.33333333333331
  30
749.823
  0
SEQEND
  8
Unknown Area Type
  0
TEXT
  8
Unknown Area Type
 62
7
  1
PNOA-H_AMS_1956-57_33k_ES_PAN_2
 40
0.00045
  10
-5.53051242410822
  20
42.33333341666665
  0
POLYLINE
  8
Unknown Area Type
  70
9
  66
1
  0
VERTEX
  8
Unknown Area Type
  70
32
  10
-5.52083333333329
  20
42.33333349999998
  30
757.375
  0
VERTEX
  8
Unknown Area Type
  70
32
  10
-5.52083299999996
  20
42.33333349999998
  30
757.375
  0
VERTEX
  8
Unknown Area Type
  70
32
  10
-5.52083299999996
  20
42.33333333333331
  30
757.375
  0
VERTEX
  8
Unknown Area Type
  70
32
  10
-5.52083333333329
  20
42.33333333333331
  30
757.375
  0
SEQEND
  8
Unknown Area Type
  0
TEXT
  8
Unknown Area Type
 62
7
  1
PNOA-H_AMS_1956-57_33k_ES_PAN_2
 40
0.00045
  10
-5.52083316666663
  20
42.33333341666665
  0
POLYLINE
  8
Unknown Area Type
  70
9
  66
1
  0
VERTEX
  8
Unknown Area Type
  70
32
  10
-5.54019149956443
  20
42.33333333333331
  30
749.823
  0
VERTEX
  8
Unknown Area Type
  70
32
  10
-5.52083333333329
  20
42.33333333333331
  30
757.375
  0
VERTEX
  8
Unknown Area Type
  70
32
  10
-5.52083333333329
  20
42.32144228735989
  30
753.182
  0
VERTEX
  8
Unknown Area Type
  70
32
  10
-5.5327768513691
  20
42.29968072918673
  30
743.2
  0
VERTEX
  8
Unknown Area Type
  70
32
  10
-5.53701068811579
  20
42.29938446208317
  30
742.084
  0
VERTEX
  8
Unknown Area Type
  70
32
  10
-5.53707146803509
  20
42.29938761925055
  30
741.958
  0
SEQEND
  8
Unknown Area Type
  0
TEXT
  8
Unknown Area Type
 62
7
  1
PNOA-H_AMS_1956-57_33k_ES_PAN_2
 40
0.00045
  10
-5.52533766626081
  20
42.32746019703235
  0
POLYLINE
  8
Unknown Area Type
  70
9
  66
1
  0
VERTEX
  8
Unknown Area Type
  70
32
  10
-5.52083333333329
  20
42.33333333333331
  30
757.375
  0
VERTEX
  8
Unknown Area Type
  70
32
  10
-5.52083299999996
  20
42.33333333333331
  30
757.375
  0
VERTEX
  8
Unknown Area Type
  70
32
  10
-5.52083299999996
  20
42.32144289470629
  30
753.183
  0
VERTEX
  8
Unknown Area Type
  70
32
  10
-5.52083333333329
  20
42.32144228735989
  30
753.182
  0
SEQEND
  8
Unknown Area Type
  0
TEXT
  8
Unknown Area Type
 62
7
  1
PNOA-H_AMS_1956-57_33k_ES_PAN_2
 40
0.00045
  10
-5.52083316666663
  20
42.3273878103466
  0
POLYLINE
  8
Unknown Area Type
  70
9
  66
1
  0
VERTEX
  8
Unknown Area Type
  70
32
  10
-5.67991724341138
  20
42.30044523422553
  30
794.294
  0
VERTEX
  8
Unknown Area Type
  70
32
  10
-5.64715029774545
  20
42.30170211940157
  30
792.196
  0
VERTEX
  8
Unknown Area Type
  70
32
  10
-5.64482289740757
  20
42.30058517203064
  30
792.391
  0
VERTEX
  8
Unknown Area Type
  70
32
  10
-5.64439156335265
  20
42.26158866307718
  30
783.405
  0
VERTEX
  8
Unknown Area Type
  70
32
  10
-5.64439705483993
  20
42.26157502838574
  30
783.255
  0
VERTEX
  8
Unknown Area Type
  70
32
  10
-5.64443888102468
  20
42.26156055534879
  30
783.687
  0
VERTEX
  8
Unknown Area Type
  70
32
  10
-5.65380494818909
  20
42.25869200176196
  30
782.728
  0
VERTEX
  8
Unknown Area Type
  70
32
  10
-5.67871948912383
  20
42.2610391270287
  30
785.381
  0
VERTEX
  8
Unknown Area Type
  70
32
  10
-5.6800261205062
  20
42.30043818535496
  30
794.119
  0
VERTEX
  8
Unknown Area Type
  70
32
  10
-5.67991724341138
  20
42.30044523422553
  30
794.294
  0
SEQEND
  8
Unknown Area Type
  0
TEXT
  8
Unknown Area Type
 62
7
  1
PNOA-H_AMS_1956-57_33k_ES_PAN_2
 40
0.00045
  10
-5.66220904654563
  20
42.28030285346931
  0
POLYLINE
  8
Unknown Area Type
  70
9
  66
1
  0
VERTEX
  8
Unknown Area Type
  70
32
  10
-5.67991724341138
  20
42.30044523422553
  30
794.294
  0
VERTEX
  8
Unknown Area Type
  70
32
  10
-5.64715029774545
  20
42.30170211940157
  30
792.196
  0
VERTEX
  8
Unknown Area Type
  70
32
  10
-5.64482289740757
  20
42.30058517203064
  30
792.391
  0
VERTEX
  8
Unknown Area Type
  70
32
  10
-5.64439156335265
  20
42.26158866307718
  30
783.405
  0
VERTEX
  8
Unknown Area Type
  70
32
  10
-5.64439705483993
  20
42.26157502838574
  30
783.255
  0
VERTEX
  8
Unknown Area Type
  70
32
  10
-5.64443888102468
  20
42.26156055534879
  30
783.687
  0
VERTEX
  8
Unknown Area Type
  70
32
  10
-5.65380494818909
  20
42.25869200176196
  30
782.728
  0
VERTEX
  8
Unknown Area Type
  70
32
  10
-5.67871948912383
  20
42.2610391270287
  30
785.381
  0
VERTEX
  8
Unknown Area Type
  70
32
  10
-5.6800261205062
  20
42.30043818535496
  30
794.119
  0
VERTEX
  8
Unknown Area Type
  70
32
  10
-5.67991724341138
  20
42.30044523422553
  30
794.294
  0
SEQEND
  8
Unknown Area Type
  0
TEXT
  8
Unknown Area Type
 62
7
  1
PNOA-H_AMS_1956-57_33k_ES_PAN_2
 40
0.00045
  10
-5.66220904654563
  20
42.28030285346931
  0
POLYLINE
  8
Unknown Area Type
  70
9
  66
1
  0
VERTEX
  8
Unknown Area Type
  70
32
  10
-5.80421013129626
  20
42.30268502403734
  30
786.116
  0
VERTEX
  8
Unknown Area Type
  70
32
  10
-5.78845649264706
  20
42.30347470230043
  30
787.555
  0
VERTEX
  8
Unknown Area Type
  70
32
  10
-5.78432464039172
  20
42.30152199540803
  30
788.51
  0
VERTEX
  8
Unknown Area Type
  70
32
  10
-5.78538643525891
  20
42.26218849252113
  30
778.056
  0
VERTEX
  8
Unknown Area Type
  70
32
  10
-5.78539189601856
  20
42.26217485196313
  30
778.002
  0
VERTEX
  8
Unknown Area Type
  70
32
  10
-5.7854694239743
  20
42.26214595196499
  30
777.195
  0
VERTEX
  8
Unknown Area Type
  70
32
  10
-5.78819029967352
  20
42.2611657573998
  30
777.55
  0
VERTEX
  8
Unknown Area Type
  70
32
  10
-5.82035625238686
  20
42.26301268659284
  30
775.864
  0
VERTEX
  8
Unknown Area Type
  70
32
  10
-5.81907342447498
  20
42.30193309619776
  30
785.495
  0
VERTEX
  8
Unknown Area Type
  70
32
  10
-5.80437958119447
  20
42.30267637447919
  30
786.131
  0
VERTEX
  8
Unknown Area Type
  70
32
  10
-5.80421013129626
  20
42.30268502403734
  30
786.116
  0
SEQEND
  8
Unknown Area Type
  0
TEXT
  8
Unknown Area Type
 62
7
  1
PNOA-H_AMS_1956-57_33k_ES_PAN_2
 40
0.00045
  10
-5.80234084915728
  20
42.28237713826989
  0
POLYLINE
  8
Unknown Area Type
  70
9
  66
1
  0
VERTEX
  8
Unknown Area Type
  70
32
  10
-5.80421013129626
  20
42.30268502403734
  30
786.116
  0
VERTEX
  8
Unknown Area Type
  70
32
  10
-5.78845649264706
  20
42.30347470230043
  30
787.555
  0
VERTEX
  8
Unknown Area Type
  70
32
  10
-5.78432464039172
  20
42.30152199540803
  30
788.51
  0
VERTEX
  8
Unknown Area Type
  70
32
  10
-5.78538643525891
  20
42.26218849252113
  30
778.056
  0
VERTEX
  8
Unknown Area Type
  70
32
  10
-5.78539189601856
  20
42.26217485196313
  30
778.002
  0
VERTEX
  8
Unknown Area Type
  70
32
  10
-5.7854694239743
  20
42.26214595196499
  30
777.195
  0
VERTEX
  8
Unknown Area Type
  70
32
  10
-5.78819029967352
  20
42.2611657573998
  30
777.55
  0
VERTEX
  8
Unknown Area Type
  70
32
  10
-5.82035625238686
  20
42.26301268659284
  30
775.864
  0
VERTEX
  8
Unknown Area Type
  70
32
  10
-5.81907342447498
  20
42.30193309619776
  30
785.495
  0
VERTEX
  8
Unknown Area Type
  70
32
  10
-5.80437958119447
  20
42.30267637447919
  30
786.131
  0
VERTEX
  8
Unknown Area Type
  70
32
  10
-5.80421013129626
  20
42.30268502403734
  30
786.116
  0
SEQEND
  8
Unknown Area Type
  0
TEXT
  8
Unknown Area Type
 62
7
  1
PNOA-H_AMS_1956-57_33k_ES_PAN_2
 40
0.00045
  10
-5.80234084915728
  20
42.28237713826989
  0
POLYLINE
  8
Unknown Area Type
  70
9
  66
1
  0
VERTEX
  8
Unknown Area Type
  70
32
  10
-5.61224161997282
  20
42.33333333333331
  30
802.596
  0
VERTEX
  8
Unknown Area Type
  70
32
  10
-5.60416666666664
  20
42.33333333333331
  30
802.643
  0
VERTEX
  8
Unknown Area Type
  70
32
  10
-5.58932890348025
  20
42.33333333333331
  30
775.312
  0
VERTEX
  8
Unknown Area Type
  70
32
  10
-5.5927038160211
  20
42.3004568971943
  30
782.746
  0
VERTEX
  8
Unknown Area Type
  70
32
  10
-5.60915278757457
  20
42.29971435943522
  30
793.812
  0
VERTEX
  8
Unknown Area Type
  70
32
  10
-5.61307003403428
  20
42.30159726693118
  30
795.61
  0
SEQEND
  8
Unknown Area Type
  0
TEXT
  8
Unknown Area Type
 62
7
  1
PNOA-H_AMS_1956-57_33k_ES_PAN_2
 40
0.00045
  10
-5.6008065630841
  20
42.3208717841666
  0
POLYLINE
  8
Unknown Area Type
  70
9
  66
1
  0
VERTEX
  8
Unknown Area Type
  70
32
  10
-5.61224161562228
  20
42.33333349999998
  30
802.596
  0
VERTEX
  8
Unknown Area Type
  70
32
  10
-5.58932888637118
  20
42.33333349999998
  30
775.312
  0
VERTEX
  8
Unknown Area Type
  70
32
  10
-5.58932890348025
  20
42.33333333333331
  30
775.312
  0
VERTEX
  8
Unknown Area Type
  70
32
  10
-5.60416666666664
  20
42.33333333333331
  30
802.643
  0
VERTEX
  8
Unknown Area Type
  70
32
  10
-5.61224161997282
  20
42.33333333333331
  30
802.596
  0
SEQEND
  8
Unknown Area Type
  0
TEXT
  8
Unknown Area Type
 62
7
  1
PNOA-H_AMS_1956-57_33k_ES_PAN_2
 40
0.00045
  10
-5.600785253172
  20
42.33333341666665
  0
POLYLINE
  8
Unknown Area Type
  70
9
  66
1
  0
VERTEX
  8
Unknown Area Type
  70
32
  10
-5.61224161997282
  20
42.33333333333331
  30
802.596
  0
VERTEX
  8
Unknown Area Type
  70
32
  10
-5.60416666666664
  20
42.33333333333331
  30
802.643
  0
VERTEX
  8
Unknown Area Type
  70
32
  10
-5.58932890348025
  20
42.33333333333331
  30
775.312
  0
VERTEX
  8
Unknown Area Type
  70
32
  10
-5.5927038160211
  20
42.3004568971943
  30
782.746
  0
VERTEX
  8
Unknown Area Type
  70
32
  10
-5.60915278757457
  20
42.29971435943522
  30
793.812
  0
VERTEX
  8
Unknown Area Type
  70
32
  10
-5.61307003403428
  20
42.30159726693118
  30
795.61
  0
SEQEND
  8
Unknown Area Type
  0
TEXT
  8
Unknown Area Type
 62
7
  1
PNOA-H_AMS_1956-57_33k_ES_PAN_2
 40
0.00045
  10
-5.6008065630841
  20
42.3208717841666
  0
POLYLINE
  8
Unknown Area Type
  70
9
  66
1
  0
VERTEX
  8
Unknown Area Type
  70
32
  10
-5.64687346406067
  20
42.33333333333331
  30
802.647
  0
VERTEX
  8
Unknown Area Type
  70
32
  10
-5.64583333333336
  20
42.33333333333331
  30
802.65
  0
VERTEX
  8
Unknown Area Type
  70
32
  10
-5.6122416731206
  20
42.33333333333331
  30
802.6
  0
VERTEX
  8
Unknown Area Type
  70
32
  10
-5.61307022016763
  20
42.3016017653357
  30
795.63
  0
VERTEX
  8
Unknown Area Type
  70
32
  10
-5.64482895692687
  20
42.30058503218128
  30
792.4
  0
VERTEX
  8
Unknown Area Type
  70
32
  10
-5.64715635736045
  20
42.30170197942626
  30
792.201
  0
SEQEND
  8
Unknown Area Type
  0
TEXT
  8
Unknown Area Type
 62
7
  1
PNOA-H_AMS_1956-57_33k_ES_PAN_2
 40
0.00045
  10
-5.62961122991577
  20
42.32118614677079
  0
POLYLINE
  8
Unknown Area Type
  70
9
  66
1
  0
VERTEX
  8
Unknown Area Type
  70
32
  10
-5.6468734625701
  20
42.33333349999998
  30
802.647
  0
VERTEX
  8
Unknown Area Type
  70
32
  10
-5.61224166876874
  20
42.33333349999998
  30
802.6
  0
VERTEX
  8
Unknown Area Type
  70
32
  10
-5.6122416731206
  20
42.33333333333331
  30
802.6
  0
VERTEX
  8
Unknown Area Type
  70
32
  10
-5.64583333333336
  20
42.33333333333331
  30
802.65
  0
VERTEX
  8
Unknown Area Type
  70
32
  10
-5.64687346406067
  20
42.33333333333331
  30
802.647
  0
SEQEND
  8
Unknown Area Type
  0
TEXT
  8
Unknown Area Type
 62
7
  1
PNOA-H_AMS_1956-57_33k_ES_PAN_2
 40
0.00045
  10
-5.62955756641471
  20
42.33333341666665
  0
POLYLINE
  8
Unknown Area Type
  70
9
  66
1
  0
VERTEX
  8
Unknown Area Type
  70
32
  10
-5.64687346406067
  20
42.33333333333331
  30
802.647
  0
VERTEX
  8
Unknown Area Type
  70
32
  10
-5.64583333333336
  20
42.33333333333331
  30
802.65
  0
VERTEX
  8
Unknown Area Type
  70
32
  10
-5.6122416731206
  20
42.33333333333331
  30
802.6
  0
VERTEX
  8
Unknown Area Type
  70
32
  10
-5.61307022016763
  20
42.3016017653357
  30
795.63
  0
VERTEX
  8
Unknown Area Type
  70
32
  10
-5.64482895692687
  20
42.30058503218128
  30
792.4
  0
VERTEX
  8
Unknown Area Type
  70
32
  10
-5.64715635736045
  20
42.30170197942626
  30
792.201
  0
SEQEND
  8
Unknown Area Type
  0
TEXT
  8
Unknown Area Type
 62
7
  1
PNOA-H_AMS_1956-57_33k_ES_PAN_2
 40
0.00045
  10
-5.62961122991577
  20
42.32118614677079
  0
POLYLINE
  8
Unknown Area Type
  70
9
  66
1
  0
VERTEX
  8
Unknown Area Type
  70
32
  10
-5.77958366911004
  20
42.30170913727649
  30
789.094
  0
VERTEX
  8
Unknown Area Type
  70
32
  10
-5.75186960942016
  20
42.30279678595844
  30
788.06
  0
VERTEX
  8
Unknown Area Type
  70
32
  10
-5.74866768878743
  20
42.30127971437767
  30
787.74
  0
VERTEX
  8
Unknown Area Type
  70
32
  10
-5.75002574915846
  20
42.26183575902607
  30
775.848
  0
VERTEX
  8
Unknown Area Type
  70
32
  10
-5.75460722534621
  20
42.2601408080529
  30
777.384
  0
VERTEX
  8
Unknown Area Type
  70
32
  10
-5.78539209414377
  20
42.26217934975958
  30
778.02
  0
VERTEX
  8
Unknown Area Type
  70
32
  10
-5.78432970768684
  20
42.30149935933747
  30
788.501
  0
VERTEX
  8
Unknown Area Type
  70
32
  10
-5.78432444206944
  20
42.30151749763845
  30
788.505
  0
VERTEX
  8
Unknown Area Type
  70
32
  10
-5.78430040475833
  20
42.30152258429575
  30
788.414
  0
VERTEX
  8
Unknown Area Type
  70
32
  10
-5.77987430068032
  20
42.30169758443664
  30
788.108
  0
VERTEX
  8
Unknown Area Type
  70
32
  10
-5.77958366911004
  20
42.30170913727649
  30
789.094
  0
SEQEND
  8
Unknown Area Type
  0
TEXT
  8
Unknown Area Type
 62
7
  1
PNOA-H_AMS_1956-57_33k_ES_PAN_2
 40
0.00045
  10
-5.76703035039276
  20
42.2815813657146
  0
POLYLINE
  8
Unknown Area Type
  70
9
  66
1
  0
VERTEX
  8
Unknown Area Type
  70
32
  10
-5.77958366911004
  20
42.30170913727649
  30
789.094
  0
VERTEX
  8
Unknown Area Type
  70
32
  10
-5.75186960942016
  20
42.30279678595844
  30
788.06
  0
VERTEX
  8
Unknown Area Type
  70
32
  10
-5.74866768878743
  20
42.30127971437767
  30
787.74
  0
VERTEX
  8
Unknown Area Type
  70
32
  10
-5.75002574915846
  20
42.26183575902607
  30
775.848
  0
VERTEX
  8
Unknown Area Type
  70
32
  10
-5.75460722534621
  20
42.2601408080529
  30
777.384
  0
VERTEX
  8
Unknown Area Type
  70
32
  10
-5.78539209414377
  20
42.26217934975958
  30
778.02
  0
VERTEX
  8
Unknown Area Type
  70
32
  10
-5.78432970768684
  20
42.30149935933747
  30
788.501
  0
VERTEX
  8
Unknown Area Type
  70
32
  10
-5.78432444206944
  20
42.30151749763845
  30
788.505
  0
VERTEX
  8
Unknown Area Type
  70
32
  10
-5.78430040475833
  20
42.30152258429575
  30
788.414
  0
VERTEX
  8
Unknown Area Type
  70
32
  10
-5.77987430068032
  20
42.30169758443664
  30
788.108
  0
VERTEX
  8
Unknown Area Type
  70
32
  10
-5.77958366911004
  20
42.30170913727649
  30
789.094
  0
SEQEND
  8
Unknown Area Type
  0
TEXT
  8
Unknown Area Type
 62
7
  1
PNOA-H_AMS_1956-57_33k_ES_PAN_2
 40
0.00045
  10
-5.76703035039276
  20
42.2815813657146
  0
POLYLINE
  8
Unknown Area Type
  70
9
  66
1
  0
VERTEX
  8
Unknown Area Type
  70
32
  10
-5.85416666666668
  20
42.27083333333337
  30
775.615
  0
VERTEX
  8
Unknown Area Type
  70
32
  10
-5.85416666666668
  20
42.29166666666669
  30
776.422
  0
VERTEX
  8
Unknown Area Type
  70
32
  10
-5.85416666666668
  20
42.30233810519923
  30
777.322
  0
VERTEX
  8
Unknown Area Type
  70
32
  10
-5.82388224843443
  20
42.30407948134222
  30
786.435
  0
VERTEX
  8
Unknown Area Type
  70
32
  10
-5.8237430937602
  20
42.30408741322836
  30
786.579
  0
VERTEX
  8
Unknown Area Type
  70
32
  10
-5.82365826846051
  20
42.30408950357138
  30
786.573
  0
VERTEX
  8
Unknown Area Type
  70
32
  10
-5.82356537286962
  20
42.30404676699106
  30
786.643
  0
VERTEX
  8
Unknown Area Type
  70
32
  10
-5.81912935899691
  20
42.30196323809506
  30
785.508
  0
VERTEX
  8
Unknown Area Type
  70
32
  10
-5.81907342447498
  20
42.30193309619776
  30
785.495
  0
VERTEX
  8
Unknown Area Type
  70
32
  10
-5.81907221968593
  20
42.30190611038471
  30
785.488
  0
VERTEX
  8
Unknown Area Type
  70
32
  10
-5.82035079920106
  20
42.26302632859319
  30
775.778
  0
VERTEX
  8
Unknown Area Type
  70
32
  10
-5.82036210680333
  20
42.2630080399145
  30
775.894
  0
VERTEX
  8
Unknown Area Type
  70
32
  10
-5.82044547289787
  20
42.26297447001454
  30
776.017
  0
VERTEX
  8
Unknown Area Type
  70
32
  10
-5.82333596673527
  20
42.2618676974625
  30
761.328
  0
VERTEX
  8
Unknown Area Type
  70
32
  10
-5.85416096252872
  20
42.26285113255248
  30
775.305
  0
VERTEX
  8
Unknown Area Type
  70
32
  10
-5.85416666666668
  20
42.26302485566801
  30
775.312
  0
SEQEND
  8
Unknown Area Type
  0
TEXT
  8
Unknown Area Type
 62
7
  1
PNOA-H_AMS_1956-57_33k_ES_PAN_2
 40
0.00045
  10
-5.83726184826758
  20
42.28280937600519
  0
POLYLINE
  8
Unknown Area Type
  70
9
  66
1
  0
VERTEX
  8
Unknown Area Type
  70
32
  10
-5.85416700000001
  20
42.30233808603231
  30
777.322
  0
VERTEX
  8
Unknown Area Type
  70
32
  10
-5.85416666666668
  20
42.30233810519923
  30
777.322
  0
VERTEX
  8
Unknown Area Type
  70
32
  10
-5.85416666666668
  20
42.29166666666669
  30
776.422
  0
VERTEX
  8
Unknown Area Type
  70
32
  10
-5.85416666666668
  20
42.27083333333337
  30
775.615
  0
VERTEX
  8
Unknown Area Type
  70
32
  10
-5.85416666666668
  20
42.26302485566801
  30
775.312
  0
VERTEX
  8
Unknown Area Type
  70
32
  10
-5.85416700000001
  20
42.26303500754469
  30
775.312
  0
SEQEND
  8
Unknown Area Type
  0
TEXT
  8
Unknown Area Type
 62
7
  1
PNOA-H_AMS_1956-57_33k_ES_PAN_2
 40
0.00045
  10
-5.85416683333334
  20
42.28268148043362
  0
POLYLINE
  8
Unknown Area Type
  70
9
  66
1
  0
VERTEX
  8
Unknown Area Type
  70
32
  10
-5.85416666666668
  20
42.27083333333337
  30
775.615
  0
VERTEX
  8
Unknown Area Type
  70
32
  10
-5.85416666666668
  20
42.29166666666669
  30
776.422
  0
VERTEX
  8
Unknown Area Type
  70
32
  10
-5.85416666666668
  20
42.30233810519923
  30
777.322
  0
VERTEX
  8
Unknown Area Type
  70
32
  10
-5.82388224843443
  20
42.30407948134222
  30
786.435
  0
VERTEX
  8
Unknown Area Type
  70
32
  10
-5.8237430937602
  20
42.30408741322836
  30
786.579
  0
VERTEX
  8
Unknown Area Type
  70
32
  10
-5.82365826846051
  20
42.30408950357138
  30
786.573
  0
VERTEX
  8
Unknown Area Type
  70
32
  10
-5.82356537286962
  20
42.30404676699106
  30
786.643
  0
VERTEX
  8
Unknown Area Type
  70
32
  10
-5.81912935899691
  20
42.30196323809506
  30
785.508
  0
VERTEX
  8
Unknown Area Type
  70
32
  10
-5.81907342447498
  20
42.30193309619776
  30
785.495
  0
VERTEX
  8
Unknown Area Type
  70
32
  10
-5.81907221968593
  20
42.30190611038471
  30
785.488
  0
VERTEX
  8
Unknown Area Type
  70
32
  10
-5.82035079920106
  20
42.26302632859319
  30
775.778
  0
VERTEX
  8
Unknown Area Type
  70
32
  10
-5.82036210680333
  20
42.2630080399145
  30
775.894
  0
VERTEX
  8
Unknown Area Type
  70
32
  10
-5.82044547289787
  20
42.26297447001454
  30
776.017
  0
VERTEX
  8
Unknown Area Type
  70
32
  10
-5.82333596673527
  20
42.2618676974625
  30
761.328
  0
VERTEX
  8
Unknown Area Type
  70
32
  10
-5.85416096252872
  20
42.26285113255248
  30
775.305
  0
VERTEX
  8
Unknown Area Type
  70
32
  10
-5.85416666666668
  20
42.26302485566801
  30
775.312
  0
SEQEND
  8
Unknown Area Type
  0
TEXT
  8
Unknown Area Type
 62
7
  1
PNOA-H_AMS_1956-57_33k_ES_PAN_2
 40
0.00045
  10
-5.83726184826758
  20
42.28280937600519
  0
POLYLINE
  8
Unknown Area Type
  70
9
  66
1
  0
VERTEX
  8
Unknown Area Type
  70
32
  10
-5.71628827034559
  20
42.33333333333331
  30
805.265
  0
VERTEX
  8
Unknown Area Type
  70
32
  10
-5.68749999999998
  20
42.33333333333331
  30
803.351
  0
VERTEX
  8
Unknown Area Type
  70
32
  10
-5.68128818461885
  20
42.33333333333331
  30
803.424
  0
VERTEX
  8
Unknown Area Type
  70
32
  10
-5.68260125562815
  20
42.30166118014042
  30
794.419
  0
VERTEX
  8
Unknown Area Type
  70
32
  10
-5.71327466258493
  20
42.30068237218325
  30
795.477
  0
VERTEX
  8
Unknown Area Type
  70
32
  10
-5.71791603240078
  20
42.30282819086501
  30
794.374
  0
SEQEND
  8
Unknown Area Type
  0
TEXT
  8
Unknown Area Type
 62
7
  1
PNOA-H_AMS_1956-57_33k_ES_PAN_2
 40
0.00045
  10
-5.6994841335022
  20
42.32161831855262
  0
POLYLINE
  8
Unknown Area Type
  70
9
  66
1
  0
VERTEX
  8
Unknown Area Type
  70
32
  10
-5.71628826145222
  20
42.33333349999998
  30
805.265
  0
VERTEX
  8
Unknown Area Type
  70
32
  10
-5.68128817770915
  20
42.33333349999998
  30
803.424
  0
VERTEX
  8
Unknown Area Type
  70
32
  10
-5.68128818461885
  20
42.33333333333331
  30
803.424
  0
VERTEX
  8
Unknown Area Type
  70
32
  10
-5.68749999999998
  20
42.33333333333331
  30
803.351
  0
VERTEX
  8
Unknown Area Type
  70
32
  10
-5.71628827034559
  20
42.33333333333331
  30
805.265
  0
SEQEND
  8
Unknown Area Type
  0
TEXT
  8
Unknown Area Type
 62
7
  1
PNOA-H_AMS_1956-57_33k_ES_PAN_2
 40
0.00045
  10
-5.69878822402737
  20
42.33333341666665
  0
POLYLINE
  8
Unknown Area Type
  70
9
  66
1
  0
VERTEX
  8
Unknown Area Type
  70
32
  10
-5.71628827034559
  20
42.33333333333331
  30
805.265
  0
VERTEX
  8
Unknown Area Type
  70
32
  10
-5.68749999999998
  20
42.33333333333331
  30
803.351
  0
VERTEX
  8
Unknown Area Type
  70
32
  10
-5.68128818461885
  20
42.33333333333331
  30
803.424
  0
VERTEX
  8
Unknown Area Type
  70
32
  10
-5.68260125562815
  20
42.30166118014042
  30
794.419
  0
VERTEX
  8
Unknown Area Type
  70
32
  10
-5.71327466258493
  20
42.30068237218325
  30
795.477
  0
VERTEX
  8
Unknown Area Type
  70
32
  10
-5.71791603240078
  20
42.30282819086501
  30
794.374
  0
SEQEND
  8
Unknown Area Type
  0
TEXT
  8
Unknown Area Type
 62
7
  1
PNOA-H_AMS_1956-57_33k_ES_PAN_2
 40
0.00045
  10
-5.6994841335022
  20
42.32161831855262
  0
POLYLINE
  8
Unknown Area Type
  70
9
  66
1
  0
VERTEX
  8
Unknown Area Type
  70
32
  10
-5.7527947187768
  20
42.33333333333331
  30
798.922
  0
VERTEX
  8
Unknown Area Type
  70
32
  10
-5.7291666666667
  20
42.33333333333331
  30
806.665
  0
VERTEX
  8
Unknown Area Type
  70
32
  10
-5.71628834093785
  20
42.33333333333331
  30
805.247
  0
VERTEX
  8
Unknown Area Type
  70
32
  10
-5.71791622600537
  20
42.30283268888459
  30
794.266
  0
VERTEX
  8
Unknown Area Type
  70
32
  10
-5.74866749300464
  20
42.30127521647236
  30
787.741
  0
VERTEX
  8
Unknown Area Type
  70
32
  10
-5.7518756686169
  20
42.30279664044694
  30
788.062
  0
SEQEND
  8
Unknown Area Type
  0
TEXT
  8
Unknown Area Type
 62
7
  1
PNOA-H_AMS_1956-57_33k_ES_PAN_2
 40
0.00045
  10
-5.73447725790678
  20
42.32269741789696
  0
POLYLINE
  8
Unknown Area Type
  70
9
  66
1
  0
VERTEX
  8
Unknown Area Type
  70
32
  10
-5.7527947237929
  20
42.33333349999998
  30
798.922
  0
VERTEX
  8
Unknown Area Type
  70
32
  10
-5.71628833204249
  20
42.33333349999998
  30
805.247
  0
VERTEX
  8
Unknown Area Type
  70
32
  10
-5.71628834093785
  20
42.33333333333331
  30
805.247
  0
VERTEX
  8
Unknown Area Type
  70
32
  10
-5.7291666666667
  20
42.33333333333331
  30
806.665
  0
VERTEX
  8
Unknown Area Type
  70
32
  10
-5.7527947187768
  20
42.33333333333331
  30
798.922
  0
SEQEND
  8
Unknown Area Type
  0
TEXT
  8
Unknown Area Type
 62
7
  1
PNOA-H_AMS_1956-57_33k_ES_PAN_2
 40
0.00045
  10
-5.73454152791769
  20
42.33333341666665
  0
POLYLINE
  8
Unknown Area Type
  70
9
  66
1
  0
VERTEX
  8
Unknown Area Type
  70
32
  10
-5.7527947187768
  20
42.33333333333331
  30
798.922
  0
VERTEX
  8
Unknown Area Type
  70
32
  10
-5.7291666666667
  20
42.33333333333331
  30
806.665
  0
VERTEX
  8
Unknown Area Type
  70
32
  10
-5.71628834093785
  20
42.33333333333331
  30
805.247
  0
VERTEX
  8
Unknown Area Type
  70
32
  10
-5.71791622600537
  20
42.30283268888459
  30
794.266
  0
VERTEX
  8
Unknown Area Type
  70
32
  10
-5.74866749300464
  20
42.30127521647236
  30
787.741
  0
VERTEX
  8
Unknown Area Type
  70
32
  10
-5.7518756686169
  20
42.30279664044694
  30
788.062
  0
SEQEND
  8
Unknown Area Type
  0
TEXT
  8
Unknown Area Type
 62
7
  1
PNOA-H_AMS_1956-57_33k_ES_PAN_2
 40
0.00045
  10
-5.73447725790678
  20
42.32269741789696
  0
POLYLINE
  8
Unknown Area Type
  70
9
  66
1
  0
VERTEX
  8
Unknown Area Type
  70
32
  10
-5.68128875647346
  20
42.33330926264875
  30
802.828
  0
VERTEX
  8
Unknown Area Type
  70
32
  10
-5.68128977964375
  20
42.33333333333331
  30
802.827
  0
VERTEX
  8
Unknown Area Type
  70
32
  10
-5.64687346406067
  20
42.33333333333331
  30
802.647
  0
VERTEX
  8
Unknown Area Type
  70
32
  10
-5.64715635736045
  20
42.30170197942626
  30
792.201
  0
VERTEX
  8
Unknown Area Type
  70
32
  10
-5.6800261205062
  20
42.30043818535496
  30
794.119
  0
VERTEX
  8
Unknown Area Type
  70
32
  10
-5.68260106454514
  20
42.3016566819889
  30
794.421
  0
SEQEND
  8
Unknown Area Type
  0
TEXT
  8
Unknown Area Type
 62
7
  1
PNOA-H_AMS_1956-57_33k_ES_PAN_2
 40
0.00045
  10
-5.66470917083468
  20
42.32143902960645
  0
POLYLINE
  8
Unknown Area Type
  70
9
  66
1
  0
VERTEX
  8
Unknown Area Type
  70
32
  10
-5.68128978672823
  20
42.33333349999998
  30
802.827
  0
VERTEX
  8
Unknown Area Type
  70
32
  10
-5.6468734625701
  20
42.33333349999998
  30
802.647
  0
VERTEX
  8
Unknown Area Type
  70
32
  10
-5.64687346406067
  20
42.33333333333331
  30
802.647
  0
VERTEX
  8
Unknown Area Type
  70
32
  10
-5.68128977964375
  20
42.33333333333331
  30
802.827
  0
SEQEND
  8
Unknown Area Type
  0
TEXT
  8
Unknown Area Type
 62
7
  1
PNOA-H_AMS_1956-57_33k_ES_PAN_2
 40
0.00045
  10
-5.66408162464916
  20
42.33333341666665
  0
POLYLINE
  8
Unknown Area Type
  70
9
  66
1
  0
VERTEX
  8
Unknown Area Type
  70
32
  10
-5.68128875647346
  20
42.33330926264875
  30
802.828
  0
VERTEX
  8
Unknown Area Type
  70
32
  10
-5.68128977964375
  20
42.33333333333331
  30
802.827
  0
VERTEX
  8
Unknown Area Type
  70
32
  10
-5.64687346406067
  20
42.33333333333331
  30
802.647
  0
VERTEX
  8
Unknown Area Type
  70
32
  10
-5.64715635736045
  20
42.30170197942626
  30
792.201
  0
VERTEX
  8
Unknown Area Type
  70
32
  10
-5.6800261205062
  20
42.30043818535496
  30
794.119
  0
VERTEX
  8
Unknown Area Type
  70
32
  10
-5.68260106454514
  20
42.3016566819889
  30
794.421
  0
SEQEND
  8
Unknown Area Type
  0
TEXT
  8
Unknown Area Type
 62
7
  1
PNOA-H_AMS_1956-57_33k_ES_PAN_2
 40
0.00045
  10
-5.66470917083468
  20
42.32143902960645
  0
POLYLINE
  8
Unknown Area Type
  70
9
  66
1
  0
VERTEX
  8
Unknown Area Type
  70
32
  10
-5.82313025423388
  20
42.33333333333331
  30
795.185
  0
VERTEX
  8
Unknown Area Type
  70
32
  10
-5.81249999999996
  20
42.33333333333331
  30
797.657
  0
VERTEX
  8
Unknown Area Type
  70
32
  10
-5.78749489592065
  20
42.33333333333331
  30
797.01
  0
VERTEX
  8
Unknown Area Type
  70
32
  10
-5.78788411877999
  20
42.32141790561425
  30
793.518
  0
VERTEX
  8
Unknown Area Type
  70
32
  10
-5.78788252906962
  20
42.32138192369166
  30
793.57
  0
VERTEX
  8
Unknown Area Type
  70
32
  10
-5.78846255172121
  20
42.30347455485393
  30
787.554
  0
VERTEX
  8
Unknown Area Type
  70
32
  10
-5.81907948324244
  20
42.30193294713798
  30
785.495
  0
VERTEX
  8
Unknown Area Type
  70
32
  10
-5.82366432741078
  20
42.30408935426323
  30
786.577
  0
SEQEND
  8
Unknown Area Type
  0
TEXT
  8
Unknown Area Type
 62
7
  1
PNOA-H_AMS_1956-57_33k_ES_PAN_2
 40
0.00045
  10
-5.80547779827881
  20
42.32228464531434
  0
POLYLINE
  8
Unknown Area Type
  70
9
  66
1
  0
VERTEX
  8
Unknown Area Type
  70
32
  10
-5.8231302511901
  20
42.33333349999998
  30
795.185
  0
VERTEX
  8
Unknown Area Type
  70
32
  10
-5.7874948904764
  20
42.33333349999998
  30
797.01
  0
VERTEX
  8
Unknown Area Type
  70
32
  10
-5.78749489592065
  20
42.33333333333331
  30
797.01
  0
VERTEX
  8
Unknown Area Type
  70
32
  10
-5.81249999999996
  20
42.33333333333331
  30
797.657
  0
VERTEX
  8
Unknown Area Type
  70
32
  10
-5.82313025423388
  20
42.33333333333331
  30
795.185
  0
SEQEND
  8
Unknown Area Type
  0
TEXT
  8
Unknown Area Type
 62
7
  1
PNOA-H_AMS_1956-57_33k_ES_PAN_2
 40
0.00045
  10
-5.80531257235514
  20
42.33333341666665
  0
POLYLINE
  8
Unknown Area Type
  70
9
  66
1
  0
VERTEX
  8
Unknown Area Type
  70
32
  10
-5.82313025423388
  20
42.33333333333331
  30
795.185
  0
VERTEX
  8
Unknown Area Type
  70
32
  10
-5.81249999999996
  20
42.33333333333331
  30
797.657
  0
VERTEX
  8
Unknown Area Type
  70
32
  10
-5.78749489592065
  20
42.33333333333331
  30
797.01
  0
VERTEX
  8
Unknown Area Type
  70
32
  10
-5.78788411877999
  20
42.32141790561425
  30
793.518
  0
VERTEX
  8
Unknown Area Type
  70
32
  10
-5.78788252906962
  20
42.32138192369166
  30
793.57
  0
VERTEX
  8
Unknown Area Type
  70
32
  10
-5.78846255172121
  20
42.30347455485393
  30
787.554
  0
VERTEX
  8
Unknown Area Type
  70
32
  10
-5.81907948324244
  20
42.30193294713798
  30
785.495
  0
VERTEX
  8
Unknown Area Type
  70
32
  10
-5.82366432741078
  20
42.30408935426323
  30
786.577
  0
SEQEND
  8
Unknown Area Type
  0
TEXT
  8
Unknown Area Type
 62
7
  1
PNOA-H_AMS_1956-57_33k_ES_PAN_2
 40
0.00045
  10
-5.80547779827881
  20
42.32228464531434
  0
POLYLINE
  8
Unknown Area Type
  70
9
  66
1
  0
VERTEX
  8
Unknown Area Type
  70
32
  10
-5.78749829053502
  20
42.33333333333331
  30
796.911
  0
VERTEX
  8
Unknown Area Type
  70
32
  10
-5.77083333333333
  20
42.33333333333331
  30
799.406
  0
VERTEX
  8
Unknown Area Type
  70
32
  10
-5.7527947187768
  20
42.33333333333331
  30
798.922
  0
VERTEX
  8
Unknown Area Type
  70
32
  10
-5.7518756686169
  20
42.30279664044694
  30
788.062
  0
VERTEX
  8
Unknown Area Type
  70
32
  10
-5.78432444206944
  20
42.30151749763845
  30
788.505
  0
VERTEX
  8
Unknown Area Type
  70
32
  10
-5.78846255172121
  20
42.30347455485393
  30
787.554
  0
SEQEND
  8
Unknown Area Type
  0
TEXT
  8
Unknown Area Type
 62
7
  1
PNOA-H_AMS_1956-57_33k_ES_PAN_2
 40
0.00045
  10
-5.77016951617328
  20
42.32233857379971
  0
POLYLINE
  8
Unknown Area Type
  70
9
  66
1
  0
VERTEX
  8
Unknown Area Type
  70
32
  10
-5.78749828515268
  20
42.33333349999998
  30
796.911
  0
VERTEX
  8
Unknown Area Type
  70
32
  10
-5.7527947237929
  20
42.33333349999998
  30
798.922
  0
VERTEX
  8
Unknown Area Type
  70
32
  10
-5.7527947187768
  20
42.33333333333331
  30
798.922
  0
VERTEX
  8
Unknown Area Type
  70
32
  10
-5.77083333333333
  20
42.33333333333331
  30
799.406
  0
VERTEX
  8
Unknown Area Type
  70
32
  10
-5.78749829053502
  20
42.33333333333331
  30
796.911
  0
SEQEND
  8
Unknown Area Type
  0
TEXT
  8
Unknown Area Type
 62
7
  1
PNOA-H_AMS_1956-57_33k_ES_PAN_2
 40
0.00045
  10
-5.77014650465591
  20
42.33333341666665
  0
POLYLINE
  8
Unknown Area Type
  70
9
  66
1
  0
VERTEX
  8
Unknown Area Type
  70
32
  10
-5.78749829053502
  20
42.33333333333331
  30
796.911
  0
VERTEX
  8
Unknown Area Type
  70
32
  10
-5.77083333333333
  20
42.33333333333331
  30
799.406
  0
VERTEX
  8
Unknown Area Type
  70
32
  10
-5.7527947187768
  20
42.33333333333331
  30
798.922
  0
VERTEX
  8
Unknown Area Type
  70
32
  10
-5.7518756686169
  20
42.30279664044694
  30
788.062
  0
VERTEX
  8
Unknown Area Type
  70
32
  10
-5.78432444206944
  20
42.30151749763845
  30
788.505
  0
VERTEX
  8
Unknown Area Type
  70
32
  10
-5.78846255172121
  20
42.30347455485393
  30
787.554
  0
SEQEND
  8
Unknown Area Type
  0
TEXT
  8
Unknown Area Type
 62
7
  1
PNOA-H_AMS_1956-57_33k_ES_PAN_2
 40
0.00045
  10
-5.77016951617328
  20
42.32233857379971
  0
POLYLINE
  8
Unknown Area Type
  70
9
  66
1
  0
VERTEX
  8
Unknown Area Type
  70
32
  10
-5.85416666666668
  20
42.3125
  30
779.835
  0
VERTEX
  8
Unknown Area Type
  70
32
  10
-5.85416666666668
  20
42.33333333333331
  30
786.965
  0
VERTEX
  8
Unknown Area Type
  70
32
  10
-5.82312972004488
  20
42.33333333333331
  30
795.191
  0
VERTEX
  8
Unknown Area Type
  70
32
  10
-5.82366048100114
  20
42.30413897734743
  30
786.626
  0
VERTEX
  8
Unknown Area Type
  70
32
  10
-5.82366432741078
  20
42.30408935426323
  30
786.577
  0
VERTEX
  8
Unknown Area Type
  70
32
  10
-5.8237428926144
  20
42.30408291561266
  30
786.588
  0
VERTEX
  8
Unknown Area Type
  70
32
  10
-5.85416666666668
  20
42.3023354868304
  30
777.329
  0
SEQEND
  8
Unknown Area Type
  0
TEXT
  8
Unknown Area Type
 62
7
  1
PNOA-H_AMS_1956-57_33k_ES_PAN_2
 40
0.00045
  10
-5.84149768003165
  20
42.32245912924836
  0
POLYLINE
  8
Unknown Area Type
  70
9
  66
1
  0
VERTEX
  8
Unknown Area Type
  70
32
  10
-5.85416700000001
  20
42.33333349999998
  30
786.965
  0
VERTEX
  8
Unknown Area Type
  70
32
  10
-5.85416666666668
  20
42.33333349999998
  30
786.965
  0
VERTEX
  8
Unknown Area Type
  70
32
  10
-5.85416666666668
  20
42.33333333333331
  30
786.965
  0
VERTEX
  8
Unknown Area Type
  70
32
  10
-5.85416700000001
  20
42.33333333333331
  30
786.965
  0
SEQEND
  8
Unknown Area Type
  0
TEXT
  8
Unknown Area Type
 62
7
  1
PNOA-H_AMS_1956-57_33k_ES_PAN_2
 40
0.00045
  10
-5.85416683333334
  20
42.33333341666665
  0
POLYLINE
  8
Unknown Area Type
  70
9
  66
1
  0
VERTEX
  8
Unknown Area Type
  70
32
  10
-5.85416666666668
  20
42.33333349999998
  30
786.965
  0
VERTEX
  8
Unknown Area Type
  70
32
  10
-5.82312971701484
  20
42.33333349999998
  30
795.191
  0
VERTEX
  8
Unknown Area Type
  70
32
  10
-5.82312972004488
  20
42.33333333333331
  30
795.191
  0
VERTEX
  8
Unknown Area Type
  70
32
  10
-5.85416666666668
  20
42.33333333333331
  30
786.965
  0
SEQEND
  8
Unknown Area Type
  0
TEXT
  8
Unknown Area Type
 62
7
  1
PNOA-H_AMS_1956-57_33k_ES_PAN_2
 40
0.00045
  10
-5.83864819184076
  20
42.33333341666665
  0
POLYLINE
  8
Unknown Area Type
  70
9
  66
1
  0
VERTEX
  8
Unknown Area Type
  70
32
  10
-5.85416700000001
  20
42.33333333333331
  30
786.965
  0
VERTEX
  8
Unknown Area Type
  70
32
  10
-5.85416666666668
  20
42.33333333333331
  30
786.965
  0
VERTEX
  8
Unknown Area Type
  70
32
  10
-5.85416666666668
  20
42.3125
  30
779.835
  0
VERTEX
  8
Unknown Area Type
  70
32
  10
-5.85416666666668
  20
42.3023354868304
  30
777.329
  0
VERTEX
  8
Unknown Area Type
  70
32
  10
-5.85416700000001
  20
42.30233546768498
  30
777.329
  0
SEQEND
  8
Unknown Area Type
  0
TEXT
  8
Unknown Area Type
 62
7
  1
PNOA-H_AMS_1956-57_33k_ES_PAN_2
 40
0.00045
  10
-5.85416683333334
  20
42.31783440050915
  0
POLYLINE
  8
Unknown Area Type
  70
9
  66
1
  0
VERTEX
  8
Unknown Area Type
  70
32
  10
-5.85416666666668
  20
42.3125
  30
779.835
  0
VERTEX
  8
Unknown Area Type
  70
32
  10
-5.85416666666668
  20
42.33333333333331
  30
786.965
  0
VERTEX
  8
Unknown Area Type
  70
32
  10
-5.82312972004488
  20
42.33333333333331
  30
795.191
  0
VERTEX
  8
Unknown Area Type
  70
32
  10
-5.82366048100114
  20
42.30413897734743
  30
786.626
  0
VERTEX
  8
Unknown Area Type
  70
32
  10
-5.82366432741078
  20
42.30408935426323
  30
786.577
  0
VERTEX
  8
Unknown Area Type
  70
32
  10
-5.8237428926144
  20
42.30408291561266
  30
786.588
  0
VERTEX
  8
Unknown Area Type
  70
32
  10
-5.85416666666668
  20
42.3023354868304
  30
777.329
  0
SEQEND
  8
Unknown Area Type
  0
TEXT
  8
Unknown Area Type
 62
7
  1
PNOA-H_AMS_1956-57_33k_ES_PAN_2
 40
0.00045
  10
-5.84149768003165
  20
42.32245912924836
  0
POLYLINE
  8
Unknown Area Type
  70
9
  66
1
  0
VERTEX
  8
Unknown Area Type
  70
32
  10
-5.53856466155761
  20
42.29866114171057
  30
743.68
  0
VERTEX
  8
Unknown Area Type
  70
32
  10
-5.5370712873257
  20
42.29938312057538
  30
741.965
  0
VERTEX
  8
Unknown Area Type
  70
32
  10
-5.53289181036785
  20
42.29967368584159
  30
743.129
  0
VERTEX
  8
Unknown Area Type
  70
32
  10
-5.53279503127733
  20
42.29968032740668
  30
743.184
  0
VERTEX
  8
Unknown Area Type
  70
32
  10
-5.52083333333329
  20
42.29956653155708
  30
754.243
  0
VERTEX
  8
Unknown Area Type
  70
32
  10
-5.52083333333329
  20
42.29166666666669
  30
754.312
  0
VERTEX
  8
Unknown Area Type
  70
32
  10
-5.52083333333329
  20
42.27083333333337
  30
752.438
  0
VERTEX
  8
Unknown Area Type
  70
32
  10
-5.52083333333329
  20
42.25805753674128
  30
749.328
  0
VERTEX
  8
Unknown Area Type
  70
32
  10
-5.52291001266794
  20
42.25764058470671
  30
746.708
  0
VERTEX
  8
Unknown Area Type
  70
32
  10
-5.53783587918629
  20
42.26088622354192
  30
737.569
  0
VERTEX
  8
Unknown Area Type
  70
32
  10
-5.53857515394059
  20
42.29862038521652
  30
743.673
  0
SEQEND
  8
Unknown Area Type
  0
TEXT
  8
Unknown Area Type
 62
7
  1
PNOA-H_AMS_1956-57_33k_ES_PAN_2
 40
0.00045
  10
-5.52970424363694
  20
42.27866045605669
  0
POLYLINE
  8
Unknown Area Type
  70
9
  66
1
  0
VERTEX
  8
Unknown Area Type
  70
32
  10
-5.53856466155761
  20
42.29866114171057
  30
743.68
  0
VERTEX
  8
Unknown Area Type
  70
32
  10
-5.5370712873257
  20
42.29938312057538
  30
741.965
  0
VERTEX
  8
Unknown Area Type
  70
32
  10
-5.53289181036785
  20
42.29967368584159
  30
743.129
  0
VERTEX
  8
Unknown Area Type
  70
32
  10
-5.53279503127733
  20
42.29968032740668
  30
743.184
  0
VERTEX
  8
Unknown Area Type
  70
32
  10
-5.52083333333329
  20
42.29956653155708
  30
754.243
  0
VERTEX
  8
Unknown Area Type
  70
32
  10
-5.52083333333329
  20
42.29166666666669
  30
754.312
  0
VERTEX
  8
Unknown Area Type
  70
32
  10
-5.52083333333329
  20
42.27083333333337
  30
752.438
  0
VERTEX
  8
Unknown Area Type
  70
32
  10
-5.52083333333329
  20
42.25805753674128
  30
749.328
  0
VERTEX
  8
Unknown Area Type
  70
32
  10
-5.52291001266794
  20
42.25764058470671
  30
746.708
  0
VERTEX
  8
Unknown Area Type
  70
32
  10
-5.53783587918629
  20
42.26088622354192
  30
737.569
  0
VERTEX
  8
Unknown Area Type
  70
32
  10
-5.53857515394059
  20
42.29862038521652
  30
743.673
  0
SEQEND
  8
Unknown Area Type
  0
TEXT
  8
Unknown Area Type
 62
7
  1
PNOA-H_AMS_1956-57_33k_ES_PAN_2
 40
0.00045
  10
-5.52970424363694
  20
42.27866045605669
  0
POLYLINE
  8
Unknown Area Type
  70
9
  66
1
  0
VERTEX
  8
Unknown Area Type
  70
32
  10
-5.52083333333329
  20
42.27083333333337
  30
752.438
  0
VERTEX
  8
Unknown Area Type
  70
32
  10
-5.52083333333329
  20
42.29166666666669
  30
754.312
  0
VERTEX
  8
Unknown Area Type
  70
32
  10
-5.52083333333329
  20
42.29956653155708
  30
754.243
  0
VERTEX
  8
Unknown Area Type
  70
32
  10
-5.52083299999996
  20
42.29956652838595
  30
754.243
  0
VERTEX
  8
Unknown Area Type
  70
32
  10
-5.52083299999996
  20
42.25805760366737
  30
749.328
  0
VERTEX
  8
Unknown Area Type
  70
32
  10
-5.52083333333329
  20
42.25805753674128
  30
749.328
  0
SEQEND
  8
Unknown Area Type
  0
TEXT
  8
Unknown Area Type
 62
7
  1
PNOA-H_AMS_1956-57_33k_ES_PAN_2
 40
0.00045
  10
-5.52083316666663
  20
42.27881203414918
  0
POLYLINE
  8
Unknown Area Type
  70
9
  66
1
  0
VERTEX
  8
Unknown Area Type
  70
32
  10
-5.57521647453629
  20
42.26070534483452
  30
746.169
  0
VERTEX
  8
Unknown Area Type
  70
32
  10
-5.57508856511279
  20
42.26069020790178
  30
745.994
  0
VERTEX
  8
Unknown Area Type
  70
32
  10
-5.55515242220031
  20
42.25694887152147
  30
740.573
  0
VERTEX
  8
Unknown Area Type
  70
32
  10
-5.55417694341486
  20
42.21851747927132
  30
732.926
  0
VERTEX
  8
Unknown Area Type
  70
32
  10
-5.58299692506441
  20
42.2159490482186
  30
734.523
  0
VERTEX
  8
Unknown Area Type
  70
32
  10
-5.58815686320319
  20
42.21815155968992
  30
754.18
  0
VERTEX
  8
Unknown Area Type
  70
32
  10
-5.58666734749812
  20
42.25775488700457
  30
767.569
  0
VERTEX
  8
Unknown Area Type
  70
32
  10
-5.57523445946491
  20
42.26070043805782
  30
746.168
  0
VERTEX
  8
Unknown Area Type
  70
32
  10
-5.57521647453629
  20
42.26070534483452
  30
746.169
  0
SEQEND
  8
Unknown Area Type
  0
TEXT
  8
Unknown Area Type
 62
7
  1
PNOA-H_AMS_1956-57_33k_ES_PAN_2
 40
0.00045
  10
-5.57116725428622
  20
42.23847710220332
  0
POLYLINE
  8
Unknown Area Type
  70
9
  66
1
  0
VERTEX
  8
Unknown Area Type
  70
32
  10
-5.57521647453629
  20
42.26070534483452
  30
746.169
  0
VERTEX
  8
Unknown Area Type
  70
32
  10
-5.57508856511279
  20
42.26069020790178
  30
745.994
  0
VERTEX
  8
Unknown Area Type
  70
32
  10
-5.55515242220031
  20
42.25694887152147
  30
740.573
  0
VERTEX
  8
Unknown Area Type
  70
32
  10
-5.55417694341486
  20
42.21851747927132
  30
732.926
  0
VERTEX
  8
Unknown Area Type
  70
32
  10
-5.58299692506441
  20
42.2159490482186
  30
734.523
  0
VERTEX
  8
Unknown Area Type
  70
32
  10
-5.58815686320319
  20
42.21815155968992
  30
754.18
  0
VERTEX
  8
Unknown Area Type
  70
32
  10
-5.58666734749812
  20
42.25775488700457
  30
767.569
  0
VERTEX
  8
Unknown Area Type
  70
32
  10
-5.57523445946491
  20
42.26070043805782
  30
746.168
  0
VERTEX
  8
Unknown Area Type
  70
32
  10
-5.57521647453629
  20
42.26070534483452
  30
746.169
  0
SEQEND
  8
Unknown Area Type
  0
TEXT
  8
Unknown Area Type
 62
7
  1
PNOA-H_AMS_1956-57_33k_ES_PAN_2
 40
0.00045
  10
-5.57116725428622
  20
42.23847710220332
  0
POLYLINE
  8
Unknown Area Type
  70
9
  66
1
  0
VERTEX
  8
Unknown Area Type
  70
32
  10
-5.7030022378311
  20
42.26005025667972
  30
785.038
  0
VERTEX
  8
Unknown Area Type
  70
32
  10
-5.68509538174309
  20
42.25887724449669
  30
785.531
  0
VERTEX
  8
Unknown Area Type
  70
32
  10
-5.6866094737045
  20
42.21830879824917
  30
772.575
  0
VERTEX
  8
Unknown Area Type
  70
32
  10
-5.69162091722011
  20
42.21635864131438
  30
772.219
  0
VERTEX
  8
Unknown Area Type
  70
32
  10
-5.72058178522256
  20
42.21835851104462
  30
771.293
  0
VERTEX
  8
Unknown Area Type
  70
32
  10
-5.71915535778673
  20
42.25933045378206
  30
781.174
  0
VERTEX
  8
Unknown Area Type
  70
32
  10
-5.71494043083869
  20
42.26083069900204
  30
781.952
  0
VERTEX
  8
Unknown Area Type
  70
32
  10
-5.70301434852903
  20
42.26004997105281
  30
784.892
  0
VERTEX
  8
Unknown Area Type
  70
32
  10
-5.7030022378311
  20
42.26005025667972
  30
785.038
  0
SEQEND
  8
Unknown Area Type
  0
TEXT
  8
Unknown Area Type
 62
7
  1
PNOA-H_AMS_1956-57_33k_ES_PAN_2
 40
0.00045
  10
-5.70283890130868
  20
42.2385852596185
  0
POLYLINE
  8
Unknown Area Type
  70
9
  66
1
  0
VERTEX
  8
Unknown Area Type
  70
32
  10
-5.7030022378311
  20
42.26005025667972
  30
785.038
  0
VERTEX
  8
Unknown Area Type
  70
32
  10
-5.68509538174309
  20
42.25887724449669
  30
785.531
  0
VERTEX
  8
Unknown Area Type
  70
32
  10
-5.6866094737045
  20
42.21830879824917
  30
772.575
  0
VERTEX
  8
Unknown Area Type
  70
32
  10
-5.69162091722011
  20
42.21635864131438
  30
772.219
  0
VERTEX
  8
Unknown Area Type
  70
32
  10
-5.72058178522256
  20
42.21835851104462
  30
771.293
  0
VERTEX
  8
Unknown Area Type
  70
32
  10
-5.71915535778673
  20
42.25933045378206
  30
781.174
  0
VERTEX
  8
Unknown Area Type
  70
32
  10
-5.71494043083869
  20
42.26083069900204
  30
781.952
  0
VERTEX
  8
Unknown Area Type
  70
32
  10
-5.70301434852903
  20
42.26004997105281
  30
784.892
  0
VERTEX
  8
Unknown Area Type
  70
32
  10
-5.7030022378311
  20
42.26005025667972
  30
785.038
  0
SEQEND
  8
Unknown Area Type
  0
TEXT
  8
Unknown Area Type
 62
7
  1
PNOA-H_AMS_1956-57_33k_ES_PAN_2
 40
0.00045
  10
-5.70283890130868
  20
42.2385852596185
  0
POLYLINE
  8
Unknown Area Type
  70
9
  66
1
  0
VERTEX
  8
Unknown Area Type
  70
32
  10
-5.55515242220031
  20
42.25694887152147
  30
740.573
  0
VERTEX
  8
Unknown Area Type
  70
32
  10
-5.55512250679185
  20
42.25695854380238
  30
740.572
  0
VERTEX
  8
Unknown Area Type
  70
32
  10
-5.55395731320491
  20
42.2572231556786
  30
740.497
  0
VERTEX
  8
Unknown Area Type
  70
32
  10
-5.55393327163338
  20
42.25722819407109
  30
740.612
  0
VERTEX
  8
Unknown Area Type
  70
32
  10
-5.53782376672708
  20
42.26088649173042
  30
737.581
  0
VERTEX
  8
Unknown Area Type
  70
32
  10
-5.52292212464556
  20
42.2576403181097
  30
746.737
  0
VERTEX
  8
Unknown Area Type
  70
32
  10
-5.52083333333329
  20
42.23203582544089
  30
754.259
  0
VERTEX
  8
Unknown Area Type
  70
32
  10
-5.52083333333329
  20
42.22916666666665
  30
755.096
  0
VERTEX
  8
Unknown Area Type
  70
32
  10
-5.52083333333329
  20
42.21861890243156
  30
757.101
  0
VERTEX
  8
Unknown Area Type
  70
32
  10
-5.54706165077699
  20
42.21571300338582
  30
731.365
  0
VERTEX
  8
Unknown Area Type
  70
32
  10
-5.55417694341486
  20
42.21851747927132
  30
732.926
  0
VERTEX
  8
Unknown Area Type
  70
32
  10
-5.55515666070676
  20
42.25690375006958
  30
740.618
  0
SEQEND
  8
Unknown Area Type
  0
TEXT
  8
Unknown Area Type
 62
7
  1
PNOA-H_AMS_1956-57_33k_ES_PAN_2
 40
0.00045
  10
-5.53745299952722
  20
42.23878996052116
  0
POLYLINE
  8
Unknown Area Type
  70
9
  66
1
  0
VERTEX
  8
Unknown Area Type
  70
32
  10
-5.55515242220031
  20
42.25694887152147
  30
740.573
  0
VERTEX
  8
Unknown Area Type
  70
32
  10
-5.55512250679185
  20
42.25695854380238
  30
740.572
  0
VERTEX
  8
Unknown Area Type
  70
32
  10
-5.55395731320491
  20
42.2572231556786
  30
740.497
  0
VERTEX
  8
Unknown Area Type
  70
32
  10
-5.55393327163338
  20
42.25722819407109
  30
740.612
  0
VERTEX
  8
Unknown Area Type
  70
32
  10
-5.53782376672708
  20
42.26088649173042
  30
737.581
  0
VERTEX
  8
Unknown Area Type
  70
32
  10
-5.52292212464556
  20
42.2576403181097
  30
746.737
  0
VERTEX
  8
Unknown Area Type
  70
32
  10
-5.52083333333329
  20
42.23203582544089
  30
754.259
  0
VERTEX
  8
Unknown Area Type
  70
32
  10
-5.52083333333329
  20
42.22916666666665
  30
755.096
  0
VERTEX
  8
Unknown Area Type
  70
32
  10
-5.52083333333329
  20
42.21861890243156
  30
757.101
  0
VERTEX
  8
Unknown Area Type
  70
32
  10
-5.54706165077699
  20
42.21571300338582
  30
731.365
  0
VERTEX
  8
Unknown Area Type
  70
32
  10
-5.55417694341486
  20
42.21851747927132
  30
732.926
  0
VERTEX
  8
Unknown Area Type
  70
32
  10
-5.55515666070676
  20
42.25690375006958
  30
740.618
  0
SEQEND
  8
Unknown Area Type
  0
TEXT
  8
Unknown Area Type
 62
7
  1
PNOA-H_AMS_1956-57_33k_ES_PAN_2
 40
0.00045
  10
-5.53745299952722
  20
42.23878996052116
  0
POLYLINE
  8
Unknown Area Type
  70
9
  66
1
  0
VERTEX
  8
Unknown Area Type
  70
32
  10
-5.52083333333329
  20
42.22916666666665
  30
755.096
  0
VERTEX
  8
Unknown Area Type
  70
32
  10
-5.52083333333329
  20
42.23203582544089
  30
754.259
  0
VERTEX
  8
Unknown Area Type
  70
32
  10
-5.52083299999996
  20
42.23203173942673
  30
754.26
  0
VERTEX
  8
Unknown Area Type
  70
32
  10
-5.52083299999996
  20
42.21861893936237
  30
757.101
  0
VERTEX
  8
Unknown Area Type
  70
32
  10
-5.52083333333329
  20
42.21861890243156
  30
757.101
  0
SEQEND
  8
Unknown Area Type
  0
TEXT
  8
Unknown Area Type
 62
7
  1
PNOA-H_AMS_1956-57_33k_ES_PAN_2
 40
0.00045
  10
-5.52083316666663
  20
42.22532736393622
  0
POLYLINE
  8
Unknown Area Type
  70
9
  66
1
  0
VERTEX
  8
Unknown Area Type
  70
32
  10
-5.65331443896521
  20
42.25884744343917
  30
782.709
  0
VERTEX
  8
Unknown Area Type
  70
32
  10
-5.64442714566146
  20
42.26156983144401
  30
783.539
  0
VERTEX
  8
Unknown Area Type
  70
32
  10
-5.64436677591569
  20
42.26157572699673
  30
783.129
  0
VERTEX
  8
Unknown Area Type
  70
32
  10
-5.61937494642491
  20
42.25865554628849
  30
778.071
  0
VERTEX
  8
Unknown Area Type
  70
32
  10
-5.6210883828374
  20
42.21749334738779
  30
770.277
  0
VERTEX
  8
Unknown Area Type
  70
32
  10
-5.6527451099693
  20
42.2179448213775
  30
773.457
  0
VERTEX
  8
Unknown Area Type
  70
32
  10
-5.6538102486537
  20
42.2586738683863
  30
782.666
  0
VERTEX
  8
Unknown Area Type
  70
32
  10
-5.65380513693831
  20
42.25869650005285
  30
782.742
  0
VERTEX
  8
Unknown Area Type
  70
32
  10
-5.65332636120905
  20
42.25884266477291
  30
782.691
  0
VERTEX
  8
Unknown Area Type
  70
32
  10
-5.65331443896521
  20
42.25884744343917
  30
782.709
  0
SEQEND
  8
Unknown Area Type
  0
TEXT
  8
Unknown Area Type
 62
7
  1
PNOA-H_AMS_1956-57_33k_ES_PAN_2
 40
0.00045
  10
-5.63659298606811
  20
42.23918963874874
  0
POLYLINE
  8
Unknown Area Type
  70
9
  66
1
  0
VERTEX
  8
Unknown Area Type
  70
32
  10
-5.65331443896521
  20
42.25884744343917
  30
782.709
  0
VERTEX
  8
Unknown Area Type
  70
32
  10
-5.64442714566146
  20
42.26156983144401
  30
783.539
  0
VERTEX
  8
Unknown Area Type
  70
32
  10
-5.64436677591569
  20
42.26157572699673
  30
783.129
  0
VERTEX
  8
Unknown Area Type
  70
32
  10
-5.61937494642491
  20
42.25865554628849
  30
778.071
  0
VERTEX
  8
Unknown Area Type
  70
32
  10
-5.6210883828374
  20
42.21749334738779
  30
770.277
  0
VERTEX
  8
Unknown Area Type
  70
32
  10
-5.6527451099693
  20
42.2179448213775
  30
773.457
  0
VERTEX
  8
Unknown Area Type
  70
32
  10
-5.6538102486537
  20
42.2586738683863
  30
782.666
  0
VERTEX
  8
Unknown Area Type
  70
32
  10
-5.65380513693831
  20
42.25869650005285
  30
782.742
  0
VERTEX
  8
Unknown Area Type
  70
32
  10
-5.65332636120905
  20
42.25884266477291
  30
782.691
  0
VERTEX
  8
Unknown Area Type
  70
32
  10
-5.65331443896521
  20
42.25884744343917
  30
782.709
  0
SEQEND
  8
Unknown Area Type
  0
TEXT
  8
Unknown Area Type
 62
7
  1
PNOA-H_AMS_1956-57_33k_ES_PAN_2
 40
0.00045
  10
-5.63659298606811
  20
42.23918963874874
  0
POLYLINE
  8
Unknown Area Type
  70
9
  66
1
  0
VERTEX
  8
Unknown Area Type
  70
32
  10
-5.75270442811891
  20
42.26084841294638
  30
777.778
  0
VERTEX
  8
Unknown Area Type
  70
32
  10
-5.75006168963044
  20
42.26182589135411
  30
775.856
  0
VERTEX
  8
Unknown Area Type
  70
32
  10
-5.75000758331013
  20
42.26183619492668
  30
775.838
  0
VERTEX
  8
Unknown Area Type
  70
32
  10
-5.71915535778673
  20
42.25933045378206
  30
781.174
  0
VERTEX
  8
Unknown Area Type
  70
32
  10
-5.72058764327612
  20
42.21835386934128
  30
771.31
  0
VERTEX
  8
Unknown Area Type
  70
32
  10
-5.72710254454013
  20
42.2157541075832
  30
770.467
  0
VERTEX
  8
Unknown Area Type
  70
32
  10
-5.72746584434898
  20
42.21561038361438
  30
772.492
  0
VERTEX
  8
Unknown Area Type
  70
32
  10
-5.72749609924371
  20
42.21560966369651
  30
772.478
  0
VERTEX
  8
Unknown Area Type
  70
32
  10
-5.75574103696898
  20
42.21868028957177
  30
767.441
  0
VERTEX
  8
Unknown Area Type
  70
32
  10
-5.75461933554054
  20
42.26014051697653
  30
777.364
  0
VERTEX
  8
Unknown Area Type
  70
32
  10
-5.75271634267438
  20
42.2608436241452
  30
777.75
  0
VERTEX
  8
Unknown Area Type
  70
32
  10
-5.75270442811891
  20
42.26084841294638
  30
777.778
  0
SEQEND
  8
Unknown Area Type
  0
TEXT
  8
Unknown Area Type
 62
7
  1
PNOA-H_AMS_1956-57_33k_ES_PAN_2
 40
0.00045
  10
-5.73744851764424
  20
42.23875211207611
  0
POLYLINE
  8
Unknown Area Type
  70
9
  66
1
  0
VERTEX
  8
Unknown Area Type
  70
32
  10
-5.75270442811891
  20
42.26084841294638
  30
777.778
  0
VERTEX
  8
Unknown Area Type
  70
32
  10
-5.75006168963044
  20
42.26182589135411
  30
775.856
  0
VERTEX
  8
Unknown Area Type
  70
32
  10
-5.75000758331013
  20
42.26183619492668
  30
775.838
  0
VERTEX
  8
Unknown Area Type
  70
32
  10
-5.71915535778673
  20
42.25933045378206
  30
781.174
  0
VERTEX
  8
Unknown Area Type
  70
32
  10
-5.72058764327612
  20
42.21835386934128
  30
771.31
  0
VERTEX
  8
Unknown Area Type
  70
32
  10
-5.72710254454013
  20
42.2157541075832
  30
770.467
  0
VERTEX
  8
Unknown Area Type
  70
32
  10
-5.72746584434898
  20
42.21561038361438
  30
772.492
  0
VERTEX
  8
Unknown Area Type
  70
32
  10
-5.72749609924371
  20
42.21560966369651
  30
772.478
  0
VERTEX
  8
Unknown Area Type
  70
32
  10
-5.75574103696898
  20
42.21868028957177
  30
767.441
  0
VERTEX
  8
Unknown Area Type
  70
32
  10
-5.75461933554054
  20
42.26014051697653
  30
777.364
  0
VERTEX
  8
Unknown Area Type
  70
32
  10
-5.75271634267438
  20
42.2608436241452
  30
777.75
  0
VERTEX
  8
Unknown Area Type
  70
32
  10
-5.75270442811891
  20
42.26084841294638
  30
777.778
  0
SEQEND
  8
Unknown Area Type
  0
TEXT
  8
Unknown Area Type
 62
7
  1
PNOA-H_AMS_1956-57_33k_ES_PAN_2
 40
0.00045
  10
-5.73744851764424
  20
42.23875211207611
  0
POLYLINE
  8
Unknown Area Type
  70
9
  66
1
  0
VERTEX
  8
Unknown Area Type
  70
32
  10
-5.81963864535615
  20
42.17602612907937
  30
739.652
  0
VERTEX
  8
Unknown Area Type
  70
32
  10
-5.81962070511422
  20
42.17603107300745
  30
739.684
  0
VERTEX
  8
Unknown Area Type
  70
32
  10
-5.79908945157712
  20
42.18087029757605
  30
759.981
  0
VERTEX
  8
Unknown Area Type
  70
32
  10
-5.79906546090766
  20
42.18087538603321
  30
759.898
  0
VERTEX
  8
Unknown Area Type
  70
32
  10
-5.79903522440384
  20
42.18087612433774
  30
759.763
  0
VERTEX
  8
Unknown Area Type
  70
32
  10
-5.79894312522893
  20
42.18084685454488
  30
759.944
  0
VERTEX
  8
Unknown Area Type
  70
32
  10
-5.78665581295315
  20
42.17689569854021
  30
757.826
  0
VERTEX
  8
Unknown Area Type
  70
32
  10
-5.78600359358718
  20
42.16666666666671
  30
755.91
  0
VERTEX
  8
Unknown Area Type
  70
32
  10
-5.81249999999996
  20
42.16666666666671
  30
737.178
  0
VERTEX
  8
Unknown Area Type
  70
32
  10
-5.81913425850615
  20
42.16666666666671
  30
737.241
  0
VERTEX
  8
Unknown Area Type
  70
32
  10
-5.81962364884678
  20
42.17568879914435
  30
738.825
  0
SEQEND
  8
Unknown Area Type
  0
TEXT
  8
Unknown Area Type
 62
7
  1
PNOA-H_AMS_1956-57_33k_ES_PAN_2
 40
0.00045
  10
-5.80282111947167
  20
42.17377139550222
  0
POLYLINE
  8
Unknown Area Type
  70
9
  66
1
  0
VERTEX
  8
Unknown Area Type
  70
32
  10
-5.81963864535615
  20
42.17602612907937
  30
739.652
  0
VERTEX
  8
Unknown Area Type
  70
32
  10
-5.81962070511422
  20
42.17603107300745
  30
739.684
  0
VERTEX
  8
Unknown Area Type
  70
32
  10
-5.79908945157712
  20
42.18087029757605
  30
759.981
  0
VERTEX
  8
Unknown Area Type
  70
32
  10
-5.79906546090766
  20
42.18087538603321
  30
759.898
  0
VERTEX
  8
Unknown Area Type
  70
32
  10
-5.79903522440384
  20
42.18087612433774
  30
759.763
  0
VERTEX
  8
Unknown Area Type
  70
32
  10
-5.79894312522893
  20
42.18084685454488
  30
759.944
  0
VERTEX
  8
Unknown Area Type
  70
32
  10
-5.78665581295315
  20
42.17689569854021
  30
757.826
  0
VERTEX
  8
Unknown Area Type
  70
32
  10
-5.78600359358718
  20
42.16666666666671
  30
755.91
  0
VERTEX
  8
Unknown Area Type
  70
32
  10
-5.81249999999996
  20
42.16666666666671
  30
737.178
  0
VERTEX
  8
Unknown Area Type
  70
32
  10
-5.81913425850615
  20
42.16666666666671
  30
737.241
  0
VERTEX
  8
Unknown Area Type
  70
32
  10
-5.81962364884678
  20
42.17568879914435
  30
738.825
  0
SEQEND
  8
Unknown Area Type
  0
TEXT
  8
Unknown Area Type
 62
7
  1
PNOA-H_AMS_1956-57_33k_ES_PAN_2
 40
0.00045
  10
-5.80282111947167
  20
42.17377139550222
  0
POLYLINE
  8
Unknown Area Type
  70
9
  66
1
  0
VERTEX
  8
Unknown Area Type
  70
32
  10
-5.81913425850615
  20
42.16666666666671
  30
737.241
  0
VERTEX
  8
Unknown Area Type
  70
32
  10
-5.81249999999996
  20
42.16666666666671
  30
737.178
  0
VERTEX
  8
Unknown Area Type
  70
32
  10
-5.78600359358718
  20
42.16666666666671
  30
755.91
  0
VERTEX
  8
Unknown Area Type
  70
32
  10
-5.78600358296025
  20
42.16666650000004
  30
755.91
  0
VERTEX
  8
Unknown Area Type
  70
32
  10
-5.8191342494656
  20
42.16666650000004
  30
737.241
  0
SEQEND
  8
Unknown Area Type
  0
TEXT
  8
Unknown Area Type
 62
7
  1
PNOA-H_AMS_1956-57_33k_ES_PAN_2
 40
0.00045
  10
-5.8025689207332
  20
42.16666658333337
  0
POLYLINE
  8
Unknown Area Type
  70
9
  66
1
  0
VERTEX
  8
Unknown Area Type
  70
32
  10
-5.68658206322047
  20
42.18023472568339
  30
751.861
  0
VERTEX
  8
Unknown Area Type
  70
32
  10
-5.67493119665182
  20
42.18130414921931
  30
748.441
  0
VERTEX
  8
Unknown Area Type
  70
32
  10
-5.67486485871973
  20
42.18131019978505
  30
748.391
  0
VERTEX
  8
Unknown Area Type
  70
32
  10
-5.65585569841291
  20
42.18304893723343
  30
764.273
  0
VERTEX
  8
Unknown Area Type
  70
32
  10
-5.65580731257661
  20
42.1830500581685
  30
764.29
  0
VERTEX
  8
Unknown Area Type
  70
32
  10
-5.65430294723319
  20
42.18225640068222
  30
765.411
  0
VERTEX
  8
Unknown Area Type
  70
32
  10
-5.65240265550783
  20
42.16666666666671
  30
765.541
  0
VERTEX
  8
Unknown Area Type
  70
32
  10
-5.68571383075166
  20
42.16666666666671
  30
762.904
  0
SEQEND
  8
Unknown Area Type
  0
TEXT
  8
Unknown Area Type
 62
7
  1
PNOA-H_AMS_1956-57_33k_ES_PAN_2
 40
0.00045
  10
-5.66949235936415
  20
42.17485836241761
  0
POLYLINE
  8
Unknown Area Type
  70
9
  66
1
  0
VERTEX
  8
Unknown Area Type
  70
32
  10
-5.68658206322047
  20
42.18023472568339
  30
751.861
  0
VERTEX
  8
Unknown Area Type
  70
32
  10
-5.67493119665182
  20
42.18130414921931
  30
748.441
  0
VERTEX
  8
Unknown Area Type
  70
32
  10
-5.67486485871973
  20
42.18131019978505
  30
748.391
  0
VERTEX
  8
Unknown Area Type
  70
32
  10
-5.65585569841291
  20
42.18304893723343
  30
764.273
  0
VERTEX
  8
Unknown Area Type
  70
32
  10
-5.65580731257661
  20
42.1830500581685
  30
764.29
  0
VERTEX
  8
Unknown Area Type
  70
32
  10
-5.65430294723319
  20
42.18225640068222
  30
765.411
  0
VERTEX
  8
Unknown Area Type
  70
32
  10
-5.65240265550783
  20
42.16666666666671
  30
765.541
  0
VERTEX
  8
Unknown Area Type
  70
32
  10
-5.68571383075166
  20
42.16666666666671
  30
762.904
  0
SEQEND
  8
Unknown Area Type
  0
TEXT
  8
Unknown Area Type
 62
7
  1
PNOA-H_AMS_1956-57_33k_ES_PAN_2
 40
0.00045
  10
-5.66949235936415
  20
42.17485836241761
  0
POLYLINE
  8
Unknown Area Type
  70
9
  66
1
  0
VERTEX
  8
Unknown Area Type
  70
32
  10
-5.68571383075166
  20
42.16666666666671
  30
762.904
  0
VERTEX
  8
Unknown Area Type
  70
32
  10
-5.65240265550783
  20
42.16666666666671
  30
765.541
  0
VERTEX
  8
Unknown Area Type
  70
32
  10
-5.65240263519219
  20
42.16666650000004
  30
765.541
  0
VERTEX
  8
Unknown Area Type
  70
32
  10
-5.68571382008651
  20
42.16666650000004
  30
762.905
  0
SEQEND
  8
Unknown Area Type
  0
TEXT
  8
Unknown Area Type
 62
7
  1
PNOA-H_AMS_1956-57_33k_ES_PAN_2
 40
0.00045
  10
-5.66905823297193
  20
42.16666658333337
  0
POLYLINE
  8
Unknown Area Type
  70
9
  66
1
  0
VERTEX
  8
Unknown Area Type
  70
32
  10
-5.82935806838081
  20
42.17896101182964
  30
739.345
  0
VERTEX
  8
Unknown Area Type
  70
32
  10
-5.82933388053737
  20
42.17896160883915
  30
739.341
  0
VERTEX
  8
Unknown Area Type
  70
32
  10
-5.82900252923959
  20
42.17886172332074
  30
739.459
  0
VERTEX
  8
Unknown Area Type
  70
32
  10
-5.81963864535615
  20
42.17602612907937
  30
739.652
  0
VERTEX
  8
Unknown Area Type
  70
32
  10
-5.81913060483818
  20
42.16666666666671
  30
738.189
  0
VERTEX
  8
Unknown Area Type
  70
32
  10
-5.83894716129657
  20
42.16666666666671
  30
740.373
  0
SEQEND
  8
Unknown Area Type
  0
TEXT
  8
Unknown Area Type
 62
7
  1
PNOA-H_AMS_1956-57_33k_ES_PAN_2
 40
0.00045
  10
-5.82903888306737
  20
42.17281413775293
  0
POLYLINE
  8
Unknown Area Type
  70
9
  66
1
  0
VERTEX
  8
Unknown Area Type
  70
32
  10
-5.82935806838081
  20
42.17896101182964
  30
739.345
  0
VERTEX
  8
Unknown Area Type
  70
32
  10
-5.82933388053737
  20
42.17896160883915
  30
739.341
  0
VERTEX
  8
Unknown Area Type
  70
32
  10
-5.82900252923959
  20
42.17886172332074
  30
739.459
  0
VERTEX
  8
Unknown Area Type
  70
32
  10
-5.81963864535615
  20
42.17602612907937
  30
739.652
  0
VERTEX
  8
Unknown Area Type
  70
32
  10
-5.81913060483818
  20
42.16666666666671
  30
738.189
  0
VERTEX
  8
Unknown Area Type
  70
32
  10
-5.83894716129657
  20
42.16666666666671
  30
740.373
  0
SEQEND
  8
Unknown Area Type
  0
TEXT
  8
Unknown Area Type
 62
7
  1
PNOA-H_AMS_1956-57_33k_ES_PAN_2
 40
0.00045
  10
-5.82903888306737
  20
42.17281413775293
  0
POLYLINE
  8
Unknown Area Type
  70
9
  66
1
  0
VERTEX
  8
Unknown Area Type
  70
32
  10
-5.83894716129657
  20
42.16666666666671
  30
740.373
  0
VERTEX
  8
Unknown Area Type
  70
32
  10
-5.81913060483818
  20
42.16666666666671
  30
738.189
  0
VERTEX
  8
Unknown Area Type
  70
32
  10
-5.81913059579135
  20
42.16666650000004
  30
738.189
  0
VERTEX
  8
Unknown Area Type
  70
32
  10
-5.83894729128985
  20
42.16666650000004
  30
740.373
  0
SEQEND
  8
Unknown Area Type
  0
TEXT
  8
Unknown Area Type
 62
7
  1
PNOA-H_AMS_1956-57_33k_ES_PAN_2
 40
0.00045
  10
-5.8290389435406
  20
42.16666658333337
  0
POLYLINE
  8
Unknown Area Type
  70
9
  66
1
  0
VERTEX
  8
Unknown Area Type
  70
32
  10
-5.85416666666668
  20
42.18048969622879
  30
761.671
  0
VERTEX
  8
Unknown Area Type
  70
32
  10
-5.83391308331879
  20
42.18159510487821
  30
743.021
  0
VERTEX
  8
Unknown Area Type
  70
32
  10
-5.8293522220841
  20
42.17896565877479
  30
739.346
  0
VERTEX
  8
Unknown Area Type
  70
32
  10
-5.83894125805547
  20
42.16666666666671
  30
740.657
  0
VERTEX
  8
Unknown Area Type
  70
32
  10
-5.85416666666668
  20
42.16666666666671
  30
761.267
  0
SEQEND
  8
Unknown Area Type
  0
TEXT
  8
Unknown Area Type
 62
7
  1
PNOA-H_AMS_1956-57_33k_ES_PAN_2
 40
0.00045
  10
-5.84830362759541
  20
42.16773261330164
  0
POLYLINE
  8
Unknown Area Type
  70
9
  66
1
  0
VERTEX
  8
Unknown Area Type
  70
32
  10
-5.85416700000001
  20
42.18048967803598
  30
761.671
  0
VERTEX
  8
Unknown Area Type
  70
32
  10
-5.85416666666668
  20
42.18048969622879
  30
761.671
  0
VERTEX
  8
Unknown Area Type
  70
32
  10
-5.85416666666668
  20
42.16666666666671
  30
761.267
  0
VERTEX
  8
Unknown Area Type
  70
32
  10
-5.85416700000001
  20
42.16666666666671
  30
761.267
  0
SEQEND
  8
Unknown Area Type
  0
TEXT
  8
Unknown Area Type
 62
7
  1
PNOA-H_AMS_1956-57_33k_ES_PAN_2
 40
0.00045
  10
-5.85416683333334
  20
42.17357818144775
  0
POLYLINE
  8
Unknown Area Type
  70
9
  66
1
  0
VERTEX
  8
Unknown Area Type
  70
32
  10
-5.85416666666668
  20
42.18048969622879
  30
761.671
  0
VERTEX
  8
Unknown Area Type
  70
32
  10
-5.83391308331879
  20
42.18159510487821
  30
743.021
  0
VERTEX
  8
Unknown Area Type
  70
32
  10
-5.8293522220841
  20
42.17896565877479
  30
739.346
  0
VERTEX
  8
Unknown Area Type
  70
32
  10
-5.83894125805547
  20
42.16666666666671
  30
740.657
  0
VERTEX
  8
Unknown Area Type
  70
32
  10
-5.85416666666668
  20
42.16666666666671
  30
761.267
  0
SEQEND
  8
Unknown Area Type
  0
TEXT
  8
Unknown Area Type
 62
7
  1
PNOA-H_AMS_1956-57_33k_ES_PAN_2
 40
0.00045
  10
-5.84830362759541
  20
42.16773261330164
  0
POLYLINE
  8
Unknown Area Type
  70
9
  66
1
  0
VERTEX
  8
Unknown Area Type
  70
32
  10
-5.85416700000001
  20
42.16666666666671
  30
761.267
  0
VERTEX
  8
Unknown Area Type
  70
32
  10
-5.85416666666668
  20
42.16666666666671
  30
761.267
  0
VERTEX
  8
Unknown Area Type
  70
32
  10
-5.85416666666668
  20
42.16666650000004
  30
761.267
  0
VERTEX
  8
Unknown Area Type
  70
32
  10
-5.85416700000001
  20
42.16666650000004
  30
761.267
  0
SEQEND
  8
Unknown Area Type
  0
TEXT
  8
Unknown Area Type
 62
7
  1
PNOA-H_AMS_1956-57_33k_ES_PAN_2
 40
0.00045
  10
-5.85416683333334
  20
42.16666658333337
  0
POLYLINE
  8
Unknown Area Type
  70
9
  66
1
  0
VERTEX
  8
Unknown Area Type
  70
32
  10
-5.85416666666668
  20
42.16666666666671
  30
761.267
  0
VERTEX
  8
Unknown Area Type
  70
32
  10
-5.83894125805547
  20
42.16666666666671
  30
740.657
  0
VERTEX
  8
Unknown Area Type
  70
32
  10
-5.83894138799886
  20
42.16666650000005
  30
740.657
  0
VERTEX
  8
Unknown Area Type
  70
32
  10
-5.85416666666668
  20
42.16666650000004
  30
761.267
  0
SEQEND
  8
Unknown Area Type
  0
TEXT
  8
Unknown Area Type
 62
7
  1
PNOA-H_AMS_1956-57_33k_ES_PAN_2
 40
0.00045
  10
-5.84655396236107
  20
42.16666658333337
  0
POLYLINE
  8
Unknown Area Type
  70
9
  66
1
  0
VERTEX
  8
Unknown Area Type
  70
32
  10
-5.59232772631845
  20
42.26497988188748
  30
820.953
  0
VERTEX
  8
Unknown Area Type
  70
32
  10
-5.59229101930565
  20
42.26497170676175
  30
820.485
  0
VERTEX
  8
Unknown Area Type
  70
32
  10
-5.59225320581283
  20
42.26493654057722
  30
814.582
  0
VERTEX
  8
Unknown Area Type
  70
32
  10
-5.59212602226463
  20
42.26493941705534
  30
814.544
  0
VERTEX
  8
Unknown Area Type
  70
32
  10
-5.5921074843761
  20
42.26493083095266
  30
811.553
  0
VERTEX
  8
Unknown Area Type
  70
32
  10
-5.59206985540939
  20
42.26490016321235
  30
786.804
  0
VERTEX
  8
Unknown Area Type
  70
32
  10
-5.5920665361904
  20
42.26481919005888
  30
776.438
  0
VERTEX
  8
Unknown Area Type
  70
32
  10
-5.59217810304697
  20
42.26473111594704
  30
777.149
  0
VERTEX
  8
Unknown Area Type
  70
32
  10
-5.59223885085416
  20
42.26473424469908
  30
777.486
  0
VERTEX
  8
Unknown Area Type
  70
32
  10
-5.59228290497122
  20
42.26477377242136
  30
775.955
  0
VERTEX
  8
Unknown Area Type
  70
32
  10
-5.59236182185159
  20
42.2647764901665
  30
776.614
  0
VERTEX
  8
Unknown Area Type
  70
32
  10
-5.59246809940252
  20
42.26485513452394
  30
782.059
  0
VERTEX
  8
Unknown Area Type
  70
32
  10
-5.59247141913955
  20
42.26493610765115
  30
788.946
  0
VERTEX
  8
Unknown Area Type
  70
32
  10
-5.59244811585059
  20
42.26495914814422
  30
804.43
  0
VERTEX
  8
Unknown Area Type
  70
32
  10
-5.59241728076945
  20
42.26494633756287
  30
805.463
  0
VERTEX
  8
Unknown Area Type
  70
32
  10
-5.59236882989493
  20
42.26494743345019
  30
812.793
  0
VERTEX
  8
Unknown Area Type
  70
32
  10
-5.59233341383988
  20
42.26497074788978
  30
821.007
  0
VERTEX
  8
Unknown Area Type
  70
32
  10
-5.59232772631845
  20
42.26497988188748
  30
820.953
  0
SEQEND
  8
Unknown Area Type
  0
TEXT
  8
Unknown Area Type
 62
7
  1
PNOA-H_AMS_1956-57_33k_ES_PAN_2
 40
0.00045
  10
-5.59226837433265
  20
42.26485341201905
  0
POLYLINE
  8
Unknown Area Type
  70
9
  66
1
  0
VERTEX
  8
Unknown Area Type
  70
32
  10
-5.59232772631845
  20
42.26497988188748
  30
820.953
  0
VERTEX
  8
Unknown Area Type
  70
32
  10
-5.59229101930565
  20
42.26497170676175
  30
820.485
  0
VERTEX
  8
Unknown Area Type
  70
32
  10
-5.59225320581283
  20
42.26493654057722
  30
814.582
  0
VERTEX
  8
Unknown Area Type
  70
32
  10
-5.59212602226463
  20
42.26493941705534
  30
814.544
  0
VERTEX
  8
Unknown Area Type
  70
32
  10
-5.5921074843761
  20
42.26493083095266
  30
811.553
  0
VERTEX
  8
Unknown Area Type
  70
32
  10
-5.59206985540939
  20
42.26490016321235
  30
786.804
  0
VERTEX
  8
Unknown Area Type
  70
32
  10
-5.5920665361904
  20
42.26481919005888
  30
776.438
  0
VERTEX
  8
Unknown Area Type
  70
32
  10
-5.59217810304697
  20
42.26473111594704
  30
777.149
  0
VERTEX
  8
Unknown Area Type
  70
32
  10
-5.59223885085416
  20
42.26473424469908
  30
777.486
  0
VERTEX
  8
Unknown Area Type
  70
32
  10
-5.59228290497122
  20
42.26477377242136
  30
775.955
  0
VERTEX
  8
Unknown Area Type
  70
32
  10
-5.59236182185159
  20
42.2647764901665
  30
776.614
  0
VERTEX
  8
Unknown Area Type
  70
32
  10
-5.59246809940252
  20
42.26485513452394
  30
782.059
  0
VERTEX
  8
Unknown Area Type
  70
32
  10
-5.59247141913955
  20
42.26493610765115
  30
788.946
  0
VERTEX
  8
Unknown Area Type
  70
32
  10
-5.59244811585059
  20
42.26495914814422
  30
804.43
  0
VERTEX
  8
Unknown Area Type
  70
32
  10
-5.59241728076945
  20
42.26494633756287
  30
805.463
  0
VERTEX
  8
Unknown Area Type
  70
32
  10
-5.59236882989493
  20
42.26494743345019
  30
812.793
  0
VERTEX
  8
Unknown Area Type
  70
32
  10
-5.59233341383988
  20
42.26497074788978
  30
821.007
  0
VERTEX
  8
Unknown Area Type
  70
32
  10
-5.59232772631845
  20
42.26497988188748
  30
820.953
  0
SEQEND
  8
Unknown Area Type
  0
TEXT
  8
Unknown Area Type
 62
7
  1
PNOA-H_AMS_1956-57_33k_ES_PAN_2
 40
0.00045
  10
-5.59226837433265
  20
42.26485341201905
  0
POLYLINE
  8
Unknown Area Type
  70
9
  66
1
  0
VERTEX
  8
Unknown Area Type
  70
32
  10
-5.60369111846642
  20
42.26005302572911
  30
776.084
  0
VERTEX
  8
Unknown Area Type
  70
32
  10
-5.58666734749812
  20
42.25775488700457
  30
767.569
  0
VERTEX
  8
Unknown Area Type
  70
32
  10
-5.58815136276244
  20
42.21816519200776
  30
754.231
  0
VERTEX
  8
Unknown Area Type
  70
32
  10
-5.58815686320319
  20
42.21815155968992
  30
754.18
  0
VERTEX
  8
Unknown Area Type
  70
32
  10
-5.58819299081409
  20
42.2181462412828
  30
754.344
  0
VERTEX
  8
Unknown Area Type
  70
32
  10
-5.6196370257421
  20
42.21681960073401
  30
772.246
  0
VERTEX
  8
Unknown Area Type
  70
32
  10
-5.61970359364051
  20
42.2168180794399
  30
772.172
  0
VERTEX
  8
Unknown Area Type
  70
32
  10
-5.61974064762174
  20
42.21683524341575
  30
772.126
  0
VERTEX
  8
Unknown Area Type
  70
32
  10
-5.62105737980176
  20
42.21747604549624
  30
770.279
  0
VERTEX
  8
Unknown Area Type
  70
32
  10
-5.6210883828374
  20
42.21749334738779
  30
770.277
  0
VERTEX
  8
Unknown Area Type
  70
32
  10
-5.62108894130313
  20
42.2175068427133
  30
770.274
  0
VERTEX
  8
Unknown Area Type
  70
32
  10
-5.61937494642491
  20
42.25865554628849
  30
778.071
  0
VERTEX
  8
Unknown Area Type
  70
32
  10
-5.61107243612471
  20
42.26104229477095
  30
776.385
  0
VERTEX
  8
Unknown Area Type
  70
32
  10
-5.61099352375481
  20
42.26103958980649
  30
776.478
  0
VERTEX
  8
Unknown Area Type
  70
32
  10
-5.6037153418128
  20
42.26005247544776
  30
776.115
  0
VERTEX
  8
Unknown Area Type
  70
32
  10
-5.60369111846642
  20
42.26005302572911
  30
776.084
  0
SEQEND
  8
Unknown Area Type
  0
TEXT
  8
Unknown Area Type
 62
7
  1
PNOA-H_AMS_1956-57_33k_ES_PAN_2
 40
0.00045
  10
-5.60387839722969
  20
42.23877803917267
  0
POLYLINE
  8
Unknown Area Type
  70
9
  66
1
  0
VERTEX
  8
Unknown Area Type
  70
32
  10
-5.60369111846642
  20
42.26005302572911
  30
776.084
  0
VERTEX
  8
Unknown Area Type
  70
32
  10
-5.58666734749812
  20
42.25775488700457
  30
767.569
  0
VERTEX
  8
Unknown Area Type
  70
32
  10
-5.58815136276244
  20
42.21816519200776
  30
754.231
  0
VERTEX
  8
Unknown Area Type
  70
32
  10
-5.58815686320319
  20
42.21815155968992
  30
754.18
  0
VERTEX
  8
Unknown Area Type
  70
32
  10
-5.58819299081409
  20
42.2181462412828
  30
754.344
  0
VERTEX
  8
Unknown Area Type
  70
32
  10
-5.6196370257421
  20
42.21681960073401
  30
772.246
  0
VERTEX
  8
Unknown Area Type
  70
32
  10
-5.61970359364051
  20
42.2168180794399
  30
772.172
  0
VERTEX
  8
Unknown Area Type
  70
32
  10
-5.61974064762174
  20
42.21683524341575
  30
772.126
  0
VERTEX
  8
Unknown Area Type
  70
32
  10
-5.62105737980176
  20
42.21747604549624
  30
770.279
  0
VERTEX
  8
Unknown Area Type
  70
32
  10
-5.6210883828374
  20
42.21749334738779
  30
770.277
  0
VERTEX
  8
Unknown Area Type
  70
32
  10
-5.62108894130313
  20
42.2175068427133
  30
770.274
  0
VERTEX
  8
Unknown Area Type
  70
32
  10
-5.61937494642491
  20
42.25865554628849
  30
778.071
  0
VERTEX
  8
Unknown Area Type
  70
32
  10
-5.61107243612471
  20
42.26104229477095
  30
776.385
  0
VERTEX
  8
Unknown Area Type
  70
32
  10
-5.61099352375481
  20
42.26103958980649
  30
776.478
  0
VERTEX
  8
Unknown Area Type
  70
32
  10
-5.6037153418128
  20
42.26005247544776
  30
776.115
  0
VERTEX
  8
Unknown Area Type
  70
32
  10
-5.60369111846642
  20
42.26005302572911
  30
776.084
  0
SEQEND
  8
Unknown Area Type
  0
TEXT
  8
Unknown Area Type
 62
7
  1
PNOA-H_AMS_1956-57_33k_ES_PAN_2
 40
0.00045
  10
-5.60387839722969
  20
42.23877803917267
  0
POLYLINE
  8
Unknown Area Type
  70
9
  66
1
  0
VERTEX
  8
Unknown Area Type
  70
32
  10
-5.67821440062551
  20
42.2609923966353
  30
785.814
  0
VERTEX
  8
Unknown Area Type
  70
32
  10
-5.65380494818909
  20
42.25869200176196
  30
782.728
  0
VERTEX
  8
Unknown Area Type
  70
32
  10
-5.6527451099693
  20
42.2179448213775
  30
773.457
  0
VERTEX
  8
Unknown Area Type
  70
32
  10
-5.65609914627627
  20
42.21645781134159
  30
772.182
  0
VERTEX
  8
Unknown Area Type
  70
32
  10
-5.6866094737045
  20
42.21830879824917
  30
772.575
  0
VERTEX
  8
Unknown Area Type
  70
32
  10
-5.68509538174309
  20
42.25887724449669
  30
785.531
  0
VERTEX
  8
Unknown Area Type
  70
32
  10
-5.6787255446883
  20
42.26103898549478
  30
785.365
  0
VERTEX
  8
Unknown Area Type
  70
32
  10
-5.67824467843757
  20
42.2609916890965
  30
785.793
  0
VERTEX
  8
Unknown Area Type
  70
32
  10
-5.67821440062551
  20
42.2609923966353
  30
785.814
  0
SEQEND
  8
Unknown Area Type
  0
TEXT
  8
Unknown Area Type
 62
7
  1
PNOA-H_AMS_1956-57_33k_ES_PAN_2
 40
0.00045
  10
-5.66967780172207
  20
42.2387334452601
  0
POLYLINE
  8
Unknown Area Type
  70
9
  66
1
  0
VERTEX
  8
Unknown Area Type
  70
32
  10
-5.67821440062551
  20
42.2609923966353
  30
785.814
  0
VERTEX
  8
Unknown Area Type
  70
32
  10
-5.65380494818909
  20
42.25869200176196
  30
782.728
  0
VERTEX
  8
Unknown Area Type
  70
32
  10
-5.6527451099693
  20
42.2179448213775
  30
773.457
  0
VERTEX
  8
Unknown Area Type
  70
32
  10
-5.65609914627627
  20
42.21645781134159
  30
772.182
  0
VERTEX
  8
Unknown Area Type
  70
32
  10
-5.6866094737045
  20
42.21830879824917
  30
772.575
  0
VERTEX
  8
Unknown Area Type
  70
32
  10
-5.68509538174309
  20
42.25887724449669
  30
785.531
  0
VERTEX
  8
Unknown Area Type
  70
32
  10
-5.6787255446883
  20
42.26103898549478
  30
785.365
  0
VERTEX
  8
Unknown Area Type
  70
32
  10
-5.67824467843757
  20
42.2609916890965
  30
785.793
  0
VERTEX
  8
Unknown Area Type
  70
32
  10
-5.67821440062551
  20
42.2609923966353
  30
785.814
  0
SEQEND
  8
Unknown Area Type
  0
TEXT
  8
Unknown Area Type
 62
7
  1
PNOA-H_AMS_1956-57_33k_ES_PAN_2
 40
0.00045
  10
-5.66967780172207
  20
42.2387334452601
  0
POLYLINE
  8
Unknown Area Type
  70
9
  66
1
  0
VERTEX
  8
Unknown Area Type
  70
32
  10
-5.77755577237184
  20
42.26165812854158
  30
774.891
  0
VERTEX
  8
Unknown Area Type
  70
32
  10
-5.75461933554054
  20
42.26014051697653
  30
777.364
  0
VERTEX
  8
Unknown Area Type
  70
32
  10
-5.75574103696898
  20
42.21868028957177
  30
767.441
  0
VERTEX
  8
Unknown Area Type
  70
32
  10
-5.76386956985605
  20
42.21589104804087
  30
769.206
  0
VERTEX
  8
Unknown Area Type
  70
32
  10
-5.79120321276502
  20
42.2189973936175
  30
767.243
  0
VERTEX
  8
Unknown Area Type
  70
32
  10
-5.78820221140178
  20
42.26116096498529
  30
777.512
  0
VERTEX
  8
Unknown Area Type
  70
32
  10
-5.78539209414377
  20
42.26217934975958
  30
778.02
  0
VERTEX
  8
Unknown Area Type
  70
32
  10
-5.77761046606335
  20
42.26166130557248
  30
774.971
  0
VERTEX
  8
Unknown Area Type
  70
32
  10
-5.77755577237184
  20
42.26165812854158
  30
774.891
  0
SEQEND
  8
Unknown Area Type
  0
TEXT
  8
Unknown Area Type
 62
7
  1
PNOA-H_AMS_1956-57_33k_ES_PAN_2
 40
0.00045
  10
-5.77291169887098
  20
42.23913304811971
  0
POLYLINE
  8
Unknown Area Type
  70
9
  66
1
  0
VERTEX
  8
Unknown Area Type
  70
32
  10
-5.77755577237184
  20
42.26165812854158
  30
774.891
  0
VERTEX
  8
Unknown Area Type
  70
32
  10
-5.75461933554054
  20
42.26014051697653
  30
777.364
  0
VERTEX
  8
Unknown Area Type
  70
32
  10
-5.75574103696898
  20
42.21868028957177
  30
767.441
  0
VERTEX
  8
Unknown Area Type
  70
32
  10
-5.76386956985605
  20
42.21589104804087
  30
769.206
  0
VERTEX
  8
Unknown Area Type
  70
32
  10
-5.79120321276502
  20
42.2189973936175
  30
767.243
  0
VERTEX
  8
Unknown Area Type
  70
32
  10
-5.78820221140178
  20
42.26116096498529
  30
777.512
  0
VERTEX
  8
Unknown Area Type
  70
32
  10
-5.78539209414377
  20
42.26217934975958
  30
778.02
  0
VERTEX
  8
Unknown Area Type
  70
32
  10
-5.77761046606335
  20
42.26166130557248
  30
774.971
  0
VERTEX
  8
Unknown Area Type
  70
32
  10
-5.77755577237184
  20
42.26165812854158
  30
774.891
  0
SEQEND
  8
Unknown Area Type
  0
TEXT
  8
Unknown Area Type
 62
7
  1
PNOA-H_AMS_1956-57_33k_ES_PAN_2
 40
0.00045
  10
-5.77291169887098
  20
42.23913304811971
  0
POLYLINE
  8
Unknown Area Type
  70
9
  66
1
  0
VERTEX
  8
Unknown Area Type
  70
32
  10
-5.80239824594655
  20
42.2619808802505
  30
774.882
  0
VERTEX
  8
Unknown Area Type
  70
32
  10
-5.78819635469663
  20
42.26116561008594
  30
777.534
  0
VERTEX
  8
Unknown Area Type
  70
32
  10
-5.79120321276502
  20
42.2189973936175
  30
767.243
  0
VERTEX
  8
Unknown Area Type
  70
32
  10
-5.79912737134182
  20
42.21655283220592
  30
767.766
  0
VERTEX
  8
Unknown Area Type
  70
32
  10
-5.82306185861079
  20
42.21945985717799
  30
747.903
  0
VERTEX
  8
Unknown Area Type
  70
32
  10
-5.82334202164314
  20
42.26186754829121
  30
761.326
  0
VERTEX
  8
Unknown Area Type
  70
32
  10
-5.82036230741984
  20
42.26301253757561
  30
775.869
  0
VERTEX
  8
Unknown Area Type
  70
32
  10
-5.82032597722127
  20
42.26301343167417
  30
775.81
  0
VERTEX
  8
Unknown Area Type
  70
32
  10
-5.80241641102932
  20
42.26198043605083
  30
774.75
  0
VERTEX
  8
Unknown Area Type
  70
32
  10
-5.80239824594655
  20
42.2619808802505
  30
774.882
  0
SEQEND
  8
Unknown Area Type
  0
TEXT
  8
Unknown Area Type
 62
7
  1
PNOA-H_AMS_1956-57_33k_ES_PAN_2
 40
0.00045
  10
-5.80576971827035
  20
42.23976487371709
  0
POLYLINE
  8
Unknown Area Type
  70
9
  66
1
  0
VERTEX
  8
Unknown Area Type
  70
32
  10
-5.80239824594655
  20
42.2619808802505
  30
774.882
  0
VERTEX
  8
Unknown Area Type
  70
32
  10
-5.78819635469663
  20
42.26116561008594
  30
777.534
  0
VERTEX
  8
Unknown Area Type
  70
32
  10
-5.79120321276502
  20
42.2189973936175
  30
767.243
  0
VERTEX
  8
Unknown Area Type
  70
32
  10
-5.79912737134182
  20
42.21655283220592
  30
767.766
  0
VERTEX
  8
Unknown Area Type
  70
32
  10
-5.82306185861079
  20
42.21945985717799
  30
747.903
  0
VERTEX
  8
Unknown Area Type
  70
32
  10
-5.82334202164314
  20
42.26186754829121
  30
761.326
  0
VERTEX
  8
Unknown Area Type
  70
32
  10
-5.82036230741984
  20
42.26301253757561
  30
775.869
  0
VERTEX
  8
Unknown Area Type
  70
32
  10
-5.82032597722127
  20
42.26301343167417
  30
775.81
  0
VERTEX
  8
Unknown Area Type
  70
32
  10
-5.80241641102932
  20
42.26198043605083
  30
774.75
  0
VERTEX
  8
Unknown Area Type
  70
32
  10
-5.80239824594655
  20
42.2619808802505
  30
774.882
  0
SEQEND
  8
Unknown Area Type
  0
TEXT
  8
Unknown Area Type
 62
7
  1
PNOA-H_AMS_1956-57_33k_ES_PAN_2
 40
0.00045
  10
-5.80576971827035
  20
42.23976487371709
  0
POLYLINE
  8
Unknown Area Type
  70
9
  66
1
  0
VERTEX
  8
Unknown Area Type
  70
32
  10
-5.61966626492195
  20
42.1833908152836
  30
787.833
  0
VERTEX
  8
Unknown Area Type
  70
32
  10
-5.61901840044253
  20
42.18382887331885
  30
786.213
  0
VERTEX
  8
Unknown Area Type
  70
32
  10
-5.61900648926435
  20
42.18383364815022
  30
786.162
  0
VERTEX
  8
Unknown Area Type
  70
32
  10
-5.58646386581911
  20
42.18291095141463
  30
727.445
  0
VERTEX
  8
Unknown Area Type
  70
32
  10
-5.58578772071176
  20
42.16666666666671
  30
725.427
  0
VERTEX
  8
Unknown Area Type
  70
32
  10
-5.60416666666664
  20
42.16666666666671
  30
774.572
  0
VERTEX
  8
Unknown Area Type
  70
32
  10
-5.6191388031419
  20
42.16666666666671
  30
774.91
  0
VERTEX
  8
Unknown Area Type
  70
32
  10
-5.61966636673753
  20
42.18324672590985
  30
786.664
  0
SEQEND
  8
Unknown Area Type
  0
TEXT
  8
Unknown Area Type
 62
7
  1
PNOA-H_AMS_1956-57_33k_ES_PAN_2
 40
0.00045
  10
-5.60272704372465
  20
42.17525015740846
  0
POLYLINE
  8
Unknown Area Type
  70
9
  66
1
  0
VERTEX
  8
Unknown Area Type
  70
32
  10
-5.61966626492195
  20
42.1833908152836
  30
787.833
  0
VERTEX
  8
Unknown Area Type
  70
32
  10
-5.61901840044253
  20
42.18382887331885
  30
786.213
  0
VERTEX
  8
Unknown Area Type
  70
32
  10
-5.61900648926435
  20
42.18383364815022
  30
786.162
  0
VERTEX
  8
Unknown Area Type
  70
32
  10
-5.58646386581911
  20
42.18291095141463
  30
727.445
  0
VERTEX
  8
Unknown Area Type
  70
32
  10
-5.58578772071176
  20
42.16666666666671
  30
725.427
  0
VERTEX
  8
Unknown Area Type
  70
32
  10
-5.60416666666664
  20
42.16666666666671
  30
774.572
  0
VERTEX
  8
Unknown Area Type
  70
32
  10
-5.6191388031419
  20
42.16666666666671
  30
774.91
  0
VERTEX
  8
Unknown Area Type
  70
32
  10
-5.61966636673753
  20
42.18324672590985
  30
786.664
  0
SEQEND
  8
Unknown Area Type
  0
TEXT
  8
Unknown Area Type
 62
7
  1
PNOA-H_AMS_1956-57_33k_ES_PAN_2
 40
0.00045
  10
-5.60272704372465
  20
42.17525015740846
  0
POLYLINE
  8
Unknown Area Type
  70
9
  66
1
  0
VERTEX
  8
Unknown Area Type
  70
32
  10
-5.6191388031419
  20
42.16666666666671
  30
774.91
  0
VERTEX
  8
Unknown Area Type
  70
32
  10
-5.60416666666664
  20
42.16666666666671
  30
774.572
  0
VERTEX
  8
Unknown Area Type
  70
32
  10
-5.58578772071176
  20
42.16666666666671
  30
725.427
  0
VERTEX
  8
Unknown Area Type
  70
32
  10
-5.5857877137745
  20
42.16666650000004
  30
725.427
  0
VERTEX
  8
Unknown Area Type
  70
32
  10
-5.61913879783871
  20
42.16666650000004
  30
774.91
  0
SEQEND
  8
Unknown Area Type
  0
TEXT
  8
Unknown Area Type
 62
7
  1
PNOA-H_AMS_1956-57_33k_ES_PAN_2
 40
0.00045
  10
-5.6024632584582
  20
42.16666658333337
  0
POLYLINE
  8
Unknown Area Type
  70
9
  66
1
  0
VERTEX
  8
Unknown Area Type
  70
32
  10
-5.85416666666668
  20
42.18750000000002
  30
761.337
  0
VERTEX
  8
Unknown Area Type
  70
32
  10
-5.85416666666668
  20
42.20833333333334
  30
749.033
  0
VERTEX
  8
Unknown Area Type
  70
32
  10
-5.85416666666668
  20
42.21936502918557
  30
749.406
  0
VERTEX
  8
Unknown Area Type
  70
32
  10
-5.85012728343968
  20
42.21879902455969
  30
748.413
  0
VERTEX
  8
Unknown Area Type
  70
32
  10
-5.85010913148595
  20
42.21879947594431
  30
748.416
  0
VERTEX
  8
Unknown Area Type
  70
32
  10
-5.83340722240645
  20
42.21646248124934
  30
748.267
  0
VERTEX
  8
Unknown Area Type
  70
32
  10
-5.83391913050669
  20
42.18159495537743
  30
743.028
  0
VERTEX
  8
Unknown Area Type
  70
32
  10
-5.85416666666668
  20
42.18048769641783
  30
761.689
  0
SEQEND
  8
Unknown Area Type
  0
TEXT
  8
Unknown Area Type
 62
7
  1
PNOA-H_AMS_1956-57_33k_ES_PAN_2
 40
0.00045
  10
-5.85051641165042
  20
42.19976885726963
  0
POLYLINE
  8
Unknown Area Type
  70
9
  66
1
  0
VERTEX
  8
Unknown Area Type
  70
32
  10
-5.85416700000001
  20
42.21936507589275
  30
749.406
  0
VERTEX
  8
Unknown Area Type
  70
32
  10
-5.85416666666668
  20
42.21936502918557
  30
749.406
  0
VERTEX
  8
Unknown Area Type
  70
32
  10
-5.85416666666668
  20
42.20833333333334
  30
749.033
  0
VERTEX
  8
Unknown Area Type
  70
32
  10
-5.85416666666668
  20
42.18750000000002
  30
761.337
  0
VERTEX
  8
Unknown Area Type
  70
32
  10
-5.85416666666668
  20
42.18048769641783
  30
761.689
  0
VERTEX
  8
Unknown Area Type
  70
32
  10
-5.85416700000001
  20
42.18048767818912
  30
761.689
  0
SEQEND
  8
Unknown Area Type
  0
TEXT
  8
Unknown Area Type
 62
7
  1
PNOA-H_AMS_1956-57_33k_ES_PAN_2
 40
0.00045
  10
-5.85416683333334
  20
42.19992637704094
  0
POLYLINE
  8
Unknown Area Type
  70
9
  66
1
  0
VERTEX
  8
Unknown Area Type
  70
32
  10
-5.85416666666668
  20
42.18750000000002
  30
761.337
  0
VERTEX
  8
Unknown Area Type
  70
32
  10
-5.85416666666668
  20
42.20833333333334
  30
749.033
  0
VERTEX
  8
Unknown Area Type
  70
32
  10
-5.85416666666668
  20
42.21936502918557
  30
749.406
  0
VERTEX
  8
Unknown Area Type
  70
32
  10
-5.85012728343968
  20
42.21879902455969
  30
748.413
  0
VERTEX
  8
Unknown Area Type
  70
32
  10
-5.85010913148595
  20
42.21879947594431
  30
748.416
  0
VERTEX
  8
Unknown Area Type
  70
32
  10
-5.83340722240645
  20
42.21646248124934
  30
748.267
  0
VERTEX
  8
Unknown Area Type
  70
32
  10
-5.83391913050669
  20
42.18159495537743
  30
743.028
  0
VERTEX
  8
Unknown Area Type
  70
32
  10
-5.85416666666668
  20
42.18048769641783
  30
761.689
  0
SEQEND
  8
Unknown Area Type
  0
TEXT
  8
Unknown Area Type
 62
7
  1
PNOA-H_AMS_1956-57_33k_ES_PAN_2
 40
0.00045
  10
-5.85051641165042
  20
42.19976885726963
  0
POLYLINE
  8
Unknown Area Type
  70
9
  66
1
  0
VERTEX
  8
Unknown Area Type
  70
32
  10
-5.85416666666668
  20
42.22916666666665
  30
754.737
  0
VERTEX
  8
Unknown Area Type
  70
32
  10
-5.85416666666668
  20
42.25000000000006
  30
764.936
  0
VERTEX
  8
Unknown Area Type
  70
32
  10
-5.85416666666668
  20
42.26285062665987
  30
775.306
  0
VERTEX
  8
Unknown Area Type
  70
32
  10
-5.82334202164314
  20
42.26186754829121
  30
761.326
  0
VERTEX
  8
Unknown Area Type
  70
32
  10
-5.8230677089641
  20
42.21945521045672
  30
747.898
  0
VERTEX
  8
Unknown Area Type
  70
32
  10
-5.83341327292237
  20
42.21646233167578
  30
748.267
  0
VERTEX
  8
Unknown Area Type
  70
32
  10
-5.85416666666668
  20
42.21936653532207
  30
749.874
  0
SEQEND
  8
Unknown Area Type
  0
TEXT
  8
Unknown Area Type
 62
7
  1
PNOA-H_AMS_1956-57_33k_ES_PAN_2
 40
0.00045
  10
-5.84000560108385
  20
42.23989041015437
  0
POLYLINE
  8
Unknown Area Type
  70
9
  66
1
  0
VERTEX
  8
Unknown Area Type
  70
32
  10
-5.85416700000001
  20
42.26285063729074
  30
775.306
  0
VERTEX
  8
Unknown Area Type
  70
32
  10
-5.85416666666668
  20
42.26285062665987
  30
775.306
  0
VERTEX
  8
Unknown Area Type
  70
32
  10
-5.85416666666668
  20
42.25000000000006
  30
764.936
  0
VERTEX
  8
Unknown Area Type
  70
32
  10
-5.85416666666668
  20
42.22916666666665
  30
754.737
  0
VERTEX
  8
Unknown Area Type
  70
32
  10
-5.85416666666668
  20
42.21936653532207
  30
749.874
  0
VERTEX
  8
Unknown Area Type
  70
32
  10
-5.85416700000001
  20
42.2193665819683
  30
749.874
  0
SEQEND
  8
Unknown Area Type
  0
TEXT
  8
Unknown Area Type
 62
7
  1
PNOA-H_AMS_1956-57_33k_ES_PAN_2
 40
0.00045
  10
-5.85416683333334
  20
42.2411085863064
  0
POLYLINE
  8
Unknown Area Type
  70
9
  66
1
  0
VERTEX
  8
Unknown Area Type
  70
32
  10
-5.85416666666668
  20
42.22916666666665
  30
754.737
  0
VERTEX
  8
Unknown Area Type
  70
32
  10
-5.85416666666668
  20
42.25000000000006
  30
764.936
  0
VERTEX
  8
Unknown Area Type
  70
32
  10
-5.85416666666668
  20
42.26285062665987
  30
775.306
  0
VERTEX
  8
Unknown Area Type
  70
32
  10
-5.82334202164314
  20
42.26186754829121
  30
761.326
  0
VERTEX
  8
Unknown Area Type
  70
32
  10
-5.8230677089641
  20
42.21945521045672
  30
747.898
  0
VERTEX
  8
Unknown Area Type
  70
32
  10
-5.83341327292237
  20
42.21646233167578
  30
748.267
  0
VERTEX
  8
Unknown Area Type
  70
32
  10
-5.85416666666668
  20
42.21936653532207
  30
749.874
  0
SEQEND
  8
Unknown Area Type
  0
TEXT
  8
Unknown Area Type
 62
7
  1
PNOA-H_AMS_1956-57_33k_ES_PAN_2
 40
0.00045
  10
-5.84000560108385
  20
42.23989041015437
  0
POLYLINE
  8
Unknown Area Type
  70
9
  66
1
  0
VERTEX
  8
Unknown Area Type
  70
32
  10
-5.55563642488824
  20
42.18276477910365
  30
726.284
  0
VERTEX
  8
Unknown Area Type
  70
32
  10
-5.55102724882168
  20
42.18512330600923
  30
733.93
  0
VERTEX
  8
Unknown Area Type
  70
32
  10
-5.55102156184431
  20
42.18513243803826
  30
733.923
  0
VERTEX
  8
Unknown Area Type
  70
32
  10
-5.54809105061914
  20
42.18663398336484
  30
737.511
  0
VERTEX
  8
Unknown Area Type
  70
32
  10
-5.54803110204925
  20
42.1866488239825
  30
737.619
  0
VERTEX
  8
Unknown Area Type
  70
32
  10
-5.52325381241273
  20
42.18187457075046
  30
761.264
  0
VERTEX
  8
Unknown Area Type
  70
32
  10
-5.52313076882517
  20
42.16666666666671
  30
760.698
  0
VERTEX
  8
Unknown Area Type
  70
32
  10
-5.55429469780464
  20
42.16666666666671
  30
730.912
  0
SEQEND
  8
Unknown Area Type
  0
TEXT
  8
Unknown Area Type
 62
7
  1
PNOA-H_AMS_1956-57_33k_ES_PAN_2
 40
0.00045
  10
-5.53938359685671
  20
42.1766577453246
  0
POLYLINE
  8
Unknown Area Type
  70
9
  66
1
  0
VERTEX
  8
Unknown Area Type
  70
32
  10
-5.55563642488824
  20
42.18276477910365
  30
726.284
  0
VERTEX
  8
Unknown Area Type
  70
32
  10
-5.55102724882168
  20
42.18512330600923
  30
733.93
  0
VERTEX
  8
Unknown Area Type
  70
32
  10
-5.55102156184431
  20
42.18513243803826
  30
733.923
  0
VERTEX
  8
Unknown Area Type
  70
32
  10
-5.54809105061914
  20
42.18663398336484
  30
737.511
  0
VERTEX
  8
Unknown Area Type
  70
32
  10
-5.54803110204925
  20
42.1866488239825
  30
737.619
  0
VERTEX
  8
Unknown Area Type
  70
32
  10
-5.52325381241273
  20
42.18187457075046
  30
761.264
  0
VERTEX
  8
Unknown Area Type
  70
32
  10
-5.52313076882517
  20
42.16666666666671
  30
760.698
  0
VERTEX
  8
Unknown Area Type
  70
32
  10
-5.55429469780464
  20
42.16666666666671
  30
730.912
  0
SEQEND
  8
Unknown Area Type
  0
TEXT
  8
Unknown Area Type
 62
7
  1
PNOA-H_AMS_1956-57_33k_ES_PAN_2
 40
0.00045
  10
-5.53938359685671
  20
42.1766577453246
  0
POLYLINE
  8
Unknown Area Type
  70
9
  66
1
  0
VERTEX
  8
Unknown Area Type
  70
32
  10
-5.55429469780464
  20
42.16666666666671
  30
730.912
  0
VERTEX
  8
Unknown Area Type
  70
32
  10
-5.52313076882517
  20
42.16666666666671
  30
760.698
  0
VERTEX
  8
Unknown Area Type
  70
32
  10
-5.52313076747671
  20
42.16666650000004
  30
760.698
  0
VERTEX
  8
Unknown Area Type
  70
32
  10
-5.5542946839135
  20
42.16666650000004
  30
730.912
  0
SEQEND
  8
Unknown Area Type
  0
TEXT
  8
Unknown Area Type
 62
7
  1
PNOA-H_AMS_1956-57_33k_ES_PAN_2
 40
0.00045
  10
-5.53871273264068
  20
42.16666658333337
  0
POLYLINE
  8
Unknown Area Type
  70
9
  66
1
  0
VERTEX
  8
Unknown Area Type
  70
32
  10
-5.52291019210691
  20
42.25764508346393
  30
746.526
  0
VERTEX
  8
Unknown Area Type
  70
32
  10
-5.52275986893234
  20
42.25767540836561
  30
746.339
  0
VERTEX
  8
Unknown Area Type
  70
32
  10
-5.52083333333329
  20
42.25806177556682
  30
748.822
  0
VERTEX
  8
Unknown Area Type
  70
32
  10
-5.52083333333329
  20
42.25000000000006
  30
749.667
  0
VERTEX
  8
Unknown Area Type
  70
32
  10
-5.52083333333329
  20
42.23203268122353
  30
754.538
  0
VERTEX
  8
Unknown Area Type
  70
32
  10
-5.52292140688663
  20
42.2576223230809
  30
747.555
  0
SEQEND
  8
Unknown Area Type
  0
TEXT
  8
Unknown Area Type
 62
7
  1
PNOA-H_AMS_1956-57_33k_ES_PAN_2
 40
0.00045
  10
-5.52187737010996
  20
42.24504722839517
  0
POLYLINE
  8
Unknown Area Type
  70
9
  66
1
  0
VERTEX
  8
Unknown Area Type
  70
32
  10
-5.52291019210691
  20
42.25764508346393
  30
746.526
  0
VERTEX
  8
Unknown Area Type
  70
32
  10
-5.52275986893234
  20
42.25767540836561
  30
746.339
  0
VERTEX
  8
Unknown Area Type
  70
32
  10
-5.52083333333329
  20
42.25806177556682
  30
748.822
  0
VERTEX
  8
Unknown Area Type
  70
32
  10
-5.52083333333329
  20
42.25000000000006
  30
749.667
  0
VERTEX
  8
Unknown Area Type
  70
32
  10
-5.52083333333329
  20
42.23203268122353
  30
754.538
  0
VERTEX
  8
Unknown Area Type
  70
32
  10
-5.52292140688663
  20
42.2576223230809
  30
747.555
  0
SEQEND
  8
Unknown Area Type
  0
TEXT
  8
Unknown Area Type
 62
7
  1
PNOA-H_AMS_1956-57_33k_ES_PAN_2
 40
0.00045
  10
-5.52187737010996
  20
42.24504722839517
  0
POLYLINE
  8
Unknown Area Type
  70
9
  66
1
  0
VERTEX
  8
Unknown Area Type
  70
32
  10
-5.52083333333329
  20
42.25000000000006
  30
749.667
  0
VERTEX
  8
Unknown Area Type
  70
32
  10
-5.52083333333329
  20
42.25806177556682
  30
748.822
  0
VERTEX
  8
Unknown Area Type
  70
32
  10
-5.52083299999996
  20
42.25806184241689
  30
748.822
  0
VERTEX
  8
Unknown Area Type
  70
32
  10
-5.52083299999996
  20
42.23202859617557
  30
754.539
  0
VERTEX
  8
Unknown Area Type
  70
32
  10
-5.52083333333329
  20
42.23203268122353
  30
754.538
  0
SEQEND
  8
Unknown Area Type
  0
TEXT
  8
Unknown Area Type
 62
7
  1
PNOA-H_AMS_1956-57_33k_ES_PAN_2
 40
0.00045
  10
-5.52083316666663
  20
42.24504521929623
  0
POLYLINE
  8
Unknown Area Type
  70
9
  66
1
  0
VERTEX
  8
Unknown Area Type
  70
32
  10
-5.52325381241273
  20
42.18187457075046
  30
761.264
  0
VERTEX
  8
Unknown Area Type
  70
32
  10
-5.52083333333329
  20
42.18303058481241
  30
762.666
  0
VERTEX
  8
Unknown Area Type
  70
32
  10
-5.52083333333329
  20
42.16666666666671
  30
760.697
  0
VERTEX
  8
Unknown Area Type
  70
32
  10
-5.52313076882517
  20
42.16666666666671
  30
760.698
  0
SEQEND
  8
Unknown Area Type
  0
TEXT
  8
Unknown Area Type
 62
7
  1
PNOA-H_AMS_1956-57_33k_ES_PAN_2
 40
0.00045
  10
-5.52204357287301
  20
42.17484862573956
  0
POLYLINE
  8
Unknown Area Type
  70
9
  66
1
  0
VERTEX
  8
Unknown Area Type
  70
32
  10
-5.52325381241273
  20
42.18187457075046
  30
761.264
  0
VERTEX
  8
Unknown Area Type
  70
32
  10
-5.52083333333329
  20
42.18303058481241
  30
762.666
  0
VERTEX
  8
Unknown Area Type
  70
32
  10
-5.52083333333329
  20
42.16666666666671
  30
760.697
  0
VERTEX
  8
Unknown Area Type
  70
32
  10
-5.52313076882517
  20
42.16666666666671
  30
760.698
  0
SEQEND
  8
Unknown Area Type
  0
TEXT
  8
Unknown Area Type
 62
7
  1
PNOA-H_AMS_1956-57_33k_ES_PAN_2
 40
0.00045
  10
-5.52204357287301
  20
42.17484862573956
  0
POLYLINE
  8
Unknown Area Type
  70
9
  66
1
  0
VERTEX
  8
Unknown Area Type
  70
32
  10
-5.52083333333329
  20
42.18303058481241
  30
762.666
  0
VERTEX
  8
Unknown Area Type
  70
32
  10
-5.52083299999996
  20
42.18303074401149
  30
762.666
  0
VERTEX
  8
Unknown Area Type
  70
32
  10
-5.52083299999996
  20
42.16666666666671
  30
760.697
  0
VERTEX
  8
Unknown Area Type
  70
32
  10
-5.52083333333329
  20
42.16666666666671
  30
760.697
  0
SEQEND
  8
Unknown Area Type
  0
TEXT
  8
Unknown Area Type
 62
7
  1
PNOA-H_AMS_1956-57_33k_ES_PAN_2
 40
0.00045
  10
-5.52083316666663
  20
42.1748487053391
  0
POLYLINE
  8
Unknown Area Type
  70
9
  66
1
  0
VERTEX
  8
Unknown Area Type
  70
32
  10
-5.52313076882517
  20
42.16666666666671
  30
760.698
  0
VERTEX
  8
Unknown Area Type
  70
32
  10
-5.52083333333329
  20
42.16666666666671
  30
760.697
  0
VERTEX
  8
Unknown Area Type
  70
32
  10
-5.52083333333329
  20
42.16666650000004
  30
760.697
  0
VERTEX
  8
Unknown Area Type
  70
32
  10
-5.52313076747671
  20
42.16666650000004
  30
760.698
  0
SEQEND
  8
Unknown Area Type
  0
TEXT
  8
Unknown Area Type
 62
7
  1
PNOA-H_AMS_1956-57_33k_ES_PAN_2
 40
0.00045
  10
-5.52198205107923
  20
42.16666658333337
  0
POLYLINE
  8
Unknown Area Type
  70
9
  66
1
  0
VERTEX
  8
Unknown Area Type
  70
32
  10
-5.78665581295315
  20
42.17689569854021
  30
757.826
  0
VERTEX
  8
Unknown Area Type
  70
32
  10
-5.77398830234273
  20
42.17944075798732
  30
760.305
  0
VERTEX
  8
Unknown Area Type
  70
32
  10
-5.77396430991246
  20
42.17944584123313
  30
760.295
  0
VERTEX
  8
Unknown Area Type
  70
32
  10
-5.76382194686473
  20
42.18147387741826
  30
759.009
  0
VERTEX
  8
Unknown Area Type
  70
32
  10
-5.7541647109419
  20
42.17768091521355
  30
761.604
  0
VERTEX
  8
Unknown Area Type
  70
32
  10
-5.75335923179451
  20
42.16666666666671
  30
758.733
  0
VERTEX
  8
Unknown Area Type
  70
32
  10
-5.77083333333333
  20
42.16666666666671
  30
760.225
  0
VERTEX
  8
Unknown Area Type
  70
32
  10
-5.78600441982692
  20
42.16666666666671
  30
755.793
  0
SEQEND
  8
Unknown Area Type
  0
TEXT
  8
Unknown Area Type
 62
7
  1
PNOA-H_AMS_1956-57_33k_ES_PAN_2
 40
0.00045
  10
-5.77000752237383
  20
42.17407027204248
  0
POLYLINE
  8
Unknown Area Type
  70
9
  66
1
  0
VERTEX
  8
Unknown Area Type
  70
32
  10
-5.78665581295315
  20
42.17689569854021
  30
757.826
  0
VERTEX
  8
Unknown Area Type
  70
32
  10
-5.77398830234273
  20
42.17944075798732
  30
760.305
  0
VERTEX
  8
Unknown Area Type
  70
32
  10
-5.77396430991246
  20
42.17944584123313
  30
760.295
  0
VERTEX
  8
Unknown Area Type
  70
32
  10
-5.76382194686473
  20
42.18147387741826
  30
759.009
  0
VERTEX
  8
Unknown Area Type
  70
32
  10
-5.7541647109419
  20
42.17768091521355
  30
761.604
  0
VERTEX
  8
Unknown Area Type
  70
32
  10
-5.75335923179451
  20
42.16666666666671
  30
758.733
  0
VERTEX
  8
Unknown Area Type
  70
32
  10
-5.77083333333333
  20
42.16666666666671
  30
760.225
  0
VERTEX
  8
Unknown Area Type
  70
32
  10
-5.78600441982692
  20
42.16666666666671
  30
755.793
  0
SEQEND
  8
Unknown Area Type
  0
TEXT
  8
Unknown Area Type
 62
7
  1
PNOA-H_AMS_1956-57_33k_ES_PAN_2
 40
0.00045
  10
-5.77000752237383
  20
42.17407027204248
  0
POLYLINE
  8
Unknown Area Type
  70
9
  66
1
  0
VERTEX
  8
Unknown Area Type
  70
32
  10
-5.78600441982692
  20
42.16666666666671
  30
755.793
  0
VERTEX
  8
Unknown Area Type
  70
32
  10
-5.77083333333333
  20
42.16666666666671
  30
760.225
  0
VERTEX
  8
Unknown Area Type
  70
32
  10
-5.75335923179451
  20
42.16666666666671
  30
758.733
  0
VERTEX
  8
Unknown Area Type
  70
32
  10
-5.75335921960606
  20
42.16666650000004
  30
758.733
  0
VERTEX
  8
Unknown Area Type
  70
32
  10
-5.78600440921345
  20
42.16666650000004
  30
755.793
  0
SEQEND
  8
Unknown Area Type
  0
TEXT
  8
Unknown Area Type
 62
7
  1
PNOA-H_AMS_1956-57_33k_ES_PAN_2
 40
0.00045
  10
-5.76968181971649
  20
42.16666658333337
  0
POLYLINE
  8
Unknown Area Type
  70
9
  66
1
  0
VERTEX
  8
Unknown Area Type
  70
32
  10
-5.72013547652195
  20
42.17932191218696
  30
759.105
  0
VERTEX
  8
Unknown Area Type
  70
32
  10
-5.69976299404738
  20
42.18098770735022
  30
762.52
  0
VERTEX
  8
Unknown Area Type
  70
32
  10
-5.69968456392763
  20
42.18099405706192
  30
762.569
  0
VERTEX
  8
Unknown Area Type
  70
32
  10
-5.68983850880049
  20
42.18179284332368
  30
763.105
  0
VERTEX
  8
Unknown Area Type
  70
32
  10
-5.68658206322047
  20
42.18023472568339
  30
751.861
  0
VERTEX
  8
Unknown Area Type
  70
32
  10
-5.68571383075166
  20
42.16666666666671
  30
762.904
  0
VERTEX
  8
Unknown Area Type
  70
32
  10
-5.68749999999998
  20
42.16666666666671
  30
762.812
  0
VERTEX
  8
Unknown Area Type
  70
32
  10
-5.71968281024276
  20
42.16666666666671
  30
764.595
  0
SEQEND
  8
Unknown Area Type
  0
TEXT
  8
Unknown Area Type
 62
7
  1
PNOA-H_AMS_1956-57_33k_ES_PAN_2
 40
0.00045
  10
-5.7029246536368
  20
42.1742297549952
  0
POLYLINE
  8
Unknown Area Type
  70
9
  66
1
  0
VERTEX
  8
Unknown Area Type
  70
32
  10
-5.72013547652195
  20
42.17932191218696
  30
759.105
  0
VERTEX
  8
Unknown Area Type
  70
32
  10
-5.69976299404738
  20
42.18098770735022
  30
762.52
  0
VERTEX
  8
Unknown Area Type
  70
32
  10
-5.69968456392763
  20
42.18099405706192
  30
762.569
  0
VERTEX
  8
Unknown Area Type
  70
32
  10
-5.68983850880049
  20
42.18179284332368
  30
763.105
  0
VERTEX
  8
Unknown Area Type
  70
32
  10
-5.68658206322047
  20
42.18023472568339
  30
751.861
  0
VERTEX
  8
Unknown Area Type
  70
32
  10
-5.68571383075166
  20
42.16666666666671
  30
762.904
  0
VERTEX
  8
Unknown Area Type
  70
32
  10
-5.68749999999998
  20
42.16666666666671
  30
762.812
  0
VERTEX
  8
Unknown Area Type
  70
32
  10
-5.71968281024276
  20
42.16666666666671
  30
764.595
  0
SEQEND
  8
Unknown Area Type
  0
TEXT
  8
Unknown Area Type
 62
7
  1
PNOA-H_AMS_1956-57_33k_ES_PAN_2
 40
0.00045
  10
-5.7029246536368
  20
42.1742297549952
  0
POLYLINE
  8
Unknown Area Type
  70
9
  66
1
  0
VERTEX
  8
Unknown Area Type
  70
32
  10
-5.71968281024276
  20
42.16666666666671
  30
764.595
  0
VERTEX
  8
Unknown Area Type
  70
32
  10
-5.68749999999998
  20
42.16666666666671
  30
762.812
  0
VERTEX
  8
Unknown Area Type
  70
32
  10
-5.68571383075166
  20
42.16666666666671
  30
762.904
  0
VERTEX
  8
Unknown Area Type
  70
32
  10
-5.68571382008651
  20
42.16666650000004
  30
762.905
  0
VERTEX
  8
Unknown Area Type
  70
32
  10
-5.71968280428124
  20
42.16666650000004
  30
764.595
  0
SEQEND
  8
Unknown Area Type
  0
TEXT
  8
Unknown Area Type
 62
7
  1
PNOA-H_AMS_1956-57_33k_ES_PAN_2
 40
0.00045
  10
-5.70269831516463
  20
42.16666658333337
  0
POLYLINE
  8
Unknown Area Type
  70
9
  66
1
  0
VERTEX
  8
Unknown Area Type
  70
32
  10
-5.58646404929457
  20
42.18291545000755
  30
727.446
  0
VERTEX
  8
Unknown Area Type
  70
32
  10
-5.58291094757687
  20
42.18501277949998
  30
727.482
  0
VERTEX
  8
Unknown Area Type
  70
32
  10
-5.58289903327391
  20
42.18501755065819
  30
727.474
  0
VERTEX
  8
Unknown Area Type
  70
32
  10
-5.55563642488824
  20
42.18276477910365
  30
726.284
  0
VERTEX
  8
Unknown Area Type
  70
32
  10
-5.55429469780464
  20
42.16666666666671
  30
730.912
  0
VERTEX
  8
Unknown Area Type
  70
32
  10
-5.56250000000001
  20
42.16666666666671
  30
730.717
  0
VERTEX
  8
Unknown Area Type
  70
32
  10
-5.58578974994823
  20
42.16666666666671
  30
725.088
  0
SEQEND
  8
Unknown Area Type
  0
TEXT
  8
Unknown Area Type
 62
7
  1
PNOA-H_AMS_1956-57_33k_ES_PAN_2
 40
0.00045
  10
-5.5703793735496
  20
42.17584210866245
  0
POLYLINE
  8
Unknown Area Type
  70
9
  66
1
  0
VERTEX
  8
Unknown Area Type
  70
32
  10
-5.58646404929457
  20
42.18291545000755
  30
727.446
  0
VERTEX
  8
Unknown Area Type
  70
32
  10
-5.58291094757687
  20
42.18501277949998
  30
727.482
  0
VERTEX
  8
Unknown Area Type
  70
32
  10
-5.58289903327391
  20
42.18501755065819
  30
727.474
  0
VERTEX
  8
Unknown Area Type
  70
32
  10
-5.55563642488824
  20
42.18276477910365
  30
726.284
  0
VERTEX
  8
Unknown Area Type
  70
32
  10
-5.55429469780464
  20
42.16666666666671
  30
730.912
  0
VERTEX
  8
Unknown Area Type
  70
32
  10
-5.56250000000001
  20
42.16666666666671
  30
730.717
  0
VERTEX
  8
Unknown Area Type
  70
32
  10
-5.58578974994823
  20
42.16666666666671
  30
725.088
  0
SEQEND
  8
Unknown Area Type
  0
TEXT
  8
Unknown Area Type
 62
7
  1
PNOA-H_AMS_1956-57_33k_ES_PAN_2
 40
0.00045
  10
-5.5703793735496
  20
42.17584210866245
  0
POLYLINE
  8
Unknown Area Type
  70
9
  66
1
  0
VERTEX
  8
Unknown Area Type
  70
32
  10
-5.58578974994823
  20
42.16666666666671
  30
725.088
  0
VERTEX
  8
Unknown Area Type
  70
32
  10
-5.56250000000001
  20
42.16666666666671
  30
730.717
  0
VERTEX
  8
Unknown Area Type
  70
32
  10
-5.55429469780464
  20
42.16666666666671
  30
730.912
  0
VERTEX
  8
Unknown Area Type
  70
32
  10
-5.5542946839135
  20
42.16666650000004
  30
730.912
  0
VERTEX
  8
Unknown Area Type
  70
32
  10
-5.58578974303182
  20
42.16666650000004
  30
725.088
  0
SEQEND
  8
Unknown Area Type
  0
TEXT
  8
Unknown Area Type
 62
7
  1
PNOA-H_AMS_1956-57_33k_ES_PAN_2
 40
0.00045
  10
-5.57004221693086
  20
42.16666658333337
  0
POLYLINE
  8
Unknown Area Type
  70
9
  66
1
  0
VERTEX
  8
Unknown Area Type
  70
32
  10
-5.7541709534959
  20
42.1776852679091
  30
761.632
  0
VERTEX
  8
Unknown Area Type
  70
32
  10
-5.72608449063651
  20
42.18223792091935
  30
761.467
  0
VERTEX
  8
Unknown Area Type
  70
32
  10
-5.72013547652195
  20
42.17932191218696
  30
759.105
  0
VERTEX
  8
Unknown Area Type
  70
32
  10
-5.71968281024276
  20
42.16666666666671
  30
764.595
  0
VERTEX
  8
Unknown Area Type
  70
32
  10
-5.7291666666667
  20
42.16666666666671
  30
764.448
  0
VERTEX
  8
Unknown Area Type
  70
32
  10
-5.75336348443846
  20
42.16666666666671
  30
758.753
  0
SEQEND
  8
Unknown Area Type
  0
TEXT
  8
Unknown Area Type
 62
7
  1
PNOA-H_AMS_1956-57_33k_ES_PAN_2
 40
0.00045
  10
-5.73692688186933
  20
42.17445229379302
  0
POLYLINE
  8
Unknown Area Type
  70
9
  66
1
  0
VERTEX
  8
Unknown Area Type
  70
32
  10
-5.7541709534959
  20
42.1776852679091
  30
761.632
  0
VERTEX
  8
Unknown Area Type
  70
32
  10
-5.72608449063651
  20
42.18223792091935
  30
761.467
  0
VERTEX
  8
Unknown Area Type
  70
32
  10
-5.72013547652195
  20
42.17932191218696
  30
759.105
  0
VERTEX
  8
Unknown Area Type
  70
32
  10
-5.71968281024276
  20
42.16666666666671
  30
764.595
  0
VERTEX
  8
Unknown Area Type
  70
32
  10
-5.7291666666667
  20
42.16666666666671
  30
764.448
  0
VERTEX
  8
Unknown Area Type
  70
32
  10
-5.75336348443846
  20
42.16666666666671
  30
758.753
  0
SEQEND
  8
Unknown Area Type
  0
TEXT
  8
Unknown Area Type
 62
7
  1
PNOA-H_AMS_1956-57_33k_ES_PAN_2
 40
0.00045
  10
-5.73692688186933
  20
42.17445229379302
  0
POLYLINE
  8
Unknown Area Type
  70
9
  66
1
  0
VERTEX
  8
Unknown Area Type
  70
32
  10
-5.75336348443846
  20
42.16666666666671
  30
758.753
  0
VERTEX
  8
Unknown Area Type
  70
32
  10
-5.7291666666667
  20
42.16666666666671
  30
764.448
  0
VERTEX
  8
Unknown Area Type
  70
32
  10
-5.71968281024276
  20
42.16666666666671
  30
764.595
  0
VERTEX
  8
Unknown Area Type
  70
32
  10
-5.71968280428124
  20
42.16666650000004
  30
764.595
  0
VERTEX
  8
Unknown Area Type
  70
32
  10
-5.75336347222473
  20
42.16666650000004
  30
758.753
  0
SEQEND
  8
Unknown Area Type
  0
TEXT
  8
Unknown Area Type
 62
7
  1
PNOA-H_AMS_1956-57_33k_ES_PAN_2
 40
0.00045
  10
-5.73652314435985
  20
42.16666658333337
  0
POLYLINE
  8
Unknown Area Type
  70
9
  66
1
  0
VERTEX
  8
Unknown Area Type
  70
32
  10
-5.65430294723319
  20
42.18225640068222
  30
765.411
  0
VERTEX
  8
Unknown Area Type
  70
32
  10
-5.65086908889407
  20
42.18237187561324
  30
764.589
  0
VERTEX
  8
Unknown Area Type
  70
32
  10
-5.65039751800352
  20
42.18238728157713
  30
764.745
  0
VERTEX
  8
Unknown Area Type
  70
32
  10
-5.61966607908976
  20
42.18338631680982
  30
787.792
  0
VERTEX
  8
Unknown Area Type
  70
32
  10
-5.61913599655406
  20
42.16666666666671
  30
775.521
  0
VERTEX
  8
Unknown Area Type
  70
32
  10
-5.64583333333336
  20
42.16666666666671
  30
765.548
  0
VERTEX
  8
Unknown Area Type
  70
32
  10
-5.65240265550783
  20
42.16666666666671
  30
765.541
  0
SEQEND
  8
Unknown Area Type
  0
TEXT
  8
Unknown Area Type
 62
7
  1
PNOA-H_AMS_1956-57_33k_ES_PAN_2
 40
0.00045
  10
-5.63671947189362
  20
42.17502649173827
  0
POLYLINE
  8
Unknown Area Type
  70
9
  66
1
  0
VERTEX
  8
Unknown Area Type
  70
32
  10
-5.65430294723319
  20
42.18225640068222
  30
765.411
  0
VERTEX
  8
Unknown Area Type
  70
32
  10
-5.65086908889407
  20
42.18237187561324
  30
764.589
  0
VERTEX
  8
Unknown Area Type
  70
32
  10
-5.65039751800352
  20
42.18238728157713
  30
764.745
  0
VERTEX
  8
Unknown Area Type
  70
32
  10
-5.61966607908976
  20
42.18338631680982
  30
787.792
  0
VERTEX
  8
Unknown Area Type
  70
32
  10
-5.61913599655406
  20
42.16666666666671
  30
775.521
  0
VERTEX
  8
Unknown Area Type
  70
32
  10
-5.64583333333336
  20
42.16666666666671
  30
765.548
  0
VERTEX
  8
Unknown Area Type
  70
32
  10
-5.65240265550783
  20
42.16666666666671
  30
765.541
  0
SEQEND
  8
Unknown Area Type
  0
TEXT
  8
Unknown Area Type
 62
7
  1
PNOA-H_AMS_1956-57_33k_ES_PAN_2
 40
0.00045
  10
-5.63671947189362
  20
42.17502649173827
  0
POLYLINE
  8
Unknown Area Type
  70
9
  66
1
  0
VERTEX
  8
Unknown Area Type
  70
32
  10
-5.65240265550783
  20
42.16666666666671
  30
765.541
  0
VERTEX
  8
Unknown Area Type
  70
32
  10
-5.64583333333336
  20
42.16666666666671
  30
765.548
  0
VERTEX
  8
Unknown Area Type
  70
32
  10
-5.61913599655406
  20
42.16666666666671
  30
775.521
  0
VERTEX
  8
Unknown Area Type
  70
32
  10
-5.61913599127003
  20
42.16666650000004
  30
775.521
  0
VERTEX
  8
Unknown Area Type
  70
32
  10
-5.65240263519219
  20
42.16666650000004
  30
765.541
  0
SEQEND
  8
Unknown Area Type
  0
TEXT
  8
Unknown Area Type
 62
7
  1
PNOA-H_AMS_1956-57_33k_ES_PAN_2
 40
0.00045
  10
-5.63576932338893
  20
42.16666658333337
  0
ENDSEC
  0
EOF
