  0
SECTION
  2
HEADER
  9
$ACADVER
  1
AC1009
  9
$LUNITS
  70
2
  9
$DWGCODEPAGE
  3
UTF8
  9
$LIMMIN
  10
-6.18749999999997
  20
42.16666666666671
  9
$LIMMAX
  10
-5.85416666666668
  20
42.33333333333331
  9
$EXTMIN
  10
-6.18749999999997
  20
42.16666666666671
  9
$EXTMAX
  10
-5.85416666666668
  20
42.33333333333331
  999
Created by Global Mapper
  999
Projection: Geographic (Latitude/Longitude)
  999
Datum: ETRS89
  999
Ground Units: arc degrees
  999
CENTRAL LONGITUDE: 0
  0
ENDSEC
  0
SECTION
  2
TABLES
  0
ENDSEC
  0
SECTION
  2
BLOCKS
  0
ENDSEC
  0
SECTION
  2
ENTITIES
  0
POLYLINE
  8
Unknown Area Type
  70
9
  66
1
  0
VERTEX
  8
Unknown Area Type
  70
32
  10
-5.89965646385006
  20
42.21702985763265
  30
794.572
  0
VERTEX
  8
Unknown Area Type
  70
32
  10
-5.88914434090932
  20
42.21988882629329
  30
786.543
  0
VERTEX
  8
Unknown Area Type
  70
32
  10
-5.86762451542005
  20
42.21686771633882
  30
760.893
  0
VERTEX
  8
Unknown Area Type
  70
32
  10
-5.86760275469088
  20
42.17998731003829
  30
775.205
  0
VERTEX
  8
Unknown Area Type
  70
32
  10
-5.9003595954065
  20
42.18078860286339
  30
824.108
  0
VERTEX
  8
Unknown Area Type
  70
32
  10
-5.90054118467265
  20
42.21677333599965
  30
797.066
  0
VERTEX
  8
Unknown Area Type
  70
32
  10
-5.90052990821483
  20
42.21679163175914
  30
796.982
  0
VERTEX
  8
Unknown Area Type
  70
32
  10
-5.89967440858555
  20
42.21702490103751
  30
794.695
  0
VERTEX
  8
Unknown Area Type
  70
32
  10
-5.89965646385006
  20
42.21702985763265
  30
794.572
  0
SEQEND
  8
Unknown Area Type
  0
TEXT
  8
Unknown Area Type
 62
7
  1
PNOA-H_AMS_1956-57_33k_ES_PAN_2
 40
0.00045
  10
-5.88407235978842
  20
42.19978191346232
  0
POLYLINE
  8
Unknown Area Type
  70
9
  66
1
  0
VERTEX
  8
Unknown Area Type
  70
32
  10
-5.89965646385006
  20
42.21702985763265
  30
794.572
  0
VERTEX
  8
Unknown Area Type
  70
32
  10
-5.88914434090932
  20
42.21988882629329
  30
786.543
  0
VERTEX
  8
Unknown Area Type
  70
32
  10
-5.86762451542005
  20
42.21686771633882
  30
760.893
  0
VERTEX
  8
Unknown Area Type
  70
32
  10
-5.86760275469088
  20
42.17998731003829
  30
775.205
  0
VERTEX
  8
Unknown Area Type
  70
32
  10
-5.9003595954065
  20
42.18078860286339
  30
824.108
  0
VERTEX
  8
Unknown Area Type
  70
32
  10
-5.90054118467265
  20
42.21677333599965
  30
797.066
  0
VERTEX
  8
Unknown Area Type
  70
32
  10
-5.90052990821483
  20
42.21679163175914
  30
796.982
  0
VERTEX
  8
Unknown Area Type
  70
32
  10
-5.89967440858555
  20
42.21702490103751
  30
794.695
  0
VERTEX
  8
Unknown Area Type
  70
32
  10
-5.89965646385006
  20
42.21702985763265
  30
794.572
  0
SEQEND
  8
Unknown Area Type
  0
TEXT
  8
Unknown Area Type
 62
7
  1
PNOA-H_AMS_1956-57_33k_ES_PAN_2
 40
0.00045
  10
-5.88407235978842
  20
42.19978191346232
  0
POLYLINE
  8
Unknown Area Type
  70
9
  66
1
  0
VERTEX
  8
Unknown Area Type
  70
32
  10
-6.18749999999997
  20
42.22916666666665
  30
999.508
  0
VERTEX
  8
Unknown Area Type
  70
32
  10
-6.18749999999997
  20
42.25000000000006
  30
1060.269
  0
VERTEX
  8
Unknown Area Type
  70
32
  10
-6.18749999999997
  20
42.25165045935799
  30
1065.082
  0
VERTEX
  8
Unknown Area Type
  70
32
  10
-6.1851410858362
  20
42.25877557482106
  30
1088.14
  0
VERTEX
  8
Unknown Area Type
  70
32
  10
-6.18509939712873
  20
42.25879024110382
  30
1087.09
  0
VERTEX
  8
Unknown Area Type
  70
32
  10
-6.17487186476412
  20
42.2593442470774
  30
983.978
  0
VERTEX
  8
Unknown Area Type
  70
32
  10
-6.17470261444694
  20
42.25935343927907
  30
983.156
  0
VERTEX
  8
Unknown Area Type
  70
32
  10
-6.17053769053735
  20
42.25957682494347
  30
968.345
  0
VERTEX
  8
Unknown Area Type
  70
32
  10
-6.1701428738083
  20
42.2594391682849
  30
966.805
  0
VERTEX
  8
Unknown Area Type
  70
32
  10
-6.16862776815716
  20
42.21951712150095
  30
965.183
  0
VERTEX
  8
Unknown Area Type
  70
32
  10
-6.1809738175325
  20
42.21544251259432
  30
934.24
  0
VERTEX
  8
Unknown Area Type
  70
32
  10
-6.18749999999997
  20
42.21671880419234
  30
950.477
  0
SEQEND
  8
Unknown Area Type
  0
TEXT
  8
Unknown Area Type
 62
7
  1
PNOA-H_AMS_1956-57_33k_ES_PAN_2
 40
0.00045
  10
-6.18309976557437
  20
42.23737789989061
  0
POLYLINE
  8
Unknown Area Type
  70
9
  66
1
  0
VERTEX
  8
Unknown Area Type
  70
32
  10
-6.18749999999997
  20
42.22916666666665
  30
999.508
  0
VERTEX
  8
Unknown Area Type
  70
32
  10
-6.18749999999997
  20
42.25000000000006
  30
1060.269
  0
VERTEX
  8
Unknown Area Type
  70
32
  10
-6.18749999999997
  20
42.25165045935799
  30
1065.082
  0
VERTEX
  8
Unknown Area Type
  70
32
  10
-6.1851410858362
  20
42.25877557482106
  30
1088.14
  0
VERTEX
  8
Unknown Area Type
  70
32
  10
-6.18509939712873
  20
42.25879024110382
  30
1087.09
  0
VERTEX
  8
Unknown Area Type
  70
32
  10
-6.17487186476412
  20
42.2593442470774
  30
983.978
  0
VERTEX
  8
Unknown Area Type
  70
32
  10
-6.17470261444694
  20
42.25935343927907
  30
983.156
  0
VERTEX
  8
Unknown Area Type
  70
32
  10
-6.17053769053735
  20
42.25957682494347
  30
968.345
  0
VERTEX
  8
Unknown Area Type
  70
32
  10
-6.1701428738083
  20
42.2594391682849
  30
966.805
  0
VERTEX
  8
Unknown Area Type
  70
32
  10
-6.16862776815716
  20
42.21951712150095
  30
965.183
  0
VERTEX
  8
Unknown Area Type
  70
32
  10
-6.1809738175325
  20
42.21544251259432
  30
934.24
  0
VERTEX
  8
Unknown Area Type
  70
32
  10
-6.18749999999997
  20
42.21671880419234
  30
950.477
  0
SEQEND
  8
Unknown Area Type
  0
TEXT
  8
Unknown Area Type
 62
7
  1
PNOA-H_AMS_1956-57_33k_ES_PAN_2
 40
0.00045
  10
-6.18309976557437
  20
42.23737789989061
  0
POLYLINE
  8
Unknown Area Type
  70
9
  66
1
  0
VERTEX
  8
Unknown Area Type
  70
32
  10
-6.18749999999997
  20
42.27083333333337
  30
1101.349
  0
VERTEX
  8
Unknown Area Type
  70
32
  10
-6.18749999999997
  20
42.29166666666669
  30
952.176
  0
VERTEX
  8
Unknown Area Type
  70
32
  10
-6.18749999999997
  20
42.30114886362254
  30
952.822
  0
VERTEX
  8
Unknown Area Type
  70
32
  10
-6.1724314105529
  20
42.30032110661793
  30
934.098
  0
VERTEX
  8
Unknown Area Type
  70
32
  10
-6.1705437433016
  20
42.25957665745266
  30
968.377
  0
VERTEX
  8
Unknown Area Type
  70
32
  10
-6.18514153884657
  20
42.25878456714022
  30
1088.07
  0
VERTEX
  8
Unknown Area Type
  70
32
  10
-6.18749999999997
  20
42.25912811035165
  30
1095.845
  0
SEQEND
  8
Unknown Area Type
  0
TEXT
  8
Unknown Area Type
 62
7
  1
PNOA-H_AMS_1956-57_33k_ES_PAN_2
 40
0.00045
  10
-6.17902187165079
  20
42.27996671538138
  0
POLYLINE
  8
Unknown Area Type
  70
9
  66
1
  0
VERTEX
  8
Unknown Area Type
  70
32
  10
-6.18749999999997
  20
42.27083333333337
  30
1101.349
  0
VERTEX
  8
Unknown Area Type
  70
32
  10
-6.18749999999997
  20
42.29166666666669
  30
952.176
  0
VERTEX
  8
Unknown Area Type
  70
32
  10
-6.18749999999997
  20
42.30114886362254
  30
952.822
  0
VERTEX
  8
Unknown Area Type
  70
32
  10
-6.1724314105529
  20
42.30032110661793
  30
934.098
  0
VERTEX
  8
Unknown Area Type
  70
32
  10
-6.1705437433016
  20
42.25957665745266
  30
968.377
  0
VERTEX
  8
Unknown Area Type
  70
32
  10
-6.18514153884657
  20
42.25878456714022
  30
1088.07
  0
VERTEX
  8
Unknown Area Type
  70
32
  10
-6.18749999999997
  20
42.25912811035165
  30
1095.845
  0
SEQEND
  8
Unknown Area Type
  0
TEXT
  8
Unknown Area Type
 62
7
  1
PNOA-H_AMS_1956-57_33k_ES_PAN_2
 40
0.00045
  10
-6.17902187165079
  20
42.27996671538138
  0
POLYLINE
  8
Unknown Area Type
  70
9
  66
1
  0
VERTEX
  8
Unknown Area Type
  70
32
  10
-5.86065070919957
  20
42.26976737344747
  30
813.359
  0
VERTEX
  8
Unknown Area Type
  70
32
  10
-5.86063839473687
  20
42.26976317827573
  30
809.95
  0
VERTEX
  8
Unknown Area Type
  70
32
  10
-5.86058186029791
  20
42.26971956374211
  30
793.7
  0
VERTEX
  8
Unknown Area Type
  70
32
  10
-5.8605786039384
  20
42.26964760375957
  30
789.334
  0
VERTEX
  8
Unknown Area Type
  70
32
  10
-5.86064297516625
  20
42.26959646849885
  30
789.414
  0
VERTEX
  8
Unknown Area Type
  70
32
  10
-5.86073986238253
  20
42.26959404985229
  30
789.924
  0
VERTEX
  8
Unknown Area Type
  70
32
  10
-5.86080265580168
  20
42.26964201063569
  30
790.22
  0
VERTEX
  8
Unknown Area Type
  70
32
  10
-5.86080591241539
  20
42.26971397060422
  30
804.154
  0
VERTEX
  8
Unknown Area Type
  70
32
  10
-5.86074759667692
  20
42.26976495478653
  30
819.714
  0
VERTEX
  8
Unknown Area Type
  70
32
  10
-5.86065070919957
  20
42.26976737344747
  30
813.359
  0
SEQEND
  8
Unknown Area Type
  0
TEXT
  8
Unknown Area Type
 62
7
  1
PNOA-H_AMS_1956-57_33k_ES_PAN_2
 40
0.00045
  10
-5.86069261972351
  20
42.26967877868542
  0
POLYLINE
  8
Unknown Area Type
  70
9
  66
1
  0
VERTEX
  8
Unknown Area Type
  70
32
  10
-5.86065070919957
  20
42.26976737344747
  30
813.359
  0
VERTEX
  8
Unknown Area Type
  70
32
  10
-5.86063839473687
  20
42.26976317827573
  30
809.95
  0
VERTEX
  8
Unknown Area Type
  70
32
  10
-5.86058186029791
  20
42.26971956374211
  30
793.7
  0
VERTEX
  8
Unknown Area Type
  70
32
  10
-5.8605786039384
  20
42.26964760375957
  30
789.334
  0
VERTEX
  8
Unknown Area Type
  70
32
  10
-5.86064297516625
  20
42.26959646849885
  30
789.414
  0
VERTEX
  8
Unknown Area Type
  70
32
  10
-5.86073986238253
  20
42.26959404985229
  30
789.924
  0
VERTEX
  8
Unknown Area Type
  70
32
  10
-5.86080265580168
  20
42.26964201063569
  30
790.22
  0
VERTEX
  8
Unknown Area Type
  70
32
  10
-5.86080591241539
  20
42.26971397060422
  30
804.154
  0
VERTEX
  8
Unknown Area Type
  70
32
  10
-5.86074759667692
  20
42.26976495478653
  30
819.714
  0
VERTEX
  8
Unknown Area Type
  70
32
  10
-5.86065070919957
  20
42.26976737344747
  30
813.359
  0
SEQEND
  8
Unknown Area Type
  0
TEXT
  8
Unknown Area Type
 62
7
  1
PNOA-H_AMS_1956-57_33k_ES_PAN_2
 40
0.00045
  10
-5.86069261972351
  20
42.26967877868542
  0
POLYLINE
  8
Unknown Area Type
  70
9
  66
1
  0
VERTEX
  8
Unknown Area Type
  70
32
  10
-5.89119282738745
  20
42.30210367848348
  30
768.473
  0
VERTEX
  8
Unknown Area Type
  70
32
  10
-5.87885942526229
  20
42.3029815413134
  30
769.052
  0
VERTEX
  8
Unknown Area Type
  70
32
  10
-5.87876269346602
  20
42.30298847421356
  30
769.129
  0
VERTEX
  8
Unknown Area Type
  70
32
  10
-5.85997724779078
  20
42.30431438712293
  30
776.956
  0
VERTEX
  8
Unknown Area Type
  70
32
  10
-5.85545043078289
  20
42.30226155517789
  30
776.938
  0
VERTEX
  8
Unknown Area Type
  70
32
  10
-5.85416666666668
  20
42.26302546990976
  30
775.312
  0
VERTEX
  8
Unknown Area Type
  70
32
  10
-5.85416666666668
  20
42.26284876477246
  30
775.289
  0
VERTEX
  8
Unknown Area Type
  70
32
  10
-5.85568418766406
  20
42.26221884384015
  30
770.872
  0
VERTEX
  8
Unknown Area Type
  70
32
  10
-5.88950927547591
  20
42.26238403058208
  30
762.363
  0
SEQEND
  8
Unknown Area Type
  0
TEXT
  8
Unknown Area Type
 62
7
  1
PNOA-H_AMS_1956-57_33k_ES_PAN_2
 40
0.00045
  10
-5.87267721974683
  20
42.28285842981876
  0
POLYLINE
  8
Unknown Area Type
  70
9
  66
1
  0
VERTEX
  8
Unknown Area Type
  70
32
  10
-5.89119282738745
  20
42.30210367848348
  30
768.473
  0
VERTEX
  8
Unknown Area Type
  70
32
  10
-5.87885942526229
  20
42.3029815413134
  30
769.052
  0
VERTEX
  8
Unknown Area Type
  70
32
  10
-5.87876269346602
  20
42.30298847421356
  30
769.129
  0
VERTEX
  8
Unknown Area Type
  70
32
  10
-5.85997724779078
  20
42.30431438712293
  30
776.956
  0
VERTEX
  8
Unknown Area Type
  70
32
  10
-5.85545043078289
  20
42.30226155517789
  30
776.938
  0
VERTEX
  8
Unknown Area Type
  70
32
  10
-5.85416666666668
  20
42.26302546990976
  30
775.312
  0
VERTEX
  8
Unknown Area Type
  70
32
  10
-5.85416666666668
  20
42.26284876477246
  30
775.289
  0
VERTEX
  8
Unknown Area Type
  70
32
  10
-5.85568418766406
  20
42.26221884384015
  30
770.872
  0
VERTEX
  8
Unknown Area Type
  70
32
  10
-5.88950927547591
  20
42.26238403058208
  30
762.363
  0
SEQEND
  8
Unknown Area Type
  0
TEXT
  8
Unknown Area Type
 62
7
  1
PNOA-H_AMS_1956-57_33k_ES_PAN_2
 40
0.00045
  10
-5.87267721974683
  20
42.28285842981876
  0
POLYLINE
  8
Unknown Area Type
  70
9
  66
1
  0
VERTEX
  8
Unknown Area Type
  70
32
  10
-5.85416666666668
  20
42.26302546990976
  30
775.312
  0
VERTEX
  8
Unknown Area Type
  70
32
  10
-5.85416633333334
  20
42.26301528213855
  30
775.312
  0
VERTEX
  8
Unknown Area Type
  70
32
  10
-5.85416633333334
  20
42.26284890313867
  30
775.29
  0
VERTEX
  8
Unknown Area Type
  70
32
  10
-5.85416666666668
  20
42.26284876477246
  30
775.289
  0
SEQEND
  8
Unknown Area Type
  0
TEXT
  8
Unknown Area Type
 62
7
  1
PNOA-H_AMS_1956-57_33k_ES_PAN_2
 40
0.00045
  10
-5.85416650000001
  20
42.26293711734111
  0
POLYLINE
  8
Unknown Area Type
  70
9
  66
1
  0
VERTEX
  8
Unknown Area Type
  70
32
  10
-5.86075909700355
  20
42.26975115995373
  30
821.623
  0
VERTEX
  8
Unknown Area Type
  70
32
  10
-5.86072780200805
  20
42.26972942830548
  30
812.32
  0
VERTEX
  8
Unknown Area Type
  70
32
  10
-5.86078230117917
  20
42.26972806778311
  30
812.275
  0
VERTEX
  8
Unknown Area Type
  70
32
  10
-5.86076474539701
  20
42.26974201378788
  30
819.763
  0
VERTEX
  8
Unknown Area Type
  70
32
  10
-5.86075909700355
  20
42.26975115995373
  30
821.623
  0
SEQEND
  8
Unknown Area Type
  0
TEXT
  8
Unknown Area Type
 62
7
  1
PNOA-H_AMS_1956-57_33k_ES_PAN_2
 40
0.00045
  10
-5.86075548427697
  20
42.26973768577751
  0
POLYLINE
  8
Unknown Area Type
  70
9
  66
1
  0
VERTEX
  8
Unknown Area Type
  70
32
  10
-5.86075909700355
  20
42.26975115995373
  30
821.623
  0
VERTEX
  8
Unknown Area Type
  70
32
  10
-5.86072780200805
  20
42.26972942830548
  30
812.32
  0
VERTEX
  8
Unknown Area Type
  70
32
  10
-5.86078230117917
  20
42.26972806778311
  30
812.275
  0
VERTEX
  8
Unknown Area Type
  70
32
  10
-5.86076474539701
  20
42.26974201378788
  30
819.763
  0
VERTEX
  8
Unknown Area Type
  70
32
  10
-5.86075909700355
  20
42.26975115995373
  30
821.623
  0
SEQEND
  8
Unknown Area Type
  0
TEXT
  8
Unknown Area Type
 62
7
  1
PNOA-H_AMS_1956-57_33k_ES_PAN_2
 40
0.00045
  10
-5.86075548427697
  20
42.26973768577751
  0
POLYLINE
  8
Unknown Area Type
  70
9
  66
1
  0
VERTEX
  8
Unknown Area Type
  70
32
  10
-5.90361757818868
  20
42.30335187562292
  30
772.773
  0
VERTEX
  8
Unknown Area Type
  70
32
  10
-5.89505347712085
  20
42.30375768915802
  30
771.781
  0
VERTEX
  8
Unknown Area Type
  70
32
  10
-5.89119303331969
  20
42.30210817583594
  30
768.473
  0
VERTEX
  8
Unknown Area Type
  70
32
  10
-5.88950927547591
  20
42.26238403058208
  30
762.363
  0
VERTEX
  8
Unknown Area Type
  70
32
  10
-5.88990691746844
  20
42.26219840307935
  30
762.522
  0
VERTEX
  8
Unknown Area Type
  70
32
  10
-5.92243421143456
  20
42.2613014557062
  30
788.052
  0
VERTEX
  8
Unknown Area Type
  70
32
  10
-5.92529062399541
  20
42.26238122937986
  30
784.376
  0
VERTEX
  8
Unknown Area Type
  70
32
  10
-5.92648775574179
  20
42.30224322865081
  30
791.882
  0
VERTEX
  8
Unknown Area Type
  70
32
  10
-5.92648211440498
  20
42.30225237780858
  30
792.139
  0
VERTEX
  8
Unknown Area Type
  70
32
  10
-5.92636115829119
  20
42.30225996965696
  30
791.209
  0
VERTEX
  8
Unknown Area Type
  70
32
  10
-5.9038173003642
  20
42.30334231164696
  30
772.789
  0
VERTEX
  8
Unknown Area Type
  70
32
  10
-5.90361757818868
  20
42.30335187562292
  30
772.773
  0
SEQEND
  8
Unknown Area Type
  0
TEXT
  8
Unknown Area Type
 62
7
  1
PNOA-H_AMS_1956-57_33k_ES_PAN_2
 40
0.00045
  10
-5.90799894352903
  20
42.28241898926868
  0
POLYLINE
  8
Unknown Area Type
  70
9
  66
1
  0
VERTEX
  8
Unknown Area Type
  70
32
  10
-5.90361757818868
  20
42.30335187562292
  30
772.773
  0
VERTEX
  8
Unknown Area Type
  70
32
  10
-5.89505347712085
  20
42.30375768915802
  30
771.781
  0
VERTEX
  8
Unknown Area Type
  70
32
  10
-5.89119303331969
  20
42.30210817583594
  30
768.473
  0
VERTEX
  8
Unknown Area Type
  70
32
  10
-5.88950927547591
  20
42.26238403058208
  30
762.363
  0
VERTEX
  8
Unknown Area Type
  70
32
  10
-5.88990691746844
  20
42.26219840307935
  30
762.522
  0
VERTEX
  8
Unknown Area Type
  70
32
  10
-5.92243421143456
  20
42.2613014557062
  30
788.052
  0
VERTEX
  8
Unknown Area Type
  70
32
  10
-5.92529062399541
  20
42.26238122937986
  30
784.376
  0
VERTEX
  8
Unknown Area Type
  70
32
  10
-5.92648775574179
  20
42.30224322865081
  30
791.882
  0
VERTEX
  8
Unknown Area Type
  70
32
  10
-5.92648211440498
  20
42.30225237780858
  30
792.139
  0
VERTEX
  8
Unknown Area Type
  70
32
  10
-5.92636115829119
  20
42.30225996965696
  30
791.209
  0
VERTEX
  8
Unknown Area Type
  70
32
  10
-5.9038173003642
  20
42.30334231164696
  30
772.789
  0
VERTEX
  8
Unknown Area Type
  70
32
  10
-5.90361757818868
  20
42.30335187562292
  30
772.773
  0
SEQEND
  8
Unknown Area Type
  0
TEXT
  8
Unknown Area Type
 62
7
  1
PNOA-H_AMS_1956-57_33k_ES_PAN_2
 40
0.00045
  10
-5.90799894352903
  20
42.28241898926868
  0
POLYLINE
  8
Unknown Area Type
  70
9
  66
1
  0
VERTEX
  8
Unknown Area Type
  70
32
  10
-5.9781444753523
  20
42.30232597361595
  30
811.859
  0
VERTEX
  8
Unknown Area Type
  70
32
  10
-5.96338532457714
  20
42.30279870673657
  30
806.631
  0
VERTEX
  8
Unknown Area Type
  70
32
  10
-5.96154014702797
  20
42.30199543892455
  30
805.823
  0
VERTEX
  8
Unknown Area Type
  70
32
  10
-5.96045422663571
  20
42.26239219949553
  30
786.46
  0
VERTEX
  8
Unknown Area Type
  70
32
  10
-5.98487506112849
  20
42.25903014288662
  30
799.122
  0
VERTEX
  8
Unknown Area Type
  70
32
  10
-5.98494186486552
  20
42.25903290528446
  30
799.117
  0
VERTEX
  8
Unknown Area Type
  70
32
  10
-5.98540226687122
  20
42.2591559875462
  30
798.795
  0
VERTEX
  8
Unknown Area Type
  70
32
  10
-5.99610329836953
  20
42.26203296976347
  30
793.169
  0
VERTEX
  8
Unknown Area Type
  70
32
  10
-5.99632467902547
  20
42.30173490546731
  30
815.785
  0
VERTEX
  8
Unknown Area Type
  70
32
  10
-5.97886515909978
  20
42.30230273608858
  30
812.262
  0
VERTEX
  8
Unknown Area Type
  70
32
  10
-5.9781444753523
  20
42.30232597361595
  30
811.859
  0
SEQEND
  8
Unknown Area Type
  0
TEXT
  8
Unknown Area Type
 62
7
  1
PNOA-H_AMS_1956-57_33k_ES_PAN_2
 40
0.00045
  10
-5.97838994417852
  20
42.28111874800878
  0
POLYLINE
  8
Unknown Area Type
  70
9
  66
1
  0
VERTEX
  8
Unknown Area Type
  70
32
  10
-5.9781444753523
  20
42.30232597361595
  30
811.859
  0
VERTEX
  8
Unknown Area Type
  70
32
  10
-5.96338532457714
  20
42.30279870673657
  30
806.631
  0
VERTEX
  8
Unknown Area Type
  70
32
  10
-5.96154014702797
  20
42.30199543892455
  30
805.823
  0
VERTEX
  8
Unknown Area Type
  70
32
  10
-5.96045422663571
  20
42.26239219949553
  30
786.46
  0
VERTEX
  8
Unknown Area Type
  70
32
  10
-5.98487506112849
  20
42.25903014288662
  30
799.122
  0
VERTEX
  8
Unknown Area Type
  70
32
  10
-5.98494186486552
  20
42.25903290528446
  30
799.117
  0
VERTEX
  8
Unknown Area Type
  70
32
  10
-5.98540226687122
  20
42.2591559875462
  30
798.795
  0
VERTEX
  8
Unknown Area Type
  70
32
  10
-5.99610329836953
  20
42.26203296976347
  30
793.169
  0
VERTEX
  8
Unknown Area Type
  70
32
  10
-5.99632467902547
  20
42.30173490546731
  30
815.785
  0
VERTEX
  8
Unknown Area Type
  70
32
  10
-5.97886515909978
  20
42.30230273608858
  30
812.262
  0
VERTEX
  8
Unknown Area Type
  70
32
  10
-5.9781444753523
  20
42.30232597361595
  30
811.859
  0
SEQEND
  8
Unknown Area Type
  0
TEXT
  8
Unknown Area Type
 62
7
  1
PNOA-H_AMS_1956-57_33k_ES_PAN_2
 40
0.00045
  10
-5.97838994417852
  20
42.28111874800878
  0
POLYLINE
  8
Unknown Area Type
  70
9
  66
1
  0
VERTEX
  8
Unknown Area Type
  70
32
  10
-6.06631685795536
  20
42.30183263587567
  30
858.26
  0
VERTEX
  8
Unknown Area Type
  70
32
  10
-6.0319195387817
  20
42.30206369421025
  30
838.553
  0
VERTEX
  8
Unknown Area Type
  70
32
  10
-6.03188297707145
  20
42.30206015925008
  30
838.607
  0
VERTEX
  8
Unknown Area Type
  70
32
  10
-6.03124414423146
  20
42.30176639068261
  30
837.683
  0
VERTEX
  8
Unknown Area Type
  70
32
  10
-6.03212730125846
  20
42.26166621527743
  30
811.425
  0
VERTEX
  8
Unknown Area Type
  70
32
  10
-6.04545731466416
  20
42.25853915713112
  30
815.715
  0
VERTEX
  8
Unknown Area Type
  70
32
  10
-6.06764249443123
  20
42.26206716199689
  30
869.082
  0
VERTEX
  8
Unknown Area Type
  70
32
  10
-6.06661704934081
  20
42.30164450192282
  30
858.492
  0
VERTEX
  8
Unknown Area Type
  70
32
  10
-6.06661317606941
  20
42.30168963040725
  30
858.502
  0
VERTEX
  8
Unknown Area Type
  70
32
  10
-6.06632875438483
  20
42.30182781499806
  30
858.257
  0
VERTEX
  8
Unknown Area Type
  70
32
  10
-6.06631685795536
  20
42.30183263587567
  30
858.26
  0
SEQEND
  8
Unknown Area Type
  0
TEXT
  8
Unknown Area Type
 62
7
  1
PNOA-H_AMS_1956-57_33k_ES_PAN_2
 40
0.00045
  10
-6.04944368563483
  20
42.28055787882697
  0
POLYLINE
  8
Unknown Area Type
  70
9
  66
1
  0
VERTEX
  8
Unknown Area Type
  70
32
  10
-6.06631685795536
  20
42.30183263587567
  30
858.26
  0
VERTEX
  8
Unknown Area Type
  70
32
  10
-6.0319195387817
  20
42.30206369421025
  30
838.553
  0
VERTEX
  8
Unknown Area Type
  70
32
  10
-6.03188297707145
  20
42.30206015925008
  30
838.607
  0
VERTEX
  8
Unknown Area Type
  70
32
  10
-6.03124414423146
  20
42.30176639068261
  30
837.683
  0
VERTEX
  8
Unknown Area Type
  70
32
  10
-6.03212730125846
  20
42.26166621527743
  30
811.425
  0
VERTEX
  8
Unknown Area Type
  70
32
  10
-6.04545731466416
  20
42.25853915713112
  30
815.715
  0
VERTEX
  8
Unknown Area Type
  70
32
  10
-6.06764249443123
  20
42.26206716199689
  30
869.082
  0
VERTEX
  8
Unknown Area Type
  70
32
  10
-6.06661704934081
  20
42.30164450192282
  30
858.492
  0
VERTEX
  8
Unknown Area Type
  70
32
  10
-6.06661317606941
  20
42.30168963040725
  30
858.502
  0
VERTEX
  8
Unknown Area Type
  70
32
  10
-6.06632875438483
  20
42.30182781499806
  30
858.257
  0
VERTEX
  8
Unknown Area Type
  70
32
  10
-6.06631685795536
  20
42.30183263587567
  30
858.26
  0
SEQEND
  8
Unknown Area Type
  0
TEXT
  8
Unknown Area Type
 62
7
  1
PNOA-H_AMS_1956-57_33k_ES_PAN_2
 40
0.00045
  10
-6.04944368563483
  20
42.28055787882697
  0
POLYLINE
  8
Unknown Area Type
  70
9
  66
1
  0
VERTEX
  8
Unknown Area Type
  70
32
  10
-5.89441913468646
  20
42.33333333333331
  30
778.467
  0
VERTEX
  8
Unknown Area Type
  70
32
  10
-5.85890512381412
  20
42.33333333333331
  30
786.812
  0
VERTEX
  8
Unknown Area Type
  70
32
  10
-5.85998330657159
  20
42.30431423589527
  30
776.96
  0
VERTEX
  8
Unknown Area Type
  70
32
  10
-5.89116253537314
  20
42.30210444283092
  30
768.503
  0
VERTEX
  8
Unknown Area Type
  70
32
  10
-5.89119282738745
  20
42.30210367848348
  30
768.473
  0
VERTEX
  8
Unknown Area Type
  70
32
  10
-5.89131646672616
  20
42.30215458923723
  30
768.69
  0
VERTEX
  8
Unknown Area Type
  70
32
  10
-5.89506559420206
  20
42.30375738299927
  30
771.749
  0
SEQEND
  8
Unknown Area Type
  0
TEXT
  8
Unknown Area Type
 62
7
  1
PNOA-H_AMS_1956-57_33k_ES_PAN_2
 40
0.00045
  10
-5.87685074688335
  20
42.32242910361258
  0
POLYLINE
  8
Unknown Area Type
  70
9
  66
1
  0
VERTEX
  8
Unknown Area Type
  70
32
  10
-5.89441913104353
  20
42.33333349999998
  30
778.467
  0
VERTEX
  8
Unknown Area Type
  70
32
  10
-5.85890511762175
  20
42.33333349999998
  30
786.812
  0
VERTEX
  8
Unknown Area Type
  70
32
  10
-5.85890512381412
  20
42.33333333333331
  30
786.812
  0
VERTEX
  8
Unknown Area Type
  70
32
  10
-5.89441913468646
  20
42.33333333333331
  30
778.467
  0
SEQEND
  8
Unknown Area Type
  0
TEXT
  8
Unknown Area Type
 62
7
  1
PNOA-H_AMS_1956-57_33k_ES_PAN_2
 40
0.00045
  10
-5.87666212615411
  20
42.33333341666665
  0
POLYLINE
  8
Unknown Area Type
  70
9
  66
1
  0
VERTEX
  8
Unknown Area Type
  70
32
  10
-5.89441913468646
  20
42.33333333333331
  30
778.467
  0
VERTEX
  8
Unknown Area Type
  70
32
  10
-5.85890512381412
  20
42.33333333333331
  30
786.812
  0
VERTEX
  8
Unknown Area Type
  70
32
  10
-5.85998330657159
  20
42.30431423589527
  30
776.96
  0
VERTEX
  8
Unknown Area Type
  70
32
  10
-5.89116253537314
  20
42.30210444283092
  30
768.503
  0
VERTEX
  8
Unknown Area Type
  70
32
  10
-5.89119282738745
  20
42.30210367848348
  30
768.473
  0
VERTEX
  8
Unknown Area Type
  70
32
  10
-5.89131646672616
  20
42.30215458923723
  30
768.69
  0
VERTEX
  8
Unknown Area Type
  70
32
  10
-5.89506559420206
  20
42.30375738299927
  30
771.749
  0
SEQEND
  8
Unknown Area Type
  0
TEXT
  8
Unknown Area Type
 62
7
  1
PNOA-H_AMS_1956-57_33k_ES_PAN_2
 40
0.00045
  10
-5.87685074688335
  20
42.32242910361258
  0
POLYLINE
  8
Unknown Area Type
  70
9
  66
1
  0
VERTEX
  8
Unknown Area Type
  70
32
  10
-6.15196840158935
  20
42.30166936203905
  30
919.663
  0
VERTEX
  8
Unknown Area Type
  70
32
  10
-6.13666783561928
  20
42.30097719828369
  30
911.317
  0
VERTEX
  8
Unknown Area Type
  70
32
  10
-6.13638660929597
  20
42.26099400942593
  30
880.309
  0
VERTEX
  8
Unknown Area Type
  70
32
  10
-6.13639177015824
  20
42.26097585825485
  30
880.418
  0
VERTEX
  8
Unknown Area Type
  70
32
  10
-6.14048189209902
  20
42.25948606804671
  30
905.765
  0
VERTEX
  8
Unknown Area Type
  70
32
  10
-6.17014264836343
  20
42.25943467206036
  30
966.822
  0
VERTEX
  8
Unknown Area Type
  70
32
  10
-6.1705437433016
  20
42.25957665745266
  30
968.377
  0
VERTEX
  8
Unknown Area Type
  70
32
  10
-6.1724316364835
  20
42.30032560280036
  30
934.087
  0
VERTEX
  8
Unknown Area Type
  70
32
  10
-6.16785267067175
  20
42.30238385843307
  30
931.162
  0
VERTEX
  8
Unknown Area Type
  70
32
  10
-6.1520229137131
  20
42.30166786222985
  30
919.811
  0
VERTEX
  8
Unknown Area Type
  70
32
  10
-6.15196840158935
  20
42.30166936203905
  30
919.663
  0
SEQEND
  8
Unknown Area Type
  0
TEXT
  8
Unknown Area Type
 62
7
  1
PNOA-H_AMS_1956-57_33k_ES_PAN_2
 40
0.00045
  10
-6.15440964245481
  20
42.280617563437
  0
POLYLINE
  8
Unknown Area Type
  70
9
  66
1
  0
VERTEX
  8
Unknown Area Type
  70
32
  10
-6.15196840158935
  20
42.30166936203905
  30
919.663
  0
VERTEX
  8
Unknown Area Type
  70
32
  10
-6.13666783561928
  20
42.30097719828369
  30
911.317
  0
VERTEX
  8
Unknown Area Type
  70
32
  10
-6.13638660929597
  20
42.26099400942593
  30
880.309
  0
VERTEX
  8
Unknown Area Type
  70
32
  10
-6.13639177015824
  20
42.26097585825485
  30
880.418
  0
VERTEX
  8
Unknown Area Type
  70
32
  10
-6.14048189209902
  20
42.25948606804671
  30
905.765
  0
VERTEX
  8
Unknown Area Type
  70
32
  10
-6.17014264836343
  20
42.25943467206036
  30
966.822
  0
VERTEX
  8
Unknown Area Type
  70
32
  10
-6.1705437433016
  20
42.25957665745266
  30
968.377
  0
VERTEX
  8
Unknown Area Type
  70
32
  10
-6.1724316364835
  20
42.30032560280036
  30
934.087
  0
VERTEX
  8
Unknown Area Type
  70
32
  10
-6.16785267067175
  20
42.30238385843307
  30
931.162
  0
VERTEX
  8
Unknown Area Type
  70
32
  10
-6.1520229137131
  20
42.30166786222985
  30
919.811
  0
VERTEX
  8
Unknown Area Type
  70
32
  10
-6.15196840158935
  20
42.30166936203905
  30
919.663
  0
SEQEND
  8
Unknown Area Type
  0
TEXT
  8
Unknown Area Type
 62
7
  1
PNOA-H_AMS_1956-57_33k_ES_PAN_2
 40
0.00045
  10
-6.15440964245481
  20
42.280617563437
  0
POLYLINE
  8
Unknown Area Type
  70
9
  66
1
  0
VERTEX
  8
Unknown Area Type
  70
32
  10
-5.92844366136202
  20
42.30308925977715
  30
793.471
  0
VERTEX
  8
Unknown Area Type
  70
32
  10
-5.92648211440498
  20
42.30225237780858
  30
792.139
  0
VERTEX
  8
Unknown Area Type
  70
32
  10
-5.92529083206474
  20
42.2623857266273
  30
784.367
  0
VERTEX
  8
Unknown Area Type
  70
32
  10
-5.95361976257911
  20
42.26024975145671
  30
789.994
  0
VERTEX
  8
Unknown Area Type
  70
32
  10
-5.96045422663571
  20
42.26239219949553
  30
786.46
  0
VERTEX
  8
Unknown Area Type
  70
32
  10
-5.96154014702797
  20
42.30199543892455
  30
805.823
  0
VERTEX
  8
Unknown Area Type
  70
32
  10
-5.92878333466312
  20
42.30322015627475
  30
791.617
  0
VERTEX
  8
Unknown Area Type
  70
32
  10
-5.92872860128355
  20
42.30321705279528
  30
791.807
  0
VERTEX
  8
Unknown Area Type
  70
32
  10
-5.9284501368404
  20
42.30309809934136
  30
793.524
  0
VERTEX
  8
Unknown Area Type
  70
32
  10
-5.92844366136202
  20
42.30308925977715
  30
793.471
  0
SEQEND
  8
Unknown Area Type
  0
TEXT
  8
Unknown Area Type
 62
7
  1
PNOA-H_AMS_1956-57_33k_ES_PAN_2
 40
0.00045
  10
-5.94341601620063
  20
42.28184492333068
  0
POLYLINE
  8
Unknown Area Type
  70
9
  66
1
  0
VERTEX
  8
Unknown Area Type
  70
32
  10
-5.92844366136202
  20
42.30308925977715
  30
793.471
  0
VERTEX
  8
Unknown Area Type
  70
32
  10
-5.92648211440498
  20
42.30225237780858
  30
792.139
  0
VERTEX
  8
Unknown Area Type
  70
32
  10
-5.92529083206474
  20
42.2623857266273
  30
784.367
  0
VERTEX
  8
Unknown Area Type
  70
32
  10
-5.95361976257911
  20
42.26024975145671
  30
789.994
  0
VERTEX
  8
Unknown Area Type
  70
32
  10
-5.96045422663571
  20
42.26239219949553
  30
786.46
  0
VERTEX
  8
Unknown Area Type
  70
32
  10
-5.96154014702797
  20
42.30199543892455
  30
805.823
  0
VERTEX
  8
Unknown Area Type
  70
32
  10
-5.92878333466312
  20
42.30322015627475
  30
791.617
  0
VERTEX
  8
Unknown Area Type
  70
32
  10
-5.92872860128355
  20
42.30321705279528
  30
791.807
  0
VERTEX
  8
Unknown Area Type
  70
32
  10
-5.9284501368404
  20
42.30309809934136
  30
793.524
  0
VERTEX
  8
Unknown Area Type
  70
32
  10
-5.92844366136202
  20
42.30308925977715
  30
793.471
  0
SEQEND
  8
Unknown Area Type
  0
TEXT
  8
Unknown Area Type
 62
7
  1
PNOA-H_AMS_1956-57_33k_ES_PAN_2
 40
0.00045
  10
-5.94341601620063
  20
42.28184492333068
  0
POLYLINE
  8
Unknown Area Type
  70
9
  66
1
  0
VERTEX
  8
Unknown Area Type
  70
32
  10
-6.13409582078749
  20
42.30219121232823
  30
908.943
  0
VERTEX
  8
Unknown Area Type
  70
32
  10
-6.10162785571345
  20
42.30168806353368
  30
881.697
  0
VERTEX
  8
Unknown Area Type
  70
32
  10
-6.10198543516994
  20
42.26154779561707
  30
888.14
  0
VERTEX
  8
Unknown Area Type
  70
32
  10
-6.10930198797333
  20
42.25921530592006
  30
890.288
  0
VERTEX
  8
Unknown Area Type
  70
32
  10
-6.10934435956916
  20
42.25921415610765
  30
890.368
  0
VERTEX
  8
Unknown Area Type
  70
32
  10
-6.13639199321734
  20
42.26098035462438
  30
880.394
  0
VERTEX
  8
Unknown Area Type
  70
32
  10
-6.13666783561928
  20
42.30097719828369
  30
911.317
  0
VERTEX
  8
Unknown Area Type
  70
32
  10
-6.13410771168247
  20
42.30218638457722
  30
908.988
  0
VERTEX
  8
Unknown Area Type
  70
32
  10
-6.13409582078749
  20
42.30219121232823
  30
908.943
  0
SEQEND
  8
Unknown Area Type
  0
TEXT
  8
Unknown Area Type
 62
7
  1
PNOA-H_AMS_1956-57_33k_ES_PAN_2
 40
0.00045
  10
-6.1191484263523
  20
42.28090569663946
  0
POLYLINE
  8
Unknown Area Type
  70
9
  66
1
  0
VERTEX
  8
Unknown Area Type
  70
32
  10
-6.13409582078749
  20
42.30219121232823
  30
908.943
  0
VERTEX
  8
Unknown Area Type
  70
32
  10
-6.10162785571345
  20
42.30168806353368
  30
881.697
  0
VERTEX
  8
Unknown Area Type
  70
32
  10
-6.10198543516994
  20
42.26154779561707
  30
888.14
  0
VERTEX
  8
Unknown Area Type
  70
32
  10
-6.10930198797333
  20
42.25921530592006
  30
890.288
  0
VERTEX
  8
Unknown Area Type
  70
32
  10
-6.10934435956916
  20
42.25921415610765
  30
890.368
  0
VERTEX
  8
Unknown Area Type
  70
32
  10
-6.13639199321734
  20
42.26098035462438
  30
880.394
  0
VERTEX
  8
Unknown Area Type
  70
32
  10
-6.13666783561928
  20
42.30097719828369
  30
911.317
  0
VERTEX
  8
Unknown Area Type
  70
32
  10
-6.13410771168247
  20
42.30218638457722
  30
908.988
  0
VERTEX
  8
Unknown Area Type
  70
32
  10
-6.13409582078749
  20
42.30219121232823
  30
908.943
  0
SEQEND
  8
Unknown Area Type
  0
TEXT
  8
Unknown Area Type
 62
7
  1
PNOA-H_AMS_1956-57_33k_ES_PAN_2
 40
0.00045
  10
-6.1191484263523
  20
42.28090569663946
  0
POLYLINE
  8
Unknown Area Type
  70
9
  66
1
  0
VERTEX
  8
Unknown Area Type
  70
32
  10
-6.10173035062409
  20
42.29031655163708
  30
884.752
  0
VERTEX
  8
Unknown Area Type
  70
32
  10
-6.10162785571345
  20
42.30168806353368
  30
881.697
  0
VERTEX
  8
Unknown Area Type
  70
32
  10
-6.10053718015689
  20
42.30220385242881
  30
881.19
  0
VERTEX
  8
Unknown Area Type
  70
32
  10
-6.06661317606941
  20
42.30168963040725
  30
858.502
  0
VERTEX
  8
Unknown Area Type
  70
32
  10
-6.06764249443123
  20
42.26206716199689
  30
869.082
  0
VERTEX
  8
Unknown Area Type
  70
32
  10
-6.07773590588594
  20
42.25922556683241
  30
874.141
  0
VERTEX
  8
Unknown Area Type
  70
32
  10
-6.07787943317084
  20
42.25918569157019
  30
874.219
  0
VERTEX
  8
Unknown Area Type
  70
32
  10
-6.07791575274337
  20
42.25918471596854
  30
874.241
  0
VERTEX
  8
Unknown Area Type
  70
32
  10
-6.10198543516994
  20
42.26154779561707
  30
888.14
  0
VERTEX
  8
Unknown Area Type
  70
32
  10
-6.10172527170688
  20
42.29021313225085
  30
884.626
  0
VERTEX
  8
Unknown Area Type
  70
32
  10
-6.10173035062409
  20
42.29031655163708
  30
884.752
  0
SEQEND
  8
Unknown Area Type
  0
TEXT
  8
Unknown Area Type
 62
7
  1
PNOA-H_AMS_1956-57_33k_ES_PAN_2
 40
0.00045
  10
-6.08429978404173
  20
42.28088308407382
  0
POLYLINE
  8
Unknown Area Type
  70
9
  66
1
  0
VERTEX
  8
Unknown Area Type
  70
32
  10
-6.10173035062409
  20
42.29031655163708
  30
884.752
  0
VERTEX
  8
Unknown Area Type
  70
32
  10
-6.10162785571345
  20
42.30168806353368
  30
881.697
  0
VERTEX
  8
Unknown Area Type
  70
32
  10
-6.10053718015689
  20
42.30220385242881
  30
881.19
  0
VERTEX
  8
Unknown Area Type
  70
32
  10
-6.06661317606941
  20
42.30168963040725
  30
858.502
  0
VERTEX
  8
Unknown Area Type
  70
32
  10
-6.06764249443123
  20
42.26206716199689
  30
869.082
  0
VERTEX
  8
Unknown Area Type
  70
32
  10
-6.07773590588594
  20
42.25922556683241
  30
874.141
  0
VERTEX
  8
Unknown Area Type
  70
32
  10
-6.07787943317084
  20
42.25918569157019
  30
874.219
  0
VERTEX
  8
Unknown Area Type
  70
32
  10
-6.07791575274337
  20
42.25918471596854
  30
874.241
  0
VERTEX
  8
Unknown Area Type
  70
32
  10
-6.10198543516994
  20
42.26154779561707
  30
888.14
  0
VERTEX
  8
Unknown Area Type
  70
32
  10
-6.10172527170688
  20
42.29021313225085
  30
884.626
  0
VERTEX
  8
Unknown Area Type
  70
32
  10
-6.10173035062409
  20
42.29031655163708
  30
884.752
  0
SEQEND
  8
Unknown Area Type
  0
TEXT
  8
Unknown Area Type
 62
7
  1
PNOA-H_AMS_1956-57_33k_ES_PAN_2
 40
0.00045
  10
-6.08429978404173
  20
42.28088308407382
  0
POLYLINE
  8
Unknown Area Type
  70
9
  66
1
  0
VERTEX
  8
Unknown Area Type
  70
32
  10
-5.9291621609986
  20
42.33333333333331
  30
783.828
  0
VERTEX
  8
Unknown Area Type
  70
32
  10
-5.89583333333331
  20
42.33333333333331
  30
777.777
  0
VERTEX
  8
Unknown Area Type
  70
32
  10
-5.89441570483777
  20
42.33333333333331
  30
777.787
  0
VERTEX
  8
Unknown Area Type
  70
32
  10
-5.89473717326304
  20
42.31881767845903
  30
773.217
  0
VERTEX
  8
Unknown Area Type
  70
32
  10
-5.89473325347427
  20
42.31873222927894
  30
773.279
  0
VERTEX
  8
Unknown Area Type
  70
32
  10
-5.89506559420206
  20
42.30375738299927
  30
771.749
  0
VERTEX
  8
Unknown Area Type
  70
32
  10
-5.92648817263197
  20
42.30225222307339
  30
792.157
  0
VERTEX
  8
Unknown Area Type
  70
32
  10
-5.92874071789812
  20
42.30321674308155
  30
791.764
  0
SEQEND
  8
Unknown Area Type
  0
TEXT
  8
Unknown Area Type
 62
7
  1
PNOA-H_AMS_1956-57_33k_ES_PAN_2
 40
0.00045
  10
-5.91173912950477
  20
42.32274729837633
  0
POLYLINE
  8
Unknown Area Type
  70
9
  66
1
  0
VERTEX
  8
Unknown Area Type
  70
32
  10
-5.92916216333089
  20
42.33333349999998
  30
783.828
  0
VERTEX
  8
Unknown Area Type
  70
32
  10
-5.89441570114672
  20
42.33333349999998
  30
777.787
  0
VERTEX
  8
Unknown Area Type
  70
32
  10
-5.89441570483777
  20
42.33333333333331
  30
777.787
  0
VERTEX
  8
Unknown Area Type
  70
32
  10
-5.89583333333331
  20
42.33333333333331
  30
777.777
  0
VERTEX
  8
Unknown Area Type
  70
32
  10
-5.9291621609986
  20
42.33333333333331
  30
783.828
  0
SEQEND
  8
Unknown Area Type
  0
TEXT
  8
Unknown Area Type
 62
7
  1
PNOA-H_AMS_1956-57_33k_ES_PAN_2
 40
0.00045
  10
-5.9117889322388
  20
42.33333341666665
  0
POLYLINE
  8
Unknown Area Type
  70
9
  66
1
  0
VERTEX
  8
Unknown Area Type
  70
32
  10
-5.9291621609986
  20
42.33333333333331
  30
783.828
  0
VERTEX
  8
Unknown Area Type
  70
32
  10
-5.89583333333331
  20
42.33333333333331
  30
777.777
  0
VERTEX
  8
Unknown Area Type
  70
32
  10
-5.89441570483777
  20
42.33333333333331
  30
777.787
  0
VERTEX
  8
Unknown Area Type
  70
32
  10
-5.89473717326304
  20
42.31881767845903
  30
773.217
  0
VERTEX
  8
Unknown Area Type
  70
32
  10
-5.89473325347427
  20
42.31873222927894
  30
773.279
  0
VERTEX
  8
Unknown Area Type
  70
32
  10
-5.89506559420206
  20
42.30375738299927
  30
771.749
  0
VERTEX
  8
Unknown Area Type
  70
32
  10
-5.92648817263197
  20
42.30225222307339
  30
792.157
  0
VERTEX
  8
Unknown Area Type
  70
32
  10
-5.92874071789812
  20
42.30321674308155
  30
791.764
  0
SEQEND
  8
Unknown Area Type
  0
TEXT
  8
Unknown Area Type
 62
7
  1
PNOA-H_AMS_1956-57_33k_ES_PAN_2
 40
0.00045
  10
-5.91173912950477
  20
42.32274729837633
  0
POLYLINE
  8
Unknown Area Type
  70
9
  66
1
  0
VERTEX
  8
Unknown Area Type
  70
32
  10
-5.99844165383753
  20
42.33333333333331
  30
839.751
  0
VERTEX
  8
Unknown Area Type
  70
32
  10
-5.97916666666665
  20
42.33333333333331
  30
812.335
  0
VERTEX
  8
Unknown Area Type
  70
32
  10
-5.96364584748808
  20
42.33333333333331
  30
804.459
  0
VERTEX
  8
Unknown Area Type
  70
32
  10
-5.96339138265537
  20
42.30279855005025
  30
806.633
  0
VERTEX
  8
Unknown Area Type
  70
32
  10
-5.99615506075681
  20
42.30173934118663
  30
815.632
  0
VERTEX
  8
Unknown Area Type
  70
32
  10
-5.99632467902547
  20
42.30173490546731
  30
815.785
  0
VERTEX
  8
Unknown Area Type
  70
32
  10
-5.99634933702926
  20
42.30174326562759
  30
815.812
  0
VERTEX
  8
Unknown Area Type
  70
32
  10
-5.99844991090652
  20
42.30267886349422
  30
817.407
  0
SEQEND
  8
Unknown Area Type
  0
TEXT
  8
Unknown Area Type
 62
7
  1
PNOA-H_AMS_1956-57_33k_ES_PAN_2
 40
0.00045
  10
-5.98092114383183
  20
42.32068874708148
  0
POLYLINE
  8
Unknown Area Type
  70
9
  66
1
  0
VERTEX
  8
Unknown Area Type
  70
32
  10
-5.99844165379264
  20
42.33333349999998
  30
839.751
  0
VERTEX
  8
Unknown Area Type
  70
32
  10
-5.96364584887702
  20
42.33333349999998
  30
804.459
  0
VERTEX
  8
Unknown Area Type
  70
32
  10
-5.96364584748808
  20
42.33333333333331
  30
804.459
  0
VERTEX
  8
Unknown Area Type
  70
32
  10
-5.97916666666665
  20
42.33333333333331
  30
812.335
  0
VERTEX
  8
Unknown Area Type
  70
32
  10
-5.99844165383753
  20
42.33333333333331
  30
839.751
  0
SEQEND
  8
Unknown Area Type
  0
TEXT
  8
Unknown Area Type
 62
7
  1
PNOA-H_AMS_1956-57_33k_ES_PAN_2
 40
0.00045
  10
-5.98104375066281
  20
42.33333341666665
  0
POLYLINE
  8
Unknown Area Type
  70
9
  66
1
  0
VERTEX
  8
Unknown Area Type
  70
32
  10
-5.99844165383753
  20
42.33333333333331
  30
839.751
  0
VERTEX
  8
Unknown Area Type
  70
32
  10
-5.97916666666665
  20
42.33333333333331
  30
812.335
  0
VERTEX
  8
Unknown Area Type
  70
32
  10
-5.96364584748808
  20
42.33333333333331
  30
804.459
  0
VERTEX
  8
Unknown Area Type
  70
32
  10
-5.96339138265537
  20
42.30279855005025
  30
806.633
  0
VERTEX
  8
Unknown Area Type
  70
32
  10
-5.99615506075681
  20
42.30173934118663
  30
815.632
  0
VERTEX
  8
Unknown Area Type
  70
32
  10
-5.99632467902547
  20
42.30173490546731
  30
815.785
  0
VERTEX
  8
Unknown Area Type
  70
32
  10
-5.99634933702926
  20
42.30174326562759
  30
815.812
  0
VERTEX
  8
Unknown Area Type
  70
32
  10
-5.99844991090652
  20
42.30267886349422
  30
817.407
  0
SEQEND
  8
Unknown Area Type
  0
TEXT
  8
Unknown Area Type
 62
7
  1
PNOA-H_AMS_1956-57_33k_ES_PAN_2
 40
0.00045
  10
-5.98092114383183
  20
42.32068874708148
  0
POLYLINE
  8
Unknown Area Type
  70
9
  66
1
  0
VERTEX
  8
Unknown Area Type
  70
32
  10
-6.06712758557611
  20
42.33333333333331
  30
853.755
  0
VERTEX
  8
Unknown Area Type
  70
32
  10
-6.0625
  20
42.33333333333331
  30
853.039
  0
VERTEX
  8
Unknown Area Type
  70
32
  10
-6.03354690034938
  20
42.33333333333331
  30
834.379
  0
VERTEX
  8
Unknown Area Type
  70
32
  10
-6.03189509232626
  20
42.30205983864478
  30
838.632
  0
VERTEX
  8
Unknown Area Type
  70
32
  10
-6.06629240991906
  20
42.30182878771903
  30
858.269
  0
VERTEX
  8
Unknown Area Type
  70
32
  10
-6.06631685795536
  20
42.30183263587567
  30
858.26
  0
VERTEX
  8
Unknown Area Type
  70
32
  10
-6.06632493850394
  20
42.30199901140434
  30
858.225
  0
SEQEND
  8
Unknown Area Type
  0
TEXT
  8
Unknown Area Type
 62
7
  1
PNOA-H_AMS_1956-57_33k_ES_PAN_2
 40
0.00045
  10
-6.0495495892659
  20
42.32061411624931
  0
POLYLINE
  8
Unknown Area Type
  70
9
  66
1
  0
VERTEX
  8
Unknown Area Type
  70
32
  10
-6.06712758984537
  20
42.33333349999998
  30
853.755
  0
VERTEX
  8
Unknown Area Type
  70
32
  10
-6.03354690915241
  20
42.33333349999998
  30
834.378
  0
VERTEX
  8
Unknown Area Type
  70
32
  10
-6.03354690034938
  20
42.33333333333331
  30
834.379
  0
VERTEX
  8
Unknown Area Type
  70
32
  10
-6.0625
  20
42.33333333333331
  30
853.039
  0
VERTEX
  8
Unknown Area Type
  70
32
  10
-6.06712758557611
  20
42.33333333333331
  30
853.755
  0
SEQEND
  8
Unknown Area Type
  0
TEXT
  8
Unknown Area Type
 62
7
  1
PNOA-H_AMS_1956-57_33k_ES_PAN_2
 40
0.00045
  10
-6.05033724509738
  20
42.33333341666665
  0
POLYLINE
  8
Unknown Area Type
  70
9
  66
1
  0
VERTEX
  8
Unknown Area Type
  70
32
  10
-6.06712758557611
  20
42.33333333333331
  30
853.755
  0
VERTEX
  8
Unknown Area Type
  70
32
  10
-6.0625
  20
42.33333333333331
  30
853.039
  0
VERTEX
  8
Unknown Area Type
  70
32
  10
-6.03354690034938
  20
42.33333333333331
  30
834.379
  0
VERTEX
  8
Unknown Area Type
  70
32
  10
-6.03189509232626
  20
42.30205983864478
  30
838.632
  0
VERTEX
  8
Unknown Area Type
  70
32
  10
-6.06629240991906
  20
42.30182878771903
  30
858.269
  0
VERTEX
  8
Unknown Area Type
  70
32
  10
-6.06631685795536
  20
42.30183263587567
  30
858.26
  0
VERTEX
  8
Unknown Area Type
  70
32
  10
-6.06632493850394
  20
42.30199901140434
  30
858.225
  0
SEQEND
  8
Unknown Area Type
  0
TEXT
  8
Unknown Area Type
 62
7
  1
PNOA-H_AMS_1956-57_33k_ES_PAN_2
 40
0.00045
  10
-6.0495495892659
  20
42.32061411624931
  0
POLYLINE
  8
Unknown Area Type
  70
9
  66
1
  0
VERTEX
  8
Unknown Area Type
  70
32
  10
-6.03019033640475
  20
42.30179876921179
  30
838.83
  0
VERTEX
  8
Unknown Area Type
  70
32
  10
-5.9984501244759
  20
42.30268336041229
  30
817.42
  0
VERTEX
  8
Unknown Area Type
  70
32
  10
-5.99632489243656
  20
42.30173940239487
  30
815.782
  0
VERTEX
  8
Unknown Area Type
  70
32
  10
-5.99610329836953
  20
42.26203296976347
  30
793.169
  0
VERTEX
  8
Unknown Area Type
  70
32
  10
-6.01612022527828
  20
42.25838759306058
  30
819.959
  0
VERTEX
  8
Unknown Area Type
  70
32
  10
-6.03212124750042
  20
42.2616663754694
  30
811.42
  0
VERTEX
  8
Unknown Area Type
  70
32
  10
-6.03124414423146
  20
42.30176639068261
  30
837.683
  0
VERTEX
  8
Unknown Area Type
  70
32
  10
-6.03019033640475
  20
42.30179876921179
  30
838.83
  0
SEQEND
  8
Unknown Area Type
  0
TEXT
  8
Unknown Area Type
 62
7
  1
PNOA-H_AMS_1956-57_33k_ES_PAN_2
 40
0.00045
  10
-6.0141126910447
  20
42.2804983965931
  0
POLYLINE
  8
Unknown Area Type
  70
9
  66
1
  0
VERTEX
  8
Unknown Area Type
  70
32
  10
-6.03019033640475
  20
42.30179876921179
  30
838.83
  0
VERTEX
  8
Unknown Area Type
  70
32
  10
-5.9984501244759
  20
42.30268336041229
  30
817.42
  0
VERTEX
  8
Unknown Area Type
  70
32
  10
-5.99632489243656
  20
42.30173940239487
  30
815.782
  0
VERTEX
  8
Unknown Area Type
  70
32
  10
-5.99610329836953
  20
42.26203296976347
  30
793.169
  0
VERTEX
  8
Unknown Area Type
  70
32
  10
-6.01612022527828
  20
42.25838759306058
  30
819.959
  0
VERTEX
  8
Unknown Area Type
  70
32
  10
-6.03212124750042
  20
42.2616663754694
  30
811.42
  0
VERTEX
  8
Unknown Area Type
  70
32
  10
-6.03124414423146
  20
42.30176639068261
  30
837.683
  0
VERTEX
  8
Unknown Area Type
  70
32
  10
-6.03019033640475
  20
42.30179876921179
  30
838.83
  0
SEQEND
  8
Unknown Area Type
  0
TEXT
  8
Unknown Area Type
 62
7
  1
PNOA-H_AMS_1956-57_33k_ES_PAN_2
 40
0.00045
  10
-6.0141126910447
  20
42.2804983965931
  0
POLYLINE
  8
Unknown Area Type
  70
9
  66
1
  0
VERTEX
  8
Unknown Area Type
  70
32
  10
-6.10085447845351
  20
42.33333333333331
  30
874.698
  0
VERTEX
  8
Unknown Area Type
  70
32
  10
-6.06712724734114
  20
42.33333333333331
  30
853.756
  0
VERTEX
  8
Unknown Area Type
  70
32
  10
-6.0663166395631
  20
42.30182813923966
  30
858.261
  0
VERTEX
  8
Unknown Area Type
  70
32
  10
-6.06660106127741
  20
42.30168995467805
  30
858.496
  0
VERTEX
  8
Unknown Area Type
  70
32
  10
-6.06671009439827
  20
42.30168703619486
  30
858.489
  0
VERTEX
  8
Unknown Area Type
  70
32
  10
-6.10053112290521
  20
42.30220401635786
  30
881.185
  0
SEQEND
  8
Unknown Area Type
  0
TEXT
  8
Unknown Area Type
 62
7
  1
PNOA-H_AMS_1956-57_33k_ES_PAN_2
 40
0.00045
  10
-6.08359982799911
  20
42.32086116815852
  0
POLYLINE
  8
Unknown Area Type
  70
9
  66
1
  0
VERTEX
  8
Unknown Area Type
  70
32
  10
-6.10085448018476
  20
42.33333349999998
  30
874.698
  0
VERTEX
  8
Unknown Area Type
  70
32
  10
-6.06712725162936
  20
42.33333349999998
  30
853.756
  0
VERTEX
  8
Unknown Area Type
  70
32
  10
-6.06712724734114
  20
42.33333333333331
  30
853.756
  0
VERTEX
  8
Unknown Area Type
  70
32
  10
-6.10085447845351
  20
42.33333333333331
  30
874.698
  0
SEQEND
  8
Unknown Area Type
  0
TEXT
  8
Unknown Area Type
 62
7
  1
PNOA-H_AMS_1956-57_33k_ES_PAN_2
 40
0.00045
  10
-6.08399086376295
  20
42.33333341666665
  0
POLYLINE
  8
Unknown Area Type
  70
9
  66
1
  0
VERTEX
  8
Unknown Area Type
  70
32
  10
-6.10085447845351
  20
42.33333333333331
  30
874.698
  0
VERTEX
  8
Unknown Area Type
  70
32
  10
-6.06712724734114
  20
42.33333333333331
  30
853.756
  0
VERTEX
  8
Unknown Area Type
  70
32
  10
-6.0663166395631
  20
42.30182813923966
  30
858.261
  0
VERTEX
  8
Unknown Area Type
  70
32
  10
-6.06660106127741
  20
42.30168995467805
  30
858.496
  0
VERTEX
  8
Unknown Area Type
  70
32
  10
-6.06671009439827
  20
42.30168703619486
  30
858.489
  0
VERTEX
  8
Unknown Area Type
  70
32
  10
-6.10053112290521
  20
42.30220401635786
  30
881.185
  0
SEQEND
  8
Unknown Area Type
  0
TEXT
  8
Unknown Area Type
 62
7
  1
PNOA-H_AMS_1956-57_33k_ES_PAN_2
 40
0.00045
  10
-6.08359982799911
  20
42.32086116815852
  0
POLYLINE
  8
Unknown Area Type
  70
9
  66
1
  0
VERTEX
  8
Unknown Area Type
  70
32
  10
-5.96365105274688
  20
42.33333333333331
  30
804.487
  0
VERTEX
  8
Unknown Area Type
  70
32
  10
-5.93750000000002
  20
42.33333333333331
  30
787.487
  0
VERTEX
  8
Unknown Area Type
  70
32
  10
-5.92916218391364
  20
42.33333333333331
  30
783.835
  0
VERTEX
  8
Unknown Area Type
  70
32
  10
-5.92874092651063
  20
42.30322124028302
  30
791.803
  0
VERTEX
  8
Unknown Area Type
  70
32
  10
-5.96154620503932
  20
42.3019952823381
  30
805.825
  0
VERTEX
  8
Unknown Area Type
  70
32
  10
-5.96339138265537
  20
42.30279855005025
  30
806.633
  0
SEQEND
  8
Unknown Area Type
  0
TEXT
  8
Unknown Area Type
 62
7
  1
PNOA-H_AMS_1956-57_33k_ES_PAN_2
 40
0.00045
  10
-5.94621329813748
  20
42.3209640614194
  0
POLYLINE
  8
Unknown Area Type
  70
9
  66
1
  0
VERTEX
  8
Unknown Area Type
  70
32
  10
-5.96365105416423
  20
42.33333349999998
  30
804.487
  0
VERTEX
  8
Unknown Area Type
  70
32
  10
-5.92916218624524
  20
42.33333349999998
  30
783.835
  0
VERTEX
  8
Unknown Area Type
  70
32
  10
-5.92916218391364
  20
42.33333333333331
  30
783.835
  0
VERTEX
  8
Unknown Area Type
  70
32
  10
-5.93750000000002
  20
42.33333333333331
  30
787.487
  0
VERTEX
  8
Unknown Area Type
  70
32
  10
-5.96365105274688
  20
42.33333333333331
  30
804.487
  0
SEQEND
  8
Unknown Area Type
  0
TEXT
  8
Unknown Area Type
 62
7
  1
PNOA-H_AMS_1956-57_33k_ES_PAN_2
 40
0.00045
  10
-5.94640661903893
  20
42.33333341666665
  0
POLYLINE
  8
Unknown Area Type
  70
9
  66
1
  0
VERTEX
  8
Unknown Area Type
  70
32
  10
-5.96365105274688
  20
42.33333333333331
  30
804.487
  0
VERTEX
  8
Unknown Area Type
  70
32
  10
-5.93750000000002
  20
42.33333333333331
  30
787.487
  0
VERTEX
  8
Unknown Area Type
  70
32
  10
-5.92916218391364
  20
42.33333333333331
  30
783.835
  0
VERTEX
  8
Unknown Area Type
  70
32
  10
-5.92874092651063
  20
42.30322124028302
  30
791.803
  0
VERTEX
  8
Unknown Area Type
  70
32
  10
-5.96154620503932
  20
42.3019952823381
  30
805.825
  0
VERTEX
  8
Unknown Area Type
  70
32
  10
-5.96339138265537
  20
42.30279855005025
  30
806.633
  0
SEQEND
  8
Unknown Area Type
  0
TEXT
  8
Unknown Area Type
 62
7
  1
PNOA-H_AMS_1956-57_33k_ES_PAN_2
 40
0.00045
  10
-5.94621329813748
  20
42.3209640614194
  0
POLYLINE
  8
Unknown Area Type
  70
9
  66
1
  0
VERTEX
  8
Unknown Area Type
  70
32
  10
-6.03354691956422
  20
42.33333333333331
  30
834.378
  0
VERTEX
  8
Unknown Area Type
  70
32
  10
-6.02083333333337
  20
42.33333333333331
  30
834.776
  0
VERTEX
  8
Unknown Area Type
  70
32
  10
-5.9984414855982
  20
42.33333333333331
  30
839.784
  0
VERTEX
  8
Unknown Area Type
  70
32
  10
-5.9984501244759
  20
42.30268336041229
  30
817.42
  0
VERTEX
  8
Unknown Area Type
  70
32
  10
-6.03125020183432
  20
42.30176623041476
  30
837.711
  0
VERTEX
  8
Unknown Area Type
  70
32
  10
-6.03189509232626
  20
42.30205983864478
  30
838.632
  0
SEQEND
  8
Unknown Area Type
  0
TEXT
  8
Unknown Area Type
 62
7
  1
PNOA-H_AMS_1956-57_33k_ES_PAN_2
 40
0.00045
  10
-6.01607783244832
  20
42.32088872936075
  0
POLYLINE
  8
Unknown Area Type
  70
9
  66
1
  0
VERTEX
  8
Unknown Area Type
  70
32
  10
-6.03354692836735
  20
42.33333349999998
  30
834.378
  0
VERTEX
  8
Unknown Area Type
  70
32
  10
-5.99844148555122
  20
42.33333349999998
  30
839.784
  0
VERTEX
  8
Unknown Area Type
  70
32
  10
-5.9984414855982
  20
42.33333333333331
  30
839.784
  0
VERTEX
  8
Unknown Area Type
  70
32
  10
-6.02083333333337
  20
42.33333333333331
  30
834.776
  0
VERTEX
  8
Unknown Area Type
  70
32
  10
-6.03354691956422
  20
42.33333333333331
  30
834.378
  0
SEQEND
  8
Unknown Area Type
  0
TEXT
  8
Unknown Area Type
 62
7
  1
PNOA-H_AMS_1956-57_33k_ES_PAN_2
 40
0.00045
  10
-6.01599420695929
  20
42.33333341666665
  0
POLYLINE
  8
Unknown Area Type
  70
9
  66
1
  0
VERTEX
  8
Unknown Area Type
  70
32
  10
-6.03354691956422
  20
42.33333333333331
  30
834.378
  0
VERTEX
  8
Unknown Area Type
  70
32
  10
-6.02083333333337
  20
42.33333333333331
  30
834.776
  0
VERTEX
  8
Unknown Area Type
  70
32
  10
-5.9984414855982
  20
42.33333333333331
  30
839.784
  0
VERTEX
  8
Unknown Area Type
  70
32
  10
-5.9984501244759
  20
42.30268336041229
  30
817.42
  0
VERTEX
  8
Unknown Area Type
  70
32
  10
-6.03125020183432
  20
42.30176623041476
  30
837.711
  0
VERTEX
  8
Unknown Area Type
  70
32
  10
-6.03189509232626
  20
42.30205983864478
  30
838.632
  0
SEQEND
  8
Unknown Area Type
  0
TEXT
  8
Unknown Area Type
 62
7
  1
PNOA-H_AMS_1956-57_33k_ES_PAN_2
 40
0.00045
  10
-6.01607783244832
  20
42.32088872936075
  0
POLYLINE
  8
Unknown Area Type
  70
9
  66
1
  0
VERTEX
  8
Unknown Area Type
  70
32
  10
-6.16830713468454
  20
42.33333333333331
  30
992.962
  0
VERTEX
  8
Unknown Area Type
  70
32
  10
-6.14583333333334
  20
42.33333333333331
  30
922.749
  0
VERTEX
  8
Unknown Area Type
  70
32
  10
-6.13469233728319
  20
42.33333333333331
  30
910.6
  0
VERTEX
  8
Unknown Area Type
  70
32
  10
-6.13409132625325
  20
42.30222285245907
  30
908.94
  0
VERTEX
  8
Unknown Area Type
  70
32
  10
-6.13409559756975
  20
42.30218671598119
  30
908.934
  0
VERTEX
  8
Unknown Area Type
  70
32
  10
-6.13666177869369
  20
42.30097736411724
  30
911.305
  0
VERTEX
  8
Unknown Area Type
  70
32
  10
-6.16785267067175
  20
42.30238385843307
  30
931.162
  0
SEQEND
  8
Unknown Area Type
  0
TEXT
  8
Unknown Area Type
 62
7
  1
PNOA-H_AMS_1956-57_33k_ES_PAN_2
 40
0.00045
  10
-6.15122302458284
  20
42.32106156319945
  0
POLYLINE
  8
Unknown Area Type
  70
9
  66
1
  0
VERTEX
  8
Unknown Area Type
  70
32
  10
-6.16830713713188
  20
42.33333349999998
  30
992.962
  0
VERTEX
  8
Unknown Area Type
  70
32
  10
-6.13469234050296
  20
42.33333349999998
  30
910.6
  0
VERTEX
  8
Unknown Area Type
  70
32
  10
-6.13469233728319
  20
42.33333333333331
  30
910.6
  0
VERTEX
  8
Unknown Area Type
  70
32
  10
-6.14583333333334
  20
42.33333333333331
  30
922.749
  0
VERTEX
  8
Unknown Area Type
  70
32
  10
-6.16830713468454
  20
42.33333333333331
  30
992.962
  0
SEQEND
  8
Unknown Area Type
  0
TEXT
  8
Unknown Area Type
 62
7
  1
PNOA-H_AMS_1956-57_33k_ES_PAN_2
 40
0.00045
  10
-6.15149973720753
  20
42.33333341666665
  0
POLYLINE
  8
Unknown Area Type
  70
9
  66
1
  0
VERTEX
  8
Unknown Area Type
  70
32
  10
-6.16830713468454
  20
42.33333333333331
  30
992.962
  0
VERTEX
  8
Unknown Area Type
  70
32
  10
-6.14583333333334
  20
42.33333333333331
  30
922.749
  0
VERTEX
  8
Unknown Area Type
  70
32
  10
-6.13469233728319
  20
42.33333333333331
  30
910.6
  0
VERTEX
  8
Unknown Area Type
  70
32
  10
-6.13409132625325
  20
42.30222285245907
  30
908.94
  0
VERTEX
  8
Unknown Area Type
  70
32
  10
-6.13409559756975
  20
42.30218671598119
  30
908.934
  0
VERTEX
  8
Unknown Area Type
  70
32
  10
-6.13666177869369
  20
42.30097736411724
  30
911.305
  0
VERTEX
  8
Unknown Area Type
  70
32
  10
-6.16785267067175
  20
42.30238385843307
  30
931.162
  0
SEQEND
  8
Unknown Area Type
  0
TEXT
  8
Unknown Area Type
 62
7
  1
PNOA-H_AMS_1956-57_33k_ES_PAN_2
 40
0.00045
  10
-6.15122302458284
  20
42.32106156319945
  0
POLYLINE
  8
Unknown Area Type
  70
9
  66
1
  0
VERTEX
  8
Unknown Area Type
  70
32
  10
-6.18749999999997
  20
42.3125
  30
953.572
  0
VERTEX
  8
Unknown Area Type
  70
32
  10
-6.18749999999997
  20
42.33333333333331
  30
987.563
  0
VERTEX
  8
Unknown Area Type
  70
32
  10
-6.16830711972656
  20
42.33333333333331
  30
992.963
  0
VERTEX
  8
Unknown Area Type
  70
32
  10
-6.16785244505067
  20
42.30237936223233
  30
931.162
  0
VERTEX
  8
Unknown Area Type
  70
32
  10
-6.1724435238606
  20
42.30032077117626
  30
934.087
  0
VERTEX
  8
Unknown Area Type
  70
32
  10
-6.18749999999997
  20
42.30114887236917
  30
952.799
  0
SEQEND
  8
Unknown Area Type
  0
TEXT
  8
Unknown Area Type
 62
7
  1
PNOA-H_AMS_1956-57_33k_ES_PAN_2
 40
0.00045
  10
-6.18509805801788
  20
42.3206969461821
  0
POLYLINE
  8
Unknown Area Type
  70
9
  66
1
  0
VERTEX
  8
Unknown Area Type
  70
32
  10
-6.18749999999997
  20
42.33333349999998
  30
987.563
  0
VERTEX
  8
Unknown Area Type
  70
32
  10
-6.16830712217469
  20
42.33333349999998
  30
992.963
  0
VERTEX
  8
Unknown Area Type
  70
32
  10
-6.16830711972656
  20
42.33333333333331
  30
992.963
  0
VERTEX
  8
Unknown Area Type
  70
32
  10
-6.18749999999997
  20
42.33333333333331
  30
987.563
  0
SEQEND
  8
Unknown Area Type
  0
TEXT
  8
Unknown Area Type
 62
7
  1
PNOA-H_AMS_1956-57_33k_ES_PAN_2
 40
0.00045
  10
-6.17790355986327
  20
42.33333341666665
  0
POLYLINE
  8
Unknown Area Type
  70
9
  66
1
  0
VERTEX
  8
Unknown Area Type
  70
32
  10
-6.18749999999997
  20
42.3125
  30
953.572
  0
VERTEX
  8
Unknown Area Type
  70
32
  10
-6.18749999999997
  20
42.33333333333331
  30
987.563
  0
VERTEX
  8
Unknown Area Type
  70
32
  10
-6.16830711972656
  20
42.33333333333331
  30
992.963
  0
VERTEX
  8
Unknown Area Type
  70
32
  10
-6.16785244505067
  20
42.30237936223233
  30
931.162
  0
VERTEX
  8
Unknown Area Type
  70
32
  10
-6.1724435238606
  20
42.30032077117626
  30
934.087
  0
VERTEX
  8
Unknown Area Type
  70
32
  10
-6.18749999999997
  20
42.30114887236917
  30
952.799
  0
SEQEND
  8
Unknown Area Type
  0
TEXT
  8
Unknown Area Type
 62
7
  1
PNOA-H_AMS_1956-57_33k_ES_PAN_2
 40
0.00045
  10
-6.18509805801788
  20
42.3206969461821
  0
POLYLINE
  8
Unknown Area Type
  70
9
  66
1
  0
VERTEX
  8
Unknown Area Type
  70
32
  10
-6.13469276681288
  20
42.33333333333331
  30
910.601
  0
VERTEX
  8
Unknown Area Type
  70
32
  10
-6.10416666666663
  20
42.33333333333331
  30
874.64
  0
VERTEX
  8
Unknown Area Type
  70
32
  10
-6.10084921995231
  20
42.33333333333331
  30
874.647
  0
VERTEX
  8
Unknown Area Type
  70
32
  10
-6.10053112290521
  20
42.30220401635786
  30
881.185
  0
VERTEX
  8
Unknown Area Type
  70
32
  10
-6.10162179851747
  20
42.30168822751872
  30
881.703
  0
VERTEX
  8
Unknown Area Type
  70
32
  10
-6.13409582078749
  20
42.30219121232823
  30
908.943
  0
SEQEND
  8
Unknown Area Type
  0
TEXT
  8
Unknown Area Type
 62
7
  1
PNOA-H_AMS_1956-57_33k_ES_PAN_2
 40
0.00045
  10
-6.11763973703096
  20
42.32117570315306
  0
POLYLINE
  8
Unknown Area Type
  70
9
  66
1
  0
VERTEX
  8
Unknown Area Type
  70
32
  10
-6.13469277000762
  20
42.33333349999998
  30
910.601
  0
VERTEX
  8
Unknown Area Type
  70
32
  10
-6.10084922165541
  20
42.33333349999998
  30
874.647
  0
VERTEX
  8
Unknown Area Type
  70
32
  10
-6.10084921995231
  20
42.33333333333331
  30
874.647
  0
VERTEX
  8
Unknown Area Type
  70
32
  10
-6.10416666666663
  20
42.33333333333331
  30
874.64
  0
VERTEX
  8
Unknown Area Type
  70
32
  10
-6.13469276681288
  20
42.33333333333331
  30
910.601
  0
SEQEND
  8
Unknown Area Type
  0
TEXT
  8
Unknown Area Type
 62
7
  1
PNOA-H_AMS_1956-57_33k_ES_PAN_2
 40
0.00045
  10
-6.11777099497997
  20
42.33333341666665
  0
POLYLINE
  8
Unknown Area Type
  70
9
  66
1
  0
VERTEX
  8
Unknown Area Type
  70
32
  10
-6.13469276681288
  20
42.33333333333331
  30
910.601
  0
VERTEX
  8
Unknown Area Type
  70
32
  10
-6.10416666666663
  20
42.33333333333331
  30
874.64
  0
VERTEX
  8
Unknown Area Type
  70
32
  10
-6.10084921995231
  20
42.33333333333331
  30
874.647
  0
VERTEX
  8
Unknown Area Type
  70
32
  10
-6.10053112290521
  20
42.30220401635786
  30
881.185
  0
VERTEX
  8
Unknown Area Type
  70
32
  10
-6.10162179851747
  20
42.30168822751872
  30
881.703
  0
VERTEX
  8
Unknown Area Type
  70
32
  10
-6.13409582078749
  20
42.30219121232823
  30
908.943
  0
SEQEND
  8
Unknown Area Type
  0
TEXT
  8
Unknown Area Type
 62
7
  1
PNOA-H_AMS_1956-57_33k_ES_PAN_2
 40
0.00045
  10
-6.11763973703096
  20
42.32117570315306
  0
POLYLINE
  8
Unknown Area Type
  70
9
  66
1
  0
VERTEX
  8
Unknown Area Type
  70
32
  10
-5.86074759667692
  20
42.26976495478653
  30
819.714
  0
VERTEX
  8
Unknown Area Type
  70
32
  10
-5.86065070919957
  20
42.26976737344747
  30
813.359
  0
VERTEX
  8
Unknown Area Type
  70
32
  10
-5.86062608027574
  20
42.26975898310263
  30
806.845
  0
VERTEX
  8
Unknown Area Type
  70
32
  10
-5.86058186029791
  20
42.26971956374211
  30
793.7
  0
VERTEX
  8
Unknown Area Type
  70
32
  10
-5.8605786039384
  20
42.26964760375957
  30
789.334
  0
VERTEX
  8
Unknown Area Type
  70
32
  10
-5.86064297516625
  20
42.26959646849885
  30
789.414
  0
VERTEX
  8
Unknown Area Type
  70
32
  10
-5.86073986238253
  20
42.26959404985229
  30
789.924
  0
VERTEX
  8
Unknown Area Type
  70
32
  10
-5.86074652843419
  20
42.26960739117913
  30
789.713
  0
VERTEX
  8
Unknown Area Type
  70
32
  10
-5.8606999165923
  20
42.26964907800211
  30
789.309
  0
VERTEX
  8
Unknown Area Type
  70
32
  10
-5.8607027660271
  20
42.26971204298021
  30
802.59
  0
VERTEX
  8
Unknown Area Type
  70
32
  10
-5.86075283800273
  20
42.26974681362483
  30
822.354
  0
VERTEX
  8
Unknown Area Type
  70
32
  10
-5.86074759667692
  20
42.26976495478653
  30
819.714
  0
SEQEND
  8
Unknown Area Type
  0
TEXT
  8
Unknown Area Type
 62
7
  1
PNOA-H_AMS_1956-57_33k_ES_PAN_2
 40
0.00045
  10
-5.86066608552075
  20
42.26967951478098
  0
POLYLINE
  8
Unknown Area Type
  70
9
  66
1
  0
VERTEX
  8
Unknown Area Type
  70
32
  10
-5.86074759667692
  20
42.26976495478653
  30
819.714
  0
VERTEX
  8
Unknown Area Type
  70
32
  10
-5.86065070919957
  20
42.26976737344747
  30
813.359
  0
VERTEX
  8
Unknown Area Type
  70
32
  10
-5.86062608027574
  20
42.26975898310263
  30
806.845
  0
VERTEX
  8
Unknown Area Type
  70
32
  10
-5.86058186029791
  20
42.26971956374211
  30
793.7
  0
VERTEX
  8
Unknown Area Type
  70
32
  10
-5.8605786039384
  20
42.26964760375957
  30
789.334
  0
VERTEX
  8
Unknown Area Type
  70
32
  10
-5.86064297516625
  20
42.26959646849885
  30
789.414
  0
VERTEX
  8
Unknown Area Type
  70
32
  10
-5.86073986238253
  20
42.26959404985229
  30
789.924
  0
VERTEX
  8
Unknown Area Type
  70
32
  10
-5.86074652843419
  20
42.26960739117913
  30
789.713
  0
VERTEX
  8
Unknown Area Type
  70
32
  10
-5.8606999165923
  20
42.26964907800211
  30
789.309
  0
VERTEX
  8
Unknown Area Type
  70
32
  10
-5.8607027660271
  20
42.26971204298021
  30
802.59
  0
VERTEX
  8
Unknown Area Type
  70
32
  10
-5.86075283800273
  20
42.26974681362483
  30
822.354
  0
VERTEX
  8
Unknown Area Type
  70
32
  10
-5.86074759667692
  20
42.26976495478653
  30
819.714
  0
SEQEND
  8
Unknown Area Type
  0
TEXT
  8
Unknown Area Type
 62
7
  1
PNOA-H_AMS_1956-57_33k_ES_PAN_2
 40
0.00045
  10
-5.86066608552075
  20
42.26967951478098
  0
POLYLINE
  8
Unknown Area Type
  70
9
  66
1
  0
VERTEX
  8
Unknown Area Type
  70
32
  10
-5.85545043078289
  20
42.30226155517789
  30
776.938
  0
VERTEX
  8
Unknown Area Type
  70
32
  10
-5.85539610669519
  20
42.30226741150062
  30
776.952
  0
VERTEX
  8
Unknown Area Type
  70
32
  10
-5.85416666666668
  20
42.30233810519923
  30
777.322
  0
VERTEX
  8
Unknown Area Type
  70
32
  10
-5.85416666666668
  20
42.29166666666669
  30
776.422
  0
VERTEX
  8
Unknown Area Type
  70
32
  10
-5.85416666666668
  20
42.27083333333337
  30
775.615
  0
VERTEX
  8
Unknown Area Type
  70
32
  10
-5.85416666666668
  20
42.26302485566801
  30
775.312
  0
VERTEX
  8
Unknown Area Type
  70
32
  10
-5.85545099787663
  20
42.30213997187163
  30
776.83
  0
SEQEND
  8
Unknown Area Type
  0
TEXT
  8
Unknown Area Type
 62
7
  1
PNOA-H_AMS_1956-57_33k_ES_PAN_2
 40
0.00045
  10
-5.85480883227165
  20
42.28268148043362
  0
POLYLINE
  8
Unknown Area Type
  70
9
  66
1
  0
VERTEX
  8
Unknown Area Type
  70
32
  10
-5.85545043078289
  20
42.30226155517789
  30
776.938
  0
VERTEX
  8
Unknown Area Type
  70
32
  10
-5.85539610669519
  20
42.30226741150062
  30
776.952
  0
VERTEX
  8
Unknown Area Type
  70
32
  10
-5.85416666666668
  20
42.30233810519923
  30
777.322
  0
VERTEX
  8
Unknown Area Type
  70
32
  10
-5.85416666666668
  20
42.29166666666669
  30
776.422
  0
VERTEX
  8
Unknown Area Type
  70
32
  10
-5.85416666666668
  20
42.27083333333337
  30
775.615
  0
VERTEX
  8
Unknown Area Type
  70
32
  10
-5.85416666666668
  20
42.26302485566801
  30
775.312
  0
VERTEX
  8
Unknown Area Type
  70
32
  10
-5.85545099787663
  20
42.30213997187163
  30
776.83
  0
SEQEND
  8
Unknown Area Type
  0
TEXT
  8
Unknown Area Type
 62
7
  1
PNOA-H_AMS_1956-57_33k_ES_PAN_2
 40
0.00045
  10
-5.85480883227165
  20
42.28268148043362
  0
POLYLINE
  8
Unknown Area Type
  70
9
  66
1
  0
VERTEX
  8
Unknown Area Type
  70
32
  10
-5.85416666666668
  20
42.27083333333337
  30
775.615
  0
VERTEX
  8
Unknown Area Type
  70
32
  10
-5.85416666666668
  20
42.29166666666669
  30
776.422
  0
VERTEX
  8
Unknown Area Type
  70
32
  10
-5.85416666666668
  20
42.30233810519923
  30
777.322
  0
VERTEX
  8
Unknown Area Type
  70
32
  10
-5.85416633333334
  20
42.30233812436613
  30
777.322
  0
VERTEX
  8
Unknown Area Type
  70
32
  10
-5.85416633333334
  20
42.26301470379131
  30
775.312
  0
VERTEX
  8
Unknown Area Type
  70
32
  10
-5.85416666666668
  20
42.26302485566801
  30
775.312
  0
SEQEND
  8
Unknown Area Type
  0
TEXT
  8
Unknown Area Type
 62
7
  1
PNOA-H_AMS_1956-57_33k_ES_PAN_2
 40
0.00045
  10
-5.85416650000001
  20
42.28267641407872
  0
POLYLINE
  8
Unknown Area Type
  70
9
  66
1
  0
VERTEX
  8
Unknown Area Type
  70
32
  10
-5.8589084876212
  20
42.33333333333331
  30
786.905
  0
VERTEX
  8
Unknown Area Type
  70
32
  10
-5.85416666666668
  20
42.33333333333331
  30
786.965
  0
VERTEX
  8
Unknown Area Type
  70
32
  10
-5.85416666666668
  20
42.3125
  30
779.835
  0
VERTEX
  8
Unknown Area Type
  70
32
  10
-5.85416666666668
  20
42.3023354868304
  30
777.329
  0
VERTEX
  8
Unknown Area Type
  70
32
  10
-5.85545648939082
  20
42.30226140419528
  30
776.936
  0
VERTEX
  8
Unknown Area Type
  70
32
  10
-5.85998330657159
  20
42.30431423589527
  30
776.96
  0
SEQEND
  8
Unknown Area Type
  0
TEXT
  8
Unknown Area Type
 62
7
  1
PNOA-H_AMS_1956-57_33k_ES_PAN_2
 40
0.00045
  10
-5.85707498661913
  20
42.3177973687643
  0
POLYLINE
  8
Unknown Area Type
  70
9
  66
1
  0
VERTEX
  8
Unknown Area Type
  70
32
  10
-5.85890848144814
  20
42.33333349999998
  30
786.905
  0
VERTEX
  8
Unknown Area Type
  70
32
  10
-5.85416666666668
  20
42.33333349999998
  30
786.965
  0
VERTEX
  8
Unknown Area Type
  70
32
  10
-5.85416666666668
  20
42.33333333333331
  30
786.965
  0
VERTEX
  8
Unknown Area Type
  70
32
  10
-5.8589084876212
  20
42.33333333333331
  30
786.905
  0
SEQEND
  8
Unknown Area Type
  0
TEXT
  8
Unknown Area Type
 62
7
  1
PNOA-H_AMS_1956-57_33k_ES_PAN_2
 40
0.00045
  10
-5.85653757714394
  20
42.33333341666665
  0
POLYLINE
  8
Unknown Area Type
  70
9
  66
1
  0
VERTEX
  8
Unknown Area Type
  70
32
  10
-5.85416666666668
  20
42.33333349999998
  30
786.965
  0
VERTEX
  8
Unknown Area Type
  70
32
  10
-5.85416633333334
  20
42.33333349999998
  30
786.965
  0
VERTEX
  8
Unknown Area Type
  70
32
  10
-5.85416633333334
  20
42.33333333333331
  30
786.965
  0
VERTEX
  8
Unknown Area Type
  70
32
  10
-5.85416666666668
  20
42.33333333333331
  30
786.965
  0
SEQEND
  8
Unknown Area Type
  0
TEXT
  8
Unknown Area Type
 62
7
  1
PNOA-H_AMS_1956-57_33k_ES_PAN_2
 40
0.00045
  10
-5.85416650000001
  20
42.33333341666665
  0
POLYLINE
  8
Unknown Area Type
  70
9
  66
1
  0
VERTEX
  8
Unknown Area Type
  70
32
  10
-5.8589084876212
  20
42.33333333333331
  30
786.905
  0
VERTEX
  8
Unknown Area Type
  70
32
  10
-5.85416666666668
  20
42.33333333333331
  30
786.965
  0
VERTEX
  8
Unknown Area Type
  70
32
  10
-5.85416666666668
  20
42.3125
  30
779.835
  0
VERTEX
  8
Unknown Area Type
  70
32
  10
-5.85416666666668
  20
42.3023354868304
  30
777.329
  0
VERTEX
  8
Unknown Area Type
  70
32
  10
-5.85545648939082
  20
42.30226140419528
  30
776.936
  0
VERTEX
  8
Unknown Area Type
  70
32
  10
-5.85998330657159
  20
42.30431423589527
  30
776.96
  0
SEQEND
  8
Unknown Area Type
  0
TEXT
  8
Unknown Area Type
 62
7
  1
PNOA-H_AMS_1956-57_33k_ES_PAN_2
 40
0.00045
  10
-5.85707498661913
  20
42.3177973687643
  0
POLYLINE
  8
Unknown Area Type
  70
9
  66
1
  0
VERTEX
  8
Unknown Area Type
  70
32
  10
-5.85416666666668
  20
42.3125
  30
779.835
  0
VERTEX
  8
Unknown Area Type
  70
32
  10
-5.85416666666668
  20
42.33333333333331
  30
786.965
  0
VERTEX
  8
Unknown Area Type
  70
32
  10
-5.85416633333334
  20
42.33333333333331
  30
786.965
  0
VERTEX
  8
Unknown Area Type
  70
32
  10
-5.85416633333334
  20
42.30233550597583
  30
777.329
  0
VERTEX
  8
Unknown Area Type
  70
32
  10
-5.85416666666668
  20
42.3023354868304
  30
777.329
  0
SEQEND
  8
Unknown Area Type
  0
TEXT
  8
Unknown Area Type
 62
7
  1
PNOA-H_AMS_1956-57_33k_ES_PAN_2
 40
0.00045
  10
-5.85416650000001
  20
42.31783441008186
  0
POLYLINE
  8
Unknown Area Type
  70
9
  66
1
  0
VERTEX
  8
Unknown Area Type
  70
32
  10
-6.18749999999997
  20
42.25912913827845
  30
1087.297
  0
VERTEX
  8
Unknown Area Type
  70
32
  10
-6.18513548624386
  20
42.25878473539887
  30
1087.932
  0
VERTEX
  8
Unknown Area Type
  70
32
  10
-6.18749999999997
  20
42.25164418047081
  30
1064.869
  0
SEQEND
  8
Unknown Area Type
  0
TEXT
  8
Unknown Area Type
 62
7
  1
PNOA-H_AMS_1956-57_33k_ES_PAN_2
 40
0.00045
  10
-6.18631774312191
  20
42.25538665937463
  0
POLYLINE
  8
Unknown Area Type
  70
9
  66
1
  0
VERTEX
  8
Unknown Area Type
  70
32
  10
-6.18749999999997
  20
42.25912913827845
  30
1087.297
  0
VERTEX
  8
Unknown Area Type
  70
32
  10
-6.18513548624386
  20
42.25878473539887
  30
1087.932
  0
VERTEX
  8
Unknown Area Type
  70
32
  10
-6.18749999999997
  20
42.25164418047081
  30
1064.869
  0
SEQEND
  8
Unknown Area Type
  0
TEXT
  8
Unknown Area Type
 62
7
  1
PNOA-H_AMS_1956-57_33k_ES_PAN_2
 40
0.00045
  10
-6.18631774312191
  20
42.25538665937463
  0
POLYLINE
  8
Unknown Area Type
  70
9
  66
1
  0
VERTEX
  8
Unknown Area Type
  70
32
  10
-5.89028835640653
  20
42.26218878320053
  30
762.527
  0
VERTEX
  8
Unknown Area Type
  70
32
  10
-5.88991902664394
  20
42.26219809770584
  30
762.526
  0
VERTEX
  8
Unknown Area Type
  70
32
  10
-5.88991080451267
  20
42.26201820214654
  30
762.331
  0
VERTEX
  8
Unknown Area Type
  70
32
  10
-5.88915644200575
  20
42.2198885212462
  30
786.573
  0
VERTEX
  8
Unknown Area Type
  70
32
  10
-5.90052970223425
  20
42.21678713437677
  30
797.001
  0
VERTEX
  8
Unknown Area Type
  70
32
  10
-5.9214672585086
  20
42.21949720580044
  30
831.21
  0
VERTEX
  8
Unknown Area Type
  70
32
  10
-5.92243421143456
  20
42.2613014557062
  30
788.052
  0
VERTEX
  8
Unknown Area Type
  70
32
  10
-5.89240725249161
  20
42.26213081898179
  30
766.37
  0
VERTEX
  8
Unknown Area Type
  70
32
  10
-5.89028835640653
  20
42.26218878320053
  30
762.527
  0
SEQEND
  8
Unknown Area Type
  0
TEXT
  8
Unknown Area Type
 62
7
  1
PNOA-H_AMS_1956-57_33k_ES_PAN_2
 40
0.00045
  10
-5.90579580348839
  20
42.23961327185829
  0
POLYLINE
  8
Unknown Area Type
  70
9
  66
1
  0
VERTEX
  8
Unknown Area Type
  70
32
  10
-5.89028835640653
  20
42.26218878320053
  30
762.527
  0
VERTEX
  8
Unknown Area Type
  70
32
  10
-5.88991902664394
  20
42.26219809770584
  30
762.526
  0
VERTEX
  8
Unknown Area Type
  70
32
  10
-5.88991080451267
  20
42.26201820214654
  30
762.331
  0
VERTEX
  8
Unknown Area Type
  70
32
  10
-5.88915644200575
  20
42.2198885212462
  30
786.573
  0
VERTEX
  8
Unknown Area Type
  70
32
  10
-5.90052970223425
  20
42.21678713437677
  30
797.001
  0
VERTEX
  8
Unknown Area Type
  70
32
  10
-5.9214672585086
  20
42.21949720580044
  30
831.21
  0
VERTEX
  8
Unknown Area Type
  70
32
  10
-5.92243421143456
  20
42.2613014557062
  30
788.052
  0
VERTEX
  8
Unknown Area Type
  70
32
  10
-5.89240725249161
  20
42.26213081898179
  30
766.37
  0
VERTEX
  8
Unknown Area Type
  70
32
  10
-5.89028835640653
  20
42.26218878320053
  30
762.527
  0
SEQEND
  8
Unknown Area Type
  0
TEXT
  8
Unknown Area Type
 62
7
  1
PNOA-H_AMS_1956-57_33k_ES_PAN_2
 40
0.00045
  10
-5.90579580348839
  20
42.23961327185829
  0
POLYLINE
  8
Unknown Area Type
  70
9
  66
1
  0
VERTEX
  8
Unknown Area Type
  70
32
  10
-5.96048449775838
  20
42.26239141743616
  30
786.467
  0
VERTEX
  8
Unknown Area Type
  70
32
  10
-5.96044211818631
  20
42.26239251231705
  30
786.458
  0
VERTEX
  8
Unknown Area Type
  70
32
  10
-5.96037446889817
  20
42.26237174728458
  30
786.654
  0
VERTEX
  8
Unknown Area Type
  70
32
  10
-5.95361370852201
  20
42.26024990750049
  30
789.99
  0
VERTEX
  8
Unknown Area Type
  70
32
  10
-5.95202816218655
  20
42.21965064322182
  30
921.963
  0
VERTEX
  8
Unknown Area Type
  70
32
  10
-5.96662547770361
  20
42.21613542730793
  30
844.733
  0
VERTEX
  8
Unknown Area Type
  70
32
  10
-5.97296697095061
  20
42.21729035358973
  30
837.498
  0
VERTEX
  8
Unknown Area Type
  70
32
  10
-5.9827345082007
  20
42.22057557426223
  30
830.559
  0
VERTEX
  8
Unknown Area Type
  70
32
  10
-5.98491138374025
  20
42.25902919674046
  30
799.128
  0
VERTEX
  8
Unknown Area Type
  70
32
  10
-5.96052666675467
  20
42.26238582543465
  30
786.489
  0
VERTEX
  8
Unknown Area Type
  70
32
  10
-5.96048449775838
  20
42.26239141743616
  30
786.467
  0
SEQEND
  8
Unknown Area Type
  0
TEXT
  8
Unknown Area Type
 62
7
  1
PNOA-H_AMS_1956-57_33k_ES_PAN_2
 40
0.00045
  10
-5.96847017709575
  20
42.23888072903706
  0
POLYLINE
  8
Unknown Area Type
  70
9
  66
1
  0
VERTEX
  8
Unknown Area Type
  70
32
  10
-5.96048449775838
  20
42.26239141743616
  30
786.467
  0
VERTEX
  8
Unknown Area Type
  70
32
  10
-5.96044211818631
  20
42.26239251231705
  30
786.458
  0
VERTEX
  8
Unknown Area Type
  70
32
  10
-5.96037446889817
  20
42.26237174728458
  30
786.654
  0
VERTEX
  8
Unknown Area Type
  70
32
  10
-5.95361370852201
  20
42.26024990750049
  30
789.99
  0
VERTEX
  8
Unknown Area Type
  70
32
  10
-5.95202816218655
  20
42.21965064322182
  30
921.963
  0
VERTEX
  8
Unknown Area Type
  70
32
  10
-5.96662547770361
  20
42.21613542730793
  30
844.733
  0
VERTEX
  8
Unknown Area Type
  70
32
  10
-5.97296697095061
  20
42.21729035358973
  30
837.498
  0
VERTEX
  8
Unknown Area Type
  70
32
  10
-5.9827345082007
  20
42.22057557426223
  30
830.559
  0
VERTEX
  8
Unknown Area Type
  70
32
  10
-5.98491138374025
  20
42.25902919674046
  30
799.128
  0
VERTEX
  8
Unknown Area Type
  70
32
  10
-5.96052666675467
  20
42.26238582543465
  30
786.489
  0
VERTEX
  8
Unknown Area Type
  70
32
  10
-5.96048449775838
  20
42.26239141743616
  30
786.467
  0
SEQEND
  8
Unknown Area Type
  0
TEXT
  8
Unknown Area Type
 62
7
  1
PNOA-H_AMS_1956-57_33k_ES_PAN_2
 40
0.00045
  10
-5.96847017709575
  20
42.23888072903706
  0
POLYLINE
  8
Unknown Area Type
  70
9
  66
1
  0
VERTEX
  8
Unknown Area Type
  70
32
  10
-5.95137895180888
  20
42.26042005039265
  30
789.638
  0
VERTEX
  8
Unknown Area Type
  70
32
  10
-5.92530899531082
  20
42.26238526296126
  30
784.374
  0
VERTEX
  8
Unknown Area Type
  70
32
  10
-5.92524156447647
  20
42.26236897406545
  30
784.406
  0
VERTEX
  8
Unknown Area Type
  70
32
  10
-5.92243441929304
  20
42.26130595296596
  30
788.038
  0
VERTEX
  8
Unknown Area Type
  70
32
  10
-5.9214672585086
  20
42.21949720580044
  30
831.21
  0
VERTEX
  8
Unknown Area Type
  70
32
  10
-5.93203547210177
  20
42.21670588119802
  30
921.568
  0
VERTEX
  8
Unknown Area Type
  70
32
  10
-5.93230959678323
  20
42.21673939124301
  30
924.944
  0
VERTEX
  8
Unknown Area Type
  70
32
  10
-5.95202837184212
  20
42.2196551403949
  30
922.046
  0
VERTEX
  8
Unknown Area Type
  70
32
  10
-5.95361370852201
  20
42.26024990750049
  30
789.99
  0
VERTEX
  8
Unknown Area Type
  70
32
  10
-5.95146955317222
  20
42.26041321432091
  30
789.768
  0
VERTEX
  8
Unknown Area Type
  70
32
  10
-5.95137895180888
  20
42.26042005039265
  30
789.638
  0
SEQEND
  8
Unknown Area Type
  0
TEXT
  8
Unknown Area Type
 62
7
  1
PNOA-H_AMS_1956-57_33k_ES_PAN_2
 40
0.00045
  10
-5.93754099005992
  20
42.23948643552248
  0
POLYLINE
  8
Unknown Area Type
  70
9
  66
1
  0
VERTEX
  8
Unknown Area Type
  70
32
  10
-5.95137895180888
  20
42.26042005039265
  30
789.638
  0
VERTEX
  8
Unknown Area Type
  70
32
  10
-5.92530899531082
  20
42.26238526296126
  30
784.374
  0
VERTEX
  8
Unknown Area Type
  70
32
  10
-5.92524156447647
  20
42.26236897406545
  30
784.406
  0
VERTEX
  8
Unknown Area Type
  70
32
  10
-5.92243441929304
  20
42.26130595296596
  30
788.038
  0
VERTEX
  8
Unknown Area Type
  70
32
  10
-5.9214672585086
  20
42.21949720580044
  30
831.21
  0
VERTEX
  8
Unknown Area Type
  70
32
  10
-5.93203547210177
  20
42.21670588119802
  30
921.568
  0
VERTEX
  8
Unknown Area Type
  70
32
  10
-5.93230959678323
  20
42.21673939124301
  30
924.944
  0
VERTEX
  8
Unknown Area Type
  70
32
  10
-5.95202837184212
  20
42.2196551403949
  30
922.046
  0
VERTEX
  8
Unknown Area Type
  70
32
  10
-5.95361370852201
  20
42.26024990750049
  30
789.99
  0
VERTEX
  8
Unknown Area Type
  70
32
  10
-5.95146955317222
  20
42.26041321432091
  30
789.768
  0
VERTEX
  8
Unknown Area Type
  70
32
  10
-5.95137895180888
  20
42.26042005039265
  30
789.638
  0
SEQEND
  8
Unknown Area Type
  0
TEXT
  8
Unknown Area Type
 62
7
  1
PNOA-H_AMS_1956-57_33k_ES_PAN_2
 40
0.00045
  10
-5.93754099005992
  20
42.23948643552248
  0
POLYLINE
  8
Unknown Area Type
  70
9
  66
1
  0
VERTEX
  8
Unknown Area Type
  70
32
  10
-6.10199754187067
  20
42.26154746785856
  30
888.144
  0
VERTEX
  8
Unknown Area Type
  70
32
  10
-6.07789153969521
  20
42.25918536637091
  30
874.226
  0
VERTEX
  8
Unknown Area Type
  70
32
  10
-6.07703169693437
  20
42.2187083638682
  30
870.216
  0
VERTEX
  8
Unknown Area Type
  70
32
  10
-6.07709649214828
  20
42.21867060387981
  30
870.178
  0
VERTEX
  8
Unknown Area Type
  70
32
  10
-6.10778264559873
  20
42.21904020112137
  30
1053.186
  0
VERTEX
  8
Unknown Area Type
  70
32
  10
-6.10931409414382
  20
42.25921497740382
  30
890.308
  0
VERTEX
  8
Unknown Area Type
  70
32
  10
-6.10201548130035
  20
42.26154247970202
  30
888.136
  0
VERTEX
  8
Unknown Area Type
  70
32
  10
-6.10199754187067
  20
42.26154746785856
  30
888.144
  0
SEQEND
  8
Unknown Area Type
  0
TEXT
  8
Unknown Area Type
 62
7
  1
PNOA-H_AMS_1956-57_33k_ES_PAN_2
 40
0.00045
  10
-6.09317327618403
  20
42.23977178420225
  0
POLYLINE
  8
Unknown Area Type
  70
9
  66
1
  0
VERTEX
  8
Unknown Area Type
  70
32
  10
-6.10199754187067
  20
42.26154746785856
  30
888.144
  0
VERTEX
  8
Unknown Area Type
  70
32
  10
-6.07789153969521
  20
42.25918536637091
  30
874.226
  0
VERTEX
  8
Unknown Area Type
  70
32
  10
-6.07703169693437
  20
42.2187083638682
  30
870.216
  0
VERTEX
  8
Unknown Area Type
  70
32
  10
-6.07709649214828
  20
42.21867060387981
  30
870.178
  0
VERTEX
  8
Unknown Area Type
  70
32
  10
-6.10778264559873
  20
42.21904020112137
  30
1053.186
  0
VERTEX
  8
Unknown Area Type
  70
32
  10
-6.10931409414382
  20
42.25921497740382
  30
890.308
  0
VERTEX
  8
Unknown Area Type
  70
32
  10
-6.10201548130035
  20
42.26154247970202
  30
888.136
  0
VERTEX
  8
Unknown Area Type
  70
32
  10
-6.10199754187067
  20
42.26154746785856
  30
888.144
  0
SEQEND
  8
Unknown Area Type
  0
TEXT
  8
Unknown Area Type
 62
7
  1
PNOA-H_AMS_1956-57_33k_ES_PAN_2
 40
0.00045
  10
-6.09317327618403
  20
42.23977178420225
  0
POLYLINE
  8
Unknown Area Type
  70
9
  66
1
  0
VERTEX
  8
Unknown Area Type
  70
32
  10
-6.13639199321734
  20
42.26098035462438
  30
880.394
  0
VERTEX
  8
Unknown Area Type
  70
32
  10
-6.10931409414382
  20
42.25921497740382
  30
890.308
  0
VERTEX
  8
Unknown Area Type
  70
32
  10
-6.10778264559873
  20
42.21904020112137
  30
1053.186
  0
VERTEX
  8
Unknown Area Type
  70
32
  10
-6.11046079811913
  20
42.21782390247171
  30
1053.335
  0
VERTEX
  8
Unknown Area Type
  70
32
  10
-6.1381722565383
  20
42.21940968190506
  30
916.922
  0
VERTEX
  8
Unknown Area Type
  70
32
  10
-6.14048211543706
  20
42.25949056439978
  30
905.788
  0
VERTEX
  8
Unknown Area Type
  70
32
  10
-6.13640992944969
  20
42.26097536117431
  30
880.477
  0
VERTEX
  8
Unknown Area Type
  70
32
  10
-6.13639199321734
  20
42.26098035462438
  30
880.394
  0
SEQEND
  8
Unknown Area Type
  0
TEXT
  8
Unknown Area Type
 62
7
  1
PNOA-H_AMS_1956-57_33k_ES_PAN_2
 40
0.00045
  10
-6.12413289942081
  20
42.23939250984136
  0
POLYLINE
  8
Unknown Area Type
  70
9
  66
1
  0
VERTEX
  8
Unknown Area Type
  70
32
  10
-6.13639199321734
  20
42.26098035462438
  30
880.394
  0
VERTEX
  8
Unknown Area Type
  70
32
  10
-6.10931409414382
  20
42.25921497740382
  30
890.308
  0
VERTEX
  8
Unknown Area Type
  70
32
  10
-6.10778264559873
  20
42.21904020112137
  30
1053.186
  0
VERTEX
  8
Unknown Area Type
  70
32
  10
-6.11046079811913
  20
42.21782390247171
  30
1053.335
  0
VERTEX
  8
Unknown Area Type
  70
32
  10
-6.1381722565383
  20
42.21940968190506
  30
916.922
  0
VERTEX
  8
Unknown Area Type
  70
32
  10
-6.14048211543706
  20
42.25949056439978
  30
905.788
  0
VERTEX
  8
Unknown Area Type
  70
32
  10
-6.13640992944969
  20
42.26097536117431
  30
880.477
  0
VERTEX
  8
Unknown Area Type
  70
32
  10
-6.13639199321734
  20
42.26098035462438
  30
880.394
  0
SEQEND
  8
Unknown Area Type
  0
TEXT
  8
Unknown Area Type
 62
7
  1
PNOA-H_AMS_1956-57_33k_ES_PAN_2
 40
0.00045
  10
-6.12413289942081
  20
42.23939250984136
  0
POLYLINE
  8
Unknown Area Type
  70
9
  66
1
  0
VERTEX
  8
Unknown Area Type
  70
32
  10
-6.17014264836343
  20
42.25943467206036
  30
966.822
  0
VERTEX
  8
Unknown Area Type
  70
32
  10
-6.14048189209902
  20
42.25948606804671
  30
905.765
  0
VERTEX
  8
Unknown Area Type
  70
32
  10
-6.13817916525434
  20
42.21954907013338
  30
915.621
  0
VERTEX
  8
Unknown Area Type
  70
32
  10
-6.13817808279226
  20
42.21940501985458
  30
916.942
  0
VERTEX
  8
Unknown Area Type
  70
32
  10
-6.14554201647515
  20
42.2164430905212
  30
930.439
  0
VERTEX
  8
Unknown Area Type
  70
32
  10
-6.14575619885331
  20
42.21636517122638
  30
929.605
  0
VERTEX
  8
Unknown Area Type
  70
32
  10
-6.16862776815716
  20
42.21951712150095
  30
965.183
  0
VERTEX
  8
Unknown Area Type
  70
32
  10
-6.17013746314577
  20
42.25933125889469
  30
966.619
  0
VERTEX
  8
Unknown Area Type
  70
32
  10
-6.17014264836343
  20
42.25943467206036
  30
966.822
  0
SEQEND
  8
Unknown Area Type
  0
TEXT
  8
Unknown Area Type
 62
7
  1
PNOA-H_AMS_1956-57_33k_ES_PAN_2
 40
0.00045
  10
-6.15416087426093
  20
42.23849163825511
  0
POLYLINE
  8
Unknown Area Type
  70
9
  66
1
  0
VERTEX
  8
Unknown Area Type
  70
32
  10
-6.17014264836343
  20
42.25943467206036
  30
966.822
  0
VERTEX
  8
Unknown Area Type
  70
32
  10
-6.14048189209902
  20
42.25948606804671
  30
905.765
  0
VERTEX
  8
Unknown Area Type
  70
32
  10
-6.13817916525434
  20
42.21954907013338
  30
915.621
  0
VERTEX
  8
Unknown Area Type
  70
32
  10
-6.13817808279226
  20
42.21940501985458
  30
916.942
  0
VERTEX
  8
Unknown Area Type
  70
32
  10
-6.14554201647515
  20
42.2164430905212
  30
930.439
  0
VERTEX
  8
Unknown Area Type
  70
32
  10
-6.14575619885331
  20
42.21636517122638
  30
929.605
  0
VERTEX
  8
Unknown Area Type
  70
32
  10
-6.16862776815716
  20
42.21951712150095
  30
965.183
  0
VERTEX
  8
Unknown Area Type
  70
32
  10
-6.17013746314577
  20
42.25933125889469
  30
966.619
  0
VERTEX
  8
Unknown Area Type
  70
32
  10
-6.17014264836343
  20
42.25943467206036
  30
966.822
  0
SEQEND
  8
Unknown Area Type
  0
TEXT
  8
Unknown Area Type
 62
7
  1
PNOA-H_AMS_1956-57_33k_ES_PAN_2
 40
0.00045
  10
-6.15416087426093
  20
42.23849163825511
  0
POLYLINE
  8
Unknown Area Type
  70
9
  66
1
  0
VERTEX
  8
Unknown Area Type
  70
32
  10
-6.0676606552191
  20
42.2620666757917
  30
869.103
  0
VERTEX
  8
Unknown Area Type
  70
32
  10
-6.06761828004671
  20
42.26206781026601
  30
869.055
  0
VERTEX
  8
Unknown Area Type
  70
32
  10
-6.06695860174589
  20
42.26196390165948
  30
868.733
  0
VERTEX
  8
Unknown Area Type
  70
32
  10
-6.04544520789609
  20
42.25853947890277
  30
815.707
  0
VERTEX
  8
Unknown Area Type
  70
32
  10
-6.04696425874382
  20
42.21935865196512
  30
864.273
  0
VERTEX
  8
Unknown Area Type
  70
32
  10
-6.0770375278157
  20
42.21870370478264
  30
870.202
  0
VERTEX
  8
Unknown Area Type
  70
32
  10
-6.07789153969521
  20
42.25918536637091
  30
874.226
  0
VERTEX
  8
Unknown Area Type
  70
32
  10
-6.06767859782129
  20
42.26206169292212
  30
869.124
  0
VERTEX
  8
Unknown Area Type
  70
32
  10
-6.0676606552191
  20
42.2620666757917
  30
869.103
  0
SEQEND
  8
Unknown Area Type
  0
TEXT
  8
Unknown Area Type
 62
7
  1
PNOA-H_AMS_1956-57_33k_ES_PAN_2
 40
0.00045
  10
-6.06166885190468
  20
42.2400786040414
  0
POLYLINE
  8
Unknown Area Type
  70
9
  66
1
  0
VERTEX
  8
Unknown Area Type
  70
32
  10
-6.0676606552191
  20
42.2620666757917
  30
869.103
  0
VERTEX
  8
Unknown Area Type
  70
32
  10
-6.06761828004671
  20
42.26206781026601
  30
869.055
  0
VERTEX
  8
Unknown Area Type
  70
32
  10
-6.06695860174589
  20
42.26196390165948
  30
868.733
  0
VERTEX
  8
Unknown Area Type
  70
32
  10
-6.04544520789609
  20
42.25853947890277
  30
815.707
  0
VERTEX
  8
Unknown Area Type
  70
32
  10
-6.04696425874382
  20
42.21935865196512
  30
864.273
  0
VERTEX
  8
Unknown Area Type
  70
32
  10
-6.0770375278157
  20
42.21870370478264
  30
870.202
  0
VERTEX
  8
Unknown Area Type
  70
32
  10
-6.07789153969521
  20
42.25918536637091
  30
874.226
  0
VERTEX
  8
Unknown Area Type
  70
32
  10
-6.06767859782129
  20
42.26206169292212
  30
869.124
  0
VERTEX
  8
Unknown Area Type
  70
32
  10
-6.0676606552191
  20
42.2620666757917
  30
869.103
  0
SEQEND
  8
Unknown Area Type
  0
TEXT
  8
Unknown Area Type
 62
7
  1
PNOA-H_AMS_1956-57_33k_ES_PAN_2
 40
0.00045
  10
-6.06166885190468
  20
42.2400786040414
  0
POLYLINE
  8
Unknown Area Type
  70
9
  66
1
  0
VERTEX
  8
Unknown Area Type
  70
32
  10
-5.91775947931391
  20
42.17437204692979
  30
851.981
  0
VERTEX
  8
Unknown Area Type
  70
32
  10
-5.90771124895938
  20
42.17674811025316
  30
878.834
  0
VERTEX
  8
Unknown Area Type
  70
32
  10
-5.90768101728487
  20
42.17674887713073
  30
878.723
  0
VERTEX
  8
Unknown Area Type
  70
32
  10
-5.90765559476342
  20
42.17672250631442
  30
878.18
  0
VERTEX
  8
Unknown Area Type
  70
32
  10
-5.89817679165371
  20
42.16666666666671
  30
857.867
  0
VERTEX
  8
Unknown Area Type
  70
32
  10
-5.91707022430946
  20
42.16666666666671
  30
835.295
  0
SEQEND
  8
Unknown Area Type
  0
TEXT
  8
Unknown Area Type
 62
7
  1
PNOA-H_AMS_1956-57_33k_ES_PAN_2
 40
0.00045
  10
-5.90796813548381
  20
42.17170777189872
  0
POLYLINE
  8
Unknown Area Type
  70
9
  66
1
  0
VERTEX
  8
Unknown Area Type
  70
32
  10
-5.91775947931391
  20
42.17437204692979
  30
851.981
  0
VERTEX
  8
Unknown Area Type
  70
32
  10
-5.90771124895938
  20
42.17674811025316
  30
878.834
  0
VERTEX
  8
Unknown Area Type
  70
32
  10
-5.90768101728487
  20
42.17674887713073
  30
878.723
  0
VERTEX
  8
Unknown Area Type
  70
32
  10
-5.90765559476342
  20
42.17672250631442
  30
878.18
  0
VERTEX
  8
Unknown Area Type
  70
32
  10
-5.89817679165371
  20
42.16666666666671
  30
857.867
  0
VERTEX
  8
Unknown Area Type
  70
32
  10
-5.91707022430946
  20
42.16666666666671
  30
835.295
  0
SEQEND
  8
Unknown Area Type
  0
TEXT
  8
Unknown Area Type
 62
7
  1
PNOA-H_AMS_1956-57_33k_ES_PAN_2
 40
0.00045
  10
-5.90796813548381
  20
42.17170777189872
  0
POLYLINE
  8
Unknown Area Type
  70
9
  66
1
  0
VERTEX
  8
Unknown Area Type
  70
32
  10
-5.91707022430946
  20
42.16666666666671
  30
835.295
  0
VERTEX
  8
Unknown Area Type
  70
32
  10
-5.89817679165371
  20
42.16666666666671
  30
857.867
  0
VERTEX
  8
Unknown Area Type
  70
32
  10
-5.89817663455091
  20
42.16666650000005
  30
857.866
  0
VERTEX
  8
Unknown Area Type
  70
32
  10
-5.91707020940094
  20
42.16666650000004
  30
835.295
  0
SEQEND
  8
Unknown Area Type
  0
TEXT
  8
Unknown Area Type
 62
7
  1
PNOA-H_AMS_1956-57_33k_ES_PAN_2
 40
0.00045
  10
-5.90762342943019
  20
42.16666658333337
  0
POLYLINE
  8
Unknown Area Type
  70
9
  66
1
  0
VERTEX
  8
Unknown Area Type
  70
32
  10
-5.980636077125
  20
42.17340266015509
  30
826.555
  0
VERTEX
  8
Unknown Area Type
  70
32
  10
-5.96499928448979
  20
42.17711761544268
  30
829.175
  0
VERTEX
  8
Unknown Area Type
  70
32
  10
-5.96497531051321
  20
42.17712273818042
  30
829.145
  0
VERTEX
  8
Unknown Area Type
  70
32
  10
-5.96475576011848
  20
42.17708789381357
  30
828.922
  0
VERTEX
  8
Unknown Area Type
  70
32
  10
-5.94977547100121
  20
42.17413345555669
  30
792.467
  0
VERTEX
  8
Unknown Area Type
  70
32
  10
-5.94973877753232
  20
42.17412539462717
  30
792.462
  0
VERTEX
  8
Unknown Area Type
  70
32
  10
-5.94973064008734
  20
42.17408057802845
  30
792.509
  0
VERTEX
  8
Unknown Area Type
  70
32
  10
-5.94917333583195
  20
42.16666666666671
  30
796.359
  0
VERTEX
  8
Unknown Area Type
  70
32
  10
-5.97916666666665
  20
42.16666666666671
  30
826.678
  0
VERTEX
  8
Unknown Area Type
  70
32
  10
-5.98060449029951
  20
42.16666666666671
  30
826.677
  0
SEQEND
  8
Unknown Area Type
  0
TEXT
  8
Unknown Area Type
 62
7
  1
PNOA-H_AMS_1956-57_33k_ES_PAN_2
 40
0.00045
  10
-5.96490470647848
  20
42.17189470242356
  0
POLYLINE
  8
Unknown Area Type
  70
9
  66
1
  0
VERTEX
  8
Unknown Area Type
  70
32
  10
-5.980636077125
  20
42.17340266015509
  30
826.555
  0
VERTEX
  8
Unknown Area Type
  70
32
  10
-5.96499928448979
  20
42.17711761544268
  30
829.175
  0
VERTEX
  8
Unknown Area Type
  70
32
  10
-5.96497531051321
  20
42.17712273818042
  30
829.145
  0
VERTEX
  8
Unknown Area Type
  70
32
  10
-5.96475576011848
  20
42.17708789381357
  30
828.922
  0
VERTEX
  8
Unknown Area Type
  70
32
  10
-5.94977547100121
  20
42.17413345555669
  30
792.467
  0
VERTEX
  8
Unknown Area Type
  70
32
  10
-5.94973877753232
  20
42.17412539462717
  30
792.462
  0
VERTEX
  8
Unknown Area Type
  70
32
  10
-5.94973064008734
  20
42.17408057802845
  30
792.509
  0
VERTEX
  8
Unknown Area Type
  70
32
  10
-5.94917333583195
  20
42.16666666666671
  30
796.359
  0
VERTEX
  8
Unknown Area Type
  70
32
  10
-5.97916666666665
  20
42.16666666666671
  30
826.678
  0
VERTEX
  8
Unknown Area Type
  70
32
  10
-5.98060449029951
  20
42.16666666666671
  30
826.677
  0
SEQEND
  8
Unknown Area Type
  0
TEXT
  8
Unknown Area Type
 62
7
  1
PNOA-H_AMS_1956-57_33k_ES_PAN_2
 40
0.00045
  10
-5.96490470647848
  20
42.17189470242356
  0
POLYLINE
  8
Unknown Area Type
  70
9
  66
1
  0
VERTEX
  8
Unknown Area Type
  70
32
  10
-5.98060449029951
  20
42.16666666666671
  30
826.677
  0
VERTEX
  8
Unknown Area Type
  70
32
  10
-5.97916666666665
  20
42.16666666666671
  30
826.678
  0
VERTEX
  8
Unknown Area Type
  70
32
  10
-5.94917333583195
  20
42.16666666666671
  30
796.359
  0
VERTEX
  8
Unknown Area Type
  70
32
  10
-5.9491733233036
  20
42.16666650000004
  30
796.359
  0
VERTEX
  8
Unknown Area Type
  70
32
  10
-5.98060448951797
  20
42.16666650000004
  30
826.677
  0
SEQEND
  8
Unknown Area Type
  0
TEXT
  8
Unknown Area Type
 62
7
  1
PNOA-H_AMS_1956-57_33k_ES_PAN_2
 40
0.00045
  10
-5.96488890680156
  20
42.16666658333337
  0
POLYLINE
  8
Unknown Area Type
  70
9
  66
1
  0
VERTEX
  8
Unknown Area Type
  70
32
  10
-6.18749999999997
  20
42.18088989620388
  30
917.05
  0
VERTEX
  8
Unknown Area Type
  70
32
  10
-6.17969678175402
  20
42.18095284889625
  30
906.796
  0
VERTEX
  8
Unknown Area Type
  70
32
  10
-6.18001115527087
  20
42.16666666666671
  30
953.939
  0
VERTEX
  8
Unknown Area Type
  70
32
  10
-6.18749999999997
  20
42.16666666666671
  30
949.337
  0
SEQEND
  8
Unknown Area Type
  0
TEXT
  8
Unknown Area Type
 62
7
  1
PNOA-H_AMS_1956-57_33k_ES_PAN_2
 40
0.00045
  10
-6.18359839087699
  20
42.17380975778148
  0
POLYLINE
  8
Unknown Area Type
  70
9
  66
1
  0
VERTEX
  8
Unknown Area Type
  70
32
  10
-6.18749999999997
  20
42.18088989620388
  30
917.05
  0
VERTEX
  8
Unknown Area Type
  70
32
  10
-6.17969678175402
  20
42.18095284889625
  30
906.796
  0
VERTEX
  8
Unknown Area Type
  70
32
  10
-6.18001115527087
  20
42.16666666666671
  30
953.939
  0
VERTEX
  8
Unknown Area Type
  70
32
  10
-6.18749999999997
  20
42.16666666666671
  30
949.337
  0
SEQEND
  8
Unknown Area Type
  0
TEXT
  8
Unknown Area Type
 62
7
  1
PNOA-H_AMS_1956-57_33k_ES_PAN_2
 40
0.00045
  10
-6.18359839087699
  20
42.17380975778148
  0
POLYLINE
  8
Unknown Area Type
  70
9
  66
1
  0
VERTEX
  8
Unknown Area Type
  70
32
  10
-6.18749999999997
  20
42.16666666666671
  30
949.337
  0
VERTEX
  8
Unknown Area Type
  70
32
  10
-6.18001115527087
  20
42.16666666666671
  30
953.939
  0
VERTEX
  8
Unknown Area Type
  70
32
  10
-6.18001115893844
  20
42.16666650000004
  30
953.94
  0
VERTEX
  8
Unknown Area Type
  70
32
  10
-6.18749999999997
  20
42.16666650000004
  30
949.337
  0
SEQEND
  8
Unknown Area Type
  0
TEXT
  8
Unknown Area Type
 62
7
  1
PNOA-H_AMS_1956-57_33k_ES_PAN_2
 40
0.00045
  10
-6.18375557763542
  20
42.16666658333337
  0
POLYLINE
  8
Unknown Area Type
  70
9
  66
1
  0
VERTEX
  8
Unknown Area Type
  70
32
  10
-6.17969678175402
  20
42.18095284889625
  30
906.796
  0
VERTEX
  8
Unknown Area Type
  70
32
  10
-6.1792833125882
  20
42.1811579272811
  30
906.507
  0
VERTEX
  8
Unknown Area Type
  70
32
  10
-6.14601583590114
  20
42.18098185600219
  30
885.401
  0
VERTEX
  8
Unknown Area Type
  70
32
  10
-6.14596142724744
  20
42.18098334951915
  30
885.405
  0
VERTEX
  8
Unknown Area Type
  70
32
  10
-6.14546503453383
  20
42.18098346675168
  30
885.026
  0
VERTEX
  8
Unknown Area Type
  70
32
  10
-6.14536763876843
  20
42.18097263222978
  30
884.897
  0
VERTEX
  8
Unknown Area Type
  70
32
  10
-6.13779552540562
  20
42.17707839923638
  30
917.142
  0
VERTEX
  8
Unknown Area Type
  70
32
  10
-6.13781054557803
  20
42.17701495271699
  30
917.086
  0
VERTEX
  8
Unknown Area Type
  70
32
  10
-6.14184450205136
  20
42.1666666666667
  30
918.253
  0
VERTEX
  8
Unknown Area Type
  70
32
  10
-6.14583333333334
  20
42.16666666666671
  30
918.405
  0
VERTEX
  8
Unknown Area Type
  70
32
  10
-6.18001085680738
  20
42.16666666666671
  30
953.968
  0
SEQEND
  8
Unknown Area Type
  0
TEXT
  8
Unknown Area Type
 62
7
  1
PNOA-H_AMS_1956-57_33k_ES_PAN_2
 40
0.00045
  10
-6.16063943651812
  20
42.16806815263352
  0
POLYLINE
  8
Unknown Area Type
  70
9
  66
1
  0
VERTEX
  8
Unknown Area Type
  70
32
  10
-6.17969678175402
  20
42.18095284889625
  30
906.796
  0
VERTEX
  8
Unknown Area Type
  70
32
  10
-6.1792833125882
  20
42.1811579272811
  30
906.507
  0
VERTEX
  8
Unknown Area Type
  70
32
  10
-6.14601583590114
  20
42.18098185600219
  30
885.401
  0
VERTEX
  8
Unknown Area Type
  70
32
  10
-6.14596142724744
  20
42.18098334951915
  30
885.405
  0
VERTEX
  8
Unknown Area Type
  70
32
  10
-6.14546503453383
  20
42.18098346675168
  30
885.026
  0
VERTEX
  8
Unknown Area Type
  70
32
  10
-6.14536763876843
  20
42.18097263222978
  30
884.897
  0
VERTEX
  8
Unknown Area Type
  70
32
  10
-6.13779552540562
  20
42.17707839923638
  30
917.142
  0
VERTEX
  8
Unknown Area Type
  70
32
  10
-6.13781054557803
  20
42.17701495271699
  30
917.086
  0
VERTEX
  8
Unknown Area Type
  70
32
  10
-6.14184450205136
  20
42.1666666666667
  30
918.253
  0
VERTEX
  8
Unknown Area Type
  70
32
  10
-6.14583333333334
  20
42.16666666666671
  30
918.405
  0
VERTEX
  8
Unknown Area Type
  70
32
  10
-6.18001085680738
  20
42.16666666666671
  30
953.968
  0
SEQEND
  8
Unknown Area Type
  0
TEXT
  8
Unknown Area Type
 62
7
  1
PNOA-H_AMS_1956-57_33k_ES_PAN_2
 40
0.00045
  10
-6.16063943651812
  20
42.16806815263352
  0
POLYLINE
  8
Unknown Area Type
  70
9
  66
1
  0
VERTEX
  8
Unknown Area Type
  70
32
  10
-6.18001085680738
  20
42.16666666666671
  30
953.968
  0
VERTEX
  8
Unknown Area Type
  70
32
  10
-6.14583333333334
  20
42.16666666666671
  30
918.405
  0
VERTEX
  8
Unknown Area Type
  70
32
  10
-6.14184450205136
  20
42.1666666666667
  30
918.253
  0
VERTEX
  8
Unknown Area Type
  70
32
  10
-6.14184456702116
  20
42.16666650000004
  30
918.253
  0
VERTEX
  8
Unknown Area Type
  70
32
  10
-6.18001086047147
  20
42.16666650000004
  30
953.969
  0
SEQEND
  8
Unknown Area Type
  0
TEXT
  8
Unknown Area Type
 62
7
  1
PNOA-H_AMS_1956-57_33k_ES_PAN_2
 40
0.00045
  10
-6.16092768126142
  20
42.16666658333337
  0
POLYLINE
  8
Unknown Area Type
  70
9
  66
1
  0
VERTEX
  8
Unknown Area Type
  70
32
  10
-5.86725416612084
  20
42.17977540114099
  30
773.722
  0
VERTEX
  8
Unknown Area Type
  70
32
  10
-5.85416666666668
  20
42.18048969622879
  30
761.671
  0
VERTEX
  8
Unknown Area Type
  70
32
  10
-5.85416666666668
  20
42.16666666666671
  30
761.267
  0
VERTEX
  8
Unknown Area Type
  70
32
  10
-5.86043325370512
  20
42.16666666666671
  30
762.789
  0
VERTEX
  8
Unknown Area Type
  70
32
  10
-5.86718964058052
  20
42.17767878926433
  30
768.792
  0
SEQEND
  8
Unknown Area Type
  0
TEXT
  8
Unknown Area Type
 62
7
  1
PNOA-H_AMS_1956-57_33k_ES_PAN_2
 40
0.00045
  10
-5.86071041639376
  20
42.17357818144775
  0
POLYLINE
  8
Unknown Area Type
  70
9
  66
1
  0
VERTEX
  8
Unknown Area Type
  70
32
  10
-5.86725416612084
  20
42.17977540114099
  30
773.722
  0
VERTEX
  8
Unknown Area Type
  70
32
  10
-5.85416666666668
  20
42.18048969622879
  30
761.671
  0
VERTEX
  8
Unknown Area Type
  70
32
  10
-5.85416666666668
  20
42.16666666666671
  30
761.267
  0
VERTEX
  8
Unknown Area Type
  70
32
  10
-5.86043325370512
  20
42.16666666666671
  30
762.789
  0
VERTEX
  8
Unknown Area Type
  70
32
  10
-5.86718964058052
  20
42.17767878926433
  30
768.792
  0
SEQEND
  8
Unknown Area Type
  0
TEXT
  8
Unknown Area Type
 62
7
  1
PNOA-H_AMS_1956-57_33k_ES_PAN_2
 40
0.00045
  10
-5.86071041639376
  20
42.17357818144775
  0
POLYLINE
  8
Unknown Area Type
  70
9
  66
1
  0
VERTEX
  8
Unknown Area Type
  70
32
  10
-5.85416666666668
  20
42.18048969622879
  30
761.671
  0
VERTEX
  8
Unknown Area Type
  70
32
  10
-5.85416633333334
  20
42.1804897144216
  30
761.67
  0
VERTEX
  8
Unknown Area Type
  70
32
  10
-5.85416633333334
  20
42.16666666666671
  30
761.267
  0
VERTEX
  8
Unknown Area Type
  70
32
  10
-5.85416666666668
  20
42.16666666666671
  30
761.267
  0
SEQEND
  8
Unknown Area Type
  0
TEXT
  8
Unknown Area Type
 62
7
  1
PNOA-H_AMS_1956-57_33k_ES_PAN_2
 40
0.00045
  10
-5.85416650000001
  20
42.17357819054415
  0
POLYLINE
  8
Unknown Area Type
  70
9
  66
1
  0
VERTEX
  8
Unknown Area Type
  70
32
  10
-5.86043325370512
  20
42.16666666666671
  30
762.789
  0
VERTEX
  8
Unknown Area Type
  70
32
  10
-5.85416666666668
  20
42.16666666666671
  30
761.267
  0
VERTEX
  8
Unknown Area Type
  70
32
  10
-5.85416666666668
  20
42.16666650000004
  30
761.267
  0
VERTEX
  8
Unknown Area Type
  70
32
  10
-5.86043315144832
  20
42.16666650000003
  30
762.789
  0
SEQEND
  8
Unknown Area Type
  0
TEXT
  8
Unknown Area Type
 62
7
  1
PNOA-H_AMS_1956-57_33k_ES_PAN_2
 40
0.00045
  10
-5.8572999601859
  20
42.16666658333337
  0
POLYLINE
  8
Unknown Area Type
  70
9
  66
1
  0
VERTEX
  8
Unknown Area Type
  70
32
  10
-5.85416666666668
  20
42.16666666666671
  30
761.267
  0
VERTEX
  8
Unknown Area Type
  70
32
  10
-5.85416633333334
  20
42.16666666666671
  30
761.267
  0
VERTEX
  8
Unknown Area Type
  70
32
  10
-5.85416633333334
  20
42.16666650000004
  30
761.267
  0
VERTEX
  8
Unknown Area Type
  70
32
  10
-5.85416666666668
  20
42.16666650000004
  30
761.267
  0
SEQEND
  8
Unknown Area Type
  0
TEXT
  8
Unknown Area Type
 62
7
  1
PNOA-H_AMS_1956-57_33k_ES_PAN_2
 40
0.00045
  10
-5.85416650000001
  20
42.16666658333337
  0
POLYLINE
  8
Unknown Area Type
  70
9
  66
1
  0
VERTEX
  8
Unknown Area Type
  70
32
  10
-5.90037168892471
  20
42.18078829686144
  30
824.243
  0
VERTEX
  8
Unknown Area Type
  70
32
  10
-5.87325708683383
  20
42.18012488114485
  30
798.311
  0
VERTEX
  8
Unknown Area Type
  70
32
  10
-5.87316618044478
  20
42.18012265714246
  30
798.461
  0
VERTEX
  8
Unknown Area Type
  70
32
  10
-5.86759670783355
  20
42.17998746130991
  30
775.2
  0
VERTEX
  8
Unknown Area Type
  70
32
  10
-5.86725416612084
  20
42.17977540114099
  30
773.722
  0
VERTEX
  8
Unknown Area Type
  70
32
  10
-5.86718964058052
  20
42.17767878926433
  30
768.792
  0
VERTEX
  8
Unknown Area Type
  70
32
  10
-5.87367508000919
  20
42.1666666666667
  30
791.936
  0
VERTEX
  8
Unknown Area Type
  70
32
  10
-5.89583333333331
  20
42.16666666666671
  30
855.808
  0
VERTEX
  8
Unknown Area Type
  70
32
  10
-5.8981808538777
  20
42.16666666666671
  30
858.198
  0
VERTEX
  8
Unknown Area Type
  70
32
  10
-5.907687269819
  20
42.17675322114115
  30
878.767
  0
SEQEND
  8
Unknown Area Type
  0
TEXT
  8
Unknown Area Type
 62
7
  1
PNOA-H_AMS_1956-57_33k_ES_PAN_2
 40
0.00045
  10
-5.88743887038111
  20
42.16786895641251
  0
POLYLINE
  8
Unknown Area Type
  70
9
  66
1
  0
VERTEX
  8
Unknown Area Type
  70
32
  10
-5.90037168892471
  20
42.18078829686144
  30
824.243
  0
VERTEX
  8
Unknown Area Type
  70
32
  10
-5.87325708683383
  20
42.18012488114485
  30
798.311
  0
VERTEX
  8
Unknown Area Type
  70
32
  10
-5.87316618044478
  20
42.18012265714246
  30
798.461
  0
VERTEX
  8
Unknown Area Type
  70
32
  10
-5.86759670783355
  20
42.17998746130991
  30
775.2
  0
VERTEX
  8
Unknown Area Type
  70
32
  10
-5.86725416612084
  20
42.17977540114099
  30
773.722
  0
VERTEX
  8
Unknown Area Type
  70
32
  10
-5.86718964058052
  20
42.17767878926433
  30
768.792
  0
VERTEX
  8
Unknown Area Type
  70
32
  10
-5.87367508000919
  20
42.1666666666667
  30
791.936
  0
VERTEX
  8
Unknown Area Type
  70
32
  10
-5.89583333333331
  20
42.16666666666671
  30
855.808
  0
VERTEX
  8
Unknown Area Type
  70
32
  10
-5.8981808538777
  20
42.16666666666671
  30
858.198
  0
VERTEX
  8
Unknown Area Type
  70
32
  10
-5.907687269819
  20
42.17675322114115
  30
878.767
  0
SEQEND
  8
Unknown Area Type
  0
TEXT
  8
Unknown Area Type
 62
7
  1
PNOA-H_AMS_1956-57_33k_ES_PAN_2
 40
0.00045
  10
-5.88743887038111
  20
42.16786895641251
  0
POLYLINE
  8
Unknown Area Type
  70
9
  66
1
  0
VERTEX
  8
Unknown Area Type
  70
32
  10
-5.8981808538777
  20
42.16666666666671
  30
858.198
  0
VERTEX
  8
Unknown Area Type
  70
32
  10
-5.89583333333331
  20
42.16666666666671
  30
855.808
  0
VERTEX
  8
Unknown Area Type
  70
32
  10
-5.87367508000919
  20
42.1666666666667
  30
791.936
  0
VERTEX
  8
Unknown Area Type
  70
32
  10
-5.87367517816526
  20
42.16666650000004
  30
791.936
  0
VERTEX
  8
Unknown Area Type
  70
32
  10
-5.89818069679703
  20
42.16666650000005
  30
858.197
  0
SEQEND
  8
Unknown Area Type
  0
TEXT
  8
Unknown Area Type
 62
7
  1
PNOA-H_AMS_1956-57_33k_ES_PAN_2
 40
0.00045
  10
-5.88592796694344
  20
42.16666658333337
  0
POLYLINE
  8
Unknown Area Type
  70
9
  66
1
  0
VERTEX
  8
Unknown Area Type
  70
32
  10
-5.97411188362469
  20
42.21767938674996
  30
837.973
  0
VERTEX
  8
Unknown Area Type
  70
32
  10
-5.97295487125831
  20
42.21729066746251
  30
837.51
  0
VERTEX
  8
Unknown Area Type
  70
32
  10
-5.97296028773441
  20
42.21727701925703
  30
837.477
  0
VERTEX
  8
Unknown Area Type
  70
32
  10
-6.00202159553615
  20
42.17750022232816
  30
845.67
  0
VERTEX
  8
Unknown Area Type
  70
32
  10
-6.00206370388534
  20
42.17749461687703
  30
845.639
  0
VERTEX
  8
Unknown Area Type
  70
32
  10
-6.00919576048106
  20
42.17790193512606
  30
849.665
  0
VERTEX
  8
Unknown Area Type
  70
32
  10
-6.00961105626585
  20
42.21763065106235
  30
851.013
  0
VERTEX
  8
Unknown Area Type
  70
32
  10
-5.98272240798871
  20
42.22057588918502
  30
830.59
  0
VERTEX
  8
Unknown Area Type
  70
32
  10
-5.97413024446459
  20
42.21768341283841
  30
837.973
  0
VERTEX
  8
Unknown Area Type
  70
32
  10
-5.97411188362469
  20
42.21767938674996
  30
837.973
  0
SEQEND
  8
Unknown Area Type
  0
TEXT
  8
Unknown Area Type
 62
7
  1
PNOA-H_AMS_1956-57_33k_ES_PAN_2
 40
0.00045
  10
-5.99128345299678
  20
42.20591698004365
  0
POLYLINE
  8
Unknown Area Type
  70
9
  66
1
  0
VERTEX
  8
Unknown Area Type
  70
32
  10
-5.97411188362469
  20
42.21767938674996
  30
837.973
  0
VERTEX
  8
Unknown Area Type
  70
32
  10
-5.97295487125831
  20
42.21729066746251
  30
837.51
  0
VERTEX
  8
Unknown Area Type
  70
32
  10
-5.97296028773441
  20
42.21727701925703
  30
837.477
  0
VERTEX
  8
Unknown Area Type
  70
32
  10
-6.00202159553615
  20
42.17750022232816
  30
845.67
  0
VERTEX
  8
Unknown Area Type
  70
32
  10
-6.00206370388534
  20
42.17749461687703
  30
845.639
  0
VERTEX
  8
Unknown Area Type
  70
32
  10
-6.00919576048106
  20
42.17790193512606
  30
849.665
  0
VERTEX
  8
Unknown Area Type
  70
32
  10
-6.00961105626585
  20
42.21763065106235
  30
851.013
  0
VERTEX
  8
Unknown Area Type
  70
32
  10
-5.98272240798871
  20
42.22057588918502
  30
830.59
  0
VERTEX
  8
Unknown Area Type
  70
32
  10
-5.97413024446459
  20
42.21768341283841
  30
837.973
  0
VERTEX
  8
Unknown Area Type
  70
32
  10
-5.97411188362469
  20
42.21767938674996
  30
837.973
  0
SEQEND
  8
Unknown Area Type
  0
TEXT
  8
Unknown Area Type
 62
7
  1
PNOA-H_AMS_1956-57_33k_ES_PAN_2
 40
0.00045
  10
-5.99128345299678
  20
42.20591698004365
  0
POLYLINE
  8
Unknown Area Type
  70
9
  66
1
  0
VERTEX
  8
Unknown Area Type
  70
32
  10
-6.09822464488803
  20
42.21892530016163
  30
923.152
  0
VERTEX
  8
Unknown Area Type
  70
32
  10
-6.07709649214828
  20
42.21867060387981
  30
870.178
  0
VERTEX
  8
Unknown Area Type
  70
32
  10
-6.07709862673821
  20
42.17744083368964
  30
885.371
  0
VERTEX
  8
Unknown Area Type
  70
32
  10
-6.07710401758041
  20
42.17742718131974
  30
885.356
  0
VERTEX
  8
Unknown Area Type
  70
32
  10
-6.07716338115239
  20
42.1774030748112
  30
885.512
  0
VERTEX
  8
Unknown Area Type
  70
32
  10
-6.07904703819556
  20
42.17667710505125
  30
888.174
  0
VERTEX
  8
Unknown Area Type
  70
32
  10
-6.11071460115869
  20
42.17723128666815
  30
900.061
  0
VERTEX
  8
Unknown Area Type
  70
32
  10
-6.11123925803733
  20
42.17743766969915
  30
900.207
  0
VERTEX
  8
Unknown Area Type
  70
32
  10
-6.11046684724318
  20
42.21782373828209
  30
1053.289
  0
VERTEX
  8
Unknown Area Type
  70
32
  10
-6.10778869485426
  20
42.21904003706918
  30
1053.242
  0
VERTEX
  8
Unknown Area Type
  70
32
  10
-6.098242792786
  20
42.21892480951733
  30
923.398
  0
VERTEX
  8
Unknown Area Type
  70
32
  10
-6.09822464488803
  20
42.21892530016163
  30
923.152
  0
SEQEND
  8
Unknown Area Type
  0
TEXT
  8
Unknown Area Type
 62
7
  1
PNOA-H_AMS_1956-57_33k_ES_PAN_2
 40
0.00045
  10
-6.09416806771681
  20
42.19790756415519
  0
POLYLINE
  8
Unknown Area Type
  70
9
  66
1
  0
VERTEX
  8
Unknown Area Type
  70
32
  10
-6.09822464488803
  20
42.21892530016163
  30
923.152
  0
VERTEX
  8
Unknown Area Type
  70
32
  10
-6.07709649214828
  20
42.21867060387981
  30
870.178
  0
VERTEX
  8
Unknown Area Type
  70
32
  10
-6.07709862673821
  20
42.17744083368964
  30
885.371
  0
VERTEX
  8
Unknown Area Type
  70
32
  10
-6.07710401758041
  20
42.17742718131974
  30
885.356
  0
VERTEX
  8
Unknown Area Type
  70
32
  10
-6.07716338115239
  20
42.1774030748112
  30
885.512
  0
VERTEX
  8
Unknown Area Type
  70
32
  10
-6.07904703819556
  20
42.17667710505125
  30
888.174
  0
VERTEX
  8
Unknown Area Type
  70
32
  10
-6.11071460115869
  20
42.17723128666815
  30
900.061
  0
VERTEX
  8
Unknown Area Type
  70
32
  10
-6.11123925803733
  20
42.17743766969915
  30
900.207
  0
VERTEX
  8
Unknown Area Type
  70
32
  10
-6.11046684724318
  20
42.21782373828209
  30
1053.289
  0
VERTEX
  8
Unknown Area Type
  70
32
  10
-6.10778869485426
  20
42.21904003706918
  30
1053.242
  0
VERTEX
  8
Unknown Area Type
  70
32
  10
-6.098242792786
  20
42.21892480951733
  30
923.398
  0
VERTEX
  8
Unknown Area Type
  70
32
  10
-6.09822464488803
  20
42.21892530016163
  30
923.152
  0
SEQEND
  8
Unknown Area Type
  0
TEXT
  8
Unknown Area Type
 62
7
  1
PNOA-H_AMS_1956-57_33k_ES_PAN_2
 40
0.00045
  10
-6.09416806771681
  20
42.19790756415519
  0
POLYLINE
  8
Unknown Area Type
  70
9
  66
1
  0
VERTEX
  8
Unknown Area Type
  70
32
  10
-6.01407143368649
  20
42.2193324601987
  30
852.458
  0
VERTEX
  8
Unknown Area Type
  70
32
  10
-6.01399883591969
  20
42.21933436950472
  30
852.409
  0
VERTEX
  8
Unknown Area Type
  70
32
  10
-6.01396189489042
  20
42.21932183338197
  30
852.388
  0
VERTEX
  8
Unknown Area Type
  70
32
  10
-6.00964820923683
  20
42.21764768558933
  30
851.035
  0
VERTEX
  8
Unknown Area Type
  70
32
  10
-6.00961105626585
  20
42.21763065106235
  30
851.013
  0
VERTEX
  8
Unknown Area Type
  70
32
  10
-6.00960614057376
  20
42.2175272214675
  30
850.966
  0
VERTEX
  8
Unknown Area Type
  70
32
  10
-6.00919576048106
  20
42.17790193512606
  30
849.665
  0
VERTEX
  8
Unknown Area Type
  70
32
  10
-6.01252740220749
  20
42.17667526701857
  30
851.638
  0
VERTEX
  8
Unknown Area Type
  70
32
  10
-6.04402834091729
  20
42.17729732244558
  30
903.658
  0
VERTEX
  8
Unknown Area Type
  70
32
  10
-6.04402985196007
  20
42.17732880023747
  30
902.598
  0
VERTEX
  8
Unknown Area Type
  70
32
  10
-6.043485898997
  20
42.21781665955439
  30
863.311
  0
VERTEX
  8
Unknown Area Type
  70
32
  10
-6.01424666419261
  20
42.21932334893474
  30
852.527
  0
VERTEX
  8
Unknown Area Type
  70
32
  10
-6.01407143368649
  20
42.2193324601987
  30
852.458
  0
SEQEND
  8
Unknown Area Type
  0
TEXT
  8
Unknown Area Type
 62
7
  1
PNOA-H_AMS_1956-57_33k_ES_PAN_2
 40
0.00045
  10
-6.026613144155
  20
42.19781859576491
  0
POLYLINE
  8
Unknown Area Type
  70
9
  66
1
  0
VERTEX
  8
Unknown Area Type
  70
32
  10
-6.01407143368649
  20
42.2193324601987
  30
852.458
  0
VERTEX
  8
Unknown Area Type
  70
32
  10
-6.01399883591969
  20
42.21933436950472
  30
852.409
  0
VERTEX
  8
Unknown Area Type
  70
32
  10
-6.01396189489042
  20
42.21932183338197
  30
852.388
  0
VERTEX
  8
Unknown Area Type
  70
32
  10
-6.00964820923683
  20
42.21764768558933
  30
851.035
  0
VERTEX
  8
Unknown Area Type
  70
32
  10
-6.00961105626585
  20
42.21763065106235
  30
851.013
  0
VERTEX
  8
Unknown Area Type
  70
32
  10
-6.00960614057376
  20
42.2175272214675
  30
850.966
  0
VERTEX
  8
Unknown Area Type
  70
32
  10
-6.00919576048106
  20
42.17790193512606
  30
849.665
  0
VERTEX
  8
Unknown Area Type
  70
32
  10
-6.01252740220749
  20
42.17667526701857
  30
851.638
  0
VERTEX
  8
Unknown Area Type
  70
32
  10
-6.04402834091729
  20
42.17729732244558
  30
903.658
  0
VERTEX
  8
Unknown Area Type
  70
32
  10
-6.04402985196007
  20
42.17732880023747
  30
902.598
  0
VERTEX
  8
Unknown Area Type
  70
32
  10
-6.043485898997
  20
42.21781665955439
  30
863.311
  0
VERTEX
  8
Unknown Area Type
  70
32
  10
-6.01424666419261
  20
42.21932334893474
  30
852.527
  0
VERTEX
  8
Unknown Area Type
  70
32
  10
-6.01407143368649
  20
42.2193324601987
  30
852.458
  0
SEQEND
  8
Unknown Area Type
  0
TEXT
  8
Unknown Area Type
 62
7
  1
PNOA-H_AMS_1956-57_33k_ES_PAN_2
 40
0.00045
  10
-6.026613144155
  20
42.19781859576491
  0
POLYLINE
  8
Unknown Area Type
  70
9
  66
1
  0
VERTEX
  8
Unknown Area Type
  70
32
  10
-6.12301634634898
  20
42.21854051082275
  30
924.614
  0
VERTEX
  8
Unknown Area Type
  70
32
  10
-6.11046684724318
  20
42.21782373828209
  30
1053.289
  0
VERTEX
  8
Unknown Area Type
  70
32
  10
-6.11123947866308
  20
42.17744216624227
  30
900.201
  0
VERTEX
  8
Unknown Area Type
  70
32
  10
-6.1377953029014
  20
42.17707390280696
  30
917.138
  0
VERTEX
  8
Unknown Area Type
  70
32
  10
-6.14539226654817
  20
42.18098096136009
  30
884.906
  0
VERTEX
  8
Unknown Area Type
  70
32
  10
-6.14574410129159
  20
42.21636550331795
  30
929.59
  0
VERTEX
  8
Unknown Area Type
  70
32
  10
-6.13817830565368
  20
42.21940951624909
  30
916.919
  0
VERTEX
  8
Unknown Area Type
  70
32
  10
-6.12307705933123
  20
42.21854335872875
  30
924.542
  0
VERTEX
  8
Unknown Area Type
  70
32
  10
-6.12301634634898
  20
42.21854051082275
  30
924.614
  0
SEQEND
  8
Unknown Area Type
  0
TEXT
  8
Unknown Area Type
 62
7
  1
PNOA-H_AMS_1956-57_33k_ES_PAN_2
 40
0.00045
  10
-6.1281058655134
  20
42.19801885425867
  0
POLYLINE
  8
Unknown Area Type
  70
9
  66
1
  0
VERTEX
  8
Unknown Area Type
  70
32
  10
-6.12301634634898
  20
42.21854051082275
  30
924.614
  0
VERTEX
  8
Unknown Area Type
  70
32
  10
-6.11046684724318
  20
42.21782373828209
  30
1053.289
  0
VERTEX
  8
Unknown Area Type
  70
32
  10
-6.11123947866308
  20
42.17744216624227
  30
900.201
  0
VERTEX
  8
Unknown Area Type
  70
32
  10
-6.1377953029014
  20
42.17707390280696
  30
917.138
  0
VERTEX
  8
Unknown Area Type
  70
32
  10
-6.14539226654817
  20
42.18098096136009
  30
884.906
  0
VERTEX
  8
Unknown Area Type
  70
32
  10
-6.14574410129159
  20
42.21636550331795
  30
929.59
  0
VERTEX
  8
Unknown Area Type
  70
32
  10
-6.13817830565368
  20
42.21940951624909
  30
916.919
  0
VERTEX
  8
Unknown Area Type
  70
32
  10
-6.12307705933123
  20
42.21854335872875
  30
924.542
  0
VERTEX
  8
Unknown Area Type
  70
32
  10
-6.12301634634898
  20
42.21854051082275
  30
924.614
  0
SEQEND
  8
Unknown Area Type
  0
TEXT
  8
Unknown Area Type
 62
7
  1
PNOA-H_AMS_1956-57_33k_ES_PAN_2
 40
0.00045
  10
-6.1281058655134
  20
42.19801885425867
  0
POLYLINE
  8
Unknown Area Type
  70
9
  66
1
  0
VERTEX
  8
Unknown Area Type
  70
32
  10
-6.0770375278157
  20
42.21870370478264
  30
870.202
  0
VERTEX
  8
Unknown Area Type
  70
32
  10
-6.04695820911193
  20
42.21935881281055
  30
864.271
  0
VERTEX
  8
Unknown Area Type
  70
32
  10
-6.043485898997
  20
42.21781665955439
  30
863.311
  0
VERTEX
  8
Unknown Area Type
  70
32
  10
-6.04402834091729
  20
42.17729732244558
  30
903.658
  0
VERTEX
  8
Unknown Area Type
  70
32
  10
-6.04500881188774
  20
42.17691557635077
  30
930.646
  0
VERTEX
  8
Unknown Area Type
  70
32
  10
-6.0450994958212
  20
42.17691316712916
  30
931.69
  0
VERTEX
  8
Unknown Area Type
  70
32
  10
-6.0771042357878
  20
42.17743167800798
  30
885.362
  0
VERTEX
  8
Unknown Area Type
  70
32
  10
-6.07709948223226
  20
42.21860748826479
  30
870.081
  0
VERTEX
  8
Unknown Area Type
  70
32
  10
-6.07709671067049
  20
42.21867510053568
  30
870.182
  0
VERTEX
  8
Unknown Area Type
  70
32
  10
-6.07704314017757
  20
42.21869454904074
  30
870.178
  0
VERTEX
  8
Unknown Area Type
  70
32
  10
-6.0770375278157
  20
42.21870370478264
  30
870.202
  0
SEQEND
  8
Unknown Area Type
  0
TEXT
  8
Unknown Area Type
 62
7
  1
PNOA-H_AMS_1956-57_33k_ES_PAN_2
 40
0.00045
  10
-6.06029538462632
  20
42.19811265668451
  0
POLYLINE
  8
Unknown Area Type
  70
9
  66
1
  0
VERTEX
  8
Unknown Area Type
  70
32
  10
-6.0770375278157
  20
42.21870370478264
  30
870.202
  0
VERTEX
  8
Unknown Area Type
  70
32
  10
-6.04695820911193
  20
42.21935881281055
  30
864.271
  0
VERTEX
  8
Unknown Area Type
  70
32
  10
-6.043485898997
  20
42.21781665955439
  30
863.311
  0
VERTEX
  8
Unknown Area Type
  70
32
  10
-6.04402834091729
  20
42.17729732244558
  30
903.658
  0
VERTEX
  8
Unknown Area Type
  70
32
  10
-6.04500881188774
  20
42.17691557635077
  30
930.646
  0
VERTEX
  8
Unknown Area Type
  70
32
  10
-6.0450994958212
  20
42.17691316712916
  30
931.69
  0
VERTEX
  8
Unknown Area Type
  70
32
  10
-6.0771042357878
  20
42.17743167800798
  30
885.362
  0
VERTEX
  8
Unknown Area Type
  70
32
  10
-6.07709948223226
  20
42.21860748826479
  30
870.081
  0
VERTEX
  8
Unknown Area Type
  70
32
  10
-6.07709671067049
  20
42.21867510053568
  30
870.182
  0
VERTEX
  8
Unknown Area Type
  70
32
  10
-6.07704314017757
  20
42.21869454904074
  30
870.178
  0
VERTEX
  8
Unknown Area Type
  70
32
  10
-6.0770375278157
  20
42.21870370478264
  30
870.202
  0
SEQEND
  8
Unknown Area Type
  0
TEXT
  8
Unknown Area Type
 62
7
  1
PNOA-H_AMS_1956-57_33k_ES_PAN_2
 40
0.00045
  10
-6.06029538462632
  20
42.19811265668451
  0
POLYLINE
  8
Unknown Area Type
  70
9
  66
1
  0
VERTEX
  8
Unknown Area Type
  70
32
  10
-6.18749999999997
  20
42.18750000000002
  30
916.972
  0
VERTEX
  8
Unknown Area Type
  70
32
  10
-6.18749999999997
  20
42.20833333333334
  30
928.748
  0
VERTEX
  8
Unknown Area Type
  70
32
  10
-6.18749999999997
  20
42.21671999828817
  30
950.376
  0
VERTEX
  8
Unknown Area Type
  70
32
  10
-6.18097986601935
  20
42.21544234469396
  30
934.223
  0
VERTEX
  8
Unknown Area Type
  70
32
  10
-6.17929517756821
  20
42.18115309563161
  30
906.504
  0
VERTEX
  8
Unknown Area Type
  70
32
  10
-6.17969073654778
  20
42.18095301661859
  30
906.778
  0
VERTEX
  8
Unknown Area Type
  70
32
  10
-6.18749999999997
  20
42.1808899875261
  30
917.042
  0
SEQEND
  8
Unknown Area Type
  0
TEXT
  8
Unknown Area Type
 62
7
  1
PNOA-H_AMS_1956-57_33k_ES_PAN_2
 40
0.00045
  10
-6.18339758878409
  20
42.19880499290714
  0
POLYLINE
  8
Unknown Area Type
  70
9
  66
1
  0
VERTEX
  8
Unknown Area Type
  70
32
  10
-6.18749999999997
  20
42.18750000000002
  30
916.972
  0
VERTEX
  8
Unknown Area Type
  70
32
  10
-6.18749999999997
  20
42.20833333333334
  30
928.748
  0
VERTEX
  8
Unknown Area Type
  70
32
  10
-6.18749999999997
  20
42.21671999828817
  30
950.376
  0
VERTEX
  8
Unknown Area Type
  70
32
  10
-6.18097986601935
  20
42.21544234469396
  30
934.223
  0
VERTEX
  8
Unknown Area Type
  70
32
  10
-6.17929517756821
  20
42.18115309563161
  30
906.504
  0
VERTEX
  8
Unknown Area Type
  70
32
  10
-6.17969073654778
  20
42.18095301661859
  30
906.778
  0
VERTEX
  8
Unknown Area Type
  70
32
  10
-6.18749999999997
  20
42.1808899875261
  30
917.042
  0
SEQEND
  8
Unknown Area Type
  0
TEXT
  8
Unknown Area Type
 62
7
  1
PNOA-H_AMS_1956-57_33k_ES_PAN_2
 40
0.00045
  10
-6.18339758878409
  20
42.19880499290714
  0
POLYLINE
  8
Unknown Area Type
  70
9
  66
1
  0
VERTEX
  8
Unknown Area Type
  70
32
  10
-6.14540913152377
  20
42.18302914290937
  30
885.341
  0
VERTEX
  8
Unknown Area Type
  70
32
  10
-6.14539226654817
  20
42.18098096136009
  30
884.906
  0
VERTEX
  8
Unknown Area Type
  70
32
  10
-6.17929540304444
  20
42.18115759187776
  30
906.498
  0
VERTEX
  8
Unknown Area Type
  70
32
  10
-6.18097986601935
  20
42.21544234469396
  30
934.223
  0
VERTEX
  8
Unknown Area Type
  70
32
  10
-6.16863986605339
  20
42.21951678697593
  30
965.16
  0
VERTEX
  8
Unknown Area Type
  70
32
  10
-6.14574410129159
  20
42.21636550331795
  30
929.59
  0
VERTEX
  8
Unknown Area Type
  70
32
  10
-6.14541359333538
  20
42.18311907074611
  30
885.423
  0
VERTEX
  8
Unknown Area Type
  70
32
  10
-6.14540913152377
  20
42.18302914290937
  30
885.341
  0
SEQEND
  8
Unknown Area Type
  0
TEXT
  8
Unknown Area Type
 62
7
  1
PNOA-H_AMS_1956-57_33k_ES_PAN_2
 40
0.00045
  10
-6.16318636410516
  20
42.19991865475021
  0
POLYLINE
  8
Unknown Area Type
  70
9
  66
1
  0
VERTEX
  8
Unknown Area Type
  70
32
  10
-6.14540913152377
  20
42.18302914290937
  30
885.341
  0
VERTEX
  8
Unknown Area Type
  70
32
  10
-6.14539226654817
  20
42.18098096136009
  30
884.906
  0
VERTEX
  8
Unknown Area Type
  70
32
  10
-6.17929540304444
  20
42.18115759187776
  30
906.498
  0
VERTEX
  8
Unknown Area Type
  70
32
  10
-6.18097986601935
  20
42.21544234469396
  30
934.223
  0
VERTEX
  8
Unknown Area Type
  70
32
  10
-6.16863986605339
  20
42.21951678697593
  30
965.16
  0
VERTEX
  8
Unknown Area Type
  70
32
  10
-6.14574410129159
  20
42.21636550331795
  30
929.59
  0
VERTEX
  8
Unknown Area Type
  70
32
  10
-6.14541359333538
  20
42.18311907074611
  30
885.423
  0
VERTEX
  8
Unknown Area Type
  70
32
  10
-6.14540913152377
  20
42.18302914290937
  30
885.341
  0
SEQEND
  8
Unknown Area Type
  0
TEXT
  8
Unknown Area Type
 62
7
  1
PNOA-H_AMS_1956-57_33k_ES_PAN_2
 40
0.00045
  10
-6.16318636410516
  20
42.19991865475021
  0
POLYLINE
  8
Unknown Area Type
  70
9
  66
1
  0
VERTEX
  8
Unknown Area Type
  70
32
  10
-5.86762451542005
  20
42.21686771633882
  30
760.893
  0
VERTEX
  8
Unknown Area Type
  70
32
  10
-5.85694865901039
  20
42.21975484625596
  30
750.089
  0
VERTEX
  8
Unknown Area Type
  70
32
  10
-5.85416666666668
  20
42.21936502918557
  30
749.406
  0
VERTEX
  8
Unknown Area Type
  70
32
  10
-5.85416666666668
  20
42.20833333333334
  30
749.033
  0
VERTEX
  8
Unknown Area Type
  70
32
  10
-5.85416666666668
  20
42.18750000000002
  30
761.337
  0
VERTEX
  8
Unknown Area Type
  70
32
  10
-5.85416666666668
  20
42.18048769641783
  30
761.689
  0
VERTEX
  8
Unknown Area Type
  70
32
  10
-5.86713927617201
  20
42.17977827488671
  30
773.645
  0
VERTEX
  8
Unknown Area Type
  70
32
  10
-5.86726021295979
  20
42.17977524988803
  30
773.727
  0
VERTEX
  8
Unknown Area Type
  70
32
  10
-5.86755900303688
  20
42.17995688613915
  30
775.115
  0
VERTEX
  8
Unknown Area Type
  70
32
  10
-5.86760275469088
  20
42.17998731003829
  30
775.205
  0
VERTEX
  8
Unknown Area Type
  70
32
  10
-5.86760641557377
  20
42.18006826578985
  30
775.304
  0
SEQEND
  8
Unknown Area Type
  0
TEXT
  8
Unknown Area Type
 62
7
  1
PNOA-H_AMS_1956-57_33k_ES_PAN_2
 40
0.00045
  10
-5.86089559104336
  20
42.199765048072
  0
POLYLINE
  8
Unknown Area Type
  70
9
  66
1
  0
VERTEX
  8
Unknown Area Type
  70
32
  10
-5.86762451542005
  20
42.21686771633882
  30
760.893
  0
VERTEX
  8
Unknown Area Type
  70
32
  10
-5.85694865901039
  20
42.21975484625596
  30
750.089
  0
VERTEX
  8
Unknown Area Type
  70
32
  10
-5.85416666666668
  20
42.21936502918557
  30
749.406
  0
VERTEX
  8
Unknown Area Type
  70
32
  10
-5.85416666666668
  20
42.20833333333334
  30
749.033
  0
VERTEX
  8
Unknown Area Type
  70
32
  10
-5.85416666666668
  20
42.18750000000002
  30
761.337
  0
VERTEX
  8
Unknown Area Type
  70
32
  10
-5.85416666666668
  20
42.18048769641783
  30
761.689
  0
VERTEX
  8
Unknown Area Type
  70
32
  10
-5.86713927617201
  20
42.17977827488671
  30
773.645
  0
VERTEX
  8
Unknown Area Type
  70
32
  10
-5.86726021295979
  20
42.17977524988803
  30
773.727
  0
VERTEX
  8
Unknown Area Type
  70
32
  10
-5.86755900303688
  20
42.17995688613915
  30
775.115
  0
VERTEX
  8
Unknown Area Type
  70
32
  10
-5.86760275469088
  20
42.17998731003829
  30
775.205
  0
VERTEX
  8
Unknown Area Type
  70
32
  10
-5.86760641557377
  20
42.18006826578985
  30
775.304
  0
SEQEND
  8
Unknown Area Type
  0
TEXT
  8
Unknown Area Type
 62
7
  1
PNOA-H_AMS_1956-57_33k_ES_PAN_2
 40
0.00045
  10
-5.86089559104336
  20
42.199765048072
  0
POLYLINE
  8
Unknown Area Type
  70
9
  66
1
  0
VERTEX
  8
Unknown Area Type
  70
32
  10
-5.85416666666668
  20
42.18750000000002
  30
761.337
  0
VERTEX
  8
Unknown Area Type
  70
32
  10
-5.85416666666668
  20
42.20833333333334
  30
749.033
  0
VERTEX
  8
Unknown Area Type
  70
32
  10
-5.85416666666668
  20
42.21936502918557
  30
749.406
  0
VERTEX
  8
Unknown Area Type
  70
32
  10
-5.85416633333334
  20
42.2193649824784
  30
749.406
  0
VERTEX
  8
Unknown Area Type
  70
32
  10
-5.85416633333334
  20
42.18048771464653
  30
761.689
  0
VERTEX
  8
Unknown Area Type
  70
32
  10
-5.85416666666668
  20
42.18048769641783
  30
761.689
  0
SEQEND
  8
Unknown Area Type
  0
TEXT
  8
Unknown Area Type
 62
7
  1
PNOA-H_AMS_1956-57_33k_ES_PAN_2
 40
0.00045
  10
-5.85416650000001
  20
42.1999263628017
  0
POLYLINE
  8
Unknown Area Type
  70
9
  66
1
  0
VERTEX
  8
Unknown Area Type
  70
32
  10
-5.85569024243563
  20
42.26221869296013
  30
770.896
  0
VERTEX
  8
Unknown Area Type
  70
32
  10
-5.85418497886964
  20
42.26284603181551
  30
775.311
  0
VERTEX
  8
Unknown Area Type
  70
32
  10
-5.8541730722089
  20
42.26285083094933
  30
775.309
  0
VERTEX
  8
Unknown Area Type
  70
32
  10
-5.85416666666668
  20
42.26285062665987
  30
775.306
  0
VERTEX
  8
Unknown Area Type
  70
32
  10
-5.85416666666668
  20
42.25000000000006
  30
764.936
  0
VERTEX
  8
Unknown Area Type
  70
32
  10
-5.85416666666668
  20
42.22916666666665
  30
754.737
  0
VERTEX
  8
Unknown Area Type
  70
32
  10
-5.85416666666668
  20
42.21936653532207
  30
749.874
  0
VERTEX
  8
Unknown Area Type
  70
32
  10
-5.85694260830392
  20
42.21975499708037
  30
750.089
  0
SEQEND
  8
Unknown Area Type
  0
TEXT
  8
Unknown Area Type
 62
7
  1
PNOA-H_AMS_1956-57_33k_ES_PAN_2
 40
0.00045
  10
-5.8555546374853
  20
42.2411086831357
  0
POLYLINE
  8
Unknown Area Type
  70
9
  66
1
  0
VERTEX
  8
Unknown Area Type
  70
32
  10
-5.85569024243563
  20
42.26221869296013
  30
770.896
  0
VERTEX
  8
Unknown Area Type
  70
32
  10
-5.85418497886964
  20
42.26284603181551
  30
775.311
  0
VERTEX
  8
Unknown Area Type
  70
32
  10
-5.8541730722089
  20
42.26285083094933
  30
775.309
  0
VERTEX
  8
Unknown Area Type
  70
32
  10
-5.85416666666668
  20
42.26285062665987
  30
775.306
  0
VERTEX
  8
Unknown Area Type
  70
32
  10
-5.85416666666668
  20
42.25000000000006
  30
764.936
  0
VERTEX
  8
Unknown Area Type
  70
32
  10
-5.85416666666668
  20
42.22916666666665
  30
754.737
  0
VERTEX
  8
Unknown Area Type
  70
32
  10
-5.85416666666668
  20
42.21936653532207
  30
749.874
  0
VERTEX
  8
Unknown Area Type
  70
32
  10
-5.85694260830392
  20
42.21975499708037
  30
750.089
  0
SEQEND
  8
Unknown Area Type
  0
TEXT
  8
Unknown Area Type
 62
7
  1
PNOA-H_AMS_1956-57_33k_ES_PAN_2
 40
0.00045
  10
-5.8555546374853
  20
42.2411086831357
  0
POLYLINE
  8
Unknown Area Type
  70
9
  66
1
  0
VERTEX
  8
Unknown Area Type
  70
32
  10
-5.85416666666668
  20
42.22916666666665
  30
754.737
  0
VERTEX
  8
Unknown Area Type
  70
32
  10
-5.85416666666668
  20
42.25000000000006
  30
764.936
  0
VERTEX
  8
Unknown Area Type
  70
32
  10
-5.85416666666668
  20
42.26285062665987
  30
775.306
  0
VERTEX
  8
Unknown Area Type
  70
32
  10
-5.85416633333334
  20
42.262850616029
  30
775.306
  0
VERTEX
  8
Unknown Area Type
  70
32
  10
-5.85416633333334
  20
42.21936648867582
  30
749.874
  0
VERTEX
  8
Unknown Area Type
  70
32
  10
-5.85416666666668
  20
42.21936653532207
  30
749.874
  0
SEQEND
  8
Unknown Area Type
  0
TEXT
  8
Unknown Area Type
 62
7
  1
PNOA-H_AMS_1956-57_33k_ES_PAN_2
 40
0.00045
  10
-5.85416650000001
  20
42.24110855766784
  0
POLYLINE
  8
Unknown Area Type
  70
9
  66
1
  0
VERTEX
  8
Unknown Area Type
  70
32
  10
-6.1377953029014
  20
42.17707390280696
  30
917.138
  0
VERTEX
  8
Unknown Area Type
  70
32
  10
-6.12117820697958
  20
42.17730251252022
  30
911.141
  0
VERTEX
  8
Unknown Area Type
  70
32
  10
-6.12098476058449
  20
42.17730778043232
  30
910.715
  0
VERTEX
  8
Unknown Area Type
  70
32
  10
-6.11123947866308
  20
42.17744216624227
  30
900.201
  0
VERTEX
  8
Unknown Area Type
  70
32
  10
-6.11072086699855
  20
42.17723561913775
  30
900.057
  0
VERTEX
  8
Unknown Area Type
  70
32
  10
-6.11082838542618
  20
42.16666666666671
  30
883.519
  0
VERTEX
  8
Unknown Area Type
  70
32
  10
-6.14185091155269
  20
42.1666666666667
  30
918.268
  0
SEQEND
  8
Unknown Area Type
  0
TEXT
  8
Unknown Area Type
 62
7
  1
PNOA-H_AMS_1956-57_33k_ES_PAN_2
 40
0.00045
  10
-6.12628588927562
  20
42.17205441645449
  0
POLYLINE
  8
Unknown Area Type
  70
9
  66
1
  0
VERTEX
  8
Unknown Area Type
  70
32
  10
-6.1377953029014
  20
42.17707390280696
  30
917.138
  0
VERTEX
  8
Unknown Area Type
  70
32
  10
-6.12117820697958
  20
42.17730251252022
  30
911.141
  0
VERTEX
  8
Unknown Area Type
  70
32
  10
-6.12098476058449
  20
42.17730778043232
  30
910.715
  0
VERTEX
  8
Unknown Area Type
  70
32
  10
-6.11123947866308
  20
42.17744216624227
  30
900.201
  0
VERTEX
  8
Unknown Area Type
  70
32
  10
-6.11072086699855
  20
42.17723561913775
  30
900.057
  0
VERTEX
  8
Unknown Area Type
  70
32
  10
-6.11082838542618
  20
42.16666666666671
  30
883.519
  0
VERTEX
  8
Unknown Area Type
  70
32
  10
-6.14185091155269
  20
42.1666666666667
  30
918.268
  0
SEQEND
  8
Unknown Area Type
  0
TEXT
  8
Unknown Area Type
 62
7
  1
PNOA-H_AMS_1956-57_33k_ES_PAN_2
 40
0.00045
  10
-6.12628588927562
  20
42.17205441645449
  0
POLYLINE
  8
Unknown Area Type
  70
9
  66
1
  0
VERTEX
  8
Unknown Area Type
  70
32
  10
-6.14185091155269
  20
42.1666666666667
  30
918.268
  0
VERTEX
  8
Unknown Area Type
  70
32
  10
-6.11082838542618
  20
42.16666666666671
  30
883.519
  0
VERTEX
  8
Unknown Area Type
  70
32
  10
-6.11082838712168
  20
42.16666650000004
  30
883.518
  0
VERTEX
  8
Unknown Area Type
  70
32
  10
-6.14185097650123
  20
42.16666650000004
  30
918.268
  0
SEQEND
  8
Unknown Area Type
  0
TEXT
  8
Unknown Area Type
 62
7
  1
PNOA-H_AMS_1956-57_33k_ES_PAN_2
 40
0.00045
  10
-6.1263396809637
  20
42.16666658333337
  0
POLYLINE
  8
Unknown Area Type
  70
9
  66
1
  0
VERTEX
  8
Unknown Area Type
  70
32
  10
-6.11072669166353
  20
42.17723095851601
  30
900.064
  0
VERTEX
  8
Unknown Area Type
  70
32
  10
-6.0962711785197
  20
42.17697852467983
  30
894.668
  0
VERTEX
  8
Unknown Area Type
  70
32
  10
-6.09617445353421
  20
42.1769811376612
  30
894.634
  0
VERTEX
  8
Unknown Area Type
  70
32
  10
-6.07909561958239
  20
42.1766803024789
  30
888.352
  0
VERTEX
  8
Unknown Area Type
  70
32
  10
-6.07905308357625
  20
42.17667694264577
  30
888.195
  0
VERTEX
  8
Unknown Area Type
  70
32
  10
-6.07904893513082
  20
42.17659150571364
  30
888.24
  0
VERTEX
  8
Unknown Area Type
  70
32
  10
-6.07880077272229
  20
42.16666666666671
  30
874.04
  0
VERTEX
  8
Unknown Area Type
  70
32
  10
-6.10416666666663
  20
42.16666666666671
  30
883.581
  0
VERTEX
  8
Unknown Area Type
  70
32
  10
-6.11083372416932
  20
42.16666666666671
  30
883.475
  0
SEQEND
  8
Unknown Area Type
  0
TEXT
  8
Unknown Area Type
 62
7
  1
PNOA-H_AMS_1956-57_33k_ES_PAN_2
 40
0.00045
  10
-6.09481724844581
  20
42.17194881259136
  0
POLYLINE
  8
Unknown Area Type
  70
9
  66
1
  0
VERTEX
  8
Unknown Area Type
  70
32
  10
-6.11072669166353
  20
42.17723095851601
  30
900.064
  0
VERTEX
  8
Unknown Area Type
  70
32
  10
-6.0962711785197
  20
42.17697852467983
  30
894.668
  0
VERTEX
  8
Unknown Area Type
  70
32
  10
-6.09617445353421
  20
42.1769811376612
  30
894.634
  0
VERTEX
  8
Unknown Area Type
  70
32
  10
-6.07909561958239
  20
42.1766803024789
  30
888.352
  0
VERTEX
  8
Unknown Area Type
  70
32
  10
-6.07905308357625
  20
42.17667694264577
  30
888.195
  0
VERTEX
  8
Unknown Area Type
  70
32
  10
-6.07904893513082
  20
42.17659150571364
  30
888.24
  0
VERTEX
  8
Unknown Area Type
  70
32
  10
-6.07880077272229
  20
42.16666666666671
  30
874.04
  0
VERTEX
  8
Unknown Area Type
  70
32
  10
-6.10416666666663
  20
42.16666666666671
  30
883.581
  0
VERTEX
  8
Unknown Area Type
  70
32
  10
-6.11083372416932
  20
42.16666666666671
  30
883.475
  0
SEQEND
  8
Unknown Area Type
  0
TEXT
  8
Unknown Area Type
 62
7
  1
PNOA-H_AMS_1956-57_33k_ES_PAN_2
 40
0.00045
  10
-6.09481724844581
  20
42.17194881259136
  0
POLYLINE
  8
Unknown Area Type
  70
9
  66
1
  0
VERTEX
  8
Unknown Area Type
  70
32
  10
-6.11083372416932
  20
42.16666666666671
  30
883.475
  0
VERTEX
  8
Unknown Area Type
  70
32
  10
-6.10416666666663
  20
42.16666666666671
  30
883.581
  0
VERTEX
  8
Unknown Area Type
  70
32
  10
-6.07880077272229
  20
42.16666666666671
  30
874.04
  0
VERTEX
  8
Unknown Area Type
  70
32
  10
-6.07880076855493
  20
42.16666650000004
  30
874.04
  0
VERTEX
  8
Unknown Area Type
  70
32
  10
-6.11083372585791
  20
42.16666650000004
  30
883.475
  0
SEQEND
  8
Unknown Area Type
  0
TEXT
  8
Unknown Area Type
 62
7
  1
PNOA-H_AMS_1956-57_33k_ES_PAN_2
 40
0.00045
  10
-6.09481724720642
  20
42.16666658333337
  0
POLYLINE
  8
Unknown Area Type
  70
9
  66
1
  0
VERTEX
  8
Unknown Area Type
  70
32
  10
-5.86719568722007
  20
42.17767863802084
  30
768.815
  0
VERTEX
  8
Unknown Area Type
  70
32
  10
-5.8671771406306
  20
42.17767009665982
  30
768.741
  0
VERTEX
  8
Unknown Area Type
  70
32
  10
-5.86042524836466
  20
42.16666666666671
  30
757.459
  0
VERTEX
  8
Unknown Area Type
  70
32
  10
-5.8736785069039
  20
42.16666666666671
  30
791.945
  0
SEQEND
  8
Unknown Area Type
  0
TEXT
  8
Unknown Area Type
 62
7
  1
PNOA-H_AMS_1956-57_33k_ES_PAN_2
 40
0.00045
  10
-5.86705187763428
  20
42.17217265234378
  0
POLYLINE
  8
Unknown Area Type
  70
9
  66
1
  0
VERTEX
  8
Unknown Area Type
  70
32
  10
-5.86719568722007
  20
42.17767863802084
  30
768.815
  0
VERTEX
  8
Unknown Area Type
  70
32
  10
-5.8671771406306
  20
42.17767009665982
  30
768.741
  0
VERTEX
  8
Unknown Area Type
  70
32
  10
-5.86042524836466
  20
42.16666666666671
  30
757.459
  0
VERTEX
  8
Unknown Area Type
  70
32
  10
-5.8736785069039
  20
42.16666666666671
  30
791.945
  0
SEQEND
  8
Unknown Area Type
  0
TEXT
  8
Unknown Area Type
 62
7
  1
PNOA-H_AMS_1956-57_33k_ES_PAN_2
 40
0.00045
  10
-5.86705187763428
  20
42.17217265234378
  0
POLYLINE
  8
Unknown Area Type
  70
9
  66
1
  0
VERTEX
  8
Unknown Area Type
  70
32
  10
-5.8736785069039
  20
42.16666666666671
  30
791.945
  0
VERTEX
  8
Unknown Area Type
  70
32
  10
-5.86042524836466
  20
42.16666666666671
  30
757.459
  0
VERTEX
  8
Unknown Area Type
  70
32
  10
-5.86042514609515
  20
42.16666650000004
  30
757.459
  0
VERTEX
  8
Unknown Area Type
  70
32
  10
-5.87367860502166
  20
42.16666650000004
  30
791.946
  0
SEQEND
  8
Unknown Area Type
  0
TEXT
  8
Unknown Area Type
 62
7
  1
PNOA-H_AMS_1956-57_33k_ES_PAN_2
 40
0.00045
  10
-5.8670518755584
  20
42.16666658333337
  0
POLYLINE
  8
Unknown Area Type
  70
9
  66
1
  0
VERTEX
  8
Unknown Area Type
  70
32
  10
-6.04501485748365
  20
42.17691541573822
  30
930.693
  0
VERTEX
  8
Unknown Area Type
  70
32
  10
-6.04404043219281
  20
42.17729700132116
  30
903.899
  0
VERTEX
  8
Unknown Area Type
  70
32
  10
-6.04393161070606
  20
42.1772998913951
  30
901.803
  0
VERTEX
  8
Unknown Area Type
  70
32
  10
-6.01253344796222
  20
42.17667510811845
  30
851.644
  0
VERTEX
  8
Unknown Area Type
  70
32
  10
-6.01255647865659
  20
42.16666666666671
  30
836.173
  0
VERTEX
  8
Unknown Area Type
  70
32
  10
-6.02083333333337
  20
42.16666666666671
  30
836.144
  0
VERTEX
  8
Unknown Area Type
  70
32
  10
-6.04509976363123
  20
42.16666666666671
  30
907.181
  0
SEQEND
  8
Unknown Area Type
  0
TEXT
  8
Unknown Area Type
 62
7
  1
PNOA-H_AMS_1956-57_33k_ES_PAN_2
 40
0.00045
  10
-6.02881660579673
  20
42.1719832790309
  0
POLYLINE
  8
Unknown Area Type
  70
9
  66
1
  0
VERTEX
  8
Unknown Area Type
  70
32
  10
-6.04501485748365
  20
42.17691541573822
  30
930.693
  0
VERTEX
  8
Unknown Area Type
  70
32
  10
-6.04404043219281
  20
42.17729700132116
  30
903.899
  0
VERTEX
  8
Unknown Area Type
  70
32
  10
-6.04393161070606
  20
42.1772998913951
  30
901.803
  0
VERTEX
  8
Unknown Area Type
  70
32
  10
-6.01253344796222
  20
42.17667510811845
  30
851.644
  0
VERTEX
  8
Unknown Area Type
  70
32
  10
-6.01255647865659
  20
42.16666666666671
  30
836.173
  0
VERTEX
  8
Unknown Area Type
  70
32
  10
-6.02083333333337
  20
42.16666666666671
  30
836.144
  0
VERTEX
  8
Unknown Area Type
  70
32
  10
-6.04509976363123
  20
42.16666666666671
  30
907.181
  0
SEQEND
  8
Unknown Area Type
  0
TEXT
  8
Unknown Area Type
 62
7
  1
PNOA-H_AMS_1956-57_33k_ES_PAN_2
 40
0.00045
  10
-6.02881660579673
  20
42.1719832790309
  0
POLYLINE
  8
Unknown Area Type
  70
9
  66
1
  0
VERTEX
  8
Unknown Area Type
  70
32
  10
-6.04509976363123
  20
42.16666666666671
  30
907.181
  0
VERTEX
  8
Unknown Area Type
  70
32
  10
-6.02083333333337
  20
42.16666666666671
  30
836.144
  0
VERTEX
  8
Unknown Area Type
  70
32
  10
-6.01255647865659
  20
42.16666666666671
  30
836.173
  0
VERTEX
  8
Unknown Area Type
  70
32
  10
-6.01255647904011
  20
42.16666650000004
  30
836.173
  0
VERTEX
  8
Unknown Area Type
  70
32
  10
-6.04509976501199
  20
42.16666650000005
  30
907.181
  0
SEQEND
  8
Unknown Area Type
  0
TEXT
  8
Unknown Area Type
 62
7
  1
PNOA-H_AMS_1956-57_33k_ES_PAN_2
 40
0.00045
  10
-6.02882812183429
  20
42.16666658333338
  0
POLYLINE
  8
Unknown Area Type
  70
9
  66
1
  0
VERTEX
  8
Unknown Area Type
  70
32
  10
-6.07905308357625
  20
42.17667694264577
  30
888.195
  0
VERTEX
  8
Unknown Area Type
  70
32
  10
-6.07711610850671
  20
42.17742685670859
  30
885.373
  0
VERTEX
  8
Unknown Area Type
  70
32
  10
-6.0771042357878
  20
42.17743167800798
  30
885.362
  0
VERTEX
  8
Unknown Area Type
  70
32
  10
-6.04501485748365
  20
42.17691541573822
  30
930.693
  0
VERTEX
  8
Unknown Area Type
  70
32
  10
-6.04509976235369
  20
42.16666666666671
  30
909.988
  0
VERTEX
  8
Unknown Area Type
  70
32
  10
-6.0625
  20
42.16666666666671
  30
906.232
  0
VERTEX
  8
Unknown Area Type
  70
32
  10
-6.07880223113427
  20
42.16666666666671
  30
873.919
  0
SEQEND
  8
Unknown Area Type
  0
TEXT
  8
Unknown Area Type
 62
7
  1
PNOA-H_AMS_1956-57_33k_ES_PAN_2
 40
0.00045
  10
-6.06203397052995
  20
42.17204917233735
  0
POLYLINE
  8
Unknown Area Type
  70
9
  66
1
  0
VERTEX
  8
Unknown Area Type
  70
32
  10
-6.07905308357625
  20
42.17667694264577
  30
888.195
  0
VERTEX
  8
Unknown Area Type
  70
32
  10
-6.07711610850671
  20
42.17742685670859
  30
885.373
  0
VERTEX
  8
Unknown Area Type
  70
32
  10
-6.0771042357878
  20
42.17743167800798
  30
885.362
  0
VERTEX
  8
Unknown Area Type
  70
32
  10
-6.04501485748365
  20
42.17691541573822
  30
930.693
  0
VERTEX
  8
Unknown Area Type
  70
32
  10
-6.04509976235369
  20
42.16666666666671
  30
909.988
  0
VERTEX
  8
Unknown Area Type
  70
32
  10
-6.0625
  20
42.16666666666671
  30
906.232
  0
VERTEX
  8
Unknown Area Type
  70
32
  10
-6.07880223113427
  20
42.16666666666671
  30
873.919
  0
SEQEND
  8
Unknown Area Type
  0
TEXT
  8
Unknown Area Type
 62
7
  1
PNOA-H_AMS_1956-57_33k_ES_PAN_2
 40
0.00045
  10
-6.06203397052995
  20
42.17204917233735
  0
POLYLINE
  8
Unknown Area Type
  70
9
  66
1
  0
VERTEX
  8
Unknown Area Type
  70
32
  10
-6.07880223113427
  20
42.16666666666671
  30
873.919
  0
VERTEX
  8
Unknown Area Type
  70
32
  10
-6.0625
  20
42.16666666666671
  30
906.232
  0
VERTEX
  8
Unknown Area Type
  70
32
  10
-6.04509976235369
  20
42.16666666666671
  30
909.988
  0
VERTEX
  8
Unknown Area Type
  70
32
  10
-6.04509976373443
  20
42.16666650000004
  30
909.988
  0
VERTEX
  8
Unknown Area Type
  70
32
  10
-6.07880222695769
  20
42.16666650000004
  30
873.919
  0
SEQEND
  8
Unknown Area Type
  0
TEXT
  8
Unknown Area Type
 62
7
  1
PNOA-H_AMS_1956-57_33k_ES_PAN_2
 40
0.00045
  10
-6.06195099674398
  20
42.16666658333337
  0
POLYLINE
  8
Unknown Area Type
  70
9
  66
1
  0
VERTEX
  8
Unknown Area Type
  70
32
  10
-6.01253344796222
  20
42.17667510811845
  30
851.644
  0
VERTEX
  8
Unknown Area Type
  70
32
  10
-6.00920785226121
  20
42.1779016176692
  30
849.692
  0
VERTEX
  8
Unknown Area Type
  70
32
  10
-6.00915948513943
  20
42.17790288748902
  30
849.766
  0
VERTEX
  8
Unknown Area Type
  70
32
  10
-6.0020213826477
  20
42.17749572532642
  30
845.675
  0
VERTEX
  8
Unknown Area Type
  70
32
  10
-5.99698769431189
  20
42.17652882319152
  30
842.943
  0
VERTEX
  8
Unknown Area Type
  70
32
  10
-5.99697560265769
  20
42.1765291393521
  30
842.92
  0
VERTEX
  8
Unknown Area Type
  70
32
  10
-5.980636077125
  20
42.17340266015509
  30
826.555
  0
VERTEX
  8
Unknown Area Type
  70
32
  10
-5.98060449029951
  20
42.16666666666671
  30
826.677
  0
VERTEX
  8
Unknown Area Type
  70
32
  10
-6.01255641964055
  20
42.16666666666671
  30
836.174
  0
SEQEND
  8
Unknown Area Type
  0
TEXT
  8
Unknown Area Type
 62
7
  1
PNOA-H_AMS_1956-57_33k_ES_PAN_2
 40
0.00045
  10
-5.99658045497003
  20
42.17228477707786
  0
POLYLINE
  8
Unknown Area Type
  70
9
  66
1
  0
VERTEX
  8
Unknown Area Type
  70
32
  10
-6.01253344796222
  20
42.17667510811845
  30
851.644
  0
VERTEX
  8
Unknown Area Type
  70
32
  10
-6.00920785226121
  20
42.1779016176692
  30
849.692
  0
VERTEX
  8
Unknown Area Type
  70
32
  10
-6.00915948513943
  20
42.17790288748902
  30
849.766
  0
VERTEX
  8
Unknown Area Type
  70
32
  10
-6.0020213826477
  20
42.17749572532642
  30
845.675
  0
VERTEX
  8
Unknown Area Type
  70
32
  10
-5.99698769431189
  20
42.17652882319152
  30
842.943
  0
VERTEX
  8
Unknown Area Type
  70
32
  10
-5.99697560265769
  20
42.1765291393521
  30
842.92
  0
VERTEX
  8
Unknown Area Type
  70
32
  10
-5.980636077125
  20
42.17340266015509
  30
826.555
  0
VERTEX
  8
Unknown Area Type
  70
32
  10
-5.98060449029951
  20
42.16666666666671
  30
826.677
  0
VERTEX
  8
Unknown Area Type
  70
32
  10
-6.01255641964055
  20
42.16666666666671
  30
836.174
  0
SEQEND
  8
Unknown Area Type
  0
TEXT
  8
Unknown Area Type
 62
7
  1
PNOA-H_AMS_1956-57_33k_ES_PAN_2
 40
0.00045
  10
-5.99658045497003
  20
42.17228477707786
  0
POLYLINE
  8
Unknown Area Type
  70
9
  66
1
  0
VERTEX
  8
Unknown Area Type
  70
32
  10
-6.01255641964055
  20
42.16666666666671
  30
836.174
  0
VERTEX
  8
Unknown Area Type
  70
32
  10
-5.98060449029951
  20
42.16666666666671
  30
826.677
  0
VERTEX
  8
Unknown Area Type
  70
32
  10
-5.98060448951797
  20
42.16666650000004
  30
826.677
  0
VERTEX
  8
Unknown Area Type
  70
32
  10
-6.01255642002308
  20
42.16666650000004
  30
836.174
  0
SEQEND
  8
Unknown Area Type
  0
TEXT
  8
Unknown Area Type
 62
7
  1
PNOA-H_AMS_1956-57_33k_ES_PAN_2
 40
0.00045
  10
-5.99658045477053
  20
42.16666658333337
  0
POLYLINE
  8
Unknown Area Type
  70
9
  66
1
  0
VERTEX
  8
Unknown Area Type
  70
32
  10
-5.94973877753232
  20
42.17412539462717
  30
792.462
  0
VERTEX
  8
Unknown Area Type
  70
32
  10
-5.94734321069649
  20
42.17467780037522
  30
790.909
  0
VERTEX
  8
Unknown Area Type
  70
32
  10
-5.94731923599503
  20
42.17468291943562
  30
790.993
  0
VERTEX
  8
Unknown Area Type
  70
32
  10
-5.93377743338561
  20
42.17780392102747
  30
843.023
  0
VERTEX
  8
Unknown Area Type
  70
32
  10
-5.91775322636437
  20
42.17436770348164
  30
851.937
  0
VERTEX
  8
Unknown Area Type
  70
32
  10
-5.91706440089302
  20
42.16666666666671
  30
835.281
  0
VERTEX
  8
Unknown Area Type
  70
32
  10
-5.93750000000002
  20
42.16666666666671
  30
820.077
  0
VERTEX
  8
Unknown Area Type
  70
32
  10
-5.94917713566959
  20
42.16666666666671
  30
796.34
  0
SEQEND
  8
Unknown Area Type
  0
TEXT
  8
Unknown Area Type
 62
7
  1
PNOA-H_AMS_1956-57_33k_ES_PAN_2
 40
0.00045
  10
-5.93340158921267
  20
42.17223529384709
  0
POLYLINE
  8
Unknown Area Type
  70
9
  66
1
  0
VERTEX
  8
Unknown Area Type
  70
32
  10
-5.94973877753232
  20
42.17412539462717
  30
792.462
  0
VERTEX
  8
Unknown Area Type
  70
32
  10
-5.94734321069649
  20
42.17467780037522
  30
790.909
  0
VERTEX
  8
Unknown Area Type
  70
32
  10
-5.94731923599503
  20
42.17468291943562
  30
790.993
  0
VERTEX
  8
Unknown Area Type
  70
32
  10
-5.93377743338561
  20
42.17780392102747
  30
843.023
  0
VERTEX
  8
Unknown Area Type
  70
32
  10
-5.91775322636437
  20
42.17436770348164
  30
851.937
  0
VERTEX
  8
Unknown Area Type
  70
32
  10
-5.91706440089302
  20
42.16666666666671
  30
835.281
  0
VERTEX
  8
Unknown Area Type
  70
32
  10
-5.93750000000002
  20
42.16666666666671
  30
820.077
  0
VERTEX
  8
Unknown Area Type
  70
32
  10
-5.94917713566959
  20
42.16666666666671
  30
796.34
  0
SEQEND
  8
Unknown Area Type
  0
TEXT
  8
Unknown Area Type
 62
7
  1
PNOA-H_AMS_1956-57_33k_ES_PAN_2
 40
0.00045
  10
-5.93340158921267
  20
42.17223529384709
  0
POLYLINE
  8
Unknown Area Type
  70
9
  66
1
  0
VERTEX
  8
Unknown Area Type
  70
32
  10
-5.94917713566959
  20
42.16666666666671
  30
796.34
  0
VERTEX
  8
Unknown Area Type
  70
32
  10
-5.93750000000002
  20
42.16666666666671
  30
820.077
  0
VERTEX
  8
Unknown Area Type
  70
32
  10
-5.91706440089302
  20
42.16666666666671
  30
835.281
  0
VERTEX
  8
Unknown Area Type
  70
32
  10
-5.91706438598538
  20
42.16666650000004
  30
835.28
  0
VERTEX
  8
Unknown Area Type
  70
32
  10
-5.9491771231196
  20
42.16666650000004
  30
796.34
  0
SEQEND
  8
Unknown Area Type
  0
TEXT
  8
Unknown Area Type
 62
7
  1
PNOA-H_AMS_1956-57_33k_ES_PAN_2
 40
0.00045
  10
-5.93312076082749
  20
42.16666658333337
  0
POLYLINE
  8
Unknown Area Type
  70
9
  66
1
  0
VERTEX
  8
Unknown Area Type
  70
32
  10
-6.00101332287809
  20
42.2611435560794
  30
795.136
  0
VERTEX
  8
Unknown Area Type
  70
32
  10
-5.9960911903816
  20
42.26203328634635
  30
793.175
  0
VERTEX
  8
Unknown Area Type
  70
32
  10
-5.98491138374025
  20
42.25902919674046
  30
799.128
  0
VERTEX
  8
Unknown Area Type
  70
32
  10
-5.9827345082007
  20
42.22057557426223
  30
830.559
  0
VERTEX
  8
Unknown Area Type
  70
32
  10
-6.009574758209
  20
42.21763160427871
  30
850.988
  0
VERTEX
  8
Unknown Area Type
  70
32
  10
-6.0096417321022
  20
42.2176388505841
  30
851.031
  0
VERTEX
  8
Unknown Area Type
  70
32
  10
-6.01399862186933
  20
42.21932987258535
  30
852.41
  0
VERTEX
  8
Unknown Area Type
  70
32
  10
-6.01612627881219
  20
42.25838743372314
  30
820
  0
VERTEX
  8
Unknown Area Type
  70
32
  10
-6.0010373249612
  20
42.26113842494379
  30
795.116
  0
VERTEX
  8
Unknown Area Type
  70
32
  10
-6.00101332287809
  20
42.2611435560794
  30
795.136
  0
SEQEND
  8
Unknown Area Type
  0
TEXT
  8
Unknown Area Type
 62
7
  1
PNOA-H_AMS_1956-57_33k_ES_PAN_2
 40
0.00045
  10
-5.99943079279185
  20
42.24008569424132
  0
POLYLINE
  8
Unknown Area Type
  70
9
  66
1
  0
VERTEX
  8
Unknown Area Type
  70
32
  10
-6.00101332287809
  20
42.2611435560794
  30
795.136
  0
VERTEX
  8
Unknown Area Type
  70
32
  10
-5.9960911903816
  20
42.26203328634635
  30
793.175
  0
VERTEX
  8
Unknown Area Type
  70
32
  10
-5.98491138374025
  20
42.25902919674046
  30
799.128
  0
VERTEX
  8
Unknown Area Type
  70
32
  10
-5.9827345082007
  20
42.22057557426223
  30
830.559
  0
VERTEX
  8
Unknown Area Type
  70
32
  10
-6.009574758209
  20
42.21763160427871
  30
850.988
  0
VERTEX
  8
Unknown Area Type
  70
32
  10
-6.0096417321022
  20
42.2176388505841
  30
851.031
  0
VERTEX
  8
Unknown Area Type
  70
32
  10
-6.01399862186933
  20
42.21932987258535
  30
852.41
  0
VERTEX
  8
Unknown Area Type
  70
32
  10
-6.01612627881219
  20
42.25838743372314
  30
820
  0
VERTEX
  8
Unknown Area Type
  70
32
  10
-6.0010373249612
  20
42.26113842494379
  30
795.116
  0
VERTEX
  8
Unknown Area Type
  70
32
  10
-6.00101332287809
  20
42.2611435560794
  30
795.136
  0
SEQEND
  8
Unknown Area Type
  0
TEXT
  8
Unknown Area Type
 62
7
  1
PNOA-H_AMS_1956-57_33k_ES_PAN_2
 40
0.00045
  10
-5.99943079279185
  20
42.24008569424132
  0
POLYLINE
  8
Unknown Area Type
  70
9
  66
1
  0
VERTEX
  8
Unknown Area Type
  70
32
  10
-6.03212751691452
  20
42.26167071208823
  30
811.466
  0
VERTEX
  8
Unknown Area Type
  70
32
  10
-6.01612627881219
  20
42.25838743372314
  30
820
  0
VERTEX
  8
Unknown Area Type
  70
32
  10
-6.01399883591969
  20
42.21933436950472
  30
852.409
  0
VERTEX
  8
Unknown Area Type
  70
32
  10
-6.04349799800543
  20
42.21781633823889
  30
863.306
  0
VERTEX
  8
Unknown Area Type
  70
32
  10
-6.04696425874382
  20
42.21935865196512
  30
864.273
  0
VERTEX
  8
Unknown Area Type
  70
32
  10
-6.04544520789609
  20
42.25853947890277
  30
815.707
  0
VERTEX
  8
Unknown Area Type
  70
32
  10
-6.0321515162901
  20
42.26166557450637
  30
811.46
  0
VERTEX
  8
Unknown Area Type
  70
32
  10
-6.03212751691452
  20
42.26167071208823
  30
811.466
  0
SEQEND
  8
Unknown Area Type
  0
TEXT
  8
Unknown Area Type
 62
7
  1
PNOA-H_AMS_1956-57_33k_ES_PAN_2
 40
0.00045
  10
-6.03048204361999
  20
42.23990793917778
  0
POLYLINE
  8
Unknown Area Type
  70
9
  66
1
  0
VERTEX
  8
Unknown Area Type
  70
32
  10
-6.03212751691452
  20
42.26167071208823
  30
811.466
  0
VERTEX
  8
Unknown Area Type
  70
32
  10
-6.01612627881219
  20
42.25838743372314
  30
820
  0
VERTEX
  8
Unknown Area Type
  70
32
  10
-6.01399883591969
  20
42.21933436950472
  30
852.409
  0
VERTEX
  8
Unknown Area Type
  70
32
  10
-6.04349799800543
  20
42.21781633823889
  30
863.306
  0
VERTEX
  8
Unknown Area Type
  70
32
  10
-6.04696425874382
  20
42.21935865196512
  30
864.273
  0
VERTEX
  8
Unknown Area Type
  70
32
  10
-6.04544520789609
  20
42.25853947890277
  30
815.707
  0
VERTEX
  8
Unknown Area Type
  70
32
  10
-6.0321515162901
  20
42.26166557450637
  30
811.46
  0
VERTEX
  8
Unknown Area Type
  70
32
  10
-6.03212751691452
  20
42.26167071208823
  30
811.466
  0
SEQEND
  8
Unknown Area Type
  0
TEXT
  8
Unknown Area Type
 62
7
  1
PNOA-H_AMS_1956-57_33k_ES_PAN_2
 40
0.00045
  10
-6.03048204361999
  20
42.23990793917778
  0
POLYLINE
  8
Unknown Area Type
  70
9
  66
1
  0
VERTEX
  8
Unknown Area Type
  70
32
  10
-5.86079441210557
  20
42.26972776544129
  30
811.807
  0
VERTEX
  8
Unknown Area Type
  70
32
  10
-5.86070943208486
  20
42.26972538430883
  30
809.946
  0
VERTEX
  8
Unknown Area Type
  70
32
  10
-5.8606999165923
  20
42.26964907800211
  30
789.309
  0
VERTEX
  8
Unknown Area Type
  70
32
  10
-5.86074632490047
  20
42.26960289368082
  30
789.792
  0
VERTEX
  8
Unknown Area Type
  70
32
  10
-5.86076469478964
  20
42.26960693767263
  30
789.894
  0
VERTEX
  8
Unknown Area Type
  70
32
  10
-5.86080265580168
  20
42.26964201063569
  30
790.22
  0
VERTEX
  8
Unknown Area Type
  70
32
  10
-5.8607998569536
  20
42.26971412177586
  30
804.412
  0
VERTEX
  8
Unknown Area Type
  70
32
  10
-5.86079441210557
  20
42.26972776544129
  30
811.807
  0
SEQEND
  8
Unknown Area Type
  0
TEXT
  8
Unknown Area Type
 62
7
  1
PNOA-H_AMS_1956-57_33k_ES_PAN_2
 40
0.00045
  10
-5.86075165221674
  20
42.26966334218667
  0
POLYLINE
  8
Unknown Area Type
  70
9
  66
1
  0
VERTEX
  8
Unknown Area Type
  70
32
  10
-5.86079441210557
  20
42.26972776544129
  30
811.807
  0
VERTEX
  8
Unknown Area Type
  70
32
  10
-5.86070943208486
  20
42.26972538430883
  30
809.946
  0
VERTEX
  8
Unknown Area Type
  70
32
  10
-5.8606999165923
  20
42.26964907800211
  30
789.309
  0
VERTEX
  8
Unknown Area Type
  70
32
  10
-5.86074632490047
  20
42.26960289368082
  30
789.792
  0
VERTEX
  8
Unknown Area Type
  70
32
  10
-5.86076469478964
  20
42.26960693767263
  30
789.894
  0
VERTEX
  8
Unknown Area Type
  70
32
  10
-5.86080265580168
  20
42.26964201063569
  30
790.22
  0
VERTEX
  8
Unknown Area Type
  70
32
  10
-5.8607998569536
  20
42.26971412177586
  30
804.412
  0
VERTEX
  8
Unknown Area Type
  70
32
  10
-5.86079441210557
  20
42.26972776544129
  30
811.807
  0
SEQEND
  8
Unknown Area Type
  0
TEXT
  8
Unknown Area Type
 62
7
  1
PNOA-H_AMS_1956-57_33k_ES_PAN_2
 40
0.00045
  10
-5.86075165221674
  20
42.26966334218667
  0
POLYLINE
  8
Unknown Area Type
  70
9
  66
1
  0
VERTEX
  8
Unknown Area Type
  70
32
  10
-5.87689840098038
  20
42.26232310039074
  30
779.072
  0
VERTEX
  8
Unknown Area Type
  70
32
  10
-5.85569024243563
  20
42.26221869296013
  30
770.896
  0
VERTEX
  8
Unknown Area Type
  70
32
  10
-5.85694260830392
  20
42.21975499708037
  30
750.089
  0
VERTEX
  8
Unknown Area Type
  70
32
  10
-5.86763661616866
  20
42.21686741357941
  30
760.924
  0
VERTEX
  8
Unknown Area Type
  70
32
  10
-5.88915644200575
  20
42.2198885212462
  30
786.573
  0
VERTEX
  8
Unknown Area Type
  70
32
  10
-5.88991902664394
  20
42.26219809770584
  30
762.526
  0
VERTEX
  8
Unknown Area Type
  70
32
  10
-5.88951533008357
  20
42.26238387791594
  30
762.363
  0
VERTEX
  8
Unknown Area Type
  70
32
  10
-5.88936396487797
  20
42.26238769447374
  30
762.463
  0
VERTEX
  8
Unknown Area Type
  70
32
  10
-5.87704391766553
  20
42.26232394973682
  30
779.096
  0
VERTEX
  8
Unknown Area Type
  70
32
  10
-5.87689840098038
  20
42.26232310039074
  30
779.072
  0
SEQEND
  8
Unknown Area Type
  0
TEXT
  8
Unknown Area Type
 62
7
  1
PNOA-H_AMS_1956-57_33k_ES_PAN_2
 40
0.00045
  10
-5.87280501186017
  20
42.23994695062473
  0
POLYLINE
  8
Unknown Area Type
  70
9
  66
1
  0
VERTEX
  8
Unknown Area Type
  70
32
  10
-5.87689840098038
  20
42.26232310039074
  30
779.072
  0
VERTEX
  8
Unknown Area Type
  70
32
  10
-5.85569024243563
  20
42.26221869296013
  30
770.896
  0
VERTEX
  8
Unknown Area Type
  70
32
  10
-5.85694260830392
  20
42.21975499708037
  30
750.089
  0
VERTEX
  8
Unknown Area Type
  70
32
  10
-5.86763661616866
  20
42.21686741357941
  30
760.924
  0
VERTEX
  8
Unknown Area Type
  70
32
  10
-5.88915644200575
  20
42.2198885212462
  30
786.573
  0
VERTEX
  8
Unknown Area Type
  70
32
  10
-5.88991902664394
  20
42.26219809770584
  30
762.526
  0
VERTEX
  8
Unknown Area Type
  70
32
  10
-5.88951533008357
  20
42.26238387791594
  30
762.363
  0
VERTEX
  8
Unknown Area Type
  70
32
  10
-5.88936396487797
  20
42.26238769447374
  30
762.463
  0
VERTEX
  8
Unknown Area Type
  70
32
  10
-5.87704391766553
  20
42.26232394973682
  30
779.096
  0
VERTEX
  8
Unknown Area Type
  70
32
  10
-5.87689840098038
  20
42.26232310039074
  30
779.072
  0
SEQEND
  8
Unknown Area Type
  0
TEXT
  8
Unknown Area Type
 62
7
  1
PNOA-H_AMS_1956-57_33k_ES_PAN_2
 40
0.00045
  10
-5.87280501186017
  20
42.23994695062473
  0
POLYLINE
  8
Unknown Area Type
  70
9
  66
1
  0
VERTEX
  8
Unknown Area Type
  70
32
  10
-5.9654153966845
  20
42.18782751652421
  30
800.553
  0
VERTEX
  8
Unknown Area Type
  70
32
  10
-5.96495717233334
  20
42.17712320736502
  30
829.133
  0
VERTEX
  8
Unknown Area Type
  70
32
  10
-5.98064816836406
  20
42.17340234573543
  30
826.56
  0
VERTEX
  8
Unknown Area Type
  70
32
  10
-6.00202742853894
  20
42.17749556697746
  30
845.68
  0
VERTEX
  8
Unknown Area Type
  70
32
  10
-5.97295487125831
  20
42.21729066746251
  30
837.51
  0
VERTEX
  8
Unknown Area Type
  70
32
  10
-5.96663757724487
  20
42.21613511410969
  30
844.686
  0
VERTEX
  8
Unknown Area Type
  70
32
  10
-5.96548650480119
  20
42.18934755083865
  30
801.345
  0
VERTEX
  8
Unknown Area Type
  70
32
  10
-5.9654153966845
  20
42.18782751652421
  30
800.553
  0
SEQEND
  8
Unknown Area Type
  0
TEXT
  8
Unknown Area Type
 62
7
  1
PNOA-H_AMS_1956-57_33k_ES_PAN_2
 40
0.00045
  10
-5.98349270757584
  20
42.18840530895602
  0
POLYLINE
  8
Unknown Area Type
  70
9
  66
1
  0
VERTEX
  8
Unknown Area Type
  70
32
  10
-5.9654153966845
  20
42.18782751652421
  30
800.553
  0
VERTEX
  8
Unknown Area Type
  70
32
  10
-5.96495717233334
  20
42.17712320736502
  30
829.133
  0
VERTEX
  8
Unknown Area Type
  70
32
  10
-5.98064816836406
  20
42.17340234573543
  30
826.56
  0
VERTEX
  8
Unknown Area Type
  70
32
  10
-6.00202742853894
  20
42.17749556697746
  30
845.68
  0
VERTEX
  8
Unknown Area Type
  70
32
  10
-5.97295487125831
  20
42.21729066746251
  30
837.51
  0
VERTEX
  8
Unknown Area Type
  70
32
  10
-5.96663757724487
  20
42.21613511410969
  30
844.686
  0
VERTEX
  8
Unknown Area Type
  70
32
  10
-5.96548650480119
  20
42.18934755083865
  30
801.345
  0
VERTEX
  8
Unknown Area Type
  70
32
  10
-5.9654153966845
  20
42.18782751652421
  30
800.553
  0
SEQEND
  8
Unknown Area Type
  0
TEXT
  8
Unknown Area Type
 62
7
  1
PNOA-H_AMS_1956-57_33k_ES_PAN_2
 40
0.00045
  10
-5.98349270757584
  20
42.18840530895602
  0
POLYLINE
  8
Unknown Area Type
  70
9
  66
1
  0
VERTEX
  8
Unknown Area Type
  70
32
  10
-5.92147935918311
  20
42.21949689734581
  30
831.225
  0
VERTEX
  8
Unknown Area Type
  70
32
  10
-5.90053575242549
  20
42.21678698126189
  30
797.046
  0
VERTEX
  8
Unknown Area Type
  70
32
  10
-5.9003595954065
  20
42.18078860286339
  30
824.108
  0
VERTEX
  8
Unknown Area Type
  70
32
  10
-5.90768706361987
  20
42.17674872375585
  30
878.745
  0
VERTEX
  8
Unknown Area Type
  70
32
  10
-5.91776552536829
  20
42.17437189303073
  30
851.957
  0
VERTEX
  8
Unknown Area Type
  70
32
  10
-5.93378347968032
  20
42.17780376627412
  30
843.021
  0
VERTEX
  8
Unknown Area Type
  70
32
  10
-5.9320536221426
  20
42.21670541686803
  30
921.838
  0
VERTEX
  8
Unknown Area Type
  70
32
  10
-5.92149730270656
  20
42.21949193736506
  30
831.25
  0
VERTEX
  8
Unknown Area Type
  70
32
  10
-5.92147935918311
  20
42.21949689734581
  30
831.225
  0
SEQEND
  8
Unknown Area Type
  0
TEXT
  8
Unknown Area Type
 62
7
  1
PNOA-H_AMS_1956-57_33k_ES_PAN_2
 40
0.00045
  10
-5.91707172285581
  20
42.19673024724055
  0
POLYLINE
  8
Unknown Area Type
  70
9
  66
1
  0
VERTEX
  8
Unknown Area Type
  70
32
  10
-5.92147935918311
  20
42.21949689734581
  30
831.225
  0
VERTEX
  8
Unknown Area Type
  70
32
  10
-5.90053575242549
  20
42.21678698126189
  30
797.046
  0
VERTEX
  8
Unknown Area Type
  70
32
  10
-5.9003595954065
  20
42.18078860286339
  30
824.108
  0
VERTEX
  8
Unknown Area Type
  70
32
  10
-5.90768706361987
  20
42.17674872375585
  30
878.745
  0
VERTEX
  8
Unknown Area Type
  70
32
  10
-5.91776552536829
  20
42.17437189303073
  30
851.957
  0
VERTEX
  8
Unknown Area Type
  70
32
  10
-5.93378347968032
  20
42.17780376627412
  30
843.021
  0
VERTEX
  8
Unknown Area Type
  70
32
  10
-5.9320536221426
  20
42.21670541686803
  30
921.838
  0
VERTEX
  8
Unknown Area Type
  70
32
  10
-5.92149730270656
  20
42.21949193736506
  30
831.25
  0
VERTEX
  8
Unknown Area Type
  70
32
  10
-5.92147935918311
  20
42.21949689734581
  30
831.225
  0
SEQEND
  8
Unknown Area Type
  0
TEXT
  8
Unknown Area Type
 62
7
  1
PNOA-H_AMS_1956-57_33k_ES_PAN_2
 40
0.00045
  10
-5.91707172285581
  20
42.19673024724055
  0
POLYLINE
  8
Unknown Area Type
  70
9
  66
1
  0
VERTEX
  8
Unknown Area Type
  70
32
  10
-5.94937496110227
  20
42.21925969044342
  30
924.219
  0
VERTEX
  8
Unknown Area Type
  70
32
  10
-5.93209638867567
  20
42.21671332793219
  30
922.103
  0
VERTEX
  8
Unknown Area Type
  70
32
  10
-5.9320536221426
  20
42.21670541686803
  30
921.838
  0
VERTEX
  8
Unknown Area Type
  70
32
  10
-5.93205091532962
  20
42.21664695253777
  30
923.667
  0
VERTEX
  8
Unknown Area Type
  70
32
  10
-5.93378347968032
  20
42.17780376627412
  30
843.021
  0
VERTEX
  8
Unknown Area Type
  70
32
  10
-5.94969061982582
  20
42.17413113650303
  30
792.488
  0
VERTEX
  8
Unknown Area Type
  70
32
  10
-5.94975691510497
  20
42.17412492787535
  30
792.462
  0
VERTEX
  8
Unknown Area Type
  70
32
  10
-5.96495717233334
  20
42.17712320736502
  30
829.133
  0
VERTEX
  8
Unknown Area Type
  70
32
  10
-5.96663757724487
  20
42.21613511410969
  30
844.686
  0
VERTEX
  8
Unknown Area Type
  70
32
  10
-5.95202837184212
  20
42.2196551403949
  30
922.046
  0
VERTEX
  8
Unknown Area Type
  70
32
  10
-5.94939937122087
  20
42.21926356483181
  30
924.019
  0
VERTEX
  8
Unknown Area Type
  70
32
  10
-5.94937496110227
  20
42.21925969044342
  30
924.219
  0
SEQEND
  8
Unknown Area Type
  0
TEXT
  8
Unknown Area Type
 62
7
  1
PNOA-H_AMS_1956-57_33k_ES_PAN_2
 40
0.00045
  10
-5.94934471522541
  20
42.19673151588108
  0
POLYLINE
  8
Unknown Area Type
  70
9
  66
1
  0
VERTEX
  8
Unknown Area Type
  70
32
  10
-5.94937496110227
  20
42.21925969044342
  30
924.219
  0
VERTEX
  8
Unknown Area Type
  70
32
  10
-5.93209638867567
  20
42.21671332793219
  30
922.103
  0
VERTEX
  8
Unknown Area Type
  70
32
  10
-5.9320536221426
  20
42.21670541686803
  30
921.838
  0
VERTEX
  8
Unknown Area Type
  70
32
  10
-5.93205091532962
  20
42.21664695253777
  30
923.667
  0
VERTEX
  8
Unknown Area Type
  70
32
  10
-5.93378347968032
  20
42.17780376627412
  30
843.021
  0
VERTEX
  8
Unknown Area Type
  70
32
  10
-5.94969061982582
  20
42.17413113650303
  30
792.488
  0
VERTEX
  8
Unknown Area Type
  70
32
  10
-5.94975691510497
  20
42.17412492787535
  30
792.462
  0
VERTEX
  8
Unknown Area Type
  70
32
  10
-5.96495717233334
  20
42.17712320736502
  30
829.133
  0
VERTEX
  8
Unknown Area Type
  70
32
  10
-5.96663757724487
  20
42.21613511410969
  30
844.686
  0
VERTEX
  8
Unknown Area Type
  70
32
  10
-5.95202837184212
  20
42.2196551403949
  30
922.046
  0
VERTEX
  8
Unknown Area Type
  70
32
  10
-5.94939937122087
  20
42.21926356483181
  30
924.019
  0
VERTEX
  8
Unknown Area Type
  70
32
  10
-5.94937496110227
  20
42.21925969044342
  30
924.219
  0
SEQEND
  8
Unknown Area Type
  0
TEXT
  8
Unknown Area Type
 62
7
  1
PNOA-H_AMS_1956-57_33k_ES_PAN_2
 40
0.00045
  10
-5.94934471522541
  20
42.19673151588108
  0
ENDSEC
  0
EOF
