  0
SECTION
  2
HEADER
  9
$ACADVER
  1
AC1009
  9
$LUNITS
  70
2
  9
$DWGCODEPAGE
  3
UTF8
  9
$LIMMIN
  10
-5.52083333333329
  20
42.33333333333331
  9
$LIMMAX
  10
-5.18749999999999
  20
42.5
  9
$EXTMIN
  10
-5.52083333333329
  20
42.33333333333331
  9
$EXTMAX
  10
-5.18749999999999
  20
42.5
  999
Created by Global Mapper
  999
Projection: Geographic (Latitude/Longitude)
  999
Datum: ETRS89
  999
Ground Units: arc degrees
  999
CENTRAL LONGITUDE: 0
  0
ENDSEC
  0
SECTION
  2
TABLES
  0
ENDSEC
  0
SECTION
  2
BLOCKS
  0
ENDSEC
  0
SECTION
  2
ENTITIES
  0
POLYLINE
  8
Unknown Area Type
  70
9
  66
1
  0
VERTEX
  8
Unknown Area Type
  70
32
  10
-5.52083333333329
  20
42.39583333333334
  30
767.49
  0
VERTEX
  8
Unknown Area Type
  70
32
  10
-5.52083333333329
  20
42.41524493404343
  30
766.083
  0
VERTEX
  8
Unknown Area Type
  70
32
  10
-5.51748333161991
  20
42.41543399539174
  30
766.648
  0
VERTEX
  8
Unknown Area Type
  70
32
  10
-5.51734994583803
  20
42.41544142900016
  30
766.577
  0
VERTEX
  8
Unknown Area Type
  70
32
  10
-5.51731940993237
  20
42.41543759736162
  30
766.543
  0
VERTEX
  8
Unknown Area Type
  70
32
  10
-5.51712706307089
  20
42.41533826364609
  30
766.665
  0
VERTEX
  8
Unknown Area Type
  70
32
  10
-5.5128700420543
  20
42.41312187768138
  30
769.756
  0
VERTEX
  8
Unknown Area Type
  70
32
  10
-5.51346135569953
  20
42.38228846684424
  30
765.749
  0
VERTEX
  8
Unknown Area Type
  70
32
  10
-5.52083333333329
  20
42.38184758394492
  30
763.849
  0
SEQEND
  8
Unknown Area Type
  0
TEXT
  8
Unknown Area Type
 62
7
  1
PNOA-H_AMS_1956-57_33k_ES_PAN_2
 40
0.00045
  10
-5.51685168769379
  20
42.39864450647254
  0
POLYLINE
  8
Unknown Area Type
  70
9
  66
1
  0
VERTEX
  8
Unknown Area Type
  70
32
  10
-5.52083366666662
  20
42.41524491523137
  30
766.083
  0
VERTEX
  8
Unknown Area Type
  70
32
  10
-5.52083333333329
  20
42.41524493404343
  30
766.083
  0
VERTEX
  8
Unknown Area Type
  70
32
  10
-5.52083333333329
  20
42.39583333333334
  30
767.49
  0
VERTEX
  8
Unknown Area Type
  70
32
  10
-5.52083333333329
  20
42.38184758394492
  30
763.849
  0
VERTEX
  8
Unknown Area Type
  70
32
  10
-5.52083366666662
  20
42.38184756400985
  30
763.849
  0
SEQEND
  8
Unknown Area Type
  0
TEXT
  8
Unknown Area Type
 62
7
  1
PNOA-H_AMS_1956-57_33k_ES_PAN_2
 40
0.00045
  10
-5.52083349999996
  20
42.39854624902664
  0
POLYLINE
  8
Unknown Area Type
  70
9
  66
1
  0
VERTEX
  8
Unknown Area Type
  70
32
  10
-5.52083333333329
  20
42.39583333333334
  30
767.49
  0
VERTEX
  8
Unknown Area Type
  70
32
  10
-5.52083333333329
  20
42.41524493404343
  30
766.083
  0
VERTEX
  8
Unknown Area Type
  70
32
  10
-5.51748333161991
  20
42.41543399539174
  30
766.648
  0
VERTEX
  8
Unknown Area Type
  70
32
  10
-5.51734994583803
  20
42.41544142900016
  30
766.577
  0
VERTEX
  8
Unknown Area Type
  70
32
  10
-5.51731940993237
  20
42.41543759736162
  30
766.543
  0
VERTEX
  8
Unknown Area Type
  70
32
  10
-5.51712706307089
  20
42.41533826364609
  30
766.665
  0
VERTEX
  8
Unknown Area Type
  70
32
  10
-5.5128700420543
  20
42.41312187768138
  30
769.756
  0
VERTEX
  8
Unknown Area Type
  70
32
  10
-5.51346135569953
  20
42.38228846684424
  30
765.749
  0
VERTEX
  8
Unknown Area Type
  70
32
  10
-5.52083333333329
  20
42.38184758394492
  30
763.849
  0
SEQEND
  8
Unknown Area Type
  0
TEXT
  8
Unknown Area Type
 62
7
  1
PNOA-H_AMS_1956-57_33k_ES_PAN_2
 40
0.00045
  10
-5.51685168769379
  20
42.39864450647254
  0
POLYLINE
  8
Unknown Area Type
  70
9
  66
1
  0
VERTEX
  8
Unknown Area Type
  70
32
  10
-5.45234153170193
  20
42.41539706339496
  30
792.315
  0
VERTEX
  8
Unknown Area Type
  70
32
  10
-5.45228064161911
  20
42.41539386410998
  30
792.05
  0
VERTEX
  8
Unknown Area Type
  70
32
  10
-5.44889526535503
  20
42.41381381140029
  30
792.869
  0
VERTEX
  8
Unknown Area Type
  70
32
  10
-5.44855390884538
  20
42.38192890128508
  30
828.332
  0
VERTEX
  8
Unknown Area Type
  70
32
  10
-5.47945319744743
  20
42.38111583057824
  30
774.547
  0
VERTEX
  8
Unknown Area Type
  70
32
  10
-5.48031990902137
  20
42.38153382808789
  30
777.263
  0
VERTEX
  8
Unknown Area Type
  70
32
  10
-5.48049628105958
  20
42.41344916332846
  30
778.422
  0
VERTEX
  8
Unknown Area Type
  70
32
  10
-5.45243849981559
  20
42.41539048511092
  30
792.208
  0
VERTEX
  8
Unknown Area Type
  70
32
  10
-5.45234153170193
  20
42.41539706339496
  30
792.315
  0
SEQEND
  8
Unknown Area Type
  0
TEXT
  8
Unknown Area Type
 62
7
  1
PNOA-H_AMS_1956-57_33k_ES_PAN_2
 40
0.00045
  10
-5.46452547270444
  20
42.39803026808755
  0
POLYLINE
  8
Unknown Area Type
  70
9
  66
1
  0
VERTEX
  8
Unknown Area Type
  70
32
  10
-5.45234153170193
  20
42.41539706339496
  30
792.315
  0
VERTEX
  8
Unknown Area Type
  70
32
  10
-5.45228064161911
  20
42.41539386410998
  30
792.05
  0
VERTEX
  8
Unknown Area Type
  70
32
  10
-5.44889526535503
  20
42.41381381140029
  30
792.869
  0
VERTEX
  8
Unknown Area Type
  70
32
  10
-5.44855390884538
  20
42.38192890128508
  30
828.332
  0
VERTEX
  8
Unknown Area Type
  70
32
  10
-5.47945319744743
  20
42.38111583057824
  30
774.547
  0
VERTEX
  8
Unknown Area Type
  70
32
  10
-5.48031990902137
  20
42.38153382808789
  30
777.263
  0
VERTEX
  8
Unknown Area Type
  70
32
  10
-5.48049628105958
  20
42.41344916332846
  30
778.422
  0
VERTEX
  8
Unknown Area Type
  70
32
  10
-5.45243849981559
  20
42.41539048511092
  30
792.208
  0
VERTEX
  8
Unknown Area Type
  70
32
  10
-5.45234153170193
  20
42.41539706339496
  30
792.315
  0
SEQEND
  8
Unknown Area Type
  0
TEXT
  8
Unknown Area Type
 62
7
  1
PNOA-H_AMS_1956-57_33k_ES_PAN_2
 40
0.00045
  10
-5.46452547270444
  20
42.39803026808755
  0
POLYLINE
  8
Unknown Area Type
  70
9
  66
1
  0
VERTEX
  8
Unknown Area Type
  70
32
  10
-5.42115013302808
  20
42.41601544231457
  30
809.45
  0
VERTEX
  8
Unknown Area Type
  70
32
  10
-5.42110155966491
  20
42.41601646878487
  30
809.393
  0
VERTEX
  8
Unknown Area Type
  70
32
  10
-5.42102731438221
  20
42.41598201662242
  30
809.324
  0
VERTEX
  8
Unknown Area Type
  70
32
  10
-5.41611708420903
  20
42.41360021462175
  30
813.337
  0
VERTEX
  8
Unknown Area Type
  70
32
  10
-5.41593818266311
  20
42.38250868040966
  30
812.928
  0
VERTEX
  8
Unknown Area Type
  70
32
  10
-5.44735895722971
  20
42.38134207031766
  30
830.467
  0
VERTEX
  8
Unknown Area Type
  70
32
  10
-5.44855390884538
  20
42.38192890128508
  30
828.332
  0
VERTEX
  8
Unknown Area Type
  70
32
  10
-5.4488950902224
  20
42.41380931251313
  30
792.877
  0
VERTEX
  8
Unknown Area Type
  70
32
  10
-5.42122889156923
  20
42.41600927527848
  30
809.548
  0
VERTEX
  8
Unknown Area Type
  70
32
  10
-5.42115013302808
  20
42.41601544231457
  30
809.45
  0
SEQEND
  8
Unknown Area Type
  0
TEXT
  8
Unknown Area Type
 62
7
  1
PNOA-H_AMS_1956-57_33k_ES_PAN_2
 40
0.00045
  10
-5.43241690891101
  20
42.39850638654707
  0
POLYLINE
  8
Unknown Area Type
  70
9
  66
1
  0
VERTEX
  8
Unknown Area Type
  70
32
  10
-5.42115013302808
  20
42.41601544231457
  30
809.45
  0
VERTEX
  8
Unknown Area Type
  70
32
  10
-5.42110155966491
  20
42.41601646878487
  30
809.393
  0
VERTEX
  8
Unknown Area Type
  70
32
  10
-5.42102731438221
  20
42.41598201662242
  30
809.324
  0
VERTEX
  8
Unknown Area Type
  70
32
  10
-5.41611708420903
  20
42.41360021462175
  30
813.337
  0
VERTEX
  8
Unknown Area Type
  70
32
  10
-5.41593818266311
  20
42.38250868040966
  30
812.928
  0
VERTEX
  8
Unknown Area Type
  70
32
  10
-5.44735895722971
  20
42.38134207031766
  30
830.467
  0
VERTEX
  8
Unknown Area Type
  70
32
  10
-5.44855390884538
  20
42.38192890128508
  30
828.332
  0
VERTEX
  8
Unknown Area Type
  70
32
  10
-5.4488950902224
  20
42.41380931251313
  30
792.877
  0
VERTEX
  8
Unknown Area Type
  70
32
  10
-5.42122889156923
  20
42.41600927527848
  30
809.548
  0
VERTEX
  8
Unknown Area Type
  70
32
  10
-5.42115013302808
  20
42.41601544231457
  30
809.45
  0
SEQEND
  8
Unknown Area Type
  0
TEXT
  8
Unknown Area Type
 62
7
  1
PNOA-H_AMS_1956-57_33k_ES_PAN_2
 40
0.00045
  10
-5.43241690891101
  20
42.39850638654707
  0
POLYLINE
  8
Unknown Area Type
  70
9
  66
1
  0
VERTEX
  8
Unknown Area Type
  70
32
  10
-5.52083333333329
  20
42.45833333333337
  30
770.759
  0
VERTEX
  8
Unknown Area Type
  70
32
  10
-5.52083333333329
  20
42.47916666666669
  30
780.317
  0
VERTEX
  8
Unknown Area Type
  70
32
  10
-5.52083333333329
  20
42.49975084384606
  30
788.003
  0
VERTEX
  8
Unknown Area Type
  70
32
  10
-5.52062944779737
  20
42.49963961703088
  30
789.658
  0
VERTEX
  8
Unknown Area Type
  70
32
  10
-5.52061692760019
  20
42.49963088746076
  30
789.658
  0
VERTEX
  8
Unknown Area Type
  70
32
  10
-5.52061222679866
  20
42.49951392451609
  30
789.729
  0
VERTEX
  8
Unknown Area Type
  70
32
  10
-5.52012838192156
  20
42.45777676866123
  30
770.417
  0
VERTEX
  8
Unknown Area Type
  70
32
  10
-5.52083333333329
  20
42.45774832122358
  30
770.77
  0
SEQEND
  8
Unknown Area Type
  0
TEXT
  8
Unknown Area Type
 62
7
  1
PNOA-H_AMS_1956-57_33k_ES_PAN_2
 40
0.00045
  10
-5.52048085762743
  20
42.47874958253482
  0
POLYLINE
  8
Unknown Area Type
  70
9
  66
1
  0
VERTEX
  8
Unknown Area Type
  70
32
  10
-5.52083366666662
  20
42.49975102569125
  30
788
  0
VERTEX
  8
Unknown Area Type
  70
32
  10
-5.52083333333329
  20
42.49975084384606
  30
788.003
  0
VERTEX
  8
Unknown Area Type
  70
32
  10
-5.52083333333329
  20
42.47916666666669
  30
780.317
  0
VERTEX
  8
Unknown Area Type
  70
32
  10
-5.52083333333329
  20
42.45833333333337
  30
770.759
  0
VERTEX
  8
Unknown Area Type
  70
32
  10
-5.52083333333329
  20
42.45774832122358
  30
770.77
  0
VERTEX
  8
Unknown Area Type
  70
32
  10
-5.52083366666662
  20
42.45774830777232
  30
770.771
  0
SEQEND
  8
Unknown Area Type
  0
TEXT
  8
Unknown Area Type
 62
7
  1
PNOA-H_AMS_1956-57_33k_ES_PAN_2
 40
0.00045
  10
-5.52083349999996
  20
42.47874966673179
  0
POLYLINE
  8
Unknown Area Type
  70
9
  66
1
  0
VERTEX
  8
Unknown Area Type
  70
32
  10
-5.52083333333329
  20
42.45833333333337
  30
770.759
  0
VERTEX
  8
Unknown Area Type
  70
32
  10
-5.52083333333329
  20
42.47916666666669
  30
780.317
  0
VERTEX
  8
Unknown Area Type
  70
32
  10
-5.52083333333329
  20
42.49975084384606
  30
788.003
  0
VERTEX
  8
Unknown Area Type
  70
32
  10
-5.52062944779737
  20
42.49963961703088
  30
789.658
  0
VERTEX
  8
Unknown Area Type
  70
32
  10
-5.52061692760019
  20
42.49963088746076
  30
789.658
  0
VERTEX
  8
Unknown Area Type
  70
32
  10
-5.52061222679866
  20
42.49951392451609
  30
789.729
  0
VERTEX
  8
Unknown Area Type
  70
32
  10
-5.52012838192156
  20
42.45777676866123
  30
770.417
  0
VERTEX
  8
Unknown Area Type
  70
32
  10
-5.52083333333329
  20
42.45774832122358
  30
770.77
  0
SEQEND
  8
Unknown Area Type
  0
TEXT
  8
Unknown Area Type
 62
7
  1
PNOA-H_AMS_1956-57_33k_ES_PAN_2
 40
0.00045
  10
-5.52048085762743
  20
42.47874958253482
  0
POLYLINE
  8
Unknown Area Type
  70
9
  66
1
  0
VERTEX
  8
Unknown Area Type
  70
32
  10
-5.35631598565129
  20
42.41610644822671
  30
832.02
  0
VERTEX
  8
Unknown Area Type
  70
32
  10
-5.35621866566494
  20
42.41610394701543
  30
831.883
  0
VERTEX
  8
Unknown Area Type
  70
32
  10
-5.35233529086993
  20
42.41446823054806
  30
830.551
  0
VERTEX
  8
Unknown Area Type
  70
32
  10
-5.35172910065774
  20
42.38393906824139
  30
825.986
  0
VERTEX
  8
Unknown Area Type
  70
32
  10
-5.38114420941931
  20
42.38187721198533
  30
823.751
  0
VERTEX
  8
Unknown Area Type
  70
32
  10
-5.38123035997095
  20
42.38190694037726
  30
823.66
  0
VERTEX
  8
Unknown Area Type
  70
32
  10
-5.38393374815954
  20
42.38321053433668
  30
817.578
  0
VERTEX
  8
Unknown Area Type
  70
32
  10
-5.38378467764696
  20
42.41392177858846
  30
826.648
  0
VERTEX
  8
Unknown Area Type
  70
32
  10
-5.3563947526739
  20
42.41610032561663
  30
832.068
  0
VERTEX
  8
Unknown Area Type
  70
32
  10
-5.35631598565129
  20
42.41610644822671
  30
832.02
  0
SEQEND
  8
Unknown Area Type
  0
TEXT
  8
Unknown Area Type
 62
7
  1
PNOA-H_AMS_1956-57_33k_ES_PAN_2
 40
0.00045
  10
-5.36783174414517
  20
42.39899926675682
  0
POLYLINE
  8
Unknown Area Type
  70
9
  66
1
  0
VERTEX
  8
Unknown Area Type
  70
32
  10
-5.35631598565129
  20
42.41610644822671
  30
832.02
  0
VERTEX
  8
Unknown Area Type
  70
32
  10
-5.35621866566494
  20
42.41610394701543
  30
831.883
  0
VERTEX
  8
Unknown Area Type
  70
32
  10
-5.35233529086993
  20
42.41446823054806
  30
830.551
  0
VERTEX
  8
Unknown Area Type
  70
32
  10
-5.35172910065774
  20
42.38393906824139
  30
825.986
  0
VERTEX
  8
Unknown Area Type
  70
32
  10
-5.38114420941931
  20
42.38187721198533
  30
823.751
  0
VERTEX
  8
Unknown Area Type
  70
32
  10
-5.38123035997095
  20
42.38190694037726
  30
823.66
  0
VERTEX
  8
Unknown Area Type
  70
32
  10
-5.38393374815954
  20
42.38321053433668
  30
817.578
  0
VERTEX
  8
Unknown Area Type
  70
32
  10
-5.38378467764696
  20
42.41392177858846
  30
826.648
  0
VERTEX
  8
Unknown Area Type
  70
32
  10
-5.3563947526739
  20
42.41610032561663
  30
832.068
  0
VERTEX
  8
Unknown Area Type
  70
32
  10
-5.35631598565129
  20
42.41610644822671
  30
832.02
  0
SEQEND
  8
Unknown Area Type
  0
TEXT
  8
Unknown Area Type
 62
7
  1
PNOA-H_AMS_1956-57_33k_ES_PAN_2
 40
0.00045
  10
-5.36783174414517
  20
42.39899926675682
  0
POLYLINE
  8
Unknown Area Type
  70
9
  66
1
  0
VERTEX
  8
Unknown Area Type
  70
32
  10
-5.51050810505094
  20
42.41331774353012
  30
769.058
  0
VERTEX
  8
Unknown Area Type
  70
32
  10
-5.48471907014743
  20
42.41544237027358
  30
778.249
  0
VERTEX
  8
Unknown Area Type
  70
32
  10
-5.48049645844853
  20
42.41345366210888
  30
778.49
  0
VERTEX
  8
Unknown Area Type
  70
32
  10
-5.48031990902137
  20
42.38153382808789
  30
777.263
  0
VERTEX
  8
Unknown Area Type
  70
32
  10
-5.51100891878481
  20
42.38109951346004
  30
771.659
  0
VERTEX
  8
Unknown Area Type
  70
32
  10
-5.51346135569953
  20
42.38228846684424
  30
765.749
  0
VERTEX
  8
Unknown Area Type
  70
32
  10
-5.5128700420543
  20
42.41312187768138
  30
769.756
  0
VERTEX
  8
Unknown Area Type
  70
32
  10
-5.51058684852781
  20
42.41331151535905
  30
769.313
  0
VERTEX
  8
Unknown Area Type
  70
32
  10
-5.51050810505094
  20
42.41331774353012
  30
769.058
  0
SEQEND
  8
Unknown Area Type
  0
TEXT
  8
Unknown Area Type
 62
7
  1
PNOA-H_AMS_1956-57_33k_ES_PAN_2
 40
0.00045
  10
-5.49689094005804
  20
42.39786829065658
  0
POLYLINE
  8
Unknown Area Type
  70
9
  66
1
  0
VERTEX
  8
Unknown Area Type
  70
32
  10
-5.51050810505094
  20
42.41331774353012
  30
769.058
  0
VERTEX
  8
Unknown Area Type
  70
32
  10
-5.48471907014743
  20
42.41544237027358
  30
778.249
  0
VERTEX
  8
Unknown Area Type
  70
32
  10
-5.48049645844853
  20
42.41345366210888
  30
778.49
  0
VERTEX
  8
Unknown Area Type
  70
32
  10
-5.48031990902137
  20
42.38153382808789
  30
777.263
  0
VERTEX
  8
Unknown Area Type
  70
32
  10
-5.51100891878481
  20
42.38109951346004
  30
771.659
  0
VERTEX
  8
Unknown Area Type
  70
32
  10
-5.51346135569953
  20
42.38228846684424
  30
765.749
  0
VERTEX
  8
Unknown Area Type
  70
32
  10
-5.5128700420543
  20
42.41312187768138
  30
769.756
  0
VERTEX
  8
Unknown Area Type
  70
32
  10
-5.51058684852781
  20
42.41331151535905
  30
769.313
  0
VERTEX
  8
Unknown Area Type
  70
32
  10
-5.51050810505094
  20
42.41331774353012
  30
769.058
  0
SEQEND
  8
Unknown Area Type
  0
TEXT
  8
Unknown Area Type
 62
7
  1
PNOA-H_AMS_1956-57_33k_ES_PAN_2
 40
0.00045
  10
-5.49689094005804
  20
42.39786829065658
  0
POLYLINE
  8
Unknown Area Type
  70
9
  66
1
  0
VERTEX
  8
Unknown Area Type
  70
32
  10
-5.41095711765925
  20
42.41404661213497
  30
811.266
  0
VERTEX
  8
Unknown Area Type
  70
32
  10
-5.38835359344646
  20
42.41598789800039
  30
832.447
  0
VERTEX
  8
Unknown Area Type
  70
32
  10
-5.38378467764696
  20
42.41392177858846
  30
826.648
  0
VERTEX
  8
Unknown Area Type
  70
32
  10
-5.38392955286168
  20
42.38326015099319
  30
818.078
  0
VERTEX
  8
Unknown Area Type
  70
32
  10
-5.38393374815954
  20
42.38321053433668
  30
817.578
  0
VERTEX
  8
Unknown Area Type
  70
32
  10
-5.38399426458685
  20
42.38320477258945
  30
817.338
  0
VERTEX
  8
Unknown Area Type
  70
32
  10
-5.41456372941987
  20
42.38182623180261
  30
814.548
  0
VERTEX
  8
Unknown Area Type
  70
32
  10
-5.41458800303779
  20
42.38182572028645
  30
814.524
  0
VERTEX
  8
Unknown Area Type
  70
32
  10
-5.41593801007517
  20
42.38250418138772
  30
812.936
  0
VERTEX
  8
Unknown Area Type
  70
32
  10
-5.41611708420903
  20
42.41360021462175
  30
813.337
  0
VERTEX
  8
Unknown Area Type
  70
32
  10
-5.41102373201548
  20
42.41404070768221
  30
811.894
  0
VERTEX
  8
Unknown Area Type
  70
32
  10
-5.41095711765925
  20
42.41404661213497
  30
811.266
  0
SEQEND
  8
Unknown Area Type
  0
TEXT
  8
Unknown Area Type
 62
7
  1
PNOA-H_AMS_1956-57_33k_ES_PAN_2
 40
0.00045
  10
-5.39995118534379
  20
42.39873684033097
  0
POLYLINE
  8
Unknown Area Type
  70
9
  66
1
  0
VERTEX
  8
Unknown Area Type
  70
32
  10
-5.41095711765925
  20
42.41404661213497
  30
811.266
  0
VERTEX
  8
Unknown Area Type
  70
32
  10
-5.38835359344646
  20
42.41598789800039
  30
832.447
  0
VERTEX
  8
Unknown Area Type
  70
32
  10
-5.38378467764696
  20
42.41392177858846
  30
826.648
  0
VERTEX
  8
Unknown Area Type
  70
32
  10
-5.38392955286168
  20
42.38326015099319
  30
818.078
  0
VERTEX
  8
Unknown Area Type
  70
32
  10
-5.38393374815954
  20
42.38321053433668
  30
817.578
  0
VERTEX
  8
Unknown Area Type
  70
32
  10
-5.38399426458685
  20
42.38320477258945
  30
817.338
  0
VERTEX
  8
Unknown Area Type
  70
32
  10
-5.41456372941987
  20
42.38182623180261
  30
814.548
  0
VERTEX
  8
Unknown Area Type
  70
32
  10
-5.41458800303779
  20
42.38182572028645
  30
814.524
  0
VERTEX
  8
Unknown Area Type
  70
32
  10
-5.41593801007517
  20
42.38250418138772
  30
812.936
  0
VERTEX
  8
Unknown Area Type
  70
32
  10
-5.41611708420903
  20
42.41360021462175
  30
813.337
  0
VERTEX
  8
Unknown Area Type
  70
32
  10
-5.41102373201548
  20
42.41404070768221
  30
811.894
  0
VERTEX
  8
Unknown Area Type
  70
32
  10
-5.41095711765925
  20
42.41404661213497
  30
811.266
  0
SEQEND
  8
Unknown Area Type
  0
TEXT
  8
Unknown Area Type
 62
7
  1
PNOA-H_AMS_1956-57_33k_ES_PAN_2
 40
0.00045
  10
-5.39995118534379
  20
42.39873684033097
  0
POLYLINE
  8
Unknown Area Type
  70
9
  66
1
  0
VERTEX
  8
Unknown Area Type
  70
32
  10
-5.32628024703403
  20
42.41728755952448
  30
836.732
  0
VERTEX
  8
Unknown Area Type
  70
32
  10
-5.32620721412089
  20
42.41728453967244
  30
836.722
  0
VERTEX
  8
Unknown Area Type
  70
32
  10
-5.31865220606366
  20
42.41443890297322
  30
835.761
  0
VERTEX
  8
Unknown Area Type
  70
32
  10
-5.3188818484104
  20
42.38439238171811
  30
822.899
  0
VERTEX
  8
Unknown Area Type
  70
32
  10
-5.31888708913369
  20
42.38436976221734
  30
822.91
  0
VERTEX
  8
Unknown Area Type
  70
32
  10
-5.31891726880756
  20
42.3843646487774
  30
823.017
  0
VERTEX
  8
Unknown Area Type
  70
32
  10
-5.34635381176715
  20
42.38132514165623
  30
824.483
  0
VERTEX
  8
Unknown Area Type
  70
32
  10
-5.35172910065774
  20
42.38393906824139
  30
825.986
  0
VERTEX
  8
Unknown Area Type
  70
32
  10
-5.35233529086993
  20
42.41446823054806
  30
830.551
  0
VERTEX
  8
Unknown Area Type
  70
32
  10
-5.32632865832481
  20
42.41728207392234
  30
836.737
  0
VERTEX
  8
Unknown Area Type
  70
32
  10
-5.32628024703403
  20
42.41728755952448
  30
836.732
  0
SEQEND
  8
Unknown Area Type
  0
TEXT
  8
Unknown Area Type
 62
7
  1
PNOA-H_AMS_1956-57_33k_ES_PAN_2
 40
0.00045
  10
-5.33549412437393
  20
42.39940802334891
  0
POLYLINE
  8
Unknown Area Type
  70
9
  66
1
  0
VERTEX
  8
Unknown Area Type
  70
32
  10
-5.32628024703403
  20
42.41728755952448
  30
836.732
  0
VERTEX
  8
Unknown Area Type
  70
32
  10
-5.32620721412089
  20
42.41728453967244
  30
836.722
  0
VERTEX
  8
Unknown Area Type
  70
32
  10
-5.31865220606366
  20
42.41443890297322
  30
835.761
  0
VERTEX
  8
Unknown Area Type
  70
32
  10
-5.3188818484104
  20
42.38439238171811
  30
822.899
  0
VERTEX
  8
Unknown Area Type
  70
32
  10
-5.31888708913369
  20
42.38436976221734
  30
822.91
  0
VERTEX
  8
Unknown Area Type
  70
32
  10
-5.31891726880756
  20
42.3843646487774
  30
823.017
  0
VERTEX
  8
Unknown Area Type
  70
32
  10
-5.34635381176715
  20
42.38132514165623
  30
824.483
  0
VERTEX
  8
Unknown Area Type
  70
32
  10
-5.35172910065774
  20
42.38393906824139
  30
825.986
  0
VERTEX
  8
Unknown Area Type
  70
32
  10
-5.35233529086993
  20
42.41446823054806
  30
830.551
  0
VERTEX
  8
Unknown Area Type
  70
32
  10
-5.32632865832481
  20
42.41728207392234
  30
836.737
  0
VERTEX
  8
Unknown Area Type
  70
32
  10
-5.32628024703403
  20
42.41728755952448
  30
836.732
  0
SEQEND
  8
Unknown Area Type
  0
TEXT
  8
Unknown Area Type
 62
7
  1
PNOA-H_AMS_1956-57_33k_ES_PAN_2
 40
0.00045
  10
-5.33549412437393
  20
42.39940802334891
  0
POLYLINE
  8
Unknown Area Type
  70
9
  66
1
  0
VERTEX
  8
Unknown Area Type
  70
32
  10
-5.23574003507044
  20
42.41859475538025
  30
874.35
  0
VERTEX
  8
Unknown Area Type
  70
32
  10
-5.2357035987518
  20
42.41859546634519
  30
874.371
  0
VERTEX
  8
Unknown Area Type
  70
32
  10
-5.2185195586953
  20
42.41450332785859
  30
874.985
  0
VERTEX
  8
Unknown Area Type
  70
32
  10
-5.21846232358648
  20
42.38529987636078
  30
854.121
  0
VERTEX
  8
Unknown Area Type
  70
32
  10
-5.23500420839219
  20
42.38333494382882
  30
863.225
  0
VERTEX
  8
Unknown Area Type
  70
32
  10
-5.25008603581698
  20
42.38439060481379
  30
860.318
  0
VERTEX
  8
Unknown Area Type
  70
32
  10
-5.25109222849335
  20
42.38484362719178
  30
860.286
  0
VERTEX
  8
Unknown Area Type
  70
32
  10
-5.25198288265651
  20
42.41449890704237
  30
868.637
  0
VERTEX
  8
Unknown Area Type
  70
32
  10
-5.23575809330432
  20
42.41858990032409
  30
874.337
  0
VERTEX
  8
Unknown Area Type
  70
32
  10
-5.23574003507044
  20
42.41859475538025
  30
874.35
  0
SEQEND
  8
Unknown Area Type
  0
TEXT
  8
Unknown Area Type
 62
7
  1
PNOA-H_AMS_1956-57_33k_ES_PAN_2
 40
0.00045
  10
-5.2352229456847
  20
42.40091347679525
  0
POLYLINE
  8
Unknown Area Type
  70
9
  66
1
  0
VERTEX
  8
Unknown Area Type
  70
32
  10
-5.23574003507044
  20
42.41859475538025
  30
874.35
  0
VERTEX
  8
Unknown Area Type
  70
32
  10
-5.2357035987518
  20
42.41859546634519
  30
874.371
  0
VERTEX
  8
Unknown Area Type
  70
32
  10
-5.2185195586953
  20
42.41450332785859
  30
874.985
  0
VERTEX
  8
Unknown Area Type
  70
32
  10
-5.21846232358648
  20
42.38529987636078
  30
854.121
  0
VERTEX
  8
Unknown Area Type
  70
32
  10
-5.23500420839219
  20
42.38333494382882
  30
863.225
  0
VERTEX
  8
Unknown Area Type
  70
32
  10
-5.25008603581698
  20
42.38439060481379
  30
860.318
  0
VERTEX
  8
Unknown Area Type
  70
32
  10
-5.25109222849335
  20
42.38484362719178
  30
860.286
  0
VERTEX
  8
Unknown Area Type
  70
32
  10
-5.25198288265651
  20
42.41449890704237
  30
868.637
  0
VERTEX
  8
Unknown Area Type
  70
32
  10
-5.23575809330432
  20
42.41858990032409
  30
874.337
  0
VERTEX
  8
Unknown Area Type
  70
32
  10
-5.23574003507044
  20
42.41859475538025
  30
874.35
  0
SEQEND
  8
Unknown Area Type
  0
TEXT
  8
Unknown Area Type
 62
7
  1
PNOA-H_AMS_1956-57_33k_ES_PAN_2
 40
0.00045
  10
-5.2352229456847
  20
42.40091347679525
  0
POLYLINE
  8
Unknown Area Type
  70
9
  66
1
  0
VERTEX
  8
Unknown Area Type
  70
32
  10
-5.26171365243149
  20
42.41692780390736
  30
869.311
  0
VERTEX
  8
Unknown Area Type
  70
32
  10
-5.25198288265651
  20
42.41449890704237
  30
868.637
  0
VERTEX
  8
Unknown Area Type
  70
32
  10
-5.25109238932457
  20
42.38484812674044
  30
860.289
  0
VERTEX
  8
Unknown Area Type
  70
32
  10
-5.28012772469788
  20
42.38141483639696
  30
842.53
  0
VERTEX
  8
Unknown Area Type
  70
32
  10
-5.28506789223262
  20
42.38382893573318
  30
841.24
  0
VERTEX
  8
Unknown Area Type
  70
32
  10
-5.28434097780715
  20
42.41451574737273
  30
851.55
  0
VERTEX
  8
Unknown Area Type
  70
32
  10
-5.2843232515609
  20
42.41452960881745
  30
851.565
  0
VERTEX
  8
Unknown Area Type
  70
32
  10
-5.28403374981174
  20
42.41458941236976
  30
851.423
  0
VERTEX
  8
Unknown Area Type
  70
32
  10
-5.26658825400902
  20
42.41813725562167
  30
861.742
  0
VERTEX
  8
Unknown Area Type
  70
32
  10
-5.26654574618095
  20
42.41813809651122
  30
861.747
  0
VERTEX
  8
Unknown Area Type
  70
32
  10
-5.2664599199327
  20
42.41811728086925
  30
861.735
  0
VERTEX
  8
Unknown Area Type
  70
32
  10
-5.26173203155536
  20
42.41693194379462
  30
869.306
  0
VERTEX
  8
Unknown Area Type
  70
32
  10
-5.26171365243149
  20
42.41692780390736
  30
869.311
  0
SEQEND
  8
Unknown Area Type
  0
TEXT
  8
Unknown Area Type
 62
7
  1
PNOA-H_AMS_1956-57_33k_ES_PAN_2
 40
0.00045
  10
-5.2680803807931
  20
42.40033519199667
  0
POLYLINE
  8
Unknown Area Type
  70
9
  66
1
  0
VERTEX
  8
Unknown Area Type
  70
32
  10
-5.26171365243149
  20
42.41692780390736
  30
869.311
  0
VERTEX
  8
Unknown Area Type
  70
32
  10
-5.25198288265651
  20
42.41449890704237
  30
868.637
  0
VERTEX
  8
Unknown Area Type
  70
32
  10
-5.25109238932457
  20
42.38484812674044
  30
860.289
  0
VERTEX
  8
Unknown Area Type
  70
32
  10
-5.28012772469788
  20
42.38141483639696
  30
842.53
  0
VERTEX
  8
Unknown Area Type
  70
32
  10
-5.28506789223262
  20
42.38382893573318
  30
841.24
  0
VERTEX
  8
Unknown Area Type
  70
32
  10
-5.28434097780715
  20
42.41451574737273
  30
851.55
  0
VERTEX
  8
Unknown Area Type
  70
32
  10
-5.2843232515609
  20
42.41452960881745
  30
851.565
  0
VERTEX
  8
Unknown Area Type
  70
32
  10
-5.28403374981174
  20
42.41458941236976
  30
851.423
  0
VERTEX
  8
Unknown Area Type
  70
32
  10
-5.26658825400902
  20
42.41813725562167
  30
861.742
  0
VERTEX
  8
Unknown Area Type
  70
32
  10
-5.26654574618095
  20
42.41813809651122
  30
861.747
  0
VERTEX
  8
Unknown Area Type
  70
32
  10
-5.2664599199327
  20
42.41811728086925
  30
861.735
  0
VERTEX
  8
Unknown Area Type
  70
32
  10
-5.26173203155536
  20
42.41693194379462
  30
869.306
  0
VERTEX
  8
Unknown Area Type
  70
32
  10
-5.26171365243149
  20
42.41692780390736
  30
869.311
  0
SEQEND
  8
Unknown Area Type
  0
TEXT
  8
Unknown Area Type
 62
7
  1
PNOA-H_AMS_1956-57_33k_ES_PAN_2
 40
0.00045
  10
-5.2680803807931
  20
42.40033519199667
  0
POLYLINE
  8
Unknown Area Type
  70
9
  66
1
  0
VERTEX
  8
Unknown Area Type
  70
32
  10
-5.31146455923437
  20
42.41561974687339
  30
836.796
  0
VERTEX
  8
Unknown Area Type
  70
32
  10
-5.29576543915575
  20
42.41819572852022
  30
836.103
  0
VERTEX
  8
Unknown Area Type
  70
32
  10
-5.28433523243388
  20
42.4145248672763
  30
851.556
  0
VERTEX
  8
Unknown Area Type
  70
32
  10
-5.28506508810107
  20
42.38391904563274
  30
841.357
  0
VERTEX
  8
Unknown Area Type
  70
32
  10
-5.28506805548419
  20
42.38383343517675
  30
841.245
  0
VERTEX
  8
Unknown Area Type
  70
32
  10
-5.28508003055536
  20
42.38382869367565
  30
841.204
  0
VERTEX
  8
Unknown Area Type
  70
32
  10
-5.31251652425873
  20
42.38140965983278
  30
814.428
  0
VERTEX
  8
Unknown Area Type
  70
32
  10
-5.31888708913369
  20
42.38436976221734
  30
822.91
  0
VERTEX
  8
Unknown Area Type
  70
32
  10
-5.31865220606366
  20
42.41443890297322
  30
835.761
  0
VERTEX
  8
Unknown Area Type
  70
32
  10
-5.31149475447836
  20
42.41561463503665
  30
836.814
  0
VERTEX
  8
Unknown Area Type
  70
32
  10
-5.31146455923437
  20
42.41561974687339
  30
836.796
  0
SEQEND
  8
Unknown Area Type
  0
TEXT
  8
Unknown Area Type
 62
7
  1
PNOA-H_AMS_1956-57_33k_ES_PAN_2
 40
0.00045
  10
-5.30161138319884
  20
42.39980236217291
  0
POLYLINE
  8
Unknown Area Type
  70
9
  66
1
  0
VERTEX
  8
Unknown Area Type
  70
32
  10
-5.31146455923437
  20
42.41561974687339
  30
836.796
  0
VERTEX
  8
Unknown Area Type
  70
32
  10
-5.29576543915575
  20
42.41819572852022
  30
836.103
  0
VERTEX
  8
Unknown Area Type
  70
32
  10
-5.28433523243388
  20
42.4145248672763
  30
851.556
  0
VERTEX
  8
Unknown Area Type
  70
32
  10
-5.28506508810107
  20
42.38391904563274
  30
841.357
  0
VERTEX
  8
Unknown Area Type
  70
32
  10
-5.28506805548419
  20
42.38383343517675
  30
841.245
  0
VERTEX
  8
Unknown Area Type
  70
32
  10
-5.28508003055536
  20
42.38382869367565
  30
841.204
  0
VERTEX
  8
Unknown Area Type
  70
32
  10
-5.31251652425873
  20
42.38140965983278
  30
814.428
  0
VERTEX
  8
Unknown Area Type
  70
32
  10
-5.31888708913369
  20
42.38436976221734
  30
822.91
  0
VERTEX
  8
Unknown Area Type
  70
32
  10
-5.31865220606366
  20
42.41443890297322
  30
835.761
  0
VERTEX
  8
Unknown Area Type
  70
32
  10
-5.31149475447836
  20
42.41561463503665
  30
836.814
  0
VERTEX
  8
Unknown Area Type
  70
32
  10
-5.31146455923437
  20
42.41561974687339
  30
836.796
  0
SEQEND
  8
Unknown Area Type
  0
TEXT
  8
Unknown Area Type
 62
7
  1
PNOA-H_AMS_1956-57_33k_ES_PAN_2
 40
0.00045
  10
-5.30161138319884
  20
42.39980236217291
  0
POLYLINE
  8
Unknown Area Type
  70
9
  66
1
  0
VERTEX
  8
Unknown Area Type
  70
32
  10
-5.48605138860725
  20
42.4999766290067
  30
783.791
  0
VERTEX
  8
Unknown Area Type
  70
32
  10
-5.45467613424755
  20
42.49929355645604
  30
785.642
  0
VERTEX
  8
Unknown Area Type
  70
32
  10
-5.45440523836314
  20
42.45690299781818
  30
787.159
  0
VERTEX
  8
Unknown Area Type
  70
32
  10
-5.48486999950496
  20
42.45616516269107
  30
782.028
  0
VERTEX
  8
Unknown Area Type
  70
32
  10
-5.48915416898162
  20
42.45748146086346
  30
778.691
  0
VERTEX
  8
Unknown Area Type
  70
32
  10
-5.48918508065779
  20
42.45749429693144
  30
778.724
  0
VERTEX
  8
Unknown Area Type
  70
32
  10
-5.4891872200741
  20
42.45754828152424
  30
778.826
  0
VERTEX
  8
Unknown Area Type
  70
32
  10
-5.4860499620088
  20
42.49994063945972
  30
783.718
  0
VERTEX
  8
Unknown Area Type
  70
32
  10
-5.48605138860725
  20
42.4999766290067
  30
783.791
  0
SEQEND
  8
Unknown Area Type
  0
TEXT
  8
Unknown Area Type
 62
7
  1
PNOA-H_AMS_1956-57_33k_ES_PAN_2
 40
0.00045
  10
-5.47179655499281
  20
42.47807317108281
  0
POLYLINE
  8
Unknown Area Type
  70
9
  66
1
  0
VERTEX
  8
Unknown Area Type
  70
32
  10
-5.48605138860725
  20
42.4999766290067
  30
783.791
  0
VERTEX
  8
Unknown Area Type
  70
32
  10
-5.45467613424755
  20
42.49929355645604
  30
785.642
  0
VERTEX
  8
Unknown Area Type
  70
32
  10
-5.45440523836314
  20
42.45690299781818
  30
787.159
  0
VERTEX
  8
Unknown Area Type
  70
32
  10
-5.48486999950496
  20
42.45616516269107
  30
782.028
  0
VERTEX
  8
Unknown Area Type
  70
32
  10
-5.48915416898162
  20
42.45748146086346
  30
778.691
  0
VERTEX
  8
Unknown Area Type
  70
32
  10
-5.48918508065779
  20
42.45749429693144
  30
778.724
  0
VERTEX
  8
Unknown Area Type
  70
32
  10
-5.4891872200741
  20
42.45754828152424
  30
778.826
  0
VERTEX
  8
Unknown Area Type
  70
32
  10
-5.4860499620088
  20
42.49994063945972
  30
783.718
  0
VERTEX
  8
Unknown Area Type
  70
32
  10
-5.48605138860725
  20
42.4999766290067
  30
783.791
  0
SEQEND
  8
Unknown Area Type
  0
TEXT
  8
Unknown Area Type
 62
7
  1
PNOA-H_AMS_1956-57_33k_ES_PAN_2
 40
0.00045
  10
-5.47179655499281
  20
42.47807317108281
  0
POLYLINE
  8
Unknown Area Type
  70
9
  66
1
  0
VERTEX
  8
Unknown Area Type
  70
32
  10
-5.42838302891404
  20
42.45854271534149
  30
791.962
  0
VERTEX
  8
Unknown Area Type
  70
32
  10
-5.42837070348715
  20
42.45853847401354
  30
791.974
  0
VERTEX
  8
Unknown Area Type
  70
32
  10
-5.42832053212604
  20
42.45849901408351
  30
784.835
  0
VERTEX
  8
Unknown Area Type
  70
32
  10
-5.42831740132319
  20
42.45841803350631
  30
777.6
  0
VERTEX
  8
Unknown Area Type
  70
32
  10
-5.42836444175643
  20
42.45837651286491
  30
777.727
  0
VERTEX
  8
Unknown Area Type
  70
32
  10
-5.42874113685111
  20
42.45836852693657
  30
776.95
  0
VERTEX
  8
Unknown Area Type
  70
32
  10
-5.42879130835998
  20
42.45840798667906
  30
778.143
  0
VERTEX
  8
Unknown Area Type
  70
32
  10
-5.42879443977236
  20
42.45848896722796
  30
783.693
  0
VERTEX
  8
Unknown Area Type
  70
32
  10
-5.42874739955085
  20
42.45853048804017
  30
791.805
  0
VERTEX
  8
Unknown Area Type
  70
32
  10
-5.42838302891404
  20
42.45854271534149
  30
791.962
  0
SEQEND
  8
Unknown Area Type
  0
TEXT
  8
Unknown Area Type
 62
7
  1
PNOA-H_AMS_1956-57_33k_ES_PAN_2
 40
0.00045
  10
-5.42855628686035
  20
42.45845390429001
  0
POLYLINE
  8
Unknown Area Type
  70
9
  66
1
  0
VERTEX
  8
Unknown Area Type
  70
32
  10
-5.42838302891404
  20
42.45854271534149
  30
791.962
  0
VERTEX
  8
Unknown Area Type
  70
32
  10
-5.42837070348715
  20
42.45853847401354
  30
791.974
  0
VERTEX
  8
Unknown Area Type
  70
32
  10
-5.42832053212604
  20
42.45849901408351
  30
784.835
  0
VERTEX
  8
Unknown Area Type
  70
32
  10
-5.42831740132319
  20
42.45841803350631
  30
777.6
  0
VERTEX
  8
Unknown Area Type
  70
32
  10
-5.42836444175643
  20
42.45837651286491
  30
777.727
  0
VERTEX
  8
Unknown Area Type
  70
32
  10
-5.42874113685111
  20
42.45836852693657
  30
776.95
  0
VERTEX
  8
Unknown Area Type
  70
32
  10
-5.42879130835998
  20
42.45840798667906
  30
778.143
  0
VERTEX
  8
Unknown Area Type
  70
32
  10
-5.42879443977236
  20
42.45848896722796
  30
783.693
  0
VERTEX
  8
Unknown Area Type
  70
32
  10
-5.42874739955085
  20
42.45853048804017
  30
791.805
  0
VERTEX
  8
Unknown Area Type
  70
32
  10
-5.42838302891404
  20
42.45854271534149
  30
791.962
  0
SEQEND
  8
Unknown Area Type
  0
TEXT
  8
Unknown Area Type
 62
7
  1
PNOA-H_AMS_1956-57_33k_ES_PAN_2
 40
0.00045
  10
-5.42855628686035
  20
42.45845390429001
  0
POLYLINE
  8
Unknown Area Type
  70
9
  66
1
  0
VERTEX
  8
Unknown Area Type
  70
32
  10
-5.42757057744262
  20
42.45797459613168
  30
810.125
  0
VERTEX
  8
Unknown Area Type
  70
32
  10
-5.42755825217988
  20
42.45797035471169
  30
809.886
  0
VERTEX
  8
Unknown Area Type
  70
32
  10
-5.42750808178339
  20
42.45793089439767
  30
800.017
  0
VERTEX
  8
Unknown Area Type
  70
32
  10
-5.42751068002729
  20
42.45784078716671
  30
794.6
  0
VERTEX
  8
Unknown Area Type
  70
32
  10
-5.42756397014634
  20
42.45780363702301
  30
794.588
  0
VERTEX
  8
Unknown Area Type
  70
32
  10
-5.42774641432073
  20
42.45780427325668
  30
794.312
  0
VERTEX
  8
Unknown Area Type
  70
32
  10
-5.42779658475732
  20
42.45784373346584
  30
794.339
  0
VERTEX
  8
Unknown Area Type
  70
32
  10
-5.4277939869241
  20
42.45793384069284
  30
803.234
  0
VERTEX
  8
Unknown Area Type
  70
32
  10
-5.42774069683915
  20
42.45797099094217
  30
810.02
  0
VERTEX
  8
Unknown Area Type
  70
32
  10
-5.42757057744262
  20
42.45797459613168
  30
810.125
  0
SEQEND
  8
Unknown Area Type
  0
TEXT
  8
Unknown Area Type
 62
7
  1
PNOA-H_AMS_1956-57_33k_ES_PAN_2
 40
0.00045
  10
-5.42765254540341
  20
42.45788731655361
  0
POLYLINE
  8
Unknown Area Type
  70
9
  66
1
  0
VERTEX
  8
Unknown Area Type
  70
32
  10
-5.42757057744262
  20
42.45797459613168
  30
810.125
  0
VERTEX
  8
Unknown Area Type
  70
32
  10
-5.42755825217988
  20
42.45797035471169
  30
809.886
  0
VERTEX
  8
Unknown Area Type
  70
32
  10
-5.42750808178339
  20
42.45793089439767
  30
800.017
  0
VERTEX
  8
Unknown Area Type
  70
32
  10
-5.42751068002729
  20
42.45784078716671
  30
794.6
  0
VERTEX
  8
Unknown Area Type
  70
32
  10
-5.42756397014634
  20
42.45780363702301
  30
794.588
  0
VERTEX
  8
Unknown Area Type
  70
32
  10
-5.42774641432073
  20
42.45780427325668
  30
794.312
  0
VERTEX
  8
Unknown Area Type
  70
32
  10
-5.42779658475732
  20
42.45784373346584
  30
794.339
  0
VERTEX
  8
Unknown Area Type
  70
32
  10
-5.4277939869241
  20
42.45793384069284
  30
803.234
  0
VERTEX
  8
Unknown Area Type
  70
32
  10
-5.42774069683915
  20
42.45797099094217
  30
810.02
  0
VERTEX
  8
Unknown Area Type
  70
32
  10
-5.42757057744262
  20
42.45797459613168
  30
810.125
  0
SEQEND
  8
Unknown Area Type
  0
TEXT
  8
Unknown Area Type
 62
7
  1
PNOA-H_AMS_1956-57_33k_ES_PAN_2
 40
0.00045
  10
-5.42765254540341
  20
42.45788731655361
  0
POLYLINE
  8
Unknown Area Type
  70
9
  66
1
  0
VERTEX
  8
Unknown Area Type
  70
32
  10
-5.45467613424755
  20
42.49929355645604
  30
785.642
  0
VERTEX
  8
Unknown Area Type
  70
32
  10
-5.45332140048223
  20
42.5
  30
786.484
  0
VERTEX
  8
Unknown Area Type
  70
32
  10
-5.43750000000003
  20
42.5
  30
791.566
  0
VERTEX
  8
Unknown Area Type
  70
32
  10
-5.42915900800659
  20
42.5
  30
793.701
  0
VERTEX
  8
Unknown Area Type
  70
32
  10
-5.41991199920017
  20
42.49938943240127
  30
796.078
  0
VERTEX
  8
Unknown Area Type
  70
32
  10
-5.42253348311109
  20
42.45712667482446
  30
794.428
  0
VERTEX
  8
Unknown Area Type
  70
32
  10
-5.45426462367888
  20
42.45688349751354
  30
787.29
  0
VERTEX
  8
Unknown Area Type
  70
32
  10
-5.45436200693241
  20
42.45688591367507
  30
787.147
  0
VERTEX
  8
Unknown Area Type
  70
32
  10
-5.45440523836314
  20
42.45690299781818
  30
787.159
  0
SEQEND
  8
Unknown Area Type
  0
TEXT
  8
Unknown Area Type
 62
7
  1
PNOA-H_AMS_1956-57_33k_ES_PAN_2
 40
0.00045
  10
-5.43729413132415
  20
42.47877348319299
  0
POLYLINE
  8
Unknown Area Type
  70
9
  66
1
  0
VERTEX
  8
Unknown Area Type
  70
32
  10
-5.45332108086863
  20
42.50000016666667
  30
786.484
  0
VERTEX
  8
Unknown Area Type
  70
32
  10
-5.42916153216303
  20
42.50000016666667
  30
793.7
  0
VERTEX
  8
Unknown Area Type
  70
32
  10
-5.42915900800659
  20
42.5
  30
793.701
  0
VERTEX
  8
Unknown Area Type
  70
32
  10
-5.43750000000003
  20
42.5
  30
791.566
  0
VERTEX
  8
Unknown Area Type
  70
32
  10
-5.45332140048223
  20
42.5
  30
786.484
  0
SEQEND
  8
Unknown Area Type
  0
TEXT
  8
Unknown Area Type
 62
7
  1
PNOA-H_AMS_1956-57_33k_ES_PAN_2
 40
0.00045
  10
-5.44124020424441
  20
42.50000008333333
  0
POLYLINE
  8
Unknown Area Type
  70
9
  66
1
  0
VERTEX
  8
Unknown Area Type
  70
32
  10
-5.45467613424755
  20
42.49929355645604
  30
785.642
  0
VERTEX
  8
Unknown Area Type
  70
32
  10
-5.45332140048223
  20
42.5
  30
786.484
  0
VERTEX
  8
Unknown Area Type
  70
32
  10
-5.43750000000003
  20
42.5
  30
791.566
  0
VERTEX
  8
Unknown Area Type
  70
32
  10
-5.42915900800659
  20
42.5
  30
793.701
  0
VERTEX
  8
Unknown Area Type
  70
32
  10
-5.41991199920017
  20
42.49938943240127
  30
796.078
  0
VERTEX
  8
Unknown Area Type
  70
32
  10
-5.42253348311109
  20
42.45712667482446
  30
794.428
  0
VERTEX
  8
Unknown Area Type
  70
32
  10
-5.45426462367888
  20
42.45688349751354
  30
787.29
  0
VERTEX
  8
Unknown Area Type
  70
32
  10
-5.45436200693241
  20
42.45688591367507
  30
787.147
  0
VERTEX
  8
Unknown Area Type
  70
32
  10
-5.45440523836314
  20
42.45690299781818
  30
787.159
  0
SEQEND
  8
Unknown Area Type
  0
TEXT
  8
Unknown Area Type
 62
7
  1
PNOA-H_AMS_1956-57_33k_ES_PAN_2
 40
0.00045
  10
-5.43729413132415
  20
42.47877348319299
  0
POLYLINE
  8
Unknown Area Type
  70
9
  66
1
  0
VERTEX
  8
Unknown Area Type
  70
32
  10
-5.38688955518878
  20
42.49920883020763
  30
804.648
  0
VERTEX
  8
Unknown Area Type
  70
32
  10
-5.38688416016842
  20
42.49922695300573
  30
804.685
  0
VERTEX
  8
Unknown Area Type
  70
32
  10
-5.3868422859301
  20
42.49924583596201
  30
804.711
  0
VERTEX
  8
Unknown Area Type
  70
32
  10
-5.38496733912582
  20
42.5
  30
805.031
  0
VERTEX
  8
Unknown Area Type
  70
32
  10
-5.35870630752561
  20
42.5
  30
812.053
  0
VERTEX
  8
Unknown Area Type
  70
32
  10
-5.35290047992785
  20
42.49953384069821
  30
813.721
  0
VERTEX
  8
Unknown Area Type
  70
32
  10
-5.35596530098583
  20
42.4571867747619
  30
842.053
  0
VERTEX
  8
Unknown Area Type
  70
32
  10
-5.35972674432301
  20
42.45598820215196
  30
842.967
  0
VERTEX
  8
Unknown Area Type
  70
32
  10
-5.35982294306689
  20
42.4559592047998
  30
842.969
  0
VERTEX
  8
Unknown Area Type
  70
32
  10
-5.35986547366155
  20
42.45595832869725
  30
842.974
  0
VERTEX
  8
Unknown Area Type
  70
32
  10
-5.38791664804064
  20
42.45664678906174
  30
809.697
  0
SEQEND
  8
Unknown Area Type
  0
TEXT
  8
Unknown Area Type
 62
7
  1
PNOA-H_AMS_1956-57_33k_ES_PAN_2
 40
0.00045
  10
-5.37040882079793
  20
42.47857701329966
  0
POLYLINE
  8
Unknown Area Type
  70
9
  66
1
  0
VERTEX
  8
Unknown Area Type
  70
32
  10
-5.38496692477148
  20
42.50000016666667
  30
805.031
  0
VERTEX
  8
Unknown Area Type
  70
32
  10
-5.35870838329228
  20
42.50000016666667
  30
812.052
  0
VERTEX
  8
Unknown Area Type
  70
32
  10
-5.35870630752561
  20
42.5
  30
812.053
  0
VERTEX
  8
Unknown Area Type
  70
32
  10
-5.38496733912582
  20
42.5
  30
805.031
  0
SEQEND
  8
Unknown Area Type
  0
TEXT
  8
Unknown Area Type
 62
7
  1
PNOA-H_AMS_1956-57_33k_ES_PAN_2
 40
0.00045
  10
-5.37183682332571
  20
42.50000008333333
  0
POLYLINE
  8
Unknown Area Type
  70
9
  66
1
  0
VERTEX
  8
Unknown Area Type
  70
32
  10
-5.38688955518878
  20
42.49920883020763
  30
804.648
  0
VERTEX
  8
Unknown Area Type
  70
32
  10
-5.38688416016842
  20
42.49922695300573
  30
804.685
  0
VERTEX
  8
Unknown Area Type
  70
32
  10
-5.3868422859301
  20
42.49924583596201
  30
804.711
  0
VERTEX
  8
Unknown Area Type
  70
32
  10
-5.38496733912582
  20
42.5
  30
805.031
  0
VERTEX
  8
Unknown Area Type
  70
32
  10
-5.35870630752561
  20
42.5
  30
812.053
  0
VERTEX
  8
Unknown Area Type
  70
32
  10
-5.35290047992785
  20
42.49953384069821
  30
813.721
  0
VERTEX
  8
Unknown Area Type
  70
32
  10
-5.35596530098583
  20
42.4571867747619
  30
842.053
  0
VERTEX
  8
Unknown Area Type
  70
32
  10
-5.35972674432301
  20
42.45598820215196
  30
842.967
  0
VERTEX
  8
Unknown Area Type
  70
32
  10
-5.35982294306689
  20
42.4559592047998
  30
842.969
  0
VERTEX
  8
Unknown Area Type
  70
32
  10
-5.35986547366155
  20
42.45595832869725
  30
842.974
  0
VERTEX
  8
Unknown Area Type
  70
32
  10
-5.38791664804064
  20
42.45664678906174
  30
809.697
  0
SEQEND
  8
Unknown Area Type
  0
TEXT
  8
Unknown Area Type
 62
7
  1
PNOA-H_AMS_1956-57_33k_ES_PAN_2
 40
0.00045
  10
-5.37040882079793
  20
42.47857701329966
  0
POLYLINE
  8
Unknown Area Type
  70
9
  66
1
  0
VERTEX
  8
Unknown Area Type
  70
32
  10
-5.21851940002555
  20
42.41449882823324
  30
874.982
  0
VERTEX
  8
Unknown Area Type
  70
32
  10
-5.21193866758587
  20
42.41640462124329
  30
875.414
  0
VERTEX
  8
Unknown Area Type
  70
32
  10
-5.21192060797478
  20
42.41640947257399
  30
875.393
  0
VERTEX
  8
Unknown Area Type
  70
32
  10
-5.20293286570024
  20
42.41900507576229
  30
876.064
  0
VERTEX
  8
Unknown Area Type
  70
32
  10
-5.18749999999999
  20
42.41592748775597
  30
882.046
  0
VERTEX
  8
Unknown Area Type
  70
32
  10
-5.18749999999999
  20
42.39583333333334
  30
871.482
  0
VERTEX
  8
Unknown Area Type
  70
32
  10
-5.18749999999999
  20
42.37797600762354
  30
861.558
  0
VERTEX
  8
Unknown Area Type
  70
32
  10
-5.20486459700458
  20
42.37874519516841
  30
862.985
  0
VERTEX
  8
Unknown Area Type
  70
32
  10
-5.21846232358648
  20
42.38529987636078
  30
854.121
  0
SEQEND
  8
Unknown Area Type
  0
TEXT
  8
Unknown Area Type
 62
7
  1
PNOA-H_AMS_1956-57_33k_ES_PAN_2
 40
0.00045
  10
-5.20173405252001
  20
42.39868442502615
  0
POLYLINE
  8
Unknown Area Type
  70
9
  66
1
  0
VERTEX
  8
Unknown Area Type
  70
32
  10
-5.21851940002555
  20
42.41449882823324
  30
874.982
  0
VERTEX
  8
Unknown Area Type
  70
32
  10
-5.21193866758587
  20
42.41640462124329
  30
875.414
  0
VERTEX
  8
Unknown Area Type
  70
32
  10
-5.21192060797478
  20
42.41640947257399
  30
875.393
  0
VERTEX
  8
Unknown Area Type
  70
32
  10
-5.20293286570024
  20
42.41900507576229
  30
876.064
  0
VERTEX
  8
Unknown Area Type
  70
32
  10
-5.18749999999999
  20
42.41592748775597
  30
882.046
  0
VERTEX
  8
Unknown Area Type
  70
32
  10
-5.18749999999999
  20
42.39583333333334
  30
871.482
  0
VERTEX
  8
Unknown Area Type
  70
32
  10
-5.18749999999999
  20
42.37797600762354
  30
861.558
  0
VERTEX
  8
Unknown Area Type
  70
32
  10
-5.20486459700458
  20
42.37874519516841
  30
862.985
  0
VERTEX
  8
Unknown Area Type
  70
32
  10
-5.21846232358648
  20
42.38529987636078
  30
854.121
  0
SEQEND
  8
Unknown Area Type
  0
TEXT
  8
Unknown Area Type
 62
7
  1
PNOA-H_AMS_1956-57_33k_ES_PAN_2
 40
0.00045
  10
-5.20173405252001
  20
42.39868442502615
  0
POLYLINE
  8
Unknown Area Type
  70
9
  66
1
  0
VERTEX
  8
Unknown Area Type
  70
32
  10
-5.18749999999999
  20
42.39583333333334
  30
871.482
  0
VERTEX
  8
Unknown Area Type
  70
32
  10
-5.18749999999999
  20
42.41592748775597
  30
882.046
  0
VERTEX
  8
Unknown Area Type
  70
32
  10
-5.18749966666666
  20
42.41592742128337
  30
882.046
  0
VERTEX
  8
Unknown Area Type
  70
32
  10
-5.18749966666666
  20
42.37797599285811
  30
861.558
  0
VERTEX
  8
Unknown Area Type
  70
32
  10
-5.18749999999999
  20
42.37797600762354
  30
861.558
  0
SEQEND
  8
Unknown Area Type
  0
TEXT
  8
Unknown Area Type
 62
7
  1
PNOA-H_AMS_1956-57_33k_ES_PAN_2
 40
0.00045
  10
-5.18749983333333
  20
42.39695174030704
  0
POLYLINE
  8
Unknown Area Type
  70
9
  66
1
  0
VERTEX
  8
Unknown Area Type
  70
32
  10
-5.35290047992785
  20
42.49953384069821
  30
813.721
  0
VERTEX
  8
Unknown Area Type
  70
32
  10
-5.35164930638798
  20
42.5
  30
814.221
  0
VERTEX
  8
Unknown Area Type
  70
32
  10
-5.33149233651888
  20
42.5
  30
842.185
  0
VERTEX
  8
Unknown Area Type
  70
32
  10
-5.32088877619148
  20
42.49904326234189
  30
859.44
  0
VERTEX
  8
Unknown Area Type
  70
32
  10
-5.32231560615047
  20
42.45769374603851
  30
847.915
  0
VERTEX
  8
Unknown Area Type
  70
32
  10
-5.32864720059623
  20
42.45576866728934
  30
847.321
  0
VERTEX
  8
Unknown Area Type
  70
32
  10
-5.32875623350743
  20
42.45575744567908
  30
847.322
  0
VERTEX
  8
Unknown Area Type
  70
32
  10
-5.35596546973229
  20
42.45719127392166
  30
842.044
  0
SEQEND
  8
Unknown Area Type
  0
TEXT
  8
Unknown Area Type
 62
7
  1
PNOA-H_AMS_1956-57_33k_ES_PAN_2
 40
0.00045
  10
-5.33842728546937
  20
42.47844493067947
  0
POLYLINE
  8
Unknown Area Type
  70
9
  66
1
  0
VERTEX
  8
Unknown Area Type
  70
32
  10
-5.35164885905395
  20
42.50000016666667
  30
814.221
  0
VERTEX
  8
Unknown Area Type
  70
32
  10
-5.33149418369198
  20
42.50000016666667
  30
842.182
  0
VERTEX
  8
Unknown Area Type
  70
32
  10
-5.33149233651888
  20
42.5
  30
842.185
  0
VERTEX
  8
Unknown Area Type
  70
32
  10
-5.35164930638798
  20
42.5
  30
814.221
  0
SEQEND
  8
Unknown Area Type
  0
TEXT
  8
Unknown Area Type
 62
7
  1
PNOA-H_AMS_1956-57_33k_ES_PAN_2
 40
0.00045
  10
-5.34157082145343
  20
42.50000008333333
  0
POLYLINE
  8
Unknown Area Type
  70
9
  66
1
  0
VERTEX
  8
Unknown Area Type
  70
32
  10
-5.35290047992785
  20
42.49953384069821
  30
813.721
  0
VERTEX
  8
Unknown Area Type
  70
32
  10
-5.35164930638798
  20
42.5
  30
814.221
  0
VERTEX
  8
Unknown Area Type
  70
32
  10
-5.33149233651888
  20
42.5
  30
842.185
  0
VERTEX
  8
Unknown Area Type
  70
32
  10
-5.32088877619148
  20
42.49904326234189
  30
859.44
  0
VERTEX
  8
Unknown Area Type
  70
32
  10
-5.32231560615047
  20
42.45769374603851
  30
847.915
  0
VERTEX
  8
Unknown Area Type
  70
32
  10
-5.32864720059623
  20
42.45576866728934
  30
847.321
  0
VERTEX
  8
Unknown Area Type
  70
32
  10
-5.32875623350743
  20
42.45575744567908
  30
847.322
  0
VERTEX
  8
Unknown Area Type
  70
32
  10
-5.35596546973229
  20
42.45719127392166
  30
842.044
  0
SEQEND
  8
Unknown Area Type
  0
TEXT
  8
Unknown Area Type
 62
7
  1
PNOA-H_AMS_1956-57_33k_ES_PAN_2
 40
0.00045
  10
-5.33842728546937
  20
42.47844493067947
  0
POLYLINE
  8
Unknown Area Type
  70
9
  66
1
  0
VERTEX
  8
Unknown Area Type
  70
32
  10
-5.5126781173652
  20
42.45348287640145
  30
772.195
  0
VERTEX
  8
Unknown Area Type
  70
32
  10
-5.51247157179318
  20
42.45348740678402
  30
772.129
  0
VERTEX
  8
Unknown Area Type
  70
32
  10
-5.51240294900508
  20
42.45344388602163
  30
772.165
  0
VERTEX
  8
Unknown Area Type
  70
32
  10
-5.51232987068754
  20
42.45344098620671
  30
772.153
  0
VERTEX
  8
Unknown Area Type
  70
32
  10
-5.51221067016867
  20
42.45334904614012
  30
772.069
  0
VERTEX
  8
Unknown Area Type
  70
32
  10
-5.51221368661529
  20
42.45327243602875
  30
778.235
  0
VERTEX
  8
Unknown Area Type
  70
32
  10
-5.5122608461449
  20
42.45323538108239
  30
792.855
  0
VERTEX
  8
Unknown Area Type
  70
32
  10
-5.51236393862279
  20
42.45322861749843
  30
799.134
  0
VERTEX
  8
Unknown Area Type
  70
32
  10
-5.51243256114258
  20
42.45327213829258
  30
799.458
  0
VERTEX
  8
Unknown Area Type
  70
32
  10
-5.51250563926484
  20
42.45327503804707
  30
797.753
  0
VERTEX
  8
Unknown Area Type
  70
32
  10
-5.51255585743886
  20
42.45331445984983
  30
795.443
  0
VERTEX
  8
Unknown Area Type
  70
32
  10
-5.51268968414332
  20
42.45331602701819
  30
785.332
  0
VERTEX
  8
Unknown Area Type
  70
32
  10
-5.51274633720923
  20
42.45336431275771
  30
784.115
  0
VERTEX
  8
Unknown Area Type
  70
32
  10
-5.51274332141409
  20
42.45344092286506
  30
772.135
  0
VERTEX
  8
Unknown Area Type
  70
32
  10
-5.51269616203015
  20
42.45347797800551
  30
772.242
  0
VERTEX
  8
Unknown Area Type
  70
32
  10
-5.5126781173652
  20
42.45348287640145
  30
772.195
  0
SEQEND
  8
Unknown Area Type
  0
TEXT
  8
Unknown Area Type
 62
7
  1
PNOA-H_AMS_1956-57_33k_ES_PAN_2
 40
0.00045
  10
-5.51248079582265
  20
42.45335597471367
  0
POLYLINE
  8
Unknown Area Type
  70
9
  66
1
  0
VERTEX
  8
Unknown Area Type
  70
32
  10
-5.5126781173652
  20
42.45348287640145
  30
772.195
  0
VERTEX
  8
Unknown Area Type
  70
32
  10
-5.51247157179318
  20
42.45348740678402
  30
772.129
  0
VERTEX
  8
Unknown Area Type
  70
32
  10
-5.51240294900508
  20
42.45344388602163
  30
772.165
  0
VERTEX
  8
Unknown Area Type
  70
32
  10
-5.51232987068754
  20
42.45344098620671
  30
772.153
  0
VERTEX
  8
Unknown Area Type
  70
32
  10
-5.51221067016867
  20
42.45334904614012
  30
772.069
  0
VERTEX
  8
Unknown Area Type
  70
32
  10
-5.51221368661529
  20
42.45327243602875
  30
778.235
  0
VERTEX
  8
Unknown Area Type
  70
32
  10
-5.5122608461449
  20
42.45323538108239
  30
792.855
  0
VERTEX
  8
Unknown Area Type
  70
32
  10
-5.51236393862279
  20
42.45322861749843
  30
799.134
  0
VERTEX
  8
Unknown Area Type
  70
32
  10
-5.51243256114258
  20
42.45327213829258
  30
799.458
  0
VERTEX
  8
Unknown Area Type
  70
32
  10
-5.51250563926484
  20
42.45327503804707
  30
797.753
  0
VERTEX
  8
Unknown Area Type
  70
32
  10
-5.51255585743886
  20
42.45331445984983
  30
795.443
  0
VERTEX
  8
Unknown Area Type
  70
32
  10
-5.51268968414332
  20
42.45331602701819
  30
785.332
  0
VERTEX
  8
Unknown Area Type
  70
32
  10
-5.51274633720923
  20
42.45336431275771
  30
784.115
  0
VERTEX
  8
Unknown Area Type
  70
32
  10
-5.51274332141409
  20
42.45344092286506
  30
772.135
  0
VERTEX
  8
Unknown Area Type
  70
32
  10
-5.51269616203015
  20
42.45347797800551
  30
772.242
  0
VERTEX
  8
Unknown Area Type
  70
32
  10
-5.5126781173652
  20
42.45348287640145
  30
772.195
  0
SEQEND
  8
Unknown Area Type
  0
TEXT
  8
Unknown Area Type
 62
7
  1
PNOA-H_AMS_1956-57_33k_ES_PAN_2
 40
0.00045
  10
-5.51248079582265
  20
42.45335597471367
  0
POLYLINE
  8
Unknown Area Type
  70
9
  66
1
  0
VERTEX
  8
Unknown Area Type
  70
32
  10
-5.52061692760019
  20
42.49963088746076
  30
789.658
  0
VERTEX
  8
Unknown Area Type
  70
32
  10
-5.51440675003186
  20
42.49983942944681
  30
789.542
  0
VERTEX
  8
Unknown Area Type
  70
32
  10
-5.51401785210946
  20
42.49985246885182
  30
789.287
  0
VERTEX
  8
Unknown Area Type
  70
32
  10
-5.50959167910355
  20
42.5
  30
788.079
  0
VERTEX
  8
Unknown Area Type
  70
32
  10
-5.48609236614629
  20
42.5
  30
783.737
  0
VERTEX
  8
Unknown Area Type
  70
32
  10
-5.48605138860725
  20
42.4999766290067
  30
783.791
  0
VERTEX
  8
Unknown Area Type
  70
32
  10
-5.48918508065779
  20
42.45749429693144
  30
778.724
  0
VERTEX
  8
Unknown Area Type
  70
32
  10
-5.5167916070931
  20
42.45675150031381
  30
770.776
  0
VERTEX
  8
Unknown Area Type
  70
32
  10
-5.52012838192156
  20
42.45777676866123
  30
770.417
  0
SEQEND
  8
Unknown Area Type
  0
TEXT
  8
Unknown Area Type
 62
7
  1
PNOA-H_AMS_1956-57_33k_ES_PAN_2
 40
0.00045
  10
-5.50333443396193
  20
42.47865976775695
  0
POLYLINE
  8
Unknown Area Type
  70
9
  66
1
  0
VERTEX
  8
Unknown Area Type
  70
32
  10
-5.50958667883411
  20
42.50000016666667
  30
788.077
  0
VERTEX
  8
Unknown Area Type
  70
32
  10
-5.48609265837134
  20
42.50000016666667
  30
783.737
  0
VERTEX
  8
Unknown Area Type
  70
32
  10
-5.48609236614629
  20
42.5
  30
783.737
  0
VERTEX
  8
Unknown Area Type
  70
32
  10
-5.50959167910355
  20
42.5
  30
788.079
  0
SEQEND
  8
Unknown Area Type
  0
TEXT
  8
Unknown Area Type
 62
7
  1
PNOA-H_AMS_1956-57_33k_ES_PAN_2
 40
0.00045
  10
-5.49784202262492
  20
42.50000008333333
  0
POLYLINE
  8
Unknown Area Type
  70
9
  66
1
  0
VERTEX
  8
Unknown Area Type
  70
32
  10
-5.52061692760019
  20
42.49963088746076
  30
789.658
  0
VERTEX
  8
Unknown Area Type
  70
32
  10
-5.51440675003186
  20
42.49983942944681
  30
789.542
  0
VERTEX
  8
Unknown Area Type
  70
32
  10
-5.51401785210946
  20
42.49985246885182
  30
789.287
  0
VERTEX
  8
Unknown Area Type
  70
32
  10
-5.50959167910355
  20
42.5
  30
788.079
  0
VERTEX
  8
Unknown Area Type
  70
32
  10
-5.48609236614629
  20
42.5
  30
783.737
  0
VERTEX
  8
Unknown Area Type
  70
32
  10
-5.48605138860725
  20
42.4999766290067
  30
783.791
  0
VERTEX
  8
Unknown Area Type
  70
32
  10
-5.48918508065779
  20
42.45749429693144
  30
778.724
  0
VERTEX
  8
Unknown Area Type
  70
32
  10
-5.5167916070931
  20
42.45675150031381
  30
770.776
  0
VERTEX
  8
Unknown Area Type
  70
32
  10
-5.52012838192156
  20
42.45777676866123
  30
770.417
  0
SEQEND
  8
Unknown Area Type
  0
TEXT
  8
Unknown Area Type
 62
7
  1
PNOA-H_AMS_1956-57_33k_ES_PAN_2
 40
0.00045
  10
-5.50333443396193
  20
42.47865976775695
  0
POLYLINE
  8
Unknown Area Type
  70
9
  66
1
  0
VERTEX
  8
Unknown Area Type
  70
32
  10
-5.25560202146966
  20
42.49859592471615
  30
892.313
  0
VERTEX
  8
Unknown Area Type
  70
32
  10
-5.2510528260579
  20
42.5
  30
893.775
  0
VERTEX
  8
Unknown Area Type
  70
32
  10
-5.22916666666662
  20
42.5
  30
901.965
  0
VERTEX
  8
Unknown Area Type
  70
32
  10
-5.22751126722343
  20
42.5
  30
902.611
  0
VERTEX
  8
Unknown Area Type
  70
32
  10
-5.22290473425588
  20
42.49950525224318
  30
904.429
  0
VERTEX
  8
Unknown Area Type
  70
32
  10
-5.22197176038094
  20
42.45820700529042
  30
887.31
  0
VERTEX
  8
Unknown Area Type
  70
32
  10
-5.22196319440156
  20
42.45779292602381
  30
886.768
  0
VERTEX
  8
Unknown Area Type
  70
32
  10
-5.22197518836918
  20
42.45778819073717
  30
886.761
  0
VERTEX
  8
Unknown Area Type
  70
32
  10
-5.23587779189479
  20
42.45459998239488
  30
887.122
  0
VERTEX
  8
Unknown Area Type
  70
32
  10
-5.25547480807572
  20
42.45781347406123
  30
880.876
  0
SEQEND
  8
Unknown Area Type
  0
TEXT
  8
Unknown Area Type
 62
7
  1
PNOA-H_AMS_1956-57_33k_ES_PAN_2
 40
0.00045
  10
-5.23878273390932
  20
42.47814162482678
  0
POLYLINE
  8
Unknown Area Type
  70
9
  66
1
  0
VERTEX
  8
Unknown Area Type
  70
32
  10
-5.25105228605891
  20
42.50000016666667
  30
893.775
  0
VERTEX
  8
Unknown Area Type
  70
32
  10
-5.22751281903539
  20
42.50000016666667
  30
902.61
  0
VERTEX
  8
Unknown Area Type
  70
32
  10
-5.22751126722343
  20
42.5
  30
902.611
  0
VERTEX
  8
Unknown Area Type
  70
32
  10
-5.22916666666662
  20
42.5
  30
901.965
  0
VERTEX
  8
Unknown Area Type
  70
32
  10
-5.2510528260579
  20
42.5
  30
893.775
  0
SEQEND
  8
Unknown Area Type
  0
TEXT
  8
Unknown Area Type
 62
7
  1
PNOA-H_AMS_1956-57_33k_ES_PAN_2
 40
0.00045
  10
-5.23928204664067
  20
42.50000008333333
  0
POLYLINE
  8
Unknown Area Type
  70
9
  66
1
  0
VERTEX
  8
Unknown Area Type
  70
32
  10
-5.25560202146966
  20
42.49859592471615
  30
892.313
  0
VERTEX
  8
Unknown Area Type
  70
32
  10
-5.2510528260579
  20
42.5
  30
893.775
  0
VERTEX
  8
Unknown Area Type
  70
32
  10
-5.22916666666662
  20
42.5
  30
901.965
  0
VERTEX
  8
Unknown Area Type
  70
32
  10
-5.22751126722343
  20
42.5
  30
902.611
  0
VERTEX
  8
Unknown Area Type
  70
32
  10
-5.22290473425588
  20
42.49950525224318
  30
904.429
  0
VERTEX
  8
Unknown Area Type
  70
32
  10
-5.22197176038094
  20
42.45820700529042
  30
887.31
  0
VERTEX
  8
Unknown Area Type
  70
32
  10
-5.22196319440156
  20
42.45779292602381
  30
886.768
  0
VERTEX
  8
Unknown Area Type
  70
32
  10
-5.22197518836918
  20
42.45778819073717
  30
886.761
  0
VERTEX
  8
Unknown Area Type
  70
32
  10
-5.23587779189479
  20
42.45459998239488
  30
887.122
  0
VERTEX
  8
Unknown Area Type
  70
32
  10
-5.25547480807572
  20
42.45781347406123
  30
880.876
  0
SEQEND
  8
Unknown Area Type
  0
TEXT
  8
Unknown Area Type
 62
7
  1
PNOA-H_AMS_1956-57_33k_ES_PAN_2
 40
0.00045
  10
-5.23878273390932
  20
42.47814162482678
  0
POLYLINE
  8
Unknown Area Type
  70
9
  66
1
  0
VERTEX
  8
Unknown Area Type
  70
32
  10
-5.32088877619148
  20
42.49904326234189
  30
859.44
  0
VERTEX
  8
Unknown Area Type
  70
32
  10
-5.31812197844439
  20
42.5
  30
860.449
  0
VERTEX
  8
Unknown Area Type
  70
32
  10
-5.31249999999997
  20
42.5
  30
862.534
  0
VERTEX
  8
Unknown Area Type
  70
32
  10
-5.29607968359133
  20
42.5
  30
868.745
  0
VERTEX
  8
Unknown Area Type
  70
32
  10
-5.28720443316981
  20
42.49905891524767
  30
872.139
  0
VERTEX
  8
Unknown Area Type
  70
32
  10
-5.29082351980677
  20
42.45768842915135
  30
863.381
  0
VERTEX
  8
Unknown Area Type
  70
32
  10
-5.29757884599081
  20
42.45568454961344
  30
860.5
  0
VERTEX
  8
Unknown Area Type
  70
32
  10
-5.29766965748406
  20
42.45567372303757
  30
860.909
  0
VERTEX
  8
Unknown Area Type
  70
32
  10
-5.297803824085
  20
42.45568454005581
  30
860.593
  0
VERTEX
  8
Unknown Area Type
  70
32
  10
-5.32231560615047
  20
42.45769374603851
  30
847.915
  0
SEQEND
  8
Unknown Area Type
  0
TEXT
  8
Unknown Area Type
 62
7
  1
PNOA-H_AMS_1956-57_33k_ES_PAN_2
 40
0.00045
  10
-5.30476007222148
  20
42.47858616496152
  0
POLYLINE
  8
Unknown Area Type
  70
9
  66
1
  0
VERTEX
  8
Unknown Area Type
  70
32
  10
-5.31812149645965
  20
42.50000016666667
  30
860.449
  0
VERTEX
  8
Unknown Area Type
  70
32
  10
-5.29608125540346
  20
42.50000016666667
  30
868.744
  0
VERTEX
  8
Unknown Area Type
  70
32
  10
-5.29607968359133
  20
42.5
  30
868.745
  0
VERTEX
  8
Unknown Area Type
  70
32
  10
-5.31249999999997
  20
42.5
  30
862.534
  0
VERTEX
  8
Unknown Area Type
  70
32
  10
-5.31812197844439
  20
42.5
  30
860.449
  0
SEQEND
  8
Unknown Area Type
  0
TEXT
  8
Unknown Area Type
 62
7
  1
PNOA-H_AMS_1956-57_33k_ES_PAN_2
 40
0.00045
  10
-5.30710083101786
  20
42.50000008333333
  0
POLYLINE
  8
Unknown Area Type
  70
9
  66
1
  0
VERTEX
  8
Unknown Area Type
  70
32
  10
-5.32088877619148
  20
42.49904326234189
  30
859.44
  0
VERTEX
  8
Unknown Area Type
  70
32
  10
-5.31812197844439
  20
42.5
  30
860.449
  0
VERTEX
  8
Unknown Area Type
  70
32
  10
-5.31249999999997
  20
42.5
  30
862.534
  0
VERTEX
  8
Unknown Area Type
  70
32
  10
-5.29607968359133
  20
42.5
  30
868.745
  0
VERTEX
  8
Unknown Area Type
  70
32
  10
-5.28720443316981
  20
42.49905891524767
  30
872.139
  0
VERTEX
  8
Unknown Area Type
  70
32
  10
-5.29082351980677
  20
42.45768842915135
  30
863.381
  0
VERTEX
  8
Unknown Area Type
  70
32
  10
-5.29757884599081
  20
42.45568454961344
  30
860.5
  0
VERTEX
  8
Unknown Area Type
  70
32
  10
-5.29766965748406
  20
42.45567372303757
  30
860.909
  0
VERTEX
  8
Unknown Area Type
  70
32
  10
-5.297803824085
  20
42.45568454005581
  30
860.593
  0
VERTEX
  8
Unknown Area Type
  70
32
  10
-5.32231560615047
  20
42.45769374603851
  30
847.915
  0
SEQEND
  8
Unknown Area Type
  0
TEXT
  8
Unknown Area Type
 62
7
  1
PNOA-H_AMS_1956-57_33k_ES_PAN_2
 40
0.00045
  10
-5.30476007222148
  20
42.47858616496152
  0
POLYLINE
  8
Unknown Area Type
  70
9
  66
1
  0
VERTEX
  8
Unknown Area Type
  70
32
  10
-5.28720443316981
  20
42.49905891524767
  30
872.139
  0
VERTEX
  8
Unknown Area Type
  70
32
  10
-5.2841305915171
  20
42.5
  30
875.204
  0
VERTEX
  8
Unknown Area Type
  70
32
  10
-5.27083333333334
  20
42.5
  30
884.318
  0
VERTEX
  8
Unknown Area Type
  70
32
  10
-5.26768784872024
  20
42.5
  30
885.952
  0
VERTEX
  8
Unknown Area Type
  70
32
  10
-5.25560202146966
  20
42.49859592471615
  30
892.313
  0
VERTEX
  8
Unknown Area Type
  70
32
  10
-5.25547464651963
  20
42.45780897458358
  30
880.87
  0
VERTEX
  8
Unknown Area Type
  70
32
  10
-5.26580396682094
  20
42.4550611498322
  30
871.982
  0
VERTEX
  8
Unknown Area Type
  70
32
  10
-5.29082351980677
  20
42.45768842915135
  30
863.381
  0
SEQEND
  8
Unknown Area Type
  0
TEXT
  8
Unknown Area Type
 62
7
  1
PNOA-H_AMS_1956-57_33k_ES_PAN_2
 40
0.00045
  10
-5.27314927743697
  20
42.47823206394104
  0
POLYLINE
  8
Unknown Area Type
  70
9
  66
1
  0
VERTEX
  8
Unknown Area Type
  70
32
  10
-5.28413004713792
  20
42.50000016666667
  30
875.204
  0
VERTEX
  8
Unknown Area Type
  70
32
  10
-5.26768928333313
  20
42.50000016666667
  30
885.951
  0
VERTEX
  8
Unknown Area Type
  70
32
  10
-5.26768784872024
  20
42.5
  30
885.952
  0
VERTEX
  8
Unknown Area Type
  70
32
  10
-5.27083333333334
  20
42.5
  30
884.318
  0
VERTEX
  8
Unknown Area Type
  70
32
  10
-5.2841305915171
  20
42.5
  30
875.204
  0
SEQEND
  8
Unknown Area Type
  0
TEXT
  8
Unknown Area Type
 62
7
  1
PNOA-H_AMS_1956-57_33k_ES_PAN_2
 40
0.00045
  10
-5.27590922011867
  20
42.50000008333333
  0
POLYLINE
  8
Unknown Area Type
  70
9
  66
1
  0
VERTEX
  8
Unknown Area Type
  70
32
  10
-5.28720443316981
  20
42.49905891524767
  30
872.139
  0
VERTEX
  8
Unknown Area Type
  70
32
  10
-5.2841305915171
  20
42.5
  30
875.204
  0
VERTEX
  8
Unknown Area Type
  70
32
  10
-5.27083333333334
  20
42.5
  30
884.318
  0
VERTEX
  8
Unknown Area Type
  70
32
  10
-5.26768784872024
  20
42.5
  30
885.952
  0
VERTEX
  8
Unknown Area Type
  70
32
  10
-5.25560202146966
  20
42.49859592471615
  30
892.313
  0
VERTEX
  8
Unknown Area Type
  70
32
  10
-5.25547464651963
  20
42.45780897458358
  30
880.87
  0
VERTEX
  8
Unknown Area Type
  70
32
  10
-5.26580396682094
  20
42.4550611498322
  30
871.982
  0
VERTEX
  8
Unknown Area Type
  70
32
  10
-5.29082351980677
  20
42.45768842915135
  30
863.381
  0
SEQEND
  8
Unknown Area Type
  0
TEXT
  8
Unknown Area Type
 62
7
  1
PNOA-H_AMS_1956-57_33k_ES_PAN_2
 40
0.00045
  10
-5.27314927743697
  20
42.47823206394104
  0
POLYLINE
  8
Unknown Area Type
  70
9
  66
1
  0
VERTEX
  8
Unknown Area Type
  70
32
  10
-5.22290473425588
  20
42.49950525224318
  30
904.429
  0
VERTEX
  8
Unknown Area Type
  70
32
  10
-5.22113772052755
  20
42.5
  30
904.895
  0
VERTEX
  8
Unknown Area Type
  70
32
  10
-5.1898737604994
  20
42.5
  30
915.389
  0
VERTEX
  8
Unknown Area Type
  70
32
  10
-5.18966304912311
  20
42.45886058285487
  30
902.797
  0
VERTEX
  8
Unknown Area Type
  70
32
  10
-5.1896678711174
  20
42.45882446928958
  30
902.887
  0
VERTEX
  8
Unknown Area Type
  70
32
  10
-5.18967986785537
  20
42.45881973732553
  30
902.887
  0
VERTEX
  8
Unknown Area Type
  70
32
  10
-5.20585043590387
  20
42.45505598339648
  30
895.92
  0
VERTEX
  8
Unknown Area Type
  70
32
  10
-5.22196319440156
  20
42.45779292602381
  30
886.768
  0
SEQEND
  8
Unknown Area Type
  0
TEXT
  8
Unknown Area Type
 62
7
  1
PNOA-H_AMS_1956-57_33k_ES_PAN_2
 40
0.00045
  10
-5.20628399859647
  20
42.47864790897296
  0
POLYLINE
  8
Unknown Area Type
  70
9
  66
1
  0
VERTEX
  8
Unknown Area Type
  70
32
  10
-5.2211371252701
  20
42.50000016666667
  30
904.895
  0
VERTEX
  8
Unknown Area Type
  70
32
  10
-5.18987376135305
  20
42.50000016666667
  30
915.389
  0
VERTEX
  8
Unknown Area Type
  70
32
  10
-5.1898737604994
  20
42.5
  30
915.389
  0
VERTEX
  8
Unknown Area Type
  70
32
  10
-5.22113772052755
  20
42.5
  30
904.895
  0
SEQEND
  8
Unknown Area Type
  0
TEXT
  8
Unknown Area Type
 62
7
  1
PNOA-H_AMS_1956-57_33k_ES_PAN_2
 40
0.00045
  10
-5.20550574051347
  20
42.50000008333333
  0
POLYLINE
  8
Unknown Area Type
  70
9
  66
1
  0
VERTEX
  8
Unknown Area Type
  70
32
  10
-5.22290473425588
  20
42.49950525224318
  30
904.429
  0
VERTEX
  8
Unknown Area Type
  70
32
  10
-5.22113772052755
  20
42.5
  30
904.895
  0
VERTEX
  8
Unknown Area Type
  70
32
  10
-5.1898737604994
  20
42.5
  30
915.389
  0
VERTEX
  8
Unknown Area Type
  70
32
  10
-5.18966304912311
  20
42.45886058285487
  30
902.797
  0
VERTEX
  8
Unknown Area Type
  70
32
  10
-5.1896678711174
  20
42.45882446928958
  30
902.887
  0
VERTEX
  8
Unknown Area Type
  70
32
  10
-5.18967986785537
  20
42.45881973732553
  30
902.887
  0
VERTEX
  8
Unknown Area Type
  70
32
  10
-5.20585043590387
  20
42.45505598339648
  30
895.92
  0
VERTEX
  8
Unknown Area Type
  70
32
  10
-5.22196319440156
  20
42.45779292602381
  30
886.768
  0
SEQEND
  8
Unknown Area Type
  0
TEXT
  8
Unknown Area Type
 62
7
  1
PNOA-H_AMS_1956-57_33k_ES_PAN_2
 40
0.00045
  10
-5.20628399859647
  20
42.47864790897296
  0
POLYLINE
  8
Unknown Area Type
  70
9
  66
1
  0
VERTEX
  8
Unknown Area Type
  70
32
  10
-5.42845071954974
  20
42.45840620214288
  30
775.238
  0
VERTEX
  8
Unknown Area Type
  70
32
  10
-5.42837781077427
  20
42.45840774771933
  30
776.988
  0
VERTEX
  8
Unknown Area Type
  70
32
  10
-5.42835263817005
  20
42.45838576829672
  30
777.723
  0
VERTEX
  8
Unknown Area Type
  70
32
  10
-5.42837641927639
  20
42.4583717563528
  30
777.673
  0
VERTEX
  8
Unknown Area Type
  70
32
  10
-5.42849793382951
  20
42.45836918036955
  30
775.015
  0
VERTEX
  8
Unknown Area Type
  70
32
  10
-5.42850435744922
  20
42.45837804940782
  30
774.687
  0
VERTEX
  8
Unknown Area Type
  70
32
  10
-5.42845644739477
  20
42.45839707550167
  30
775.397
  0
VERTEX
  8
Unknown Area Type
  70
32
  10
-5.42845071954974
  20
42.45840620214288
  30
775.238
  0
SEQEND
  8
Unknown Area Type
  0
TEXT
  8
Unknown Area Type
 62
7
  1
PNOA-H_AMS_1956-57_33k_ES_PAN_2
 40
0.00045
  10
-5.42841721916189
  20
42.45838673622573
  0
POLYLINE
  8
Unknown Area Type
  70
9
  66
1
  0
VERTEX
  8
Unknown Area Type
  70
32
  10
-5.42845071954974
  20
42.45840620214288
  30
775.238
  0
VERTEX
  8
Unknown Area Type
  70
32
  10
-5.42837781077427
  20
42.45840774771933
  30
776.988
  0
VERTEX
  8
Unknown Area Type
  70
32
  10
-5.42835263817005
  20
42.45838576829672
  30
777.723
  0
VERTEX
  8
Unknown Area Type
  70
32
  10
-5.42837641927639
  20
42.4583717563528
  30
777.673
  0
VERTEX
  8
Unknown Area Type
  70
32
  10
-5.42849793382951
  20
42.45836918036955
  30
775.015
  0
VERTEX
  8
Unknown Area Type
  70
32
  10
-5.42850435744922
  20
42.45837804940782
  30
774.687
  0
VERTEX
  8
Unknown Area Type
  70
32
  10
-5.42845644739477
  20
42.45839707550167
  30
775.397
  0
VERTEX
  8
Unknown Area Type
  70
32
  10
-5.42845071954974
  20
42.45840620214288
  30
775.238
  0
SEQEND
  8
Unknown Area Type
  0
TEXT
  8
Unknown Area Type
 62
7
  1
PNOA-H_AMS_1956-57_33k_ES_PAN_2
 40
0.00045
  10
-5.42841721916189
  20
42.45838673622573
  0
POLYLINE
  8
Unknown Area Type
  70
9
  66
1
  0
VERTEX
  8
Unknown Area Type
  70
32
  10
-5.42253348311109
  20
42.45712667482446
  30
794.428
  0
VERTEX
  8
Unknown Area Type
  70
32
  10
-5.41991199920017
  20
42.49938943240127
  30
796.078
  0
VERTEX
  8
Unknown Area Type
  70
32
  10
-5.41856440635064
  20
42.5
  30
794.744
  0
VERTEX
  8
Unknown Area Type
  70
32
  10
-5.39625500134024
  20
42.5
  30
800.369
  0
VERTEX
  8
Unknown Area Type
  70
32
  10
-5.38688416016842
  20
42.49922695300573
  30
804.685
  0
VERTEX
  8
Unknown Area Type
  70
32
  10
-5.38791245363084
  20
42.45669640532544
  30
809.804
  0
VERTEX
  8
Unknown Area Type
  70
32
  10
-5.38792255275187
  20
42.45664216335837
  30
809.686
  0
VERTEX
  8
Unknown Area Type
  70
32
  10
-5.38924347150296
  20
42.45620038035778
  30
809.172
  0
VERTEX
  8
Unknown Area Type
  70
32
  10
-5.42042475601761
  20
42.45636978442791
  30
796.163
  0
SEQEND
  8
Unknown Area Type
  0
TEXT
  8
Unknown Area Type
 62
7
  1
PNOA-H_AMS_1956-57_33k_ES_PAN_2
 40
0.00045
  10
-5.40470896140134
  20
42.47848913630828
  0
POLYLINE
  8
Unknown Area Type
  70
9
  66
1
  0
VERTEX
  8
Unknown Area Type
  70
32
  10
-5.41856403849816
  20
42.50000016666667
  30
794.744
  0
VERTEX
  8
Unknown Area Type
  70
32
  10
-5.39625702166612
  20
42.50000016666667
  30
800.369
  0
VERTEX
  8
Unknown Area Type
  70
32
  10
-5.39625500134024
  20
42.5
  30
800.369
  0
VERTEX
  8
Unknown Area Type
  70
32
  10
-5.41856440635064
  20
42.5
  30
794.744
  0
SEQEND
  8
Unknown Area Type
  0
TEXT
  8
Unknown Area Type
 62
7
  1
PNOA-H_AMS_1956-57_33k_ES_PAN_2
 40
0.00045
  10
-5.40740970384544
  20
42.50000008333333
  0
POLYLINE
  8
Unknown Area Type
  70
9
  66
1
  0
VERTEX
  8
Unknown Area Type
  70
32
  10
-5.42253348311109
  20
42.45712667482446
  30
794.428
  0
VERTEX
  8
Unknown Area Type
  70
32
  10
-5.41991199920017
  20
42.49938943240127
  30
796.078
  0
VERTEX
  8
Unknown Area Type
  70
32
  10
-5.41856440635064
  20
42.5
  30
794.744
  0
VERTEX
  8
Unknown Area Type
  70
32
  10
-5.39625500134024
  20
42.5
  30
800.369
  0
VERTEX
  8
Unknown Area Type
  70
32
  10
-5.38688416016842
  20
42.49922695300573
  30
804.685
  0
VERTEX
  8
Unknown Area Type
  70
32
  10
-5.38791245363084
  20
42.45669640532544
  30
809.804
  0
VERTEX
  8
Unknown Area Type
  70
32
  10
-5.38792255275187
  20
42.45664216335837
  30
809.686
  0
VERTEX
  8
Unknown Area Type
  70
32
  10
-5.38924347150296
  20
42.45620038035778
  30
809.172
  0
VERTEX
  8
Unknown Area Type
  70
32
  10
-5.42042475601761
  20
42.45636978442791
  30
796.163
  0
SEQEND
  8
Unknown Area Type
  0
TEXT
  8
Unknown Area Type
 62
7
  1
PNOA-H_AMS_1956-57_33k_ES_PAN_2
 40
0.00045
  10
-5.40470896140134
  20
42.47848913630828
  0
POLYLINE
  8
Unknown Area Type
  70
9
  66
1
  0
VERTEX
  8
Unknown Area Type
  70
32
  10
-5.18987380252721
  20
42.5
  30
915.389
  0
VERTEX
  8
Unknown Area Type
  70
32
  10
-5.18749999999999
  20
42.5
  30
917.618
  0
VERTEX
  8
Unknown Area Type
  70
32
  10
-5.18749999999999
  20
42.47916666666669
  30
909.06
  0
VERTEX
  8
Unknown Area Type
  70
32
  10
-5.18749999999999
  20
42.45839965016562
  30
904.537
  0
VERTEX
  8
Unknown Area Type
  70
32
  10
-5.1896678711174
  20
42.45882446928958
  30
902.887
  0
SEQEND
  8
Unknown Area Type
  0
TEXT
  8
Unknown Area Type
 62
7
  1
PNOA-H_AMS_1956-57_33k_ES_PAN_2
 40
0.00045
  10
-5.1886869012636
  20
42.47919982508281
  0
POLYLINE
  8
Unknown Area Type
  70
9
  66
1
  0
VERTEX
  8
Unknown Area Type
  70
32
  10
-5.18987380336076
  20
42.50000016666667
  30
915.39
  0
VERTEX
  8
Unknown Area Type
  70
32
  10
-5.18749999999999
  20
42.50000016666667
  30
917.619
  0
VERTEX
  8
Unknown Area Type
  70
32
  10
-5.18749999999999
  20
42.5
  30
917.618
  0
VERTEX
  8
Unknown Area Type
  70
32
  10
-5.18987380252721
  20
42.5
  30
915.389
  0
SEQEND
  8
Unknown Area Type
  0
TEXT
  8
Unknown Area Type
 62
7
  1
PNOA-H_AMS_1956-57_33k_ES_PAN_2
 40
0.00045
  10
-5.18868690168038
  20
42.50000008333333
  0
POLYLINE
  8
Unknown Area Type
  70
9
  66
1
  0
VERTEX
  8
Unknown Area Type
  70
32
  10
-5.18749999999999
  20
42.50000016666667
  30
917.619
  0
VERTEX
  8
Unknown Area Type
  70
32
  10
-5.18749966666666
  20
42.50000016666667
  30
917.619
  0
VERTEX
  8
Unknown Area Type
  70
32
  10
-5.18749966666666
  20
42.5
  30
917.619
  0
VERTEX
  8
Unknown Area Type
  70
32
  10
-5.18749999999999
  20
42.5
  30
917.618
  0
SEQEND
  8
Unknown Area Type
  0
TEXT
  8
Unknown Area Type
 62
7
  1
PNOA-H_AMS_1956-57_33k_ES_PAN_2
 40
0.00045
  10
-5.18749983333333
  20
42.50000008333333
  0
POLYLINE
  8
Unknown Area Type
  70
9
  66
1
  0
VERTEX
  8
Unknown Area Type
  70
32
  10
-5.18987380252721
  20
42.5
  30
915.389
  0
VERTEX
  8
Unknown Area Type
  70
32
  10
-5.18749999999999
  20
42.5
  30
917.618
  0
VERTEX
  8
Unknown Area Type
  70
32
  10
-5.18749999999999
  20
42.47916666666669
  30
909.06
  0
VERTEX
  8
Unknown Area Type
  70
32
  10
-5.18749999999999
  20
42.45839965016562
  30
904.537
  0
VERTEX
  8
Unknown Area Type
  70
32
  10
-5.1896678711174
  20
42.45882446928958
  30
902.887
  0
SEQEND
  8
Unknown Area Type
  0
TEXT
  8
Unknown Area Type
 62
7
  1
PNOA-H_AMS_1956-57_33k_ES_PAN_2
 40
0.00045
  10
-5.1886869012636
  20
42.47919982508281
  0
POLYLINE
  8
Unknown Area Type
  70
9
  66
1
  0
VERTEX
  8
Unknown Area Type
  70
32
  10
-5.18749999999999
  20
42.47916666666669
  30
909.06
  0
VERTEX
  8
Unknown Area Type
  70
32
  10
-5.18749999999999
  20
42.5
  30
917.618
  0
VERTEX
  8
Unknown Area Type
  70
32
  10
-5.18749966666666
  20
42.5
  30
917.619
  0
VERTEX
  8
Unknown Area Type
  70
32
  10
-5.18749966666666
  20
42.45839958484514
  30
904.537
  0
VERTEX
  8
Unknown Area Type
  70
32
  10
-5.18749999999999
  20
42.45839965016562
  30
904.537
  0
SEQEND
  8
Unknown Area Type
  0
TEXT
  8
Unknown Area Type
 62
7
  1
PNOA-H_AMS_1956-57_33k_ES_PAN_2
 40
0.00045
  10
-5.18749983333333
  20
42.47919979242257
  0
POLYLINE
  8
Unknown Area Type
  70
9
  66
1
  0
VERTEX
  8
Unknown Area Type
  70
32
  10
-5.40365499078758
  20
42.34072550466894
  30
849.688
  0
VERTEX
  8
Unknown Area Type
  70
32
  10
-5.38588797880871
  20
42.342276492462
  30
853.558
  0
VERTEX
  8
Unknown Area Type
  70
32
  10
-5.38631772146628
  20
42.33333333333331
  30
864.783
  0
VERTEX
  8
Unknown Area Type
  70
32
  10
-5.39583333333332
  20
42.33333333333331
  30
851.24
  0
VERTEX
  8
Unknown Area Type
  70
32
  10
-5.40402948616547
  20
42.33333333333331
  30
851.969
  0
SEQEND
  8
Unknown Area Type
  0
TEXT
  8
Unknown Area Type
 62
7
  1
PNOA-H_AMS_1956-57_33k_ES_PAN_2
 40
0.00045
  10
-5.39495873248709
  20
42.33780491289765
  0
POLYLINE
  8
Unknown Area Type
  70
9
  66
1
  0
VERTEX
  8
Unknown Area Type
  70
32
  10
-5.40365499078758
  20
42.34072550466894
  30
849.688
  0
VERTEX
  8
Unknown Area Type
  70
32
  10
-5.38588797880871
  20
42.342276492462
  30
853.558
  0
VERTEX
  8
Unknown Area Type
  70
32
  10
-5.38631772146628
  20
42.33333333333331
  30
864.783
  0
VERTEX
  8
Unknown Area Type
  70
32
  10
-5.39583333333332
  20
42.33333333333331
  30
851.24
  0
VERTEX
  8
Unknown Area Type
  70
32
  10
-5.40402948616547
  20
42.33333333333331
  30
851.969
  0
SEQEND
  8
Unknown Area Type
  0
TEXT
  8
Unknown Area Type
 62
7
  1
PNOA-H_AMS_1956-57_33k_ES_PAN_2
 40
0.00045
  10
-5.39495873248709
  20
42.33780491289765
  0
POLYLINE
  8
Unknown Area Type
  70
9
  66
1
  0
VERTEX
  8
Unknown Area Type
  70
32
  10
-5.40402948616547
  20
42.33333333333331
  30
851.969
  0
VERTEX
  8
Unknown Area Type
  70
32
  10
-5.39583333333332
  20
42.33333333333331
  30
851.24
  0
VERTEX
  8
Unknown Area Type
  70
32
  10
-5.38631772146628
  20
42.33333333333331
  30
864.783
  0
VERTEX
  8
Unknown Area Type
  70
32
  10
-5.38631772947506
  20
42.33333316666665
  30
864.783
  0
VERTEX
  8
Unknown Area Type
  70
32
  10
-5.40402949460898
  20
42.33333316666665
  30
851.969
  0
SEQEND
  8
Unknown Area Type
  0
TEXT
  8
Unknown Area Type
 62
7
  1
PNOA-H_AMS_1956-57_33k_ES_PAN_2
 40
0.00045
  10
-5.39517360803763
  20
42.33333324999998
  0
POLYLINE
  8
Unknown Area Type
  70
9
  66
1
  0
VERTEX
  8
Unknown Area Type
  70
32
  10
-5.43941606667213
  20
42.34058220143962
  30
813.956
  0
VERTEX
  8
Unknown Area Type
  70
32
  10
-5.43941052437158
  20
42.3405958274622
  30
813.927
  0
VERTEX
  8
Unknown Area Type
  70
32
  10
-5.4376516294494
  20
42.34015597166666
  30
814.422
  0
VERTEX
  8
Unknown Area Type
  70
32
  10
-5.43730289195435
  20
42.33333333333331
  30
813.766
  0
VERTEX
  8
Unknown Area Type
  70
32
  10
-5.43750000000003
  20
42.33333333333331
  30
813.767
  0
VERTEX
  8
Unknown Area Type
  70
32
  10
-5.44385331084869
  20
42.33333333333331
  30
813.94
  0
SEQEND
  8
Unknown Area Type
  0
TEXT
  8
Unknown Area Type
 62
7
  1
PNOA-H_AMS_1956-57_33k_ES_PAN_2
 40
0.00045
  10
-5.44057810140152
  20
42.33696458039776
  0
POLYLINE
  8
Unknown Area Type
  70
9
  66
1
  0
VERTEX
  8
Unknown Area Type
  70
32
  10
-5.43941606667213
  20
42.34058220143962
  30
813.956
  0
VERTEX
  8
Unknown Area Type
  70
32
  10
-5.43941052437158
  20
42.3405958274622
  30
813.927
  0
VERTEX
  8
Unknown Area Type
  70
32
  10
-5.4376516294494
  20
42.34015597166666
  30
814.422
  0
VERTEX
  8
Unknown Area Type
  70
32
  10
-5.43730289195435
  20
42.33333333333331
  30
813.766
  0
VERTEX
  8
Unknown Area Type
  70
32
  10
-5.43750000000003
  20
42.33333333333331
  30
813.767
  0
VERTEX
  8
Unknown Area Type
  70
32
  10
-5.44385331084869
  20
42.33333333333331
  30
813.94
  0
SEQEND
  8
Unknown Area Type
  0
TEXT
  8
Unknown Area Type
 62
7
  1
PNOA-H_AMS_1956-57_33k_ES_PAN_2
 40
0.00045
  10
-5.44057810140152
  20
42.33696458039776
  0
POLYLINE
  8
Unknown Area Type
  70
9
  66
1
  0
VERTEX
  8
Unknown Area Type
  70
32
  10
-5.44385331084869
  20
42.33333333333331
  30
813.94
  0
VERTEX
  8
Unknown Area Type
  70
32
  10
-5.43750000000003
  20
42.33333333333331
  30
813.767
  0
VERTEX
  8
Unknown Area Type
  70
32
  10
-5.43730289195435
  20
42.33333333333331
  30
813.766
  0
VERTEX
  8
Unknown Area Type
  70
32
  10
-5.43730288343522
  20
42.33333316666665
  30
813.766
  0
VERTEX
  8
Unknown Area Type
  70
32
  10
-5.44385341287023
  20
42.33333316666665
  30
813.94
  0
SEQEND
  8
Unknown Area Type
  0
TEXT
  8
Unknown Area Type
 62
7
  1
PNOA-H_AMS_1956-57_33k_ES_PAN_2
 40
0.00045
  10
-5.44057814815272
  20
42.33333324999998
  0
POLYLINE
  8
Unknown Area Type
  70
9
  66
1
  0
VERTEX
  8
Unknown Area Type
  70
32
  10
-5.50974725850299
  20
42.34165246661551
  30
762.42
  0
VERTEX
  8
Unknown Area Type
  70
32
  10
-5.50548585702055
  20
42.34041293262261
  30
775.017
  0
VERTEX
  8
Unknown Area Type
  70
32
  10
-5.50531389824489
  20
42.33333333333331
  30
772.644
  0
VERTEX
  8
Unknown Area Type
  70
32
  10
-5.51431190757936
  20
42.33333333333331
  30
758.61
  0
SEQEND
  8
Unknown Area Type
  0
TEXT
  8
Unknown Area Type
 62
7
  1
PNOA-H_AMS_1956-57_33k_ES_PAN_2
 40
0.00045
  10
-5.50981290291212
  20
42.33749289997441
  0
POLYLINE
  8
Unknown Area Type
  70
9
  66
1
  0
VERTEX
  8
Unknown Area Type
  70
32
  10
-5.50974725850299
  20
42.34165246661551
  30
762.42
  0
VERTEX
  8
Unknown Area Type
  70
32
  10
-5.50548585702055
  20
42.34041293262261
  30
775.017
  0
VERTEX
  8
Unknown Area Type
  70
32
  10
-5.50531389824489
  20
42.33333333333331
  30
772.644
  0
VERTEX
  8
Unknown Area Type
  70
32
  10
-5.51431190757936
  20
42.33333333333331
  30
758.61
  0
SEQEND
  8
Unknown Area Type
  0
TEXT
  8
Unknown Area Type
 62
7
  1
PNOA-H_AMS_1956-57_33k_ES_PAN_2
 40
0.00045
  10
-5.50981290291212
  20
42.33749289997441
  0
POLYLINE
  8
Unknown Area Type
  70
9
  66
1
  0
VERTEX
  8
Unknown Area Type
  70
32
  10
-5.51431190757936
  20
42.33333333333331
  30
758.61
  0
VERTEX
  8
Unknown Area Type
  70
32
  10
-5.50531389824489
  20
42.33333333333331
  30
772.644
  0
VERTEX
  8
Unknown Area Type
  70
32
  10
-5.50531389419667
  20
42.33333316666665
  30
772.644
  0
VERTEX
  8
Unknown Area Type
  70
32
  10
-5.51431199902817
  20
42.33333316666665
  30
758.61
  0
SEQEND
  8
Unknown Area Type
  0
TEXT
  8
Unknown Area Type
 62
7
  1
PNOA-H_AMS_1956-57_33k_ES_PAN_2
 40
0.00045
  10
-5.50981294661242
  20
42.33333324999998
  0
POLYLINE
  8
Unknown Area Type
  70
9
  66
1
  0
VERTEX
  8
Unknown Area Type
  70
32
  10
-5.48231038656726
  20
42.33333333333331
  30
802.567
  0
VERTEX
  8
Unknown Area Type
  70
32
  10
-5.47899704655402
  20
42.34189406898877
  30
808.539
  0
VERTEX
  8
Unknown Area Type
  70
32
  10
-5.47896366714151
  20
42.34197133643229
  30
808.547
  0
VERTEX
  8
Unknown Area Type
  70
32
  10
-5.47885486377612
  20
42.34198269544574
  30
808.529
  0
VERTEX
  8
Unknown Area Type
  70
32
  10
-5.47879439779583
  20
42.34198850609314
  30
808.505
  0
VERTEX
  8
Unknown Area Type
  70
32
  10
-5.47872144960018
  20
42.34198558137433
  30
808.49
  0
VERTEX
  8
Unknown Area Type
  70
32
  10
-5.47129207628859
  20
42.33996224816362
  30
808.733
  0
VERTEX
  8
Unknown Area Type
  70
32
  10
-5.47109276793666
  20
42.33333333333331
  30
807.666
  0
VERTEX
  8
Unknown Area Type
  70
32
  10
-5.47916666666666
  20
42.33333333333331
  30
803.305
  0
SEQEND
  8
Unknown Area Type
  0
TEXT
  8
Unknown Area Type
 62
7
  1
PNOA-H_AMS_1956-57_33k_ES_PAN_2
 40
0.00045
  10
-5.47670157725196
  20
42.33766091971323
  0
POLYLINE
  8
Unknown Area Type
  70
9
  66
1
  0
VERTEX
  8
Unknown Area Type
  70
32
  10
-5.48231038656726
  20
42.33333333333331
  30
802.567
  0
VERTEX
  8
Unknown Area Type
  70
32
  10
-5.47899704655402
  20
42.34189406898877
  30
808.539
  0
VERTEX
  8
Unknown Area Type
  70
32
  10
-5.47896366714151
  20
42.34197133643229
  30
808.547
  0
VERTEX
  8
Unknown Area Type
  70
32
  10
-5.47885486377612
  20
42.34198269544574
  30
808.529
  0
VERTEX
  8
Unknown Area Type
  70
32
  10
-5.47879439779583
  20
42.34198850609314
  30
808.505
  0
VERTEX
  8
Unknown Area Type
  70
32
  10
-5.47872144960018
  20
42.34198558137433
  30
808.49
  0
VERTEX
  8
Unknown Area Type
  70
32
  10
-5.47129207628859
  20
42.33996224816362
  30
808.733
  0
VERTEX
  8
Unknown Area Type
  70
32
  10
-5.47109276793666
  20
42.33333333333331
  30
807.666
  0
VERTEX
  8
Unknown Area Type
  70
32
  10
-5.47916666666666
  20
42.33333333333331
  30
803.305
  0
SEQEND
  8
Unknown Area Type
  0
TEXT
  8
Unknown Area Type
 62
7
  1
PNOA-H_AMS_1956-57_33k_ES_PAN_2
 40
0.00045
  10
-5.47670157725196
  20
42.33766091971323
  0
POLYLINE
  8
Unknown Area Type
  70
9
  66
1
  0
VERTEX
  8
Unknown Area Type
  70
32
  10
-5.48231038656726
  20
42.33333333333331
  30
802.567
  0
VERTEX
  8
Unknown Area Type
  70
32
  10
-5.47916666666666
  20
42.33333333333331
  30
803.305
  0
VERTEX
  8
Unknown Area Type
  70
32
  10
-5.47109276793666
  20
42.33333333333331
  30
807.666
  0
VERTEX
  8
Unknown Area Type
  70
32
  10
-5.47109276292557
  20
42.33333316666665
  30
807.666
  0
VERTEX
  8
Unknown Area Type
  70
32
  10
-5.48231045107379
  20
42.33333316666665
  30
802.567
  0
SEQEND
  8
Unknown Area Type
  0
TEXT
  8
Unknown Area Type
 62
7
  1
PNOA-H_AMS_1956-57_33k_ES_PAN_2
 40
0.00045
  10
-5.47670160699968
  20
42.33333324999998
  0
POLYLINE
  8
Unknown Area Type
  70
9
  66
1
  0
VERTEX
  8
Unknown Area Type
  70
32
  10
-5.37119181447845
  20
42.34012754672052
  30
857.68
  0
VERTEX
  8
Unknown Area Type
  70
32
  10
-5.35833139449595
  20
42.33802900058133
  30
840.019
  0
VERTEX
  8
Unknown Area Type
  70
32
  10
-5.35831926561538
  20
42.33802925017719
  30
840.126
  0
VERTEX
  8
Unknown Area Type
  70
32
  10
-5.35292136354483
  20
42.33714960804972
  30
837.257
  0
VERTEX
  8
Unknown Area Type
  70
32
  10
-5.35286434069386
  20
42.33333333333331
  30
840.37
  0
VERTEX
  8
Unknown Area Type
  70
32
  10
-5.35416666666669
  20
42.33333333333331
  30
840.354
  0
VERTEX
  8
Unknown Area Type
  70
32
  10
-5.37098484507148
  20
42.33333333333331
  30
858.272
  0
SEQEND
  8
Unknown Area Type
  0
TEXT
  8
Unknown Area Type
 62
7
  1
PNOA-H_AMS_1956-57_33k_ES_PAN_2
 40
0.00045
  10
-5.36202807758615
  20
42.33673044002691
  0
POLYLINE
  8
Unknown Area Type
  70
9
  66
1
  0
VERTEX
  8
Unknown Area Type
  70
32
  10
-5.37119181447845
  20
42.34012754672052
  30
857.68
  0
VERTEX
  8
Unknown Area Type
  70
32
  10
-5.35833139449595
  20
42.33802900058133
  30
840.019
  0
VERTEX
  8
Unknown Area Type
  70
32
  10
-5.35831926561538
  20
42.33802925017719
  30
840.126
  0
VERTEX
  8
Unknown Area Type
  70
32
  10
-5.35292136354483
  20
42.33714960804972
  30
837.257
  0
VERTEX
  8
Unknown Area Type
  70
32
  10
-5.35286434069386
  20
42.33333333333331
  30
840.37
  0
VERTEX
  8
Unknown Area Type
  70
32
  10
-5.35416666666669
  20
42.33333333333331
  30
840.354
  0
VERTEX
  8
Unknown Area Type
  70
32
  10
-5.37098484507148
  20
42.33333333333331
  30
858.272
  0
SEQEND
  8
Unknown Area Type
  0
TEXT
  8
Unknown Area Type
 62
7
  1
PNOA-H_AMS_1956-57_33k_ES_PAN_2
 40
0.00045
  10
-5.36202807758615
  20
42.33673044002691
  0
POLYLINE
  8
Unknown Area Type
  70
9
  66
1
  0
VERTEX
  8
Unknown Area Type
  70
32
  10
-5.37098484507148
  20
42.33333333333331
  30
858.272
  0
VERTEX
  8
Unknown Area Type
  70
32
  10
-5.35416666666669
  20
42.33333333333331
  30
840.354
  0
VERTEX
  8
Unknown Area Type
  70
32
  10
-5.35286434069386
  20
42.33333333333331
  30
840.37
  0
VERTEX
  8
Unknown Area Type
  70
32
  10
-5.35286433820352
  20
42.33333316666665
  30
840.37
  0
VERTEX
  8
Unknown Area Type
  70
32
  10
-5.37098483999437
  20
42.33333316666665
  30
858.272
  0
SEQEND
  8
Unknown Area Type
  0
TEXT
  8
Unknown Area Type
 62
7
  1
PNOA-H_AMS_1956-57_33k_ES_PAN_2
 40
0.00045
  10
-5.3619245916375
  20
42.33333324999998
  0
POLYLINE
  8
Unknown Area Type
  70
9
  66
1
  0
VERTEX
  8
Unknown Area Type
  70
32
  10
-5.33715341784585
  20
42.33598636395801
  30
832.989
  0
VERTEX
  8
Unknown Area Type
  70
32
  10
-5.32719570991539
  20
42.33898519139429
  30
822.385
  0
VERTEX
  8
Unknown Area Type
  70
32
  10
-5.32718374657895
  20
42.33898993704657
  30
822.371
  0
VERTEX
  8
Unknown Area Type
  70
32
  10
-5.31359260828882
  20
42.3361177188236
  30
816.344
  0
VERTEX
  8
Unknown Area Type
  70
32
  10
-5.31439771511275
  20
42.33333333333331
  30
818.26
  0
VERTEX
  8
Unknown Area Type
  70
32
  10
-5.33706906360976
  20
42.33333333333331
  30
834.18
  0
SEQEND
  8
Unknown Area Type
  0
TEXT
  8
Unknown Area Type
 62
7
  1
PNOA-H_AMS_1956-57_33k_ES_PAN_2
 40
0.00045
  10
-5.32537301306733
  20
42.33616163518994
  0
POLYLINE
  8
Unknown Area Type
  70
9
  66
1
  0
VERTEX
  8
Unknown Area Type
  70
32
  10
-5.33715341784585
  20
42.33598636395801
  30
832.989
  0
VERTEX
  8
Unknown Area Type
  70
32
  10
-5.32719570991539
  20
42.33898519139429
  30
822.385
  0
VERTEX
  8
Unknown Area Type
  70
32
  10
-5.32718374657895
  20
42.33898993704657
  30
822.371
  0
VERTEX
  8
Unknown Area Type
  70
32
  10
-5.31359260828882
  20
42.3361177188236
  30
816.344
  0
VERTEX
  8
Unknown Area Type
  70
32
  10
-5.31439771511275
  20
42.33333333333331
  30
818.26
  0
VERTEX
  8
Unknown Area Type
  70
32
  10
-5.33706906360976
  20
42.33333333333331
  30
834.18
  0
SEQEND
  8
Unknown Area Type
  0
TEXT
  8
Unknown Area Type
 62
7
  1
PNOA-H_AMS_1956-57_33k_ES_PAN_2
 40
0.00045
  10
-5.32537301306733
  20
42.33616163518994
  0
POLYLINE
  8
Unknown Area Type
  70
9
  66
1
  0
VERTEX
  8
Unknown Area Type
  70
32
  10
-5.33706906360976
  20
42.33333333333331
  30
834.18
  0
VERTEX
  8
Unknown Area Type
  70
32
  10
-5.31439771511275
  20
42.33333333333331
  30
818.26
  0
VERTEX
  8
Unknown Area Type
  70
32
  10
-5.31439776330452
  20
42.33333316666665
  30
818.26
  0
VERTEX
  8
Unknown Area Type
  70
32
  10
-5.33706905831053
  20
42.33333316666665
  30
834.18
  0
SEQEND
  8
Unknown Area Type
  0
TEXT
  8
Unknown Area Type
 62
7
  1
PNOA-H_AMS_1956-57_33k_ES_PAN_2
 40
0.00045
  10
-5.32573338936125
  20
42.33333324999998
  0
POLYLINE
  8
Unknown Area Type
  70
9
  66
1
  0
VERTEX
  8
Unknown Area Type
  70
32
  10
-5.30143390456109
  20
42.33521433496732
  30
814.114
  0
VERTEX
  8
Unknown Area Type
  70
32
  10
-5.30142226814992
  20
42.33522807682255
  30
814.116
  0
VERTEX
  8
Unknown Area Type
  70
32
  10
-5.30137424522469
  20
42.33524254935873
  30
814.069
  0
VERTEX
  8
Unknown Area Type
  70
32
  10
-5.29003515499055
  20
42.33835143415601
  30
794.689
  0
VERTEX
  8
Unknown Area Type
  70
32
  10
-5.28998647352501
  20
42.33834790417645
  30
794.687
  0
VERTEX
  8
Unknown Area Type
  70
32
  10
-5.2837127311727
  20
42.3368881312738
  30
793.522
  0
VERTEX
  8
Unknown Area Type
  70
32
  10
-5.28370060186984
  20
42.3368883729713
  30
793.515
  0
VERTEX
  8
Unknown Area Type
  70
32
  10
-5.27232933724501
  20
42.33425066068113
  30
799.681
  0
VERTEX
  8
Unknown Area Type
  70
32
  10
-5.27234671668246
  20
42.33333333333331
  30
799.423
  0
VERTEX
  8
Unknown Area Type
  70
32
  10
-5.30149524237389
  20
42.33333333333331
  30
814.823
  0
SEQEND
  8
Unknown Area Type
  0
TEXT
  8
Unknown Area Type
 62
7
  1
PNOA-H_AMS_1956-57_33k_ES_PAN_2
 40
0.00045
  10
-5.28691228980945
  20
42.33584238374466
  0
POLYLINE
  8
Unknown Area Type
  70
9
  66
1
  0
VERTEX
  8
Unknown Area Type
  70
32
  10
-5.30143390456109
  20
42.33521433496732
  30
814.114
  0
VERTEX
  8
Unknown Area Type
  70
32
  10
-5.30142226814992
  20
42.33522807682255
  30
814.116
  0
VERTEX
  8
Unknown Area Type
  70
32
  10
-5.30137424522469
  20
42.33524254935873
  30
814.069
  0
VERTEX
  8
Unknown Area Type
  70
32
  10
-5.29003515499055
  20
42.33835143415601
  30
794.689
  0
VERTEX
  8
Unknown Area Type
  70
32
  10
-5.28998647352501
  20
42.33834790417645
  30
794.687
  0
VERTEX
  8
Unknown Area Type
  70
32
  10
-5.2837127311727
  20
42.3368881312738
  30
793.522
  0
VERTEX
  8
Unknown Area Type
  70
32
  10
-5.28370060186984
  20
42.3368883729713
  30
793.515
  0
VERTEX
  8
Unknown Area Type
  70
32
  10
-5.27232933724501
  20
42.33425066068113
  30
799.681
  0
VERTEX
  8
Unknown Area Type
  70
32
  10
-5.27234671668246
  20
42.33333333333331
  30
799.423
  0
VERTEX
  8
Unknown Area Type
  70
32
  10
-5.30149524237389
  20
42.33333333333331
  30
814.823
  0
SEQEND
  8
Unknown Area Type
  0
TEXT
  8
Unknown Area Type
 62
7
  1
PNOA-H_AMS_1956-57_33k_ES_PAN_2
 40
0.00045
  10
-5.28691228980945
  20
42.33584238374466
  0
POLYLINE
  8
Unknown Area Type
  70
9
  66
1
  0
VERTEX
  8
Unknown Area Type
  70
32
  10
-5.30149524237389
  20
42.33333333333331
  30
814.823
  0
VERTEX
  8
Unknown Area Type
  70
32
  10
-5.27234671668246
  20
42.33333333333331
  30
799.423
  0
VERTEX
  8
Unknown Area Type
  70
32
  10
-5.27234671984008
  20
42.33333316666665
  30
799.423
  0
VERTEX
  8
Unknown Area Type
  70
32
  10
-5.30149524780875
  20
42.33333316666665
  30
814.823
  0
SEQEND
  8
Unknown Area Type
  0
TEXT
  8
Unknown Area Type
 62
7
  1
PNOA-H_AMS_1956-57_33k_ES_PAN_2
 40
0.00045
  10
-5.2869209822456
  20
42.33333324999998
  0
POLYLINE
  8
Unknown Area Type
  70
9
  66
1
  0
VERTEX
  8
Unknown Area Type
  70
32
  10
-5.27233491550832
  20
42.33423704187254
  30
799.68
  0
VERTEX
  8
Unknown Area Type
  70
32
  10
-5.27232949930554
  20
42.33425516020363
  30
799.683
  0
VERTEX
  8
Unknown Area Type
  70
32
  10
-5.27228737229468
  20
42.33426500092803
  30
799.759
  0
VERTEX
  8
Unknown Area Type
  70
32
  10
-5.2545051694021
  20
42.3383219394889
  30
847.813
  0
VERTEX
  8
Unknown Area Type
  70
32
  10
-5.25446271501779
  20
42.33832277463365
  30
847.814
  0
VERTEX
  8
Unknown Area Type
  70
32
  10
-5.25428522457775
  20
42.33828123859755
  30
847.788
  0
VERTEX
  8
Unknown Area Type
  70
32
  10
-5.23985162308325
  20
42.33483146114094
  30
834.815
  0
VERTEX
  8
Unknown Area Type
  70
32
  10
-5.23975870002628
  20
42.33333333333331
  30
834.754
  0
VERTEX
  8
Unknown Area Type
  70
32
  10
-5.27083333333334
  20
42.33333333333331
  30
802.948
  0
VERTEX
  8
Unknown Area Type
  70
32
  10
-5.27235188499984
  20
42.33333333333331
  30
799.423
  0
SEQEND
  8
Unknown Area Type
  0
TEXT
  8
Unknown Area Type
 62
7
  1
PNOA-H_AMS_1956-57_33k_ES_PAN_2
 40
0.00045
  10
-5.25605529251306
  20
42.33582805398348
  0
POLYLINE
  8
Unknown Area Type
  70
9
  66
1
  0
VERTEX
  8
Unknown Area Type
  70
32
  10
-5.27233491550832
  20
42.33423704187254
  30
799.68
  0
VERTEX
  8
Unknown Area Type
  70
32
  10
-5.27232949930554
  20
42.33425516020363
  30
799.683
  0
VERTEX
  8
Unknown Area Type
  70
32
  10
-5.27228737229468
  20
42.33426500092803
  30
799.759
  0
VERTEX
  8
Unknown Area Type
  70
32
  10
-5.2545051694021
  20
42.3383219394889
  30
847.813
  0
VERTEX
  8
Unknown Area Type
  70
32
  10
-5.25446271501779
  20
42.33832277463365
  30
847.814
  0
VERTEX
  8
Unknown Area Type
  70
32
  10
-5.25428522457775
  20
42.33828123859755
  30
847.788
  0
VERTEX
  8
Unknown Area Type
  70
32
  10
-5.23985162308325
  20
42.33483146114094
  30
834.815
  0
VERTEX
  8
Unknown Area Type
  70
32
  10
-5.23975870002628
  20
42.33333333333331
  30
834.754
  0
VERTEX
  8
Unknown Area Type
  70
32
  10
-5.27083333333334
  20
42.33333333333331
  30
802.948
  0
VERTEX
  8
Unknown Area Type
  70
32
  10
-5.27235188499984
  20
42.33333333333331
  30
799.423
  0
SEQEND
  8
Unknown Area Type
  0
TEXT
  8
Unknown Area Type
 62
7
  1
PNOA-H_AMS_1956-57_33k_ES_PAN_2
 40
0.00045
  10
-5.25605529251306
  20
42.33582805398348
  0
POLYLINE
  8
Unknown Area Type
  70
9
  66
1
  0
VERTEX
  8
Unknown Area Type
  70
32
  10
-5.27235188499984
  20
42.33333333333331
  30
799.423
  0
VERTEX
  8
Unknown Area Type
  70
32
  10
-5.27083333333334
  20
42.33333333333331
  30
802.948
  0
VERTEX
  8
Unknown Area Type
  70
32
  10
-5.23975870002628
  20
42.33333333333331
  30
834.754
  0
VERTEX
  8
Unknown Area Type
  70
32
  10
-5.23975868968859
  20
42.33333316666665
  30
834.754
  0
VERTEX
  8
Unknown Area Type
  70
32
  10
-5.27235188812944
  20
42.33333316666665
  30
799.423
  0
SEQEND
  8
Unknown Area Type
  0
TEXT
  8
Unknown Area Type
 62
7
  1
PNOA-H_AMS_1956-57_33k_ES_PAN_2
 40
0.00045
  10
-5.25605528890902
  20
42.33333324999998
  0
POLYLINE
  8
Unknown Area Type
  70
9
  66
1
  0
VERTEX
  8
Unknown Area Type
  70
32
  10
-5.23985784746986
  20
42.33483584223889
  30
834.773
  0
VERTEX
  8
Unknown Area Type
  70
32
  10
-5.23399836430414
  20
42.33612092175205
  30
849.868
  0
VERTEX
  8
Unknown Area Type
  70
32
  10
-5.23397426449811
  20
42.33612589426092
  30
849.857
  0
VERTEX
  8
Unknown Area Type
  70
32
  10
-5.22030291860458
  20
42.33911572696522
  30
850.87
  0
VERTEX
  8
Unknown Area Type
  70
32
  10
-5.20527321218949
  20
42.33575417968191
  30
821.987
  0
VERTEX
  8
Unknown Area Type
  70
32
  10
-5.20518822269572
  20
42.33333333333331
  30
820.834
  0
VERTEX
  8
Unknown Area Type
  70
32
  10
-5.22916666666662
  20
42.33333333333331
  30
850.154
  0
VERTEX
  8
Unknown Area Type
  70
32
  10
-5.23976438814661
  20
42.33333333333331
  30
834.713
  0
SEQEND
  8
Unknown Area Type
  0
TEXT
  8
Unknown Area Type
 62
7
  1
PNOA-H_AMS_1956-57_33k_ES_PAN_2
 40
0.00045
  10
-5.22252303508279
  20
42.33622453014927
  0
POLYLINE
  8
Unknown Area Type
  70
9
  66
1
  0
VERTEX
  8
Unknown Area Type
  70
32
  10
-5.23985784746986
  20
42.33483584223889
  30
834.773
  0
VERTEX
  8
Unknown Area Type
  70
32
  10
-5.23399836430414
  20
42.33612092175205
  30
849.868
  0
VERTEX
  8
Unknown Area Type
  70
32
  10
-5.23397426449811
  20
42.33612589426092
  30
849.857
  0
VERTEX
  8
Unknown Area Type
  70
32
  10
-5.22030291860458
  20
42.33911572696522
  30
850.87
  0
VERTEX
  8
Unknown Area Type
  70
32
  10
-5.20527321218949
  20
42.33575417968191
  30
821.987
  0
VERTEX
  8
Unknown Area Type
  70
32
  10
-5.20518822269572
  20
42.33333333333331
  30
820.834
  0
VERTEX
  8
Unknown Area Type
  70
32
  10
-5.22916666666662
  20
42.33333333333331
  30
850.154
  0
VERTEX
  8
Unknown Area Type
  70
32
  10
-5.23976438814661
  20
42.33333333333331
  30
834.713
  0
SEQEND
  8
Unknown Area Type
  0
TEXT
  8
Unknown Area Type
 62
7
  1
PNOA-H_AMS_1956-57_33k_ES_PAN_2
 40
0.00045
  10
-5.22252303508279
  20
42.33622453014927
  0
POLYLINE
  8
Unknown Area Type
  70
9
  66
1
  0
VERTEX
  8
Unknown Area Type
  70
32
  10
-5.23976438814661
  20
42.33333333333331
  30
834.713
  0
VERTEX
  8
Unknown Area Type
  70
32
  10
-5.22916666666662
  20
42.33333333333331
  30
850.154
  0
VERTEX
  8
Unknown Area Type
  70
32
  10
-5.20518822269572
  20
42.33333333333331
  30
820.834
  0
VERTEX
  8
Unknown Area Type
  70
32
  10
-5.20518821684449
  20
42.33333316666665
  30
820.834
  0
VERTEX
  8
Unknown Area Type
  70
32
  10
-5.23976437777958
  20
42.33333316666665
  30
834.713
  0
SEQEND
  8
Unknown Area Type
  0
TEXT
  8
Unknown Area Type
 62
7
  1
PNOA-H_AMS_1956-57_33k_ES_PAN_2
 40
0.00045
  10
-5.22247630249555
  20
42.33333324999998
  0
POLYLINE
  8
Unknown Area Type
  70
9
  66
1
  0
VERTEX
  8
Unknown Area Type
  70
32
  10
-5.20527321218949
  20
42.33575417968191
  30
821.987
  0
VERTEX
  8
Unknown Area Type
  70
32
  10
-5.18749999999999
  20
42.33993129413793
  30
817.044
  0
VERTEX
  8
Unknown Area Type
  70
32
  10
-5.18749999999999
  20
42.33333333333331
  30
817.453
  0
VERTEX
  8
Unknown Area Type
  70
32
  10
-5.20518822269572
  20
42.33333333333331
  30
820.834
  0
SEQEND
  8
Unknown Area Type
  0
TEXT
  8
Unknown Area Type
 62
7
  1
PNOA-H_AMS_1956-57_33k_ES_PAN_2
 40
0.00045
  10
-5.19638660609474
  20
42.33663231373562
  0
POLYLINE
  8
Unknown Area Type
  70
9
  66
1
  0
VERTEX
  8
Unknown Area Type
  70
32
  10
-5.20527321218949
  20
42.33575417968191
  30
821.987
  0
VERTEX
  8
Unknown Area Type
  70
32
  10
-5.18749999999999
  20
42.33993129413793
  30
817.044
  0
VERTEX
  8
Unknown Area Type
  70
32
  10
-5.18749999999999
  20
42.33333333333331
  30
817.453
  0
VERTEX
  8
Unknown Area Type
  70
32
  10
-5.20518822269572
  20
42.33333333333331
  30
820.834
  0
SEQEND
  8
Unknown Area Type
  0
TEXT
  8
Unknown Area Type
 62
7
  1
PNOA-H_AMS_1956-57_33k_ES_PAN_2
 40
0.00045
  10
-5.19638660609474
  20
42.33663231373562
  0
POLYLINE
  8
Unknown Area Type
  70
9
  66
1
  0
VERTEX
  8
Unknown Area Type
  70
32
  10
-5.18749999999999
  20
42.33993129413793
  30
817.044
  0
VERTEX
  8
Unknown Area Type
  70
32
  10
-5.18749966666666
  20
42.33993137247893
  30
817.044
  0
VERTEX
  8
Unknown Area Type
  70
32
  10
-5.18749966666666
  20
42.33333333333331
  30
817.453
  0
VERTEX
  8
Unknown Area Type
  70
32
  10
-5.18749999999999
  20
42.33333333333331
  30
817.453
  0
SEQEND
  8
Unknown Area Type
  0
TEXT
  8
Unknown Area Type
 62
7
  1
PNOA-H_AMS_1956-57_33k_ES_PAN_2
 40
0.00045
  10
-5.18749983333333
  20
42.33663235290612
  0
POLYLINE
  8
Unknown Area Type
  70
9
  66
1
  0
VERTEX
  8
Unknown Area Type
  70
32
  10
-5.20518822269572
  20
42.33333333333331
  30
820.834
  0
VERTEX
  8
Unknown Area Type
  70
32
  10
-5.18749999999999
  20
42.33333333333331
  30
817.453
  0
VERTEX
  8
Unknown Area Type
  70
32
  10
-5.18749999999999
  20
42.33333316666665
  30
817.453
  0
VERTEX
  8
Unknown Area Type
  70
32
  10
-5.20518821684449
  20
42.33333316666665
  30
820.834
  0
SEQEND
  8
Unknown Area Type
  0
TEXT
  8
Unknown Area Type
 62
7
  1
PNOA-H_AMS_1956-57_33k_ES_PAN_2
 40
0.00045
  10
-5.19634411134786
  20
42.33333324999998
  0
POLYLINE
  8
Unknown Area Type
  70
9
  66
1
  0
VERTEX
  8
Unknown Area Type
  70
32
  10
-5.18749999999999
  20
42.33333333333331
  30
817.453
  0
VERTEX
  8
Unknown Area Type
  70
32
  10
-5.18749966666666
  20
42.33333333333331
  30
817.453
  0
VERTEX
  8
Unknown Area Type
  70
32
  10
-5.18749966666666
  20
42.33333316666665
  30
817.453
  0
VERTEX
  8
Unknown Area Type
  70
32
  10
-5.18749999999999
  20
42.33333316666665
  30
817.453
  0
SEQEND
  8
Unknown Area Type
  0
TEXT
  8
Unknown Area Type
 62
7
  1
PNOA-H_AMS_1956-57_33k_ES_PAN_2
 40
0.00045
  10
-5.18749983333333
  20
42.33333324999998
  0
POLYLINE
  8
Unknown Area Type
  70
9
  66
1
  0
VERTEX
  8
Unknown Area Type
  70
32
  10
-5.52083333333329
  20
42.34176803443306
  30
756.36
  0
VERTEX
  8
Unknown Area Type
  70
32
  10
-5.51059664102096
  20
42.34194904643924
  30
760.986
  0
VERTEX
  8
Unknown Area Type
  70
32
  10
-5.51052369236715
  20
42.3419461420113
  30
761.205
  0
VERTEX
  8
Unknown Area Type
  70
32
  10
-5.51048677033292
  20
42.34193344294518
  30
761.464
  0
VERTEX
  8
Unknown Area Type
  70
32
  10
-5.50974119439714
  20
42.34165259943042
  30
762.454
  0
VERTEX
  8
Unknown Area Type
  70
32
  10
-5.51430710387314
  20
42.33333333333331
  30
758.637
  0
VERTEX
  8
Unknown Area Type
  70
32
  10
-5.52083333333329
  20
42.33333333333331
  30
757.375
  0
SEQEND
  8
Unknown Area Type
  0
TEXT
  8
Unknown Area Type
 62
7
  1
PNOA-H_AMS_1956-57_33k_ES_PAN_2
 40
0.00045
  10
-5.51528726386521
  20
42.33764118988628
  0
POLYLINE
  8
Unknown Area Type
  70
9
  66
1
  0
VERTEX
  8
Unknown Area Type
  70
32
  10
-5.52083366666662
  20
42.34176802853884
  30
756.36
  0
VERTEX
  8
Unknown Area Type
  70
32
  10
-5.52083333333329
  20
42.34176803443306
  30
756.36
  0
VERTEX
  8
Unknown Area Type
  70
32
  10
-5.52083333333329
  20
42.33333333333331
  30
757.375
  0
VERTEX
  8
Unknown Area Type
  70
32
  10
-5.52083366666662
  20
42.33333333333331
  30
757.374
  0
SEQEND
  8
Unknown Area Type
  0
TEXT
  8
Unknown Area Type
 62
7
  1
PNOA-H_AMS_1956-57_33k_ES_PAN_2
 40
0.00045
  10
-5.52083349999996
  20
42.33755068388319
  0
POLYLINE
  8
Unknown Area Type
  70
9
  66
1
  0
VERTEX
  8
Unknown Area Type
  70
32
  10
-5.52083333333329
  20
42.34176803443306
  30
756.36
  0
VERTEX
  8
Unknown Area Type
  70
32
  10
-5.51059664102096
  20
42.34194904643924
  30
760.986
  0
VERTEX
  8
Unknown Area Type
  70
32
  10
-5.51052369236715
  20
42.3419461420113
  30
761.205
  0
VERTEX
  8
Unknown Area Type
  70
32
  10
-5.51048677033292
  20
42.34193344294518
  30
761.464
  0
VERTEX
  8
Unknown Area Type
  70
32
  10
-5.50974119439714
  20
42.34165259943042
  30
762.454
  0
VERTEX
  8
Unknown Area Type
  70
32
  10
-5.51430710387314
  20
42.33333333333331
  30
758.637
  0
VERTEX
  8
Unknown Area Type
  70
32
  10
-5.52083333333329
  20
42.33333333333331
  30
757.375
  0
SEQEND
  8
Unknown Area Type
  0
TEXT
  8
Unknown Area Type
 62
7
  1
PNOA-H_AMS_1956-57_33k_ES_PAN_2
 40
0.00045
  10
-5.51528726386521
  20
42.33764118988628
  0
POLYLINE
  8
Unknown Area Type
  70
9
  66
1
  0
VERTEX
  8
Unknown Area Type
  70
32
  10
-5.52083366666662
  20
42.33333333333331
  30
757.374
  0
VERTEX
  8
Unknown Area Type
  70
32
  10
-5.52083333333329
  20
42.33333333333331
  30
757.375
  0
VERTEX
  8
Unknown Area Type
  70
32
  10
-5.52083333333329
  20
42.33333316666665
  30
757.374
  0
VERTEX
  8
Unknown Area Type
  70
32
  10
-5.52083366666662
  20
42.33333316666665
  30
757.374
  0
SEQEND
  8
Unknown Area Type
  0
TEXT
  8
Unknown Area Type
 62
7
  1
PNOA-H_AMS_1956-57_33k_ES_PAN_2
 40
0.00045
  10
-5.52083349999996
  20
42.33333324999998
  0
POLYLINE
  8
Unknown Area Type
  70
9
  66
1
  0
VERTEX
  8
Unknown Area Type
  70
32
  10
-5.52083333333329
  20
42.33333333333331
  30
757.375
  0
VERTEX
  8
Unknown Area Type
  70
32
  10
-5.51430710387314
  20
42.33333333333331
  30
758.637
  0
VERTEX
  8
Unknown Area Type
  70
32
  10
-5.51430719534575
  20
42.33333316666665
  30
758.637
  0
VERTEX
  8
Unknown Area Type
  70
32
  10
-5.52083333333329
  20
42.33333316666665
  30
757.374
  0
SEQEND
  8
Unknown Area Type
  0
TEXT
  8
Unknown Area Type
 62
7
  1
PNOA-H_AMS_1956-57_33k_ES_PAN_2
 40
0.00045
  10
-5.51757021860322
  20
42.33333324999998
  0
POLYLINE
  8
Unknown Area Type
  70
9
  66
1
  0
VERTEX
  8
Unknown Area Type
  70
32
  10
-5.35292726010161
  20
42.33714498427544
  30
837.266
  0
VERTEX
  8
Unknown Area Type
  70
32
  10
-5.35284842317287
  20
42.33714660288282
  30
837.333
  0
VERTEX
  8
Unknown Area Type
  70
32
  10
-5.33715341784585
  20
42.33598636395801
  30
832.989
  0
VERTEX
  8
Unknown Area Type
  70
32
  10
-5.33706951471628
  20
42.33333333333331
  30
837.462
  0
VERTEX
  8
Unknown Area Type
  70
32
  10
-5.35286971695503
  20
42.33333333333331
  30
840.375
  0
SEQEND
  8
Unknown Area Type
  0
TEXT
  8
Unknown Area Type
 62
7
  1
PNOA-H_AMS_1956-57_33k_ES_PAN_2
 40
0.00045
  10
-5.34499838740895
  20
42.33523996810807
  0
POLYLINE
  8
Unknown Area Type
  70
9
  66
1
  0
VERTEX
  8
Unknown Area Type
  70
32
  10
-5.35292726010161
  20
42.33714498427544
  30
837.266
  0
VERTEX
  8
Unknown Area Type
  70
32
  10
-5.35284842317287
  20
42.33714660288282
  30
837.333
  0
VERTEX
  8
Unknown Area Type
  70
32
  10
-5.33715341784585
  20
42.33598636395801
  30
832.989
  0
VERTEX
  8
Unknown Area Type
  70
32
  10
-5.33706951471628
  20
42.33333333333331
  30
837.462
  0
VERTEX
  8
Unknown Area Type
  70
32
  10
-5.35286971695503
  20
42.33333333333331
  30
840.375
  0
SEQEND
  8
Unknown Area Type
  0
TEXT
  8
Unknown Area Type
 62
7
  1
PNOA-H_AMS_1956-57_33k_ES_PAN_2
 40
0.00045
  10
-5.34499838740895
  20
42.33523996810807
  0
POLYLINE
  8
Unknown Area Type
  70
9
  66
1
  0
VERTEX
  8
Unknown Area Type
  70
32
  10
-5.35286971695503
  20
42.33333333333331
  30
840.375
  0
VERTEX
  8
Unknown Area Type
  70
32
  10
-5.33706951471628
  20
42.33333333333331
  30
837.462
  0
VERTEX
  8
Unknown Area Type
  70
32
  10
-5.33706950944538
  20
42.33333316666665
  30
837.462
  0
VERTEX
  8
Unknown Area Type
  70
32
  10
-5.35286971443892
  20
42.33333316666665
  30
840.375
  0
SEQEND
  8
Unknown Area Type
  0
TEXT
  8
Unknown Area Type
 62
7
  1
PNOA-H_AMS_1956-57_33k_ES_PAN_2
 40
0.00045
  10
-5.34496961320021
  20
42.33333324999998
  0
POLYLINE
  8
Unknown Area Type
  70
9
  66
1
  0
VERTEX
  8
Unknown Area Type
  70
32
  10
-5.31359260828882
  20
42.3361177188236
  30
816.344
  0
VERTEX
  8
Unknown Area Type
  70
32
  10
-5.30856000646994
  20
42.3357464191299
  30
815.323
  0
VERTEX
  8
Unknown Area Type
  70
32
  10
-5.30851755541682
  20
42.33574727424615
  30
815.288
  0
VERTEX
  8
Unknown Area Type
  70
32
  10
-5.30142816842628
  20
42.33522345561021
  30
814.119
  0
VERTEX
  8
Unknown Area Type
  70
32
  10
-5.30149009256473
  20
42.33333333333331
  30
814.831
  0
VERTEX
  8
Unknown Area Type
  70
32
  10
-5.31249999999997
  20
42.33333333333331
  30
817.91
  0
VERTEX
  8
Unknown Area Type
  70
32
  10
-5.31439824421611
  20
42.33333333333331
  30
818.259
  0
SEQEND
  8
Unknown Area Type
  0
TEXT
  8
Unknown Area Type
 62
7
  1
PNOA-H_AMS_1956-57_33k_ES_PAN_2
 40
0.00045
  10
-5.30791320632119
  20
42.33472552607846
  0
POLYLINE
  8
Unknown Area Type
  70
9
  66
1
  0
VERTEX
  8
Unknown Area Type
  70
32
  10
-5.31359260828882
  20
42.3361177188236
  30
816.344
  0
VERTEX
  8
Unknown Area Type
  70
32
  10
-5.30856000646994
  20
42.3357464191299
  30
815.323
  0
VERTEX
  8
Unknown Area Type
  70
32
  10
-5.30851755541682
  20
42.33574727424615
  30
815.288
  0
VERTEX
  8
Unknown Area Type
  70
32
  10
-5.30142816842628
  20
42.33522345561021
  30
814.119
  0
VERTEX
  8
Unknown Area Type
  70
32
  10
-5.30149009256473
  20
42.33333333333331
  30
814.831
  0
VERTEX
  8
Unknown Area Type
  70
32
  10
-5.31249999999997
  20
42.33333333333331
  30
817.91
  0
VERTEX
  8
Unknown Area Type
  70
32
  10
-5.31439824421611
  20
42.33333333333331
  30
818.259
  0
SEQEND
  8
Unknown Area Type
  0
TEXT
  8
Unknown Area Type
 62
7
  1
PNOA-H_AMS_1956-57_33k_ES_PAN_2
 40
0.00045
  10
-5.30791320632119
  20
42.33472552607846
  0
POLYLINE
  8
Unknown Area Type
  70
9
  66
1
  0
VERTEX
  8
Unknown Area Type
  70
32
  10
-5.31439824421611
  20
42.33333333333331
  30
818.259
  0
VERTEX
  8
Unknown Area Type
  70
32
  10
-5.31249999999997
  20
42.33333333333331
  30
817.91
  0
VERTEX
  8
Unknown Area Type
  70
32
  10
-5.30149009256473
  20
42.33333333333331
  30
814.831
  0
VERTEX
  8
Unknown Area Type
  70
32
  10
-5.30149009802505
  20
42.33333316666665
  30
814.831
  0
VERTEX
  8
Unknown Area Type
  70
32
  10
-5.31439829243955
  20
42.33333316666665
  30
818.259
  0
SEQEND
  8
Unknown Area Type
  0
TEXT
  8
Unknown Area Type
 62
7
  1
PNOA-H_AMS_1956-57_33k_ES_PAN_2
 40
0.00045
  10
-5.30794419250214
  20
42.33333324999998
  0
POLYLINE
  8
Unknown Area Type
  70
9
  66
1
  0
VERTEX
  8
Unknown Area Type
  70
32
  10
-5.50548585702055
  20
42.34041293262261
  30
775.017
  0
VERTEX
  8
Unknown Area Type
  70
32
  10
-5.47921194882542
  20
42.34195695978016
  30
808.488
  0
VERTEX
  8
Unknown Area Type
  70
32
  10
-5.47908477586207
  20
42.34196421377028
  30
808.54
  0
VERTEX
  8
Unknown Area Type
  70
32
  10
-5.47896349030501
  20
42.34196683759039
  30
808.546
  0
VERTEX
  8
Unknown Area Type
  70
32
  10
-5.47899633920069
  20
42.34187607362134
  30
808.552
  0
VERTEX
  8
Unknown Area Type
  70
32
  10
-5.48230380729365
  20
42.33333333333331
  30
802.574
  0
VERTEX
  8
Unknown Area Type
  70
32
  10
-5.505312763759
  20
42.33333333333331
  30
774.047
  0
SEQEND
  8
Unknown Area Type
  0
TEXT
  8
Unknown Area Type
 62
7
  1
PNOA-H_AMS_1956-57_33k_ES_PAN_2
 40
0.00045
  10
-5.49222467366278
  20
42.33765008546185
  0
POLYLINE
  8
Unknown Area Type
  70
9
  66
1
  0
VERTEX
  8
Unknown Area Type
  70
32
  10
-5.50548585702055
  20
42.34041293262261
  30
775.017
  0
VERTEX
  8
Unknown Area Type
  70
32
  10
-5.47921194882542
  20
42.34195695978016
  30
808.488
  0
VERTEX
  8
Unknown Area Type
  70
32
  10
-5.47908477586207
  20
42.34196421377028
  30
808.54
  0
VERTEX
  8
Unknown Area Type
  70
32
  10
-5.47896349030501
  20
42.34196683759039
  30
808.546
  0
VERTEX
  8
Unknown Area Type
  70
32
  10
-5.47899633920069
  20
42.34187607362134
  30
808.552
  0
VERTEX
  8
Unknown Area Type
  70
32
  10
-5.48230380729365
  20
42.33333333333331
  30
802.574
  0
VERTEX
  8
Unknown Area Type
  70
32
  10
-5.505312763759
  20
42.33333333333331
  30
774.047
  0
SEQEND
  8
Unknown Area Type
  0
TEXT
  8
Unknown Area Type
 62
7
  1
PNOA-H_AMS_1956-57_33k_ES_PAN_2
 40
0.00045
  10
-5.49222467366278
  20
42.33765008546185
  0
POLYLINE
  8
Unknown Area Type
  70
9
  66
1
  0
VERTEX
  8
Unknown Area Type
  70
32
  10
-5.505312763759
  20
42.33333333333331
  30
774.047
  0
VERTEX
  8
Unknown Area Type
  70
32
  10
-5.48230380729365
  20
42.33333333333331
  30
802.574
  0
VERTEX
  8
Unknown Area Type
  70
32
  10
-5.4823038718215
  20
42.33333316666665
  30
802.574
  0
VERTEX
  8
Unknown Area Type
  70
32
  10
-5.50531275968407
  20
42.33333316666665
  30
774.047
  0
SEQEND
  8
Unknown Area Type
  0
TEXT
  8
Unknown Area Type
 62
7
  1
PNOA-H_AMS_1956-57_33k_ES_PAN_2
 40
0.00045
  10
-5.49380828552633
  20
42.33333324999998
  0
POLYLINE
  8
Unknown Area Type
  70
9
  66
1
  0
VERTEX
  8
Unknown Area Type
  70
32
  10
-5.4376516294494
  20
42.34015597166666
  30
814.422
  0
VERTEX
  8
Unknown Area Type
  70
32
  10
-5.4121553315118
  20
42.34303238000103
  30
834.538
  0
VERTEX
  8
Unknown Area Type
  70
32
  10
-5.41210681404436
  20
42.34303340124655
  30
834.488
  0
VERTEX
  8
Unknown Area Type
  70
32
  10
-5.40819962270093
  20
42.34196288786949
  30
841.914
  0
VERTEX
  8
Unknown Area Type
  70
32
  10
-5.40818732171392
  20
42.34195864367963
  30
842.004
  0
VERTEX
  8
Unknown Area Type
  70
32
  10
-5.40365499078758
  20
42.34072550466894
  30
849.688
  0
VERTEX
  8
Unknown Area Type
  70
32
  10
-5.40402829191249
  20
42.33333333333331
  30
852.013
  0
VERTEX
  8
Unknown Area Type
  70
32
  10
-5.43730270927052
  20
42.33333333333331
  30
813.854
  0
SEQEND
  8
Unknown Area Type
  0
TEXT
  8
Unknown Area Type
 62
7
  1
PNOA-H_AMS_1956-57_33k_ES_PAN_2
 40
0.00045
  10
-5.42065331011849
  20
42.33818336728993
  0
POLYLINE
  8
Unknown Area Type
  70
9
  66
1
  0
VERTEX
  8
Unknown Area Type
  70
32
  10
-5.4376516294494
  20
42.34015597166666
  30
814.422
  0
VERTEX
  8
Unknown Area Type
  70
32
  10
-5.4121553315118
  20
42.34303238000103
  30
834.538
  0
VERTEX
  8
Unknown Area Type
  70
32
  10
-5.41210681404436
  20
42.34303340124655
  30
834.488
  0
VERTEX
  8
Unknown Area Type
  70
32
  10
-5.40819962270093
  20
42.34196288786949
  30
841.914
  0
VERTEX
  8
Unknown Area Type
  70
32
  10
-5.40818732171392
  20
42.34195864367963
  30
842.004
  0
VERTEX
  8
Unknown Area Type
  70
32
  10
-5.40365499078758
  20
42.34072550466894
  30
849.688
  0
VERTEX
  8
Unknown Area Type
  70
32
  10
-5.40402829191249
  20
42.33333333333331
  30
852.013
  0
VERTEX
  8
Unknown Area Type
  70
32
  10
-5.43730270927052
  20
42.33333333333331
  30
813.854
  0
SEQEND
  8
Unknown Area Type
  0
TEXT
  8
Unknown Area Type
 62
7
  1
PNOA-H_AMS_1956-57_33k_ES_PAN_2
 40
0.00045
  10
-5.42065331011849
  20
42.33818336728993
  0
POLYLINE
  8
Unknown Area Type
  70
9
  66
1
  0
VERTEX
  8
Unknown Area Type
  70
32
  10
-5.43730270927052
  20
42.33333333333331
  30
813.854
  0
VERTEX
  8
Unknown Area Type
  70
32
  10
-5.40402829191249
  20
42.33333333333331
  30
852.013
  0
VERTEX
  8
Unknown Area Type
  70
32
  10
-5.40402830032908
  20
42.33333316666665
  30
852.013
  0
VERTEX
  8
Unknown Area Type
  70
32
  10
-5.43730270074693
  20
42.33333316666665
  30
813.854
  0
SEQEND
  8
Unknown Area Type
  0
TEXT
  8
Unknown Area Type
 62
7
  1
PNOA-H_AMS_1956-57_33k_ES_PAN_2
 40
0.00045
  10
-5.42066550059151
  20
42.33333324999998
  0
POLYLINE
  8
Unknown Area Type
  70
9
  66
1
  0
VERTEX
  8
Unknown Area Type
  70
32
  10
-5.38589353292688
  20
42.34226286873782
  30
853.496
  0
VERTEX
  8
Unknown Area Type
  70
32
  10
-5.38588208428361
  20
42.34228111788045
  30
853.601
  0
VERTEX
  8
Unknown Area Type
  70
32
  10
-5.3795399009386
  20
42.34309739435548
  30
877.027
  0
VERTEX
  8
Unknown Area Type
  70
32
  10
-5.37949761684982
  20
42.3431027750449
  30
877.136
  0
VERTEX
  8
Unknown Area Type
  70
32
  10
-5.37944303333361
  20
42.34310390840022
  30
877.307
  0
VERTEX
  8
Unknown Area Type
  70
32
  10
-5.37925939090739
  20
42.34306269432572
  30
877.609
  0
VERTEX
  8
Unknown Area Type
  70
32
  10
-5.37425075050775
  20
42.34190131476624
  30
866.24
  0
VERTEX
  8
Unknown Area Type
  70
32
  10
-5.37119198362063
  20
42.34013204592299
  30
857.671
  0
VERTEX
  8
Unknown Area Type
  70
32
  10
-5.37098406781031
  20
42.33333333333331
  30
858.15
  0
VERTEX
  8
Unknown Area Type
  70
32
  10
-5.38632107160966
  20
42.33333333333331
  30
857.332
  0
SEQEND
  8
Unknown Area Type
  0
TEXT
  8
Unknown Area Type
 62
7
  1
PNOA-H_AMS_1956-57_33k_ES_PAN_2
 40
0.00045
  10
-5.37865256970998
  20
42.33821862086677
  0
POLYLINE
  8
Unknown Area Type
  70
9
  66
1
  0
VERTEX
  8
Unknown Area Type
  70
32
  10
-5.38589353292688
  20
42.34226286873782
  30
853.496
  0
VERTEX
  8
Unknown Area Type
  70
32
  10
-5.38588208428361
  20
42.34228111788045
  30
853.601
  0
VERTEX
  8
Unknown Area Type
  70
32
  10
-5.3795399009386
  20
42.34309739435548
  30
877.027
  0
VERTEX
  8
Unknown Area Type
  70
32
  10
-5.37949761684982
  20
42.3431027750449
  30
877.136
  0
VERTEX
  8
Unknown Area Type
  70
32
  10
-5.37944303333361
  20
42.34310390840022
  30
877.307
  0
VERTEX
  8
Unknown Area Type
  70
32
  10
-5.37925939090739
  20
42.34306269432572
  30
877.609
  0
VERTEX
  8
Unknown Area Type
  70
32
  10
-5.37425075050775
  20
42.34190131476624
  30
866.24
  0
VERTEX
  8
Unknown Area Type
  70
32
  10
-5.37119198362063
  20
42.34013204592299
  30
857.671
  0
VERTEX
  8
Unknown Area Type
  70
32
  10
-5.37098406781031
  20
42.33333333333331
  30
858.15
  0
VERTEX
  8
Unknown Area Type
  70
32
  10
-5.38632107160966
  20
42.33333333333331
  30
857.332
  0
SEQEND
  8
Unknown Area Type
  0
TEXT
  8
Unknown Area Type
 62
7
  1
PNOA-H_AMS_1956-57_33k_ES_PAN_2
 40
0.00045
  10
-5.37865256970998
  20
42.33821862086677
  0
POLYLINE
  8
Unknown Area Type
  70
9
  66
1
  0
VERTEX
  8
Unknown Area Type
  70
32
  10
-5.38632107160966
  20
42.33333333333331
  30
857.332
  0
VERTEX
  8
Unknown Area Type
  70
32
  10
-5.37098406781031
  20
42.33333333333331
  30
858.15
  0
VERTEX
  8
Unknown Area Type
  70
32
  10
-5.37098406271337
  20
42.33333316666665
  30
858.15
  0
VERTEX
  8
Unknown Area Type
  70
32
  10
-5.38632107958952
  20
42.33333316666665
  30
857.332
  0
SEQEND
  8
Unknown Area Type
  0
TEXT
  8
Unknown Area Type
 62
7
  1
PNOA-H_AMS_1956-57_33k_ES_PAN_2
 40
0.00045
  10
-5.37865257115145
  20
42.33333324999998
  0
POLYLINE
  8
Unknown Area Type
  70
9
  66
1
  0
VERTEX
  8
Unknown Area Type
  70
32
  10
-5.47128012432327
  20
42.33996700858678
  30
808.792
  0
VERTEX
  8
Unknown Area Type
  70
32
  10
-5.47076626002517
  20
42.34001861327243
  30
809.236
  0
VERTEX
  8
Unknown Area Type
  70
32
  10
-5.44598373665439
  20
42.34247741593272
  30
810.492
  0
VERTEX
  8
Unknown Area Type
  70
32
  10
-5.43941069837993
  20
42.34060032643882
  30
813.917
  0
VERTEX
  8
Unknown Area Type
  70
32
  10
-5.4438600915947
  20
42.33333333333331
  30
812.174
  0
VERTEX
  8
Unknown Area Type
  70
32
  10
-5.4710977991665
  20
42.33333333333331
  30
807.624
  0
VERTEX
  8
Unknown Area Type
  70
32
  10
-5.47129796413175
  20
42.33995761851681
  30
808.682
  0
SEQEND
  8
Unknown Area Type
  0
TEXT
  8
Unknown Area Type
 62
7
  1
PNOA-H_AMS_1956-57_33k_ES_PAN_2
 40
0.00045
  10
-5.45535433125584
  20
42.33790537463302
  0
POLYLINE
  8
Unknown Area Type
  70
9
  66
1
  0
VERTEX
  8
Unknown Area Type
  70
32
  10
-5.47128012432327
  20
42.33996700858678
  30
808.792
  0
VERTEX
  8
Unknown Area Type
  70
32
  10
-5.47076626002517
  20
42.34001861327243
  30
809.236
  0
VERTEX
  8
Unknown Area Type
  70
32
  10
-5.44598373665439
  20
42.34247741593272
  30
810.492
  0
VERTEX
  8
Unknown Area Type
  70
32
  10
-5.43941069837993
  20
42.34060032643882
  30
813.917
  0
VERTEX
  8
Unknown Area Type
  70
32
  10
-5.4438600915947
  20
42.33333333333331
  30
812.174
  0
VERTEX
  8
Unknown Area Type
  70
32
  10
-5.4710977991665
  20
42.33333333333331
  30
807.624
  0
VERTEX
  8
Unknown Area Type
  70
32
  10
-5.47129796413175
  20
42.33995761851681
  30
808.682
  0
SEQEND
  8
Unknown Area Type
  0
TEXT
  8
Unknown Area Type
 62
7
  1
PNOA-H_AMS_1956-57_33k_ES_PAN_2
 40
0.00045
  10
-5.45535433125584
  20
42.33790537463302
  0
POLYLINE
  8
Unknown Area Type
  70
9
  66
1
  0
VERTEX
  8
Unknown Area Type
  70
32
  10
-5.4710977991665
  20
42.33333333333331
  30
807.624
  0
VERTEX
  8
Unknown Area Type
  70
32
  10
-5.4438600915947
  20
42.33333333333331
  30
812.174
  0
VERTEX
  8
Unknown Area Type
  70
32
  10
-5.44386019364042
  20
42.33333316666665
  30
812.174
  0
VERTEX
  8
Unknown Area Type
  70
32
  10
-5.47109779413036
  20
42.33333316666665
  30
807.624
  0
SEQEND
  8
Unknown Area Type
  0
TEXT
  8
Unknown Area Type
 62
7
  1
PNOA-H_AMS_1956-57_33k_ES_PAN_2
 40
0.00045
  10
-5.4574789453806
  20
42.33333324999998
  0
POLYLINE
  8
Unknown Area Type
  70
9
  66
1
  0
VERTEX
  8
Unknown Area Type
  70
32
  10
-5.29606995861817
  20
42.5
  30
868.741
  0
VERTEX
  8
Unknown Area Type
  70
32
  10
-5.28412631854936
  20
42.5
  30
875.184
  0
VERTEX
  8
Unknown Area Type
  70
32
  10
-5.28719835288624
  20
42.49905903665331
  30
872.132
  0
SEQEND
  8
Unknown Area Type
  0
TEXT
  8
Unknown Area Type
 62
7
  1
PNOA-H_AMS_1956-57_33k_ES_PAN_2
 40
0.00045
  10
-5.29009813858377
  20
42.49952951832665
  0
POLYLINE
  8
Unknown Area Type
  70
9
  66
1
  0
VERTEX
  8
Unknown Area Type
  70
32
  10
-5.29607152998755
  20
42.50000016666667
  30
868.74
  0
VERTEX
  8
Unknown Area Type
  70
32
  10
-5.28412577442006
  20
42.50000016666667
  30
875.184
  0
VERTEX
  8
Unknown Area Type
  70
32
  10
-5.28412631854936
  20
42.5
  30
875.184
  0
VERTEX
  8
Unknown Area Type
  70
32
  10
-5.29606995861817
  20
42.5
  30
868.741
  0
SEQEND
  8
Unknown Area Type
  0
TEXT
  8
Unknown Area Type
 62
7
  1
PNOA-H_AMS_1956-57_33k_ES_PAN_2
 40
0.00045
  10
-5.2900986522038
  20
42.50000008333333
  0
POLYLINE
  8
Unknown Area Type
  70
9
  66
1
  0
VERTEX
  8
Unknown Area Type
  70
32
  10
-5.29606995861817
  20
42.5
  30
868.741
  0
VERTEX
  8
Unknown Area Type
  70
32
  10
-5.28412631854936
  20
42.5
  30
875.184
  0
VERTEX
  8
Unknown Area Type
  70
32
  10
-5.28719835288624
  20
42.49905903665331
  30
872.132
  0
SEQEND
  8
Unknown Area Type
  0
TEXT
  8
Unknown Area Type
 62
7
  1
PNOA-H_AMS_1956-57_33k_ES_PAN_2
 40
0.00045
  10
-5.29009813858377
  20
42.49952951832665
  0
POLYLINE
  8
Unknown Area Type
  70
9
  66
1
  0
VERTEX
  8
Unknown Area Type
  70
32
  10
-5.35416666666669
  20
42.5
  30
813.344
  0
VERTEX
  8
Unknown Area Type
  70
32
  10
-5.35163799796672
  20
42.5
  30
814.216
  0
VERTEX
  8
Unknown Area Type
  70
32
  10
-5.35288831983466
  20
42.49953409048193
  30
813.717
  0
VERTEX
  8
Unknown Area Type
  70
32
  10
-5.35869408379182
  20
42.5
  30
812.059
  0
SEQEND
  8
Unknown Area Type
  0
TEXT
  8
Unknown Area Type
 62
7
  1
PNOA-H_AMS_1956-57_33k_ES_PAN_2
 40
0.00045
  10
-5.35516604087927
  20
42.49976704524097
  0
POLYLINE
  8
Unknown Area Type
  70
9
  66
1
  0
VERTEX
  8
Unknown Area Type
  70
32
  10
-5.35869616064856
  20
42.50000016666667
  30
812.059
  0
VERTEX
  8
Unknown Area Type
  70
32
  10
-5.35163755069752
  20
42.50000016666667
  30
814.216
  0
VERTEX
  8
Unknown Area Type
  70
32
  10
-5.35163799796672
  20
42.5
  30
814.216
  0
VERTEX
  8
Unknown Area Type
  70
32
  10
-5.35416666666669
  20
42.5
  30
813.344
  0
VERTEX
  8
Unknown Area Type
  70
32
  10
-5.35869408379182
  20
42.5
  30
812.059
  0
SEQEND
  8
Unknown Area Type
  0
TEXT
  8
Unknown Area Type
 62
7
  1
PNOA-H_AMS_1956-57_33k_ES_PAN_2
 40
0.00045
  10
-5.35516685567304
  20
42.50000008333333
  0
POLYLINE
  8
Unknown Area Type
  70
9
  66
1
  0
VERTEX
  8
Unknown Area Type
  70
32
  10
-5.35416666666669
  20
42.5
  30
813.344
  0
VERTEX
  8
Unknown Area Type
  70
32
  10
-5.35163799796672
  20
42.5
  30
814.216
  0
VERTEX
  8
Unknown Area Type
  70
32
  10
-5.35288831983466
  20
42.49953409048193
  30
813.717
  0
VERTEX
  8
Unknown Area Type
  70
32
  10
-5.35869408379182
  20
42.5
  30
812.059
  0
SEQEND
  8
Unknown Area Type
  0
TEXT
  8
Unknown Area Type
 62
7
  1
PNOA-H_AMS_1956-57_33k_ES_PAN_2
 40
0.00045
  10
-5.35516604087927
  20
42.49976704524097
  0
POLYLINE
  8
Unknown Area Type
  70
9
  66
1
  0
VERTEX
  8
Unknown Area Type
  70
32
  10
-5.26770191601929
  20
42.5
  30
885.948
  0
VERTEX
  8
Unknown Area Type
  70
32
  10
-5.25104318137437
  20
42.5
  30
893.779
  0
VERTEX
  8
Unknown Area Type
  70
32
  10
-5.25391089644288
  20
42.49911549622561
  30
892.866
  0
VERTEX
  8
Unknown Area Type
  70
32
  10
-5.25392305730162
  20
42.49911525694573
  30
892.864
  0
VERTEX
  8
Unknown Area Type
  70
32
  10
-5.25558986072562
  20
42.49859616417184
  30
892.315
  0
VERTEX
  8
Unknown Area Type
  70
32
  10
-5.25563242332912
  20
42.49859532607131
  30
892.309
  0
SEQEND
  8
Unknown Area Type
  0
TEXT
  8
Unknown Area Type
 62
7
  1
PNOA-H_AMS_1956-57_33k_ES_PAN_2
 40
0.00045
  10
-5.25937254869683
  20
42.49929766303566
  0
POLYLINE
  8
Unknown Area Type
  70
9
  66
1
  0
VERTEX
  8
Unknown Area Type
  70
32
  10
-5.26770334808271
  20
42.50000016666667
  30
885.947
  0
VERTEX
  8
Unknown Area Type
  70
32
  10
-5.25104264101205
  20
42.50000016666667
  30
893.78
  0
VERTEX
  8
Unknown Area Type
  70
32
  10
-5.25104318137437
  20
42.5
  30
893.779
  0
VERTEX
  8
Unknown Area Type
  70
32
  10
-5.26770191601929
  20
42.5
  30
885.948
  0
SEQEND
  8
Unknown Area Type
  0
TEXT
  8
Unknown Area Type
 62
7
  1
PNOA-H_AMS_1956-57_33k_ES_PAN_2
 40
0.00045
  10
-5.25937299454738
  20
42.50000008333333
  0
POLYLINE
  8
Unknown Area Type
  70
9
  66
1
  0
VERTEX
  8
Unknown Area Type
  70
32
  10
-5.26770191601929
  20
42.5
  30
885.948
  0
VERTEX
  8
Unknown Area Type
  70
32
  10
-5.25104318137437
  20
42.5
  30
893.779
  0
VERTEX
  8
Unknown Area Type
  70
32
  10
-5.25391089644288
  20
42.49911549622561
  30
892.866
  0
VERTEX
  8
Unknown Area Type
  70
32
  10
-5.25392305730162
  20
42.49911525694573
  30
892.864
  0
VERTEX
  8
Unknown Area Type
  70
32
  10
-5.25558986072562
  20
42.49859616417184
  30
892.315
  0
VERTEX
  8
Unknown Area Type
  70
32
  10
-5.25563242332912
  20
42.49859532607131
  30
892.309
  0
SEQEND
  8
Unknown Area Type
  0
TEXT
  8
Unknown Area Type
 62
7
  1
PNOA-H_AMS_1956-57_33k_ES_PAN_2
 40
0.00045
  10
-5.25937254869683
  20
42.49929766303566
  0
POLYLINE
  8
Unknown Area Type
  70
9
  66
1
  0
VERTEX
  8
Unknown Area Type
  70
32
  10
-5.42914536745497
  20
42.5
  30
793.716
  0
VERTEX
  8
Unknown Area Type
  70
32
  10
-5.41855323418574
  20
42.5
  30
794.778
  0
VERTEX
  8
Unknown Area Type
  70
32
  10
-5.41989983972882
  20
42.49938968929411
  30
796.095
  0
SEQEND
  8
Unknown Area Type
  0
TEXT
  8
Unknown Area Type
 62
7
  1
PNOA-H_AMS_1956-57_33k_ES_PAN_2
 40
0.00045
  10
-5.42384930082035
  20
42.49969484464705
  0
POLYLINE
  8
Unknown Area Type
  70
9
  66
1
  0
VERTEX
  8
Unknown Area Type
  70
32
  10
-5.42914789226938
  20
42.50000016666667
  30
793.715
  0
VERTEX
  8
Unknown Area Type
  70
32
  10
-5.41855286644804
  20
42.50000016666667
  30
794.778
  0
VERTEX
  8
Unknown Area Type
  70
32
  10
-5.41855323418574
  20
42.5
  30
794.778
  0
VERTEX
  8
Unknown Area Type
  70
32
  10
-5.42914536745497
  20
42.5
  30
793.716
  0
SEQEND
  8
Unknown Area Type
  0
TEXT
  8
Unknown Area Type
 62
7
  1
PNOA-H_AMS_1956-57_33k_ES_PAN_2
 40
0.00045
  10
-5.42385037935871
  20
42.50000008333333
  0
POLYLINE
  8
Unknown Area Type
  70
9
  66
1
  0
VERTEX
  8
Unknown Area Type
  70
32
  10
-5.42914536745497
  20
42.5
  30
793.716
  0
VERTEX
  8
Unknown Area Type
  70
32
  10
-5.41855323418574
  20
42.5
  30
794.778
  0
VERTEX
  8
Unknown Area Type
  70
32
  10
-5.41989983972882
  20
42.49938968929411
  30
796.095
  0
SEQEND
  8
Unknown Area Type
  0
TEXT
  8
Unknown Area Type
 62
7
  1
PNOA-H_AMS_1956-57_33k_ES_PAN_2
 40
0.00045
  10
-5.42384930082035
  20
42.49969484464705
  0
POLYLINE
  8
Unknown Area Type
  70
9
  66
1
  0
VERTEX
  8
Unknown Area Type
  70
32
  10
-5.4861007819478
  20
42.5
  30
783.594
  0
VERTEX
  8
Unknown Area Type
  70
32
  10
-5.47916666666666
  20
42.5
  30
784.201
  0
VERTEX
  8
Unknown Area Type
  70
32
  10
-5.45331461956934
  20
42.5
  30
786.499
  0
VERTEX
  8
Unknown Area Type
  70
32
  10
-5.45467005467851
  20
42.49929368674651
  30
785.653
  0
VERTEX
  8
Unknown Area Type
  70
32
  10
-5.48603297180959
  20
42.49997252618181
  30
783.794
  0
VERTEX
  8
Unknown Area Type
  70
32
  10
-5.48608232104476
  20
42.49998946529912
  30
783.616
  0
SEQEND
  8
Unknown Area Type
  0
TEXT
  8
Unknown Area Type
 62
7
  1
PNOA-H_AMS_1956-57_33k_ES_PAN_2
 40
0.00045
  10
-5.46970770075857
  20
42.49964684337326
  0
POLYLINE
  8
Unknown Area Type
  70
9
  66
1
  0
VERTEX
  8
Unknown Area Type
  70
32
  10
-5.48610107401277
  20
42.50000016666667
  30
783.593
  0
VERTEX
  8
Unknown Area Type
  70
32
  10
-5.45331429973129
  20
42.50000016666667
  30
786.499
  0
VERTEX
  8
Unknown Area Type
  70
32
  10
-5.45331461956934
  20
42.5
  30
786.499
  0
VERTEX
  8
Unknown Area Type
  70
32
  10
-5.47916666666666
  20
42.5
  30
784.201
  0
VERTEX
  8
Unknown Area Type
  70
32
  10
-5.4861007819478
  20
42.5
  30
783.594
  0
SEQEND
  8
Unknown Area Type
  0
TEXT
  8
Unknown Area Type
 62
7
  1
PNOA-H_AMS_1956-57_33k_ES_PAN_2
 40
0.00045
  10
-5.46970768687203
  20
42.50000008333333
  0
POLYLINE
  8
Unknown Area Type
  70
9
  66
1
  0
VERTEX
  8
Unknown Area Type
  70
32
  10
-5.4861007819478
  20
42.5
  30
783.594
  0
VERTEX
  8
Unknown Area Type
  70
32
  10
-5.47916666666666
  20
42.5
  30
784.201
  0
VERTEX
  8
Unknown Area Type
  70
32
  10
-5.45331461956934
  20
42.5
  30
786.499
  0
VERTEX
  8
Unknown Area Type
  70
32
  10
-5.45467005467851
  20
42.49929368674651
  30
785.653
  0
VERTEX
  8
Unknown Area Type
  70
32
  10
-5.48603297180959
  20
42.49997252618181
  30
783.794
  0
VERTEX
  8
Unknown Area Type
  70
32
  10
-5.48608232104476
  20
42.49998946529912
  30
783.616
  0
SEQEND
  8
Unknown Area Type
  0
TEXT
  8
Unknown Area Type
 62
7
  1
PNOA-H_AMS_1956-57_33k_ES_PAN_2
 40
0.00045
  10
-5.46970770075857
  20
42.49964684337326
  0
POLYLINE
  8
Unknown Area Type
  70
9
  66
1
  0
VERTEX
  8
Unknown Area Type
  70
32
  10
-5.33148038154309
  20
42.5
  30
842.19
  0
VERTEX
  8
Unknown Area Type
  70
32
  10
-5.31810913636918
  20
42.5
  30
860.436
  0
VERTEX
  8
Unknown Area Type
  70
32
  10
-5.32087661591554
  20
42.49904350872682
  30
859.443
  0
SEQEND
  8
Unknown Area Type
  0
TEXT
  8
Unknown Area Type
 62
7
  1
PNOA-H_AMS_1956-57_33k_ES_PAN_2
 40
0.00045
  10
-5.32479475895614
  20
42.49952175436341
  0
POLYLINE
  8
Unknown Area Type
  70
9
  66
1
  0
VERTEX
  8
Unknown Area Type
  70
32
  10
-5.33148222922772
  20
42.50000016666667
  30
842.187
  0
VERTEX
  8
Unknown Area Type
  70
32
  10
-5.31810865414148
  20
42.50000016666667
  30
860.436
  0
VERTEX
  8
Unknown Area Type
  70
32
  10
-5.31810913636918
  20
42.5
  30
860.436
  0
VERTEX
  8
Unknown Area Type
  70
32
  10
-5.33148038154309
  20
42.5
  30
842.19
  0
SEQEND
  8
Unknown Area Type
  0
TEXT
  8
Unknown Area Type
 62
7
  1
PNOA-H_AMS_1956-57_33k_ES_PAN_2
 40
0.00045
  10
-5.3247954416846
  20
42.50000008333333
  0
POLYLINE
  8
Unknown Area Type
  70
9
  66
1
  0
VERTEX
  8
Unknown Area Type
  70
32
  10
-5.33148038154309
  20
42.5
  30
842.19
  0
VERTEX
  8
Unknown Area Type
  70
32
  10
-5.31810913636918
  20
42.5
  30
860.436
  0
VERTEX
  8
Unknown Area Type
  70
32
  10
-5.32087661591554
  20
42.49904350872682
  30
859.443
  0
SEQEND
  8
Unknown Area Type
  0
TEXT
  8
Unknown Area Type
 62
7
  1
PNOA-H_AMS_1956-57_33k_ES_PAN_2
 40
0.00045
  10
-5.32479475895614
  20
42.49952175436341
  0
POLYLINE
  8
Unknown Area Type
  70
9
  66
1
  0
VERTEX
  8
Unknown Area Type
  70
32
  10
-5.39583333333332
  20
42.5
  30
800.452
  0
VERTEX
  8
Unknown Area Type
  70
32
  10
-5.38495223233343
  20
42.5
  30
805.015
  0
VERTEX
  8
Unknown Area Type
  70
32
  10
-5.38687200043378
  20
42.49922720639364
  30
804.684
  0
VERTEX
  8
Unknown Area Type
  70
32
  10
-5.39624404627882
  20
42.5
  30
800.259
  0
SEQEND
  8
Unknown Area Type
  0
TEXT
  8
Unknown Area Type
 62
7
  1
PNOA-H_AMS_1956-57_33k_ES_PAN_2
 40
0.00045
  10
-5.39059813930612
  20
42.49961360319682
  0
POLYLINE
  8
Unknown Area Type
  70
9
  66
1
  0
VERTEX
  8
Unknown Area Type
  70
32
  10
-5.396246067527
  20
42.50000016666667
  30
800.258
  0
VERTEX
  8
Unknown Area Type
  70
32
  10
-5.38495181830134
  20
42.50000016666667
  30
805.015
  0
VERTEX
  8
Unknown Area Type
  70
32
  10
-5.38495223233343
  20
42.5
  30
805.015
  0
VERTEX
  8
Unknown Area Type
  70
32
  10
-5.39583333333332
  20
42.5
  30
800.452
  0
VERTEX
  8
Unknown Area Type
  70
32
  10
-5.39624404627882
  20
42.5
  30
800.259
  0
SEQEND
  8
Unknown Area Type
  0
TEXT
  8
Unknown Area Type
 62
7
  1
PNOA-H_AMS_1956-57_33k_ES_PAN_2
 40
0.00045
  10
-5.39059894291417
  20
42.50000008333333
  0
POLYLINE
  8
Unknown Area Type
  70
9
  66
1
  0
VERTEX
  8
Unknown Area Type
  70
32
  10
-5.39583333333332
  20
42.5
  30
800.452
  0
VERTEX
  8
Unknown Area Type
  70
32
  10
-5.38495223233343
  20
42.5
  30
805.015
  0
VERTEX
  8
Unknown Area Type
  70
32
  10
-5.38687200043378
  20
42.49922720639364
  30
804.684
  0
VERTEX
  8
Unknown Area Type
  70
32
  10
-5.39624404627882
  20
42.5
  30
800.259
  0
SEQEND
  8
Unknown Area Type
  0
TEXT
  8
Unknown Area Type
 62
7
  1
PNOA-H_AMS_1956-57_33k_ES_PAN_2
 40
0.00045
  10
-5.39059813930612
  20
42.49961360319682
  0
POLYLINE
  8
Unknown Area Type
  70
9
  66
1
  0
VERTEX
  8
Unknown Area Type
  70
32
  10
-5.22750258525757
  20
42.5
  30
902.614
  0
VERTEX
  8
Unknown Area Type
  70
32
  10
-5.22113067688252
  20
42.5
  30
905.041
  0
VERTEX
  8
Unknown Area Type
  70
32
  10
-5.22289865365982
  20
42.4995053702385
  30
904.433
  0
SEQEND
  8
Unknown Area Type
  0
TEXT
  8
Unknown Area Type
 62
7
  1
PNOA-H_AMS_1956-57_33k_ES_PAN_2
 40
0.00045
  10
-5.22431663107004
  20
42.49975268511925
  0
POLYLINE
  8
Unknown Area Type
  70
9
  66
1
  0
VERTEX
  8
Unknown Area Type
  70
32
  10
-5.22750413656321
  20
42.50000016666667
  30
902.614
  0
VERTEX
  8
Unknown Area Type
  70
32
  10
-5.22113008115856
  20
42.50000016666667
  30
905.042
  0
VERTEX
  8
Unknown Area Type
  70
32
  10
-5.22113067688252
  20
42.5
  30
905.041
  0
VERTEX
  8
Unknown Area Type
  70
32
  10
-5.22750258525757
  20
42.5
  30
902.614
  0
SEQEND
  8
Unknown Area Type
  0
TEXT
  8
Unknown Area Type
 62
7
  1
PNOA-H_AMS_1956-57_33k_ES_PAN_2
 40
0.00045
  10
-5.22431710886089
  20
42.50000008333333
  0
POLYLINE
  8
Unknown Area Type
  70
9
  66
1
  0
VERTEX
  8
Unknown Area Type
  70
32
  10
-5.22750258525757
  20
42.5
  30
902.614
  0
VERTEX
  8
Unknown Area Type
  70
32
  10
-5.22113067688252
  20
42.5
  30
905.041
  0
VERTEX
  8
Unknown Area Type
  70
32
  10
-5.22289865365982
  20
42.4995053702385
  30
904.433
  0
SEQEND
  8
Unknown Area Type
  0
TEXT
  8
Unknown Area Type
 62
7
  1
PNOA-H_AMS_1956-57_33k_ES_PAN_2
 40
0.00045
  10
-5.22431663107004
  20
42.49975268511925
  0
POLYLINE
  8
Unknown Area Type
  70
9
  66
1
  0
VERTEX
  8
Unknown Area Type
  70
32
  10
-5.52083333333329
  20
42.5
  30
787.11
  0
VERTEX
  8
Unknown Area Type
  70
32
  10
-5.5095168542615
  20
42.5
  30
787.11
  0
VERTEX
  8
Unknown Area Type
  70
32
  10
-5.52062300689729
  20
42.49963075367129
  30
789.668
  0
VERTEX
  8
Unknown Area Type
  70
32
  10
-5.52083333333329
  20
42.49974572356248
  30
787.973
  0
SEQEND
  8
Unknown Area Type
  0
TEXT
  8
Unknown Area Type
 62
7
  1
PNOA-H_AMS_1956-57_33k_ES_PAN_2
 40
0.00045
  10
-5.5151750937974
  20
42.49981537683564
  0
POLYLINE
  8
Unknown Area Type
  70
9
  66
1
  0
VERTEX
  8
Unknown Area Type
  70
32
  10
-5.52083366666662
  20
42.50000016666667
  30
787.108
  0
VERTEX
  8
Unknown Area Type
  70
32
  10
-5.52083333333329
  20
42.50000016666667
  30
787.11
  0
VERTEX
  8
Unknown Area Type
  70
32
  10
-5.52083333333329
  20
42.5
  30
787.11
  0
VERTEX
  8
Unknown Area Type
  70
32
  10
-5.52083366666662
  20
42.5
  30
787.108
  0
SEQEND
  8
Unknown Area Type
  0
TEXT
  8
Unknown Area Type
 62
7
  1
PNOA-H_AMS_1956-57_33k_ES_PAN_2
 40
0.00045
  10
-5.52083349999996
  20
42.50000008333333
  0
POLYLINE
  8
Unknown Area Type
  70
9
  66
1
  0
VERTEX
  8
Unknown Area Type
  70
32
  10
-5.52083333333329
  20
42.50000016666667
  30
787.11
  0
VERTEX
  8
Unknown Area Type
  70
32
  10
-5.50951184127892
  20
42.50000016666667
  30
787.109
  0
VERTEX
  8
Unknown Area Type
  70
32
  10
-5.5095168542615
  20
42.5
  30
787.11
  0
VERTEX
  8
Unknown Area Type
  70
32
  10
-5.52083333333329
  20
42.5
  30
787.11
  0
SEQEND
  8
Unknown Area Type
  0
TEXT
  8
Unknown Area Type
 62
7
  1
PNOA-H_AMS_1956-57_33k_ES_PAN_2
 40
0.00045
  10
-5.51517258730611
  20
42.50000008333333
  0
POLYLINE
  8
Unknown Area Type
  70
9
  66
1
  0
VERTEX
  8
Unknown Area Type
  70
32
  10
-5.52083366666662
  20
42.5
  30
787.108
  0
VERTEX
  8
Unknown Area Type
  70
32
  10
-5.52083333333329
  20
42.5
  30
787.11
  0
VERTEX
  8
Unknown Area Type
  70
32
  10
-5.52083333333329
  20
42.49974572356248
  30
787.973
  0
VERTEX
  8
Unknown Area Type
  70
32
  10
-5.52083366666662
  20
42.49974590577114
  30
787.97
  0
SEQEND
  8
Unknown Area Type
  0
TEXT
  8
Unknown Area Type
 62
7
  1
PNOA-H_AMS_1956-57_33k_ES_PAN_2
 40
0.00045
  10
-5.52083349999996
  20
42.49987286178124
  0
POLYLINE
  8
Unknown Area Type
  70
9
  66
1
  0
VERTEX
  8
Unknown Area Type
  70
32
  10
-5.52083333333329
  20
42.5
  30
787.11
  0
VERTEX
  8
Unknown Area Type
  70
32
  10
-5.5095168542615
  20
42.5
  30
787.11
  0
VERTEX
  8
Unknown Area Type
  70
32
  10
-5.52062300689729
  20
42.49963075367129
  30
789.668
  0
VERTEX
  8
Unknown Area Type
  70
32
  10
-5.52083333333329
  20
42.49974572356248
  30
787.973
  0
SEQEND
  8
Unknown Area Type
  0
TEXT
  8
Unknown Area Type
 62
7
  1
PNOA-H_AMS_1956-57_33k_ES_PAN_2
 40
0.00045
  10
-5.5151750937974
  20
42.49981537683564
  0
POLYLINE
  8
Unknown Area Type
  70
9
  66
1
  0
VERTEX
  8
Unknown Area Type
  70
32
  10
-5.23491546139083
  20
42.36285830133238
  30
850.433
  0
VERTEX
  8
Unknown Area Type
  70
32
  10
-5.23368043159445
  20
42.36295892678164
  30
854.173
  0
VERTEX
  8
Unknown Area Type
  70
32
  10
-5.22130418164686
  20
42.35737745409479
  30
854.921
  0
VERTEX
  8
Unknown Area Type
  70
32
  10
-5.22030898373449
  20
42.33911560946483
  30
850.875
  0
VERTEX
  8
Unknown Area Type
  70
32
  10
-5.23983965355596
  20
42.33483619781224
  30
834.877
  0
VERTEX
  8
Unknown Area Type
  70
32
  10
-5.23993732677887
  20
42.33485229987744
  30
834.318
  0
VERTEX
  8
Unknown Area Type
  70
32
  10
-5.25448090975415
  20
42.33832241671639
  30
847.814
  0
VERTEX
  8
Unknown Area Type
  70
32
  10
-5.25513482316446
  20
42.35576214141265
  30
847.352
  0
VERTEX
  8
Unknown Area Type
  70
32
  10
-5.25025531637373
  20
42.361585525271
  30
853.308
  0
VERTEX
  8
Unknown Area Type
  70
32
  10
-5.23498811006203
  20
42.36285238177651
  30
850.132
  0
VERTEX
  8
Unknown Area Type
  70
32
  10
-5.23491546139083
  20
42.36285830133238
  30
850.433
  0
SEQEND
  8
Unknown Area Type
  0
TEXT
  8
Unknown Area Type
 62
7
  1
PNOA-H_AMS_1956-57_33k_ES_PAN_2
 40
0.00045
  10
-5.23785988868142
  20
42.34889543791371
  0
POLYLINE
  8
Unknown Area Type
  70
9
  66
1
  0
VERTEX
  8
Unknown Area Type
  70
32
  10
-5.23491546139083
  20
42.36285830133238
  30
850.433
  0
VERTEX
  8
Unknown Area Type
  70
32
  10
-5.23368043159445
  20
42.36295892678164
  30
854.173
  0
VERTEX
  8
Unknown Area Type
  70
32
  10
-5.22130418164686
  20
42.35737745409479
  30
854.921
  0
VERTEX
  8
Unknown Area Type
  70
32
  10
-5.22030898373449
  20
42.33911560946483
  30
850.875
  0
VERTEX
  8
Unknown Area Type
  70
32
  10
-5.23983965355596
  20
42.33483619781224
  30
834.877
  0
VERTEX
  8
Unknown Area Type
  70
32
  10
-5.23993732677887
  20
42.33485229987744
  30
834.318
  0
VERTEX
  8
Unknown Area Type
  70
32
  10
-5.25448090975415
  20
42.33832241671639
  30
847.814
  0
VERTEX
  8
Unknown Area Type
  70
32
  10
-5.25513482316446
  20
42.35576214141265
  30
847.352
  0
VERTEX
  8
Unknown Area Type
  70
32
  10
-5.25025531637373
  20
42.361585525271
  30
853.308
  0
VERTEX
  8
Unknown Area Type
  70
32
  10
-5.23498811006203
  20
42.36285238177651
  30
850.132
  0
VERTEX
  8
Unknown Area Type
  70
32
  10
-5.23491546139083
  20
42.36285830133238
  30
850.433
  0
SEQEND
  8
Unknown Area Type
  0
TEXT
  8
Unknown Area Type
 62
7
  1
PNOA-H_AMS_1956-57_33k_ES_PAN_2
 40
0.00045
  10
-5.23785988868142
  20
42.34889543791371
  0
POLYLINE
  8
Unknown Area Type
  70
9
  66
1
  0
VERTEX
  8
Unknown Area Type
  70
32
  10
-5.31282580591636
  20
42.3673369916059
  30
821.854
  0
VERTEX
  8
Unknown Area Type
  70
32
  10
-5.31273904508528
  20
42.36728921294743
  30
821.781
  0
VERTEX
  8
Unknown Area Type
  70
32
  10
-5.29077478287475
  20
42.35286693874227
  30
816.844
  0
VERTEX
  8
Unknown Area Type
  70
32
  10
-5.29003364297656
  20
42.33864414166794
  30
794.774
  0
VERTEX
  8
Unknown Area Type
  70
32
  10
-5.29002302546004
  20
42.33835167652903
  30
794.685
  0
VERTEX
  8
Unknown Area Type
  70
32
  10
-5.29003499164451
  20
42.33834693469223
  30
794.686
  0
VERTEX
  8
Unknown Area Type
  70
32
  10
-5.30144636167479
  20
42.33522309026221
  30
814.108
  0
VERTEX
  8
Unknown Area Type
  70
32
  10
-5.31359867273896
  20
42.33611759639583
  30
816.348
  0
VERTEX
  8
Unknown Area Type
  70
32
  10
-5.32717768191119
  20
42.33899006019954
  30
822.367
  0
VERTEX
  8
Unknown Area Type
  70
32
  10
-5.32686198040728
  20
42.3534636830155
  30
820.2
  0
VERTEX
  8
Unknown Area Type
  70
32
  10
-5.31282547563992
  20
42.36732799286813
  30
821.856
  0
VERTEX
  8
Unknown Area Type
  70
32
  10
-5.31282580591636
  20
42.3673369916059
  30
821.854
  0
SEQEND
  8
Unknown Area Type
  0
TEXT
  8
Unknown Area Type
 62
7
  1
PNOA-H_AMS_1956-57_33k_ES_PAN_2
 40
0.00045
  10
-5.30880081957482
  20
42.35127918270203
  0
POLYLINE
  8
Unknown Area Type
  70
9
  66
1
  0
VERTEX
  8
Unknown Area Type
  70
32
  10
-5.31282580591636
  20
42.3673369916059
  30
821.854
  0
VERTEX
  8
Unknown Area Type
  70
32
  10
-5.31273904508528
  20
42.36728921294743
  30
821.781
  0
VERTEX
  8
Unknown Area Type
  70
32
  10
-5.29077478287475
  20
42.35286693874227
  30
816.844
  0
VERTEX
  8
Unknown Area Type
  70
32
  10
-5.29003364297656
  20
42.33864414166794
  30
794.774
  0
VERTEX
  8
Unknown Area Type
  70
32
  10
-5.29002302546004
  20
42.33835167652903
  30
794.685
  0
VERTEX
  8
Unknown Area Type
  70
32
  10
-5.29003499164451
  20
42.33834693469223
  30
794.686
  0
VERTEX
  8
Unknown Area Type
  70
32
  10
-5.30144636167479
  20
42.33522309026221
  30
814.108
  0
VERTEX
  8
Unknown Area Type
  70
32
  10
-5.31359867273896
  20
42.33611759639583
  30
816.348
  0
VERTEX
  8
Unknown Area Type
  70
32
  10
-5.32717768191119
  20
42.33899006019954
  30
822.367
  0
VERTEX
  8
Unknown Area Type
  70
32
  10
-5.32686198040728
  20
42.3534636830155
  30
820.2
  0
VERTEX
  8
Unknown Area Type
  70
32
  10
-5.31282547563992
  20
42.36732799286813
  30
821.856
  0
VERTEX
  8
Unknown Area Type
  70
32
  10
-5.31282580591636
  20
42.3673369916059
  30
821.854
  0
SEQEND
  8
Unknown Area Type
  0
TEXT
  8
Unknown Area Type
 62
7
  1
PNOA-H_AMS_1956-57_33k_ES_PAN_2
 40
0.00045
  10
-5.30880081957482
  20
42.35127918270203
  0
POLYLINE
  8
Unknown Area Type
  70
9
  66
1
  0
VERTEX
  8
Unknown Area Type
  70
32
  10
-5.33424470976727
  20
42.3592255891684
  30
820.858
  0
VERTEX
  8
Unknown Area Type
  70
32
  10
-5.32686198040728
  20
42.3534636830155
  30
820.2
  0
VERTEX
  8
Unknown Area Type
  70
32
  10
-5.32718358058086
  20
42.33898543770115
  30
822.38
  0
VERTEX
  8
Unknown Area Type
  70
32
  10
-5.33713522483746
  20
42.33598673497671
  30
832.995
  0
VERTEX
  8
Unknown Area Type
  70
32
  10
-5.33719586819742
  20
42.33598549823652
  30
832.969
  0
VERTEX
  8
Unknown Area Type
  70
32
  10
-5.35280563688851
  20
42.33713847588923
  30
837.409
  0
VERTEX
  8
Unknown Area Type
  70
32
  10
-5.35315938486276
  20
42.3371852452844
  30
837.113
  0
VERTEX
  8
Unknown Area Type
  70
32
  10
-5.37117951616593
  20
42.34012329848419
  30
857.674
  0
VERTEX
  8
Unknown Area Type
  70
32
  10
-5.37426287999285
  20
42.34190106346675
  30
866.237
  0
VERTEX
  8
Unknown Area Type
  70
32
  10
-5.34666308674869
  20
42.36892291177263
  30
823.11
  0
VERTEX
  8
Unknown Area Type
  70
32
  10
-5.33425110958984
  20
42.35923446420793
  30
820.848
  0
VERTEX
  8
Unknown Area Type
  70
32
  10
-5.33424470976727
  20
42.3592255891684
  30
820.858
  0
SEQEND
  8
Unknown Area Type
  0
TEXT
  8
Unknown Area Type
 62
7
  1
PNOA-H_AMS_1956-57_33k_ES_PAN_2
 40
0.00045
  10
-5.3451840418571
  20
42.35245326960162
  0
POLYLINE
  8
Unknown Area Type
  70
9
  66
1
  0
VERTEX
  8
Unknown Area Type
  70
32
  10
-5.33424470976727
  20
42.3592255891684
  30
820.858
  0
VERTEX
  8
Unknown Area Type
  70
32
  10
-5.32686198040728
  20
42.3534636830155
  30
820.2
  0
VERTEX
  8
Unknown Area Type
  70
32
  10
-5.32718358058086
  20
42.33898543770115
  30
822.38
  0
VERTEX
  8
Unknown Area Type
  70
32
  10
-5.33713522483746
  20
42.33598673497671
  30
832.995
  0
VERTEX
  8
Unknown Area Type
  70
32
  10
-5.33719586819742
  20
42.33598549823652
  30
832.969
  0
VERTEX
  8
Unknown Area Type
  70
32
  10
-5.35280563688851
  20
42.33713847588923
  30
837.409
  0
VERTEX
  8
Unknown Area Type
  70
32
  10
-5.35315938486276
  20
42.3371852452844
  30
837.113
  0
VERTEX
  8
Unknown Area Type
  70
32
  10
-5.37117951616593
  20
42.34012329848419
  30
857.674
  0
VERTEX
  8
Unknown Area Type
  70
32
  10
-5.37426287999285
  20
42.34190106346675
  30
866.237
  0
VERTEX
  8
Unknown Area Type
  70
32
  10
-5.34666308674869
  20
42.36892291177263
  30
823.11
  0
VERTEX
  8
Unknown Area Type
  70
32
  10
-5.33425110958984
  20
42.35923446420793
  30
820.848
  0
VERTEX
  8
Unknown Area Type
  70
32
  10
-5.33424470976727
  20
42.3592255891684
  30
820.858
  0
SEQEND
  8
Unknown Area Type
  0
TEXT
  8
Unknown Area Type
 62
7
  1
PNOA-H_AMS_1956-57_33k_ES_PAN_2
 40
0.00045
  10
-5.3451840418571
  20
42.35245326960162
  0
POLYLINE
  8
Unknown Area Type
  70
9
  66
1
  0
VERTEX
  8
Unknown Area Type
  70
32
  10
-5.21331942626349
  20
42.45632577295384
  30
892.009
  0
VERTEX
  8
Unknown Area Type
  70
32
  10
-5.20585651226813
  20
42.45505586640393
  30
895.923
  0
VERTEX
  8
Unknown Area Type
  70
32
  10
-5.20293878101372
  20
42.41900045933489
  30
876.043
  0
VERTEX
  8
Unknown Area Type
  70
32
  10
-5.21851332762992
  20
42.41449894580684
  30
874.98
  0
VERTEX
  8
Unknown Area Type
  70
32
  10
-5.23572181691128
  20
42.41859511086416
  30
874.361
  0
VERTEX
  8
Unknown Area Type
  70
32
  10
-5.23587747162462
  20
42.45459098331357
  30
887.119
  0
VERTEX
  8
Unknown Area Type
  70
32
  10
-5.23587187583303
  20
42.45460460051854
  30
887.122
  0
VERTEX
  8
Unknown Area Type
  70
32
  10
-5.23570302328653
  20
42.45464391704133
  30
887.145
  0
VERTEX
  8
Unknown Area Type
  70
32
  10
-5.22197534752686
  20
42.45779269031788
  30
886.754
  0
VERTEX
  8
Unknown Area Type
  70
32
  10
-5.21333765563255
  20
42.45632542077894
  30
892.01
  0
VERTEX
  8
Unknown Area Type
  70
32
  10
-5.21331942626349
  20
42.45632577295384
  30
892.009
  0
SEQEND
  8
Unknown Area Type
  0
TEXT
  8
Unknown Area Type
 62
7
  1
PNOA-H_AMS_1956-57_33k_ES_PAN_2
 40
0.00045
  10
-5.2194082877639
  20
42.43603365148276
  0
POLYLINE
  8
Unknown Area Type
  70
9
  66
1
  0
VERTEX
  8
Unknown Area Type
  70
32
  10
-5.21331942626349
  20
42.45632577295384
  30
892.009
  0
VERTEX
  8
Unknown Area Type
  70
32
  10
-5.20585651226813
  20
42.45505586640393
  30
895.923
  0
VERTEX
  8
Unknown Area Type
  70
32
  10
-5.20293878101372
  20
42.41900045933489
  30
876.043
  0
VERTEX
  8
Unknown Area Type
  70
32
  10
-5.21851332762992
  20
42.41449894580684
  30
874.98
  0
VERTEX
  8
Unknown Area Type
  70
32
  10
-5.23572181691128
  20
42.41859511086416
  30
874.361
  0
VERTEX
  8
Unknown Area Type
  70
32
  10
-5.23587747162462
  20
42.45459098331357
  30
887.119
  0
VERTEX
  8
Unknown Area Type
  70
32
  10
-5.23587187583303
  20
42.45460460051854
  30
887.122
  0
VERTEX
  8
Unknown Area Type
  70
32
  10
-5.23570302328653
  20
42.45464391704133
  30
887.145
  0
VERTEX
  8
Unknown Area Type
  70
32
  10
-5.22197534752686
  20
42.45779269031788
  30
886.754
  0
VERTEX
  8
Unknown Area Type
  70
32
  10
-5.21333765563255
  20
42.45632542077894
  30
892.01
  0
VERTEX
  8
Unknown Area Type
  70
32
  10
-5.21331942626349
  20
42.45632577295384
  30
892.009
  0
SEQEND
  8
Unknown Area Type
  0
TEXT
  8
Unknown Area Type
 62
7
  1
PNOA-H_AMS_1956-57_33k_ES_PAN_2
 40
0.00045
  10
-5.2194082877639
  20
42.43603365148276
  0
POLYLINE
  8
Unknown Area Type
  70
9
  66
1
  0
VERTEX
  8
Unknown Area Type
  70
32
  10
-5.22130418164686
  20
42.35737745409479
  30
854.921
  0
VERTEX
  8
Unknown Area Type
  70
32
  10
-5.20486428201176
  20
42.37873619577841
  30
862.971
  0
VERTEX
  8
Unknown Area Type
  70
32
  10
-5.20485852799905
  20
42.3787453119396
  30
862.978
  0
VERTEX
  8
Unknown Area Type
  70
32
  10
-5.18749999999999
  20
42.37797563284478
  30
861.556
  0
VERTEX
  8
Unknown Area Type
  70
32
  10
-5.18749999999999
  20
42.37500000000003
  30
858.056
  0
VERTEX
  8
Unknown Area Type
  70
32
  10
-5.18749999999999
  20
42.35416666666671
  30
833.6
  0
VERTEX
  8
Unknown Area Type
  70
32
  10
-5.18749999999999
  20
42.33992735150711
  30
816.987
  0
VERTEX
  8
Unknown Area Type
  70
32
  10
-5.20524895271518
  20
42.33575464647049
  30
821.943
  0
VERTEX
  8
Unknown Area Type
  70
32
  10
-5.20529140679486
  20
42.33575382958711
  30
822.017
  0
VERTEX
  8
Unknown Area Type
  70
32
  10
-5.20573791782101
  20
42.33585330315251
  30
822.668
  0
VERTEX
  8
Unknown Area Type
  70
32
  10
-5.22030898373449
  20
42.33911560946483
  30
850.875
  0
SEQEND
  8
Unknown Area Type
  0
TEXT
  8
Unknown Area Type
 62
7
  1
PNOA-H_AMS_1956-57_33k_ES_PAN_2
 40
0.00045
  10
-5.20428936448379
  20
42.35734862940551
  0
POLYLINE
  8
Unknown Area Type
  70
9
  66
1
  0
VERTEX
  8
Unknown Area Type
  70
32
  10
-5.22130418164686
  20
42.35737745409479
  30
854.921
  0
VERTEX
  8
Unknown Area Type
  70
32
  10
-5.20486428201176
  20
42.37873619577841
  30
862.971
  0
VERTEX
  8
Unknown Area Type
  70
32
  10
-5.20485852799905
  20
42.3787453119396
  30
862.978
  0
VERTEX
  8
Unknown Area Type
  70
32
  10
-5.18749999999999
  20
42.37797563284478
  30
861.556
  0
VERTEX
  8
Unknown Area Type
  70
32
  10
-5.18749999999999
  20
42.37500000000003
  30
858.056
  0
VERTEX
  8
Unknown Area Type
  70
32
  10
-5.18749999999999
  20
42.35416666666671
  30
833.6
  0
VERTEX
  8
Unknown Area Type
  70
32
  10
-5.18749999999999
  20
42.33992735150711
  30
816.987
  0
VERTEX
  8
Unknown Area Type
  70
32
  10
-5.20524895271518
  20
42.33575464647049
  30
821.943
  0
VERTEX
  8
Unknown Area Type
  70
32
  10
-5.20529140679486
  20
42.33575382958711
  30
822.017
  0
VERTEX
  8
Unknown Area Type
  70
32
  10
-5.20573791782101
  20
42.33585330315251
  30
822.668
  0
VERTEX
  8
Unknown Area Type
  70
32
  10
-5.22030898373449
  20
42.33911560946483
  30
850.875
  0
SEQEND
  8
Unknown Area Type
  0
TEXT
  8
Unknown Area Type
 62
7
  1
PNOA-H_AMS_1956-57_33k_ES_PAN_2
 40
0.00045
  10
-5.20428936448379
  20
42.35734862940551
  0
POLYLINE
  8
Unknown Area Type
  70
9
  66
1
  0
VERTEX
  8
Unknown Area Type
  70
32
  10
-5.18749999999999
  20
42.35416666666671
  30
833.6
  0
VERTEX
  8
Unknown Area Type
  70
32
  10
-5.18749999999999
  20
42.37500000000003
  30
858.056
  0
VERTEX
  8
Unknown Area Type
  70
32
  10
-5.18749999999999
  20
42.37797563284478
  30
861.556
  0
VERTEX
  8
Unknown Area Type
  70
32
  10
-5.18749966666666
  20
42.37797561806474
  30
861.556
  0
VERTEX
  8
Unknown Area Type
  70
32
  10
-5.18749966666666
  20
42.33992742987239
  30
816.987
  0
VERTEX
  8
Unknown Area Type
  70
32
  10
-5.18749999999999
  20
42.33992735150711
  30
816.987
  0
SEQEND
  8
Unknown Area Type
  0
TEXT
  8
Unknown Area Type
 62
7
  1
PNOA-H_AMS_1956-57_33k_ES_PAN_2
 40
0.00045
  10
-5.18749983333333
  20
42.35895149217595
  0
POLYLINE
  8
Unknown Area Type
  70
9
  66
1
  0
VERTEX
  8
Unknown Area Type
  70
32
  10
-5.20585651226813
  20
42.45505586640393
  30
895.923
  0
VERTEX
  8
Unknown Area Type
  70
32
  10
-5.18968002470656
  20
42.45882423700333
  30
902.877
  0
VERTEX
  8
Unknown Area Type
  70
32
  10
-5.18850450055264
  20
42.45859454845363
  30
903.629
  0
VERTEX
  8
Unknown Area Type
  70
32
  10
-5.18849234699835
  20
42.45859478061424
  30
903.621
  0
VERTEX
  8
Unknown Area Type
  70
32
  10
-5.18749999999999
  20
42.45840048336952
  30
904.388
  0
VERTEX
  8
Unknown Area Type
  70
32
  10
-5.18749999999999
  20
42.45833333333337
  30
904.398
  0
VERTEX
  8
Unknown Area Type
  70
32
  10
-5.18749999999999
  20
42.43750000000006
  30
899.587
  0
VERTEX
  8
Unknown Area Type
  70
32
  10
-5.18749999999999
  20
42.41666666666666
  30
881.99
  0
VERTEX
  8
Unknown Area Type
  70
32
  10
-5.18749999999999
  20
42.41592905645453
  30
882.045
  0
VERTEX
  8
Unknown Area Type
  70
32
  10
-5.20291433185916
  20
42.41899642669668
  30
876.097
  0
VERTEX
  8
Unknown Area Type
  70
32
  10
-5.20293893859451
  20
42.41900495900403
  30
876.049
  0
VERTEX
  8
Unknown Area Type
  70
32
  10
-5.20294942377759
  20
42.41913083297909
  30
876.044
  0
SEQEND
  8
Unknown Area Type
  0
TEXT
  8
Unknown Area Type
 62
7
  1
PNOA-H_AMS_1956-57_33k_ES_PAN_2
 40
0.00045
  10
-5.18962860381066
  20
42.43758148208043
  0
POLYLINE
  8
Unknown Area Type
  70
9
  66
1
  0
VERTEX
  8
Unknown Area Type
  70
32
  10
-5.20585651226813
  20
42.45505586640393
  30
895.923
  0
VERTEX
  8
Unknown Area Type
  70
32
  10
-5.18968002470656
  20
42.45882423700333
  30
902.877
  0
VERTEX
  8
Unknown Area Type
  70
32
  10
-5.18850450055264
  20
42.45859454845363
  30
903.629
  0
VERTEX
  8
Unknown Area Type
  70
32
  10
-5.18849234699835
  20
42.45859478061424
  30
903.621
  0
VERTEX
  8
Unknown Area Type
  70
32
  10
-5.18749999999999
  20
42.45840048336952
  30
904.388
  0
VERTEX
  8
Unknown Area Type
  70
32
  10
-5.18749999999999
  20
42.45833333333337
  30
904.398
  0
VERTEX
  8
Unknown Area Type
  70
32
  10
-5.18749999999999
  20
42.43750000000006
  30
899.587
  0
VERTEX
  8
Unknown Area Type
  70
32
  10
-5.18749999999999
  20
42.41666666666666
  30
881.99
  0
VERTEX
  8
Unknown Area Type
  70
32
  10
-5.18749999999999
  20
42.41592905645453
  30
882.045
  0
VERTEX
  8
Unknown Area Type
  70
32
  10
-5.20291433185916
  20
42.41899642669668
  30
876.097
  0
VERTEX
  8
Unknown Area Type
  70
32
  10
-5.20293893859451
  20
42.41900495900403
  30
876.049
  0
VERTEX
  8
Unknown Area Type
  70
32
  10
-5.20294942377759
  20
42.41913083297909
  30
876.044
  0
SEQEND
  8
Unknown Area Type
  0
TEXT
  8
Unknown Area Type
 62
7
  1
PNOA-H_AMS_1956-57_33k_ES_PAN_2
 40
0.00045
  10
-5.18962860381066
  20
42.43758148208043
  0
POLYLINE
  8
Unknown Area Type
  70
9
  66
1
  0
VERTEX
  8
Unknown Area Type
  70
32
  10
-5.18749999999999
  20
42.41666666666666
  30
881.99
  0
VERTEX
  8
Unknown Area Type
  70
32
  10
-5.18749999999999
  20
42.43750000000006
  30
899.587
  0
VERTEX
  8
Unknown Area Type
  70
32
  10
-5.18749999999999
  20
42.45833333333337
  30
904.398
  0
VERTEX
  8
Unknown Area Type
  70
32
  10
-5.18749999999999
  20
42.45840048336952
  30
904.388
  0
VERTEX
  8
Unknown Area Type
  70
32
  10
-5.18749966666666
  20
42.45840041810429
  30
904.388
  0
VERTEX
  8
Unknown Area Type
  70
32
  10
-5.18749966666666
  20
42.41592899012296
  30
882.045
  0
VERTEX
  8
Unknown Area Type
  70
32
  10
-5.18749999999999
  20
42.41592905645453
  30
882.045
  0
SEQEND
  8
Unknown Area Type
  0
TEXT
  8
Unknown Area Type
 62
7
  1
PNOA-H_AMS_1956-57_33k_ES_PAN_2
 40
0.00045
  10
-5.18749983333333
  20
42.43716473674624
  0
POLYLINE
  8
Unknown Area Type
  70
9
  66
1
  0
VERTEX
  8
Unknown Area Type
  70
32
  10
-5.21069014076474
  20
42.38155522705346
  30
864.397
  0
VERTEX
  8
Unknown Area Type
  70
32
  10
-5.20485837050305
  20
42.37874081224459
  30
862.972
  0
VERTEX
  8
Unknown Area Type
  70
32
  10
-5.22126904874952
  20
42.35741415694793
  30
854.694
  0
VERTEX
  8
Unknown Area Type
  70
32
  10
-5.22129811476524
  20
42.35737757168855
  30
854.907
  0
VERTEX
  8
Unknown Area Type
  70
32
  10
-5.22131024852844
  20
42.3573773365007
  30
854.935
  0
VERTEX
  8
Unknown Area Type
  70
32
  10
-5.23368649896191
  20
42.36295880852018
  30
854.154
  0
VERTEX
  8
Unknown Area Type
  70
32
  10
-5.23498600042142
  20
42.38333529895858
  30
863.238
  0
VERTEX
  8
Unknown Area Type
  70
32
  10
-5.21845625400539
  20
42.38529999386635
  30
854.151
  0
VERTEX
  8
Unknown Area Type
  70
32
  10
-5.21070243719804
  20
42.38155949255597
  30
864.399
  0
VERTEX
  8
Unknown Area Type
  70
32
  10
-5.21069014076474
  20
42.38155522705346
  30
864.397
  0
SEQEND
  8
Unknown Area Type
  0
TEXT
  8
Unknown Area Type
 62
7
  1
PNOA-H_AMS_1956-57_33k_ES_PAN_2
 40
0.00045
  10
-5.21992246455204
  20
42.37214415350354
  0
POLYLINE
  8
Unknown Area Type
  70
9
  66
1
  0
VERTEX
  8
Unknown Area Type
  70
32
  10
-5.21069014076474
  20
42.38155522705346
  30
864.397
  0
VERTEX
  8
Unknown Area Type
  70
32
  10
-5.20485837050305
  20
42.37874081224459
  30
862.972
  0
VERTEX
  8
Unknown Area Type
  70
32
  10
-5.22126904874952
  20
42.35741415694793
  30
854.694
  0
VERTEX
  8
Unknown Area Type
  70
32
  10
-5.22129811476524
  20
42.35737757168855
  30
854.907
  0
VERTEX
  8
Unknown Area Type
  70
32
  10
-5.22131024852844
  20
42.3573773365007
  30
854.935
  0
VERTEX
  8
Unknown Area Type
  70
32
  10
-5.23368649896191
  20
42.36295880852018
  30
854.154
  0
VERTEX
  8
Unknown Area Type
  70
32
  10
-5.23498600042142
  20
42.38333529895858
  30
863.238
  0
VERTEX
  8
Unknown Area Type
  70
32
  10
-5.21845625400539
  20
42.38529999386635
  30
854.151
  0
VERTEX
  8
Unknown Area Type
  70
32
  10
-5.21070243719804
  20
42.38155949255597
  30
864.399
  0
VERTEX
  8
Unknown Area Type
  70
32
  10
-5.21069014076474
  20
42.38155522705346
  30
864.397
  0
SEQEND
  8
Unknown Area Type
  0
TEXT
  8
Unknown Area Type
 62
7
  1
PNOA-H_AMS_1956-57_33k_ES_PAN_2
 40
0.00045
  10
-5.21992246455204
  20
42.37214415350354
  0
POLYLINE
  8
Unknown Area Type
  70
9
  66
1
  0
VERTEX
  8
Unknown Area Type
  70
32
  10
-5.25009226593674
  20
42.3843949851879
  30
860.324
  0
VERTEX
  8
Unknown Area Type
  70
32
  10
-5.23498600042142
  20
42.38333529895858
  30
863.238
  0
VERTEX
  8
Unknown Area Type
  70
32
  10
-5.23369080455948
  20
42.36308029824612
  30
854.379
  0
VERTEX
  8
Unknown Area Type
  70
32
  10
-5.23368649896191
  20
42.36295880852018
  30
854.154
  0
VERTEX
  8
Unknown Area Type
  70
32
  10
-5.23371060896359
  20
42.36295383585166
  30
854.091
  0
VERTEX
  8
Unknown Area Type
  70
32
  10
-5.25025531637373
  20
42.361585525271
  30
853.308
  0
VERTEX
  8
Unknown Area Type
  70
32
  10
-5.25009162290796
  20
42.38437698697938
  30
860.306
  0
VERTEX
  8
Unknown Area Type
  70
32
  10
-5.25009226593674
  20
42.3843949851879
  30
860.324
  0
SEQEND
  8
Unknown Area Type
  0
TEXT
  8
Unknown Area Type
 62
7
  1
PNOA-H_AMS_1956-57_33k_ES_PAN_2
 40
0.00045
  10
-5.24197109564045
  20
42.37304615066169
  0
POLYLINE
  8
Unknown Area Type
  70
9
  66
1
  0
VERTEX
  8
Unknown Area Type
  70
32
  10
-5.25009226593674
  20
42.3843949851879
  30
860.324
  0
VERTEX
  8
Unknown Area Type
  70
32
  10
-5.23498600042142
  20
42.38333529895858
  30
863.238
  0
VERTEX
  8
Unknown Area Type
  70
32
  10
-5.23369080455948
  20
42.36308029824612
  30
854.379
  0
VERTEX
  8
Unknown Area Type
  70
32
  10
-5.23368649896191
  20
42.36295880852018
  30
854.154
  0
VERTEX
  8
Unknown Area Type
  70
32
  10
-5.23371060896359
  20
42.36295383585166
  30
854.091
  0
VERTEX
  8
Unknown Area Type
  70
32
  10
-5.25025531637373
  20
42.361585525271
  30
853.308
  0
VERTEX
  8
Unknown Area Type
  70
32
  10
-5.25009162290796
  20
42.38437698697938
  30
860.306
  0
VERTEX
  8
Unknown Area Type
  70
32
  10
-5.25009226593674
  20
42.3843949851879
  30
860.324
  0
SEQEND
  8
Unknown Area Type
  0
TEXT
  8
Unknown Area Type
 62
7
  1
PNOA-H_AMS_1956-57_33k_ES_PAN_2
 40
0.00045
  10
-5.24197109564045
  20
42.37304615066169
  0
POLYLINE
  8
Unknown Area Type
  70
9
  66
1
  0
VERTEX
  8
Unknown Area Type
  70
32
  10
-5.26056359673692
  20
42.38372961493151
  30
859.386
  0
VERTEX
  8
Unknown Area Type
  70
32
  10
-5.25111059753161
  20
42.38484776904251
  30
860.285
  0
VERTEX
  8
Unknown Area Type
  70
32
  10
-5.25108008968934
  20
42.38484386565543
  30
860.288
  0
VERTEX
  8
Unknown Area Type
  70
32
  10
-5.25009226593674
  20
42.3843949851879
  30
860.324
  0
VERTEX
  8
Unknown Area Type
  70
32
  10
-5.25025515573311
  20
42.36158102570141
  30
853.319
  0
VERTEX
  8
Unknown Area Type
  70
32
  10
-5.25513466220849
  20
42.35575764185361
  30
847.357
  0
VERTEX
  8
Unknown Area Type
  70
32
  10
-5.27895331155117
  20
42.36892968023903
  30
837.868
  0
VERTEX
  8
Unknown Area Type
  70
32
  10
-5.2801155867982
  20
42.38141507791912
  30
842.536
  0
VERTEX
  8
Unknown Area Type
  70
32
  10
-5.26061198927157
  20
42.38372415755301
  30
859.422
  0
VERTEX
  8
Unknown Area Type
  70
32
  10
-5.26056359673692
  20
42.38372961493151
  30
859.386
  0
SEQEND
  8
Unknown Area Type
  0
TEXT
  8
Unknown Area Type
 62
7
  1
PNOA-H_AMS_1956-57_33k_ES_PAN_2
 40
0.00045
  10
-5.2646373054213
  20
42.37030161597248
  0
POLYLINE
  8
Unknown Area Type
  70
9
  66
1
  0
VERTEX
  8
Unknown Area Type
  70
32
  10
-5.26056359673692
  20
42.38372961493151
  30
859.386
  0
VERTEX
  8
Unknown Area Type
  70
32
  10
-5.25111059753161
  20
42.38484776904251
  30
860.285
  0
VERTEX
  8
Unknown Area Type
  70
32
  10
-5.25108008968934
  20
42.38484386565543
  30
860.288
  0
VERTEX
  8
Unknown Area Type
  70
32
  10
-5.25009226593674
  20
42.3843949851879
  30
860.324
  0
VERTEX
  8
Unknown Area Type
  70
32
  10
-5.25025515573311
  20
42.36158102570141
  30
853.319
  0
VERTEX
  8
Unknown Area Type
  70
32
  10
-5.25513466220849
  20
42.35575764185361
  30
847.357
  0
VERTEX
  8
Unknown Area Type
  70
32
  10
-5.27895331155117
  20
42.36892968023903
  30
837.868
  0
VERTEX
  8
Unknown Area Type
  70
32
  10
-5.2801155867982
  20
42.38141507791912
  30
842.536
  0
VERTEX
  8
Unknown Area Type
  70
32
  10
-5.26061198927157
  20
42.38372415755301
  30
859.422
  0
VERTEX
  8
Unknown Area Type
  70
32
  10
-5.26056359673692
  20
42.38372961493151
  30
859.386
  0
SEQEND
  8
Unknown Area Type
  0
TEXT
  8
Unknown Area Type
 62
7
  1
PNOA-H_AMS_1956-57_33k_ES_PAN_2
 40
0.00045
  10
-5.2646373054213
  20
42.37030161597248
  0
POLYLINE
  8
Unknown Area Type
  70
9
  66
1
  0
VERTEX
  8
Unknown Area Type
  70
32
  10
-5.33514015568412
  20
42.38257181932152
  30
821.975
  0
VERTEX
  8
Unknown Area Type
  70
32
  10
-5.31888102006447
  20
42.38436988503715
  30
822.888
  0
VERTEX
  8
Unknown Area Type
  70
32
  10
-5.31251045544725
  20
42.38140978230847
  30
814.403
  0
VERTEX
  8
Unknown Area Type
  70
32
  10
-5.31281973846095
  20
42.36733711406531
  30
821.852
  0
VERTEX
  8
Unknown Area Type
  70
32
  10
-5.32685591434679
  20
42.35346380618527
  30
820.198
  0
VERTEX
  8
Unknown Area Type
  70
32
  10
-5.32689297495511
  20
42.35348106450164
  30
820.203
  0
VERTEX
  8
Unknown Area Type
  70
32
  10
-5.32706174082952
  20
42.35361271878213
  30
820.292
  0
VERTEX
  8
Unknown Area Type
  70
32
  10
-5.34665685172495
  20
42.36891853676708
  30
823.108
  0
VERTEX
  8
Unknown Area Type
  70
32
  10
-5.34635381176715
  20
42.38132514165623
  30
824.483
  0
VERTEX
  8
Unknown Area Type
  70
32
  10
-5.3351946082926
  20
42.38256620693793
  30
822.03
  0
VERTEX
  8
Unknown Area Type
  70
32
  10
-5.33514015568412
  20
42.38257181932152
  30
821.975
  0
SEQEND
  8
Unknown Area Type
  0
TEXT
  8
Unknown Area Type
 62
7
  1
PNOA-H_AMS_1956-57_33k_ES_PAN_2
 40
0.00045
  10
-5.32971921205776
  20
42.36891481478561
  0
POLYLINE
  8
Unknown Area Type
  70
9
  66
1
  0
VERTEX
  8
Unknown Area Type
  70
32
  10
-5.33514015568412
  20
42.38257181932152
  30
821.975
  0
VERTEX
  8
Unknown Area Type
  70
32
  10
-5.31888102006447
  20
42.38436988503715
  30
822.888
  0
VERTEX
  8
Unknown Area Type
  70
32
  10
-5.31251045544725
  20
42.38140978230847
  30
814.403
  0
VERTEX
  8
Unknown Area Type
  70
32
  10
-5.31281973846095
  20
42.36733711406531
  30
821.852
  0
VERTEX
  8
Unknown Area Type
  70
32
  10
-5.32685591434679
  20
42.35346380618527
  30
820.198
  0
VERTEX
  8
Unknown Area Type
  70
32
  10
-5.32689297495511
  20
42.35348106450164
  30
820.203
  0
VERTEX
  8
Unknown Area Type
  70
32
  10
-5.32706174082952
  20
42.35361271878213
  30
820.292
  0
VERTEX
  8
Unknown Area Type
  70
32
  10
-5.34665685172495
  20
42.36891853676708
  30
823.108
  0
VERTEX
  8
Unknown Area Type
  70
32
  10
-5.34635381176715
  20
42.38132514165623
  30
824.483
  0
VERTEX
  8
Unknown Area Type
  70
32
  10
-5.3351946082926
  20
42.38256620693793
  30
822.03
  0
VERTEX
  8
Unknown Area Type
  70
32
  10
-5.33514015568412
  20
42.38257181932152
  30
821.975
  0
SEQEND
  8
Unknown Area Type
  0
TEXT
  8
Unknown Area Type
 62
7
  1
PNOA-H_AMS_1956-57_33k_ES_PAN_2
 40
0.00045
  10
-5.32971921205776
  20
42.36891481478561
  0
POLYLINE
  8
Unknown Area Type
  70
9
  66
1
  0
VERTEX
  8
Unknown Area Type
  70
32
  10
-5.28508019380779
  20
42.38383319311919
  30
841.209
  0
VERTEX
  8
Unknown Area Type
  70
32
  10
-5.2801155867982
  20
42.38141507791912
  30
842.536
  0
VERTEX
  8
Unknown Area Type
  70
32
  10
-5.27895331155117
  20
42.36892968023903
  30
837.868
  0
VERTEX
  8
Unknown Area Type
  70
32
  10
-5.29077478287475
  20
42.35286693874227
  30
816.844
  0
VERTEX
  8
Unknown Area Type
  70
32
  10
-5.31281973846095
  20
42.36733711406531
  30
821.852
  0
VERTEX
  8
Unknown Area Type
  70
32
  10
-5.31251045544725
  20
42.38140978230847
  30
814.403
  0
VERTEX
  8
Unknown Area Type
  70
32
  10
-5.28514679132773
  20
42.3838273623363
  30
840.475
  0
VERTEX
  8
Unknown Area Type
  70
32
  10
-5.28508019380779
  20
42.38383319311919
  30
841.209
  0
SEQEND
  8
Unknown Area Type
  0
TEXT
  8
Unknown Area Type
 62
7
  1
PNOA-H_AMS_1956-57_33k_ES_PAN_2
 40
0.00045
  10
-5.29608891784967
  20
42.36834811472949
  0
POLYLINE
  8
Unknown Area Type
  70
9
  66
1
  0
VERTEX
  8
Unknown Area Type
  70
32
  10
-5.28508019380779
  20
42.38383319311919
  30
841.209
  0
VERTEX
  8
Unknown Area Type
  70
32
  10
-5.2801155867982
  20
42.38141507791912
  30
842.536
  0
VERTEX
  8
Unknown Area Type
  70
32
  10
-5.27895331155117
  20
42.36892968023903
  30
837.868
  0
VERTEX
  8
Unknown Area Type
  70
32
  10
-5.29077478287475
  20
42.35286693874227
  30
816.844
  0
VERTEX
  8
Unknown Area Type
  70
32
  10
-5.31281973846095
  20
42.36733711406531
  30
821.852
  0
VERTEX
  8
Unknown Area Type
  70
32
  10
-5.31251045544725
  20
42.38140978230847
  30
814.403
  0
VERTEX
  8
Unknown Area Type
  70
32
  10
-5.28514679132773
  20
42.3838273623363
  30
840.475
  0
VERTEX
  8
Unknown Area Type
  70
32
  10
-5.28508019380779
  20
42.38383319311919
  30
841.209
  0
SEQEND
  8
Unknown Area Type
  0
TEXT
  8
Unknown Area Type
 62
7
  1
PNOA-H_AMS_1956-57_33k_ES_PAN_2
 40
0.00045
  10
-5.29608891784967
  20
42.36834811472949
  0
POLYLINE
  8
Unknown Area Type
  70
9
  66
1
  0
VERTEX
  8
Unknown Area Type
  70
32
  10
-5.36671689955554
  20
42.34929749483936
  30
839.427
  0
VERTEX
  8
Unknown Area Type
  70
32
  10
-5.37425698462153
  20
42.34190568830773
  30
866.232
  0
VERTEX
  8
Unknown Area Type
  70
32
  10
-5.37946122783936
  20
42.343103530618
  30
877.223
  0
VERTEX
  8
Unknown Area Type
  70
32
  10
-5.3811624150931
  20
42.38187683365509
  30
823.662
  0
VERTEX
  8
Unknown Area Type
  70
32
  10
-5.35171696288652
  20
42.38393931735568
  30
825.981
  0
VERTEX
  8
Unknown Area Type
  70
32
  10
-5.34635397938007
  20
42.38132964090677
  30
824.483
  0
VERTEX
  8
Unknown Area Type
  70
32
  10
-5.34665701928674
  20
42.3689230360264
  30
823.111
  0
VERTEX
  8
Unknown Area Type
  70
32
  10
-5.36670493745873
  20
42.34930224458562
  30
839.416
  0
VERTEX
  8
Unknown Area Type
  70
32
  10
-5.36671689955554
  20
42.34929749483936
  30
839.427
  0
SEQEND
  8
Unknown Area Type
  0
TEXT
  8
Unknown Area Type
 62
7
  1
PNOA-H_AMS_1956-57_33k_ES_PAN_2
 40
0.00045
  10
-5.36375854540298
  20
42.36763939069614
  0
POLYLINE
  8
Unknown Area Type
  70
9
  66
1
  0
VERTEX
  8
Unknown Area Type
  70
32
  10
-5.36671689955554
  20
42.34929749483936
  30
839.427
  0
VERTEX
  8
Unknown Area Type
  70
32
  10
-5.37425698462153
  20
42.34190568830773
  30
866.232
  0
VERTEX
  8
Unknown Area Type
  70
32
  10
-5.37946122783936
  20
42.343103530618
  30
877.223
  0
VERTEX
  8
Unknown Area Type
  70
32
  10
-5.3811624150931
  20
42.38187683365509
  30
823.662
  0
VERTEX
  8
Unknown Area Type
  70
32
  10
-5.35171696288652
  20
42.38393931735568
  30
825.981
  0
VERTEX
  8
Unknown Area Type
  70
32
  10
-5.34635397938007
  20
42.38132964090677
  30
824.483
  0
VERTEX
  8
Unknown Area Type
  70
32
  10
-5.34665701928674
  20
42.3689230360264
  30
823.111
  0
VERTEX
  8
Unknown Area Type
  70
32
  10
-5.36670493745873
  20
42.34930224458562
  30
839.416
  0
VERTEX
  8
Unknown Area Type
  70
32
  10
-5.36671689955554
  20
42.34929749483936
  30
839.427
  0
SEQEND
  8
Unknown Area Type
  0
TEXT
  8
Unknown Area Type
 62
7
  1
PNOA-H_AMS_1956-57_33k_ES_PAN_2
 40
0.00045
  10
-5.36375854540298
  20
42.36763939069614
  0
POLYLINE
  8
Unknown Area Type
  70
9
  66
1
  0
VERTEX
  8
Unknown Area Type
  70
32
  10
-5.41608382579077
  20
42.38250560944997
  30
812.87
  0
VERTEX
  8
Unknown Area Type
  70
32
  10
-5.41592587314771
  20
42.38250443729265
  30
812.941
  0
VERTEX
  8
Unknown Area Type
  70
32
  10
-5.41458193463337
  20
42.38182584816597
  30
814.53
  0
VERTEX
  8
Unknown Area Type
  70
32
  10
-5.41211894341146
  20
42.34303314593709
  30
834.5
  0
VERTEX
  8
Unknown Area Type
  70
32
  10
-5.43761524369465
  20
42.34015674565159
  30
814.532
  0
VERTEX
  8
Unknown Area Type
  70
32
  10
-5.43770049155436
  20
42.34016393763423
  30
814.315
  0
VERTEX
  8
Unknown Area Type
  70
32
  10
-5.43942889136103
  20
42.34059993915967
  30
813.938
  0
VERTEX
  8
Unknown Area Type
  70
32
  10
-5.44600193008743
  20
42.34247702759684
  30
810.497
  0
VERTEX
  8
Unknown Area Type
  70
32
  10
-5.44735288901951
  20
42.38134219993054
  30
830.591
  0
VERTEX
  8
Unknown Area Type
  70
32
  10
-5.41636887089789
  20
42.3824950959313
  30
812.675
  0
VERTEX
  8
Unknown Area Type
  70
32
  10
-5.41608382579077
  20
42.38250560944997
  30
812.87
  0
SEQEND
  8
Unknown Area Type
  0
TEXT
  8
Unknown Area Type
 62
7
  1
PNOA-H_AMS_1956-57_33k_ES_PAN_2
 40
0.00045
  10
-5.42973601257086
  20
42.36152028205699
  0
POLYLINE
  8
Unknown Area Type
  70
9
  66
1
  0
VERTEX
  8
Unknown Area Type
  70
32
  10
-5.41608382579077
  20
42.38250560944997
  30
812.87
  0
VERTEX
  8
Unknown Area Type
  70
32
  10
-5.41592587314771
  20
42.38250443729265
  30
812.941
  0
VERTEX
  8
Unknown Area Type
  70
32
  10
-5.41458193463337
  20
42.38182584816597
  30
814.53
  0
VERTEX
  8
Unknown Area Type
  70
32
  10
-5.41211894341146
  20
42.34303314593709
  30
834.5
  0
VERTEX
  8
Unknown Area Type
  70
32
  10
-5.43761524369465
  20
42.34015674565159
  30
814.532
  0
VERTEX
  8
Unknown Area Type
  70
32
  10
-5.43770049155436
  20
42.34016393763423
  30
814.315
  0
VERTEX
  8
Unknown Area Type
  70
32
  10
-5.43942889136103
  20
42.34059993915967
  30
813.938
  0
VERTEX
  8
Unknown Area Type
  70
32
  10
-5.44600193008743
  20
42.34247702759684
  30
810.497
  0
VERTEX
  8
Unknown Area Type
  70
32
  10
-5.44735288901951
  20
42.38134219993054
  30
830.591
  0
VERTEX
  8
Unknown Area Type
  70
32
  10
-5.41636887089789
  20
42.3824950959313
  30
812.675
  0
VERTEX
  8
Unknown Area Type
  70
32
  10
-5.41608382579077
  20
42.38250560944997
  30
812.87
  0
SEQEND
  8
Unknown Area Type
  0
TEXT
  8
Unknown Area Type
 62
7
  1
PNOA-H_AMS_1956-57_33k_ES_PAN_2
 40
0.00045
  10
-5.42973601257086
  20
42.36152028205699
  0
POLYLINE
  8
Unknown Area Type
  70
9
  66
1
  0
VERTEX
  8
Unknown Area Type
  70
32
  10
-5.44934278247231
  20
42.38191204046852
  30
819.05
  0
VERTEX
  8
Unknown Area Type
  70
32
  10
-5.44854784058409
  20
42.38192903096265
  30
828.402
  0
VERTEX
  8
Unknown Area Type
  70
32
  10
-5.44735288901951
  20
42.38134219993054
  30
830.591
  0
VERTEX
  8
Unknown Area Type
  70
32
  10
-5.44600193008743
  20
42.34247702759684
  30
810.497
  0
VERTEX
  8
Unknown Area Type
  70
32
  10
-5.47127994804691
  20
42.33996250971718
  30
808.755
  0
VERTEX
  8
Unknown Area Type
  70
32
  10
-5.47875194782703
  20
42.34198942433768
  30
808.494
  0
VERTEX
  8
Unknown Area Type
  70
32
  10
-5.47945319744743
  20
42.38111583057824
  30
774.547
  0
VERTEX
  8
Unknown Area Type
  70
32
  10
-5.45027711839596
  20
42.38188756096149
  30
808.97
  0
VERTEX
  8
Unknown Area Type
  70
32
  10
-5.44934278247231
  20
42.38191204046852
  30
819.05
  0
SEQEND
  8
Unknown Area Type
  0
TEXT
  8
Unknown Area Type
 62
7
  1
PNOA-H_AMS_1956-57_33k_ES_PAN_2
 40
0.00045
  10
-5.46272776076704
  20
42.36118441329912
  0
POLYLINE
  8
Unknown Area Type
  70
9
  66
1
  0
VERTEX
  8
Unknown Area Type
  70
32
  10
-5.44934278247231
  20
42.38191204046852
  30
819.05
  0
VERTEX
  8
Unknown Area Type
  70
32
  10
-5.44854784058409
  20
42.38192903096265
  30
828.402
  0
VERTEX
  8
Unknown Area Type
  70
32
  10
-5.44735288901951
  20
42.38134219993054
  30
830.591
  0
VERTEX
  8
Unknown Area Type
  70
32
  10
-5.44600193008743
  20
42.34247702759684
  30
810.497
  0
VERTEX
  8
Unknown Area Type
  70
32
  10
-5.47127994804691
  20
42.33996250971718
  30
808.755
  0
VERTEX
  8
Unknown Area Type
  70
32
  10
-5.47875194782703
  20
42.34198942433768
  30
808.494
  0
VERTEX
  8
Unknown Area Type
  70
32
  10
-5.47945319744743
  20
42.38111583057824
  30
774.547
  0
VERTEX
  8
Unknown Area Type
  70
32
  10
-5.45027711839596
  20
42.38188756096149
  30
808.97
  0
VERTEX
  8
Unknown Area Type
  70
32
  10
-5.44934278247231
  20
42.38191204046852
  30
819.05
  0
SEQEND
  8
Unknown Area Type
  0
TEXT
  8
Unknown Area Type
 62
7
  1
PNOA-H_AMS_1956-57_33k_ES_PAN_2
 40
0.00045
  10
-5.46272776076704
  20
42.36118441329912
  0
POLYLINE
  8
Unknown Area Type
  70
9
  66
1
  0
VERTEX
  8
Unknown Area Type
  70
32
  10
-5.40990765909114
  20
42.38204132287881
  30
810.981
  0
VERTEX
  8
Unknown Area Type
  70
32
  10
-5.38392767948544
  20
42.38321066059696
  30
817.597
  0
VERTEX
  8
Unknown Area Type
  70
32
  10
-5.38116258519446
  20
42.38188133279215
  30
823.705
  0
VERTEX
  8
Unknown Area Type
  70
32
  10
-5.37946122783936
  20
42.343103530618
  30
877.223
  0
VERTEX
  8
Unknown Area Type
  70
32
  10
-5.38588191408134
  20
42.34227661872767
  30
853.586
  0
VERTEX
  8
Unknown Area Type
  70
32
  10
-5.40360041029061
  20
42.34072664947223
  30
849.439
  0
VERTEX
  8
Unknown Area Type
  70
32
  10
-5.40366711978648
  20
42.34072525026468
  30
849.714
  0
VERTEX
  8
Unknown Area Type
  70
32
  10
-5.41211894341146
  20
42.34303314593709
  30
834.5
  0
VERTEX
  8
Unknown Area Type
  70
32
  10
-5.41458193463337
  20
42.38182584816597
  30
814.53
  0
VERTEX
  8
Unknown Area Type
  70
32
  10
-5.41009560873298
  20
42.38203286707631
  30
810.722
  0
VERTEX
  8
Unknown Area Type
  70
32
  10
-5.40990765909114
  20
42.38204132287881
  30
810.981
  0
SEQEND
  8
Unknown Area Type
  0
TEXT
  8
Unknown Area Type
 62
7
  1
PNOA-H_AMS_1956-57_33k_ES_PAN_2
 40
0.00045
  10
-5.39702167741115
  20
42.36196013384691
  0
POLYLINE
  8
Unknown Area Type
  70
9
  66
1
  0
VERTEX
  8
Unknown Area Type
  70
32
  10
-5.40990765909114
  20
42.38204132287881
  30
810.981
  0
VERTEX
  8
Unknown Area Type
  70
32
  10
-5.38392767948544
  20
42.38321066059696
  30
817.597
  0
VERTEX
  8
Unknown Area Type
  70
32
  10
-5.38116258519446
  20
42.38188133279215
  30
823.705
  0
VERTEX
  8
Unknown Area Type
  70
32
  10
-5.37946122783936
  20
42.343103530618
  30
877.223
  0
VERTEX
  8
Unknown Area Type
  70
32
  10
-5.38588191408134
  20
42.34227661872767
  30
853.586
  0
VERTEX
  8
Unknown Area Type
  70
32
  10
-5.40360041029061
  20
42.34072664947223
  30
849.439
  0
VERTEX
  8
Unknown Area Type
  70
32
  10
-5.40366711978648
  20
42.34072525026468
  30
849.714
  0
VERTEX
  8
Unknown Area Type
  70
32
  10
-5.41211894341146
  20
42.34303314593709
  30
834.5
  0
VERTEX
  8
Unknown Area Type
  70
32
  10
-5.41458193463337
  20
42.38182584816597
  30
814.53
  0
VERTEX
  8
Unknown Area Type
  70
32
  10
-5.41009560873298
  20
42.38203286707631
  30
810.722
  0
VERTEX
  8
Unknown Area Type
  70
32
  10
-5.40990765909114
  20
42.38204132287881
  30
810.981
  0
SEQEND
  8
Unknown Area Type
  0
TEXT
  8
Unknown Area Type
 62
7
  1
PNOA-H_AMS_1956-57_33k_ES_PAN_2
 40
0.00045
  10
-5.39702167741115
  20
42.36196013384691
  0
POLYLINE
  8
Unknown Area Type
  70
9
  66
1
  0
VERTEX
  8
Unknown Area Type
  70
32
  10
-5.52083333333329
  20
42.35416666666671
  30
764.506
  0
VERTEX
  8
Unknown Area Type
  70
32
  10
-5.52083333333329
  20
42.37500000000003
  30
763.652
  0
VERTEX
  8
Unknown Area Type
  70
32
  10
-5.52083333333329
  20
42.38185040209734
  30
763.754
  0
VERTEX
  8
Unknown Area Type
  70
32
  10
-5.51365535203393
  20
42.38227970833965
  30
765.549
  0
VERTEX
  8
Unknown Area Type
  70
32
  10
-5.51353417166592
  20
42.38228686945271
  30
765.687
  0
VERTEX
  8
Unknown Area Type
  70
32
  10
-5.51344297215933
  20
42.38228436749299
  30
765.793
  0
VERTEX
  8
Unknown Area Type
  70
32
  10
-5.51100909815129
  20
42.38110401216129
  30
771.711
  0
VERTEX
  8
Unknown Area Type
  70
32
  10
-5.51053582062795
  20
42.34194587629691
  30
761.189
  0
VERTEX
  8
Unknown Area Type
  70
32
  10
-5.52083333333329
  20
42.34176616735213
  30
757.957
  0
SEQEND
  8
Unknown Area Type
  0
TEXT
  8
Unknown Area Type
 62
7
  1
PNOA-H_AMS_1956-57_33k_ES_PAN_2
 40
0.00045
  10
-5.51568457698062
  20
42.36202651840242
  0
POLYLINE
  8
Unknown Area Type
  70
9
  66
1
  0
VERTEX
  8
Unknown Area Type
  70
32
  10
-5.52083366666662
  20
42.38185038216109
  30
763.754
  0
VERTEX
  8
Unknown Area Type
  70
32
  10
-5.52083333333329
  20
42.38185040209734
  30
763.754
  0
VERTEX
  8
Unknown Area Type
  70
32
  10
-5.52083333333329
  20
42.37500000000003
  30
763.652
  0
VERTEX
  8
Unknown Area Type
  70
32
  10
-5.52083333333329
  20
42.35416666666671
  30
764.506
  0
VERTEX
  8
Unknown Area Type
  70
32
  10
-5.52083333333329
  20
42.34176616735213
  30
757.957
  0
VERTEX
  8
Unknown Area Type
  70
32
  10
-5.52083366666662
  20
42.34176616153491
  30
757.957
  0
SEQEND
  8
Unknown Area Type
  0
TEXT
  8
Unknown Area Type
 62
7
  1
PNOA-H_AMS_1956-57_33k_ES_PAN_2
 40
0.00045
  10
-5.52083349999996
  20
42.36180828181612
  0
POLYLINE
  8
Unknown Area Type
  70
9
  66
1
  0
VERTEX
  8
Unknown Area Type
  70
32
  10
-5.52083333333329
  20
42.35416666666671
  30
764.506
  0
VERTEX
  8
Unknown Area Type
  70
32
  10
-5.52083333333329
  20
42.37500000000003
  30
763.652
  0
VERTEX
  8
Unknown Area Type
  70
32
  10
-5.52083333333329
  20
42.38185040209734
  30
763.754
  0
VERTEX
  8
Unknown Area Type
  70
32
  10
-5.51365535203393
  20
42.38227970833965
  30
765.549
  0
VERTEX
  8
Unknown Area Type
  70
32
  10
-5.51353417166592
  20
42.38228686945271
  30
765.687
  0
VERTEX
  8
Unknown Area Type
  70
32
  10
-5.51344297215933
  20
42.38228436749299
  30
765.793
  0
VERTEX
  8
Unknown Area Type
  70
32
  10
-5.51100909815129
  20
42.38110401216129
  30
771.711
  0
VERTEX
  8
Unknown Area Type
  70
32
  10
-5.51053582062795
  20
42.34194587629691
  30
761.189
  0
VERTEX
  8
Unknown Area Type
  70
32
  10
-5.52083333333329
  20
42.34176616735213
  30
757.957
  0
SEQEND
  8
Unknown Area Type
  0
TEXT
  8
Unknown Area Type
 62
7
  1
PNOA-H_AMS_1956-57_33k_ES_PAN_2
 40
0.00045
  10
-5.51568457698062
  20
42.36202651840242
  0
POLYLINE
  8
Unknown Area Type
  70
9
  66
1
  0
VERTEX
  8
Unknown Area Type
  70
32
  10
-5.51100891878481
  20
42.38109951346004
  30
771.659
  0
VERTEX
  8
Unknown Area Type
  70
32
  10
-5.48042324352962
  20
42.38153609376015
  30
777.568
  0
VERTEX
  8
Unknown Area Type
  70
32
  10
-5.48031384094321
  20
42.3815339594458
  30
777.247
  0
VERTEX
  8
Unknown Area Type
  70
32
  10
-5.47945337456133
  20
42.38112032938766
  30
774.557
  0
VERTEX
  8
Unknown Area Type
  70
32
  10
-5.47875194782703
  20
42.34198942433768
  30
808.494
  0
VERTEX
  8
Unknown Area Type
  70
32
  10
-5.47896349030501
  20
42.34196683759039
  30
808.546
  0
VERTEX
  8
Unknown Area Type
  70
32
  10
-5.5054979850335
  20
42.34041266744881
  30
775.032
  0
VERTEX
  8
Unknown Area Type
  70
32
  10
-5.50972888715756
  20
42.34164836632257
  30
762.482
  0
VERTEX
  8
Unknown Area Type
  70
32
  10
-5.51053582062795
  20
42.34194587629691
  30
761.189
  0
VERTEX
  8
Unknown Area Type
  70
32
  10
-5.51100264098387
  20
42.38094205891367
  30
771.636
  0
VERTEX
  8
Unknown Area Type
  70
32
  10
-5.51100891878481
  20
42.38109951346004
  30
771.659
  0
SEQEND
  8
Unknown Area Type
  0
TEXT
  8
Unknown Area Type
 62
7
  1
PNOA-H_AMS_1956-57_33k_ES_PAN_2
 40
0.00045
  10
-5.49488060430029
  20
42.36118093222904
  0
POLYLINE
  8
Unknown Area Type
  70
9
  66
1
  0
VERTEX
  8
Unknown Area Type
  70
32
  10
-5.51100891878481
  20
42.38109951346004
  30
771.659
  0
VERTEX
  8
Unknown Area Type
  70
32
  10
-5.48042324352962
  20
42.38153609376015
  30
777.568
  0
VERTEX
  8
Unknown Area Type
  70
32
  10
-5.48031384094321
  20
42.3815339594458
  30
777.247
  0
VERTEX
  8
Unknown Area Type
  70
32
  10
-5.47945337456133
  20
42.38112032938766
  30
774.557
  0
VERTEX
  8
Unknown Area Type
  70
32
  10
-5.47875194782703
  20
42.34198942433768
  30
808.494
  0
VERTEX
  8
Unknown Area Type
  70
32
  10
-5.47896349030501
  20
42.34196683759039
  30
808.546
  0
VERTEX
  8
Unknown Area Type
  70
32
  10
-5.5054979850335
  20
42.34041266744881
  30
775.032
  0
VERTEX
  8
Unknown Area Type
  70
32
  10
-5.50972888715756
  20
42.34164836632257
  30
762.482
  0
VERTEX
  8
Unknown Area Type
  70
32
  10
-5.51053582062795
  20
42.34194587629691
  30
761.189
  0
VERTEX
  8
Unknown Area Type
  70
32
  10
-5.51100264098387
  20
42.38094205891367
  30
771.636
  0
VERTEX
  8
Unknown Area Type
  70
32
  10
-5.51100891878481
  20
42.38109951346004
  30
771.659
  0
SEQEND
  8
Unknown Area Type
  0
TEXT
  8
Unknown Area Type
 62
7
  1
PNOA-H_AMS_1956-57_33k_ES_PAN_2
 40
0.00045
  10
-5.49488060430029
  20
42.36118093222904
  0
POLYLINE
  8
Unknown Area Type
  70
9
  66
1
  0
VERTEX
  8
Unknown Area Type
  70
32
  10
-5.52083333333329
  20
42.41666666666666
  30
765.986
  0
VERTEX
  8
Unknown Area Type
  70
32
  10
-5.52083333333329
  20
42.43750000000006
  30
768.753
  0
VERTEX
  8
Unknown Area Type
  70
32
  10
-5.52083333333329
  20
42.45774832177612
  30
770.4
  0
VERTEX
  8
Unknown Area Type
  70
32
  10
-5.52011623142288
  20
42.457777035976
  30
770.481
  0
VERTEX
  8
Unknown Area Type
  70
32
  10
-5.51677945676144
  20
42.45675176726969
  30
770.683
  0
VERTEX
  8
Unknown Area Type
  70
32
  10
-5.51733173231465
  20
42.41544182920946
  30
766.552
  0
VERTEX
  8
Unknown Area Type
  70
32
  10
-5.52083333333329
  20
42.41524412448086
  30
765.973
  0
SEQEND
  8
Unknown Area Type
  0
TEXT
  8
Unknown Area Type
 62
7
  1
PNOA-H_AMS_1956-57_33k_ES_PAN_2
 40
0.00045
  10
-5.51880639504737
  20
42.43651058022843
  0
POLYLINE
  8
Unknown Area Type
  70
9
  66
1
  0
VERTEX
  8
Unknown Area Type
  70
32
  10
-5.52083366666662
  20
42.45774830842879
  30
770.4
  0
VERTEX
  8
Unknown Area Type
  70
32
  10
-5.52083333333329
  20
42.45774832177612
  30
770.4
  0
VERTEX
  8
Unknown Area Type
  70
32
  10
-5.52083333333329
  20
42.43750000000006
  30
768.753
  0
VERTEX
  8
Unknown Area Type
  70
32
  10
-5.52083333333329
  20
42.41666666666666
  30
765.986
  0
VERTEX
  8
Unknown Area Type
  70
32
  10
-5.52083333333329
  20
42.41524412448086
  30
765.973
  0
VERTEX
  8
Unknown Area Type
  70
32
  10
-5.52083366666662
  20
42.41524410566045
  30
765.973
  0
SEQEND
  8
Unknown Area Type
  0
TEXT
  8
Unknown Area Type
 62
7
  1
PNOA-H_AMS_1956-57_33k_ES_PAN_2
 40
0.00045
  10
-5.52083349999996
  20
42.43649621371829
  0
POLYLINE
  8
Unknown Area Type
  70
9
  66
1
  0
VERTEX
  8
Unknown Area Type
  70
32
  10
-5.52083333333329
  20
42.41666666666666
  30
765.986
  0
VERTEX
  8
Unknown Area Type
  70
32
  10
-5.52083333333329
  20
42.43750000000006
  30
768.753
  0
VERTEX
  8
Unknown Area Type
  70
32
  10
-5.52083333333329
  20
42.45774832177612
  30
770.4
  0
VERTEX
  8
Unknown Area Type
  70
32
  10
-5.52011623142288
  20
42.457777035976
  30
770.481
  0
VERTEX
  8
Unknown Area Type
  70
32
  10
-5.51677945676144
  20
42.45675176726969
  30
770.683
  0
VERTEX
  8
Unknown Area Type
  70
32
  10
-5.51733173231465
  20
42.41544182920946
  30
766.552
  0
VERTEX
  8
Unknown Area Type
  70
32
  10
-5.52083333333329
  20
42.41524412448086
  30
765.973
  0
SEQEND
  8
Unknown Area Type
  0
TEXT
  8
Unknown Area Type
 62
7
  1
PNOA-H_AMS_1956-57_33k_ES_PAN_2
 40
0.00045
  10
-5.51880639504737
  20
42.43651058022843
  0
POLYLINE
  8
Unknown Area Type
  70
9
  66
1
  0
VERTEX
  8
Unknown Area Type
  70
32
  10
-5.49055963586386
  20
42.45351564741468
  30
767.802
  0
VERTEX
  8
Unknown Area Type
  70
32
  10
-5.49049870775923
  20
42.45351246948236
  30
769.641
  0
VERTEX
  8
Unknown Area Type
  70
32
  10
-5.4903924013002
  20
42.45343823658128
  30
774.479
  0
VERTEX
  8
Unknown Area Type
  70
32
  10
-5.49038454288281
  20
42.45339338149996
  30
775.737
  0
VERTEX
  8
Unknown Area Type
  70
32
  10
-5.49043153746057
  20
42.45335183649195
  30
778.378
  0
VERTEX
  8
Unknown Area Type
  70
32
  10
-5.49055285828902
  20
42.45334469625994
  30
785.494
  0
VERTEX
  8
Unknown Area Type
  70
32
  10
-5.49060895979721
  20
42.45337949725113
  30
787.873
  0
VERTEX
  8
Unknown Area Type
  70
32
  10
-5.49061860198932
  20
42.45346933945678
  30
772.265
  0
VERTEX
  8
Unknown Area Type
  70
32
  10
-5.49057160745471
  20
42.45351088453987
  30
767.974
  0
VERTEX
  8
Unknown Area Type
  70
32
  10
-5.49055963586386
  20
42.45351564741468
  30
767.802
  0
SEQEND
  8
Unknown Area Type
  0
TEXT
  8
Unknown Area Type
 62
7
  1
PNOA-H_AMS_1956-57_33k_ES_PAN_2
 40
0.00045
  10
-5.49050298326833
  20
42.4534291149716
  0
POLYLINE
  8
Unknown Area Type
  70
9
  66
1
  0
VERTEX
  8
Unknown Area Type
  70
32
  10
-5.49055963586386
  20
42.45351564741468
  30
767.802
  0
VERTEX
  8
Unknown Area Type
  70
32
  10
-5.49049870775923
  20
42.45351246948236
  30
769.641
  0
VERTEX
  8
Unknown Area Type
  70
32
  10
-5.4903924013002
  20
42.45343823658128
  30
774.479
  0
VERTEX
  8
Unknown Area Type
  70
32
  10
-5.49038454288281
  20
42.45339338149996
  30
775.737
  0
VERTEX
  8
Unknown Area Type
  70
32
  10
-5.49043153746057
  20
42.45335183649195
  30
778.378
  0
VERTEX
  8
Unknown Area Type
  70
32
  10
-5.49055285828902
  20
42.45334469625994
  30
785.494
  0
VERTEX
  8
Unknown Area Type
  70
32
  10
-5.49060895979721
  20
42.45337949725113
  30
787.873
  0
VERTEX
  8
Unknown Area Type
  70
32
  10
-5.49061860198932
  20
42.45346933945678
  30
772.265
  0
VERTEX
  8
Unknown Area Type
  70
32
  10
-5.49057160745471
  20
42.45351088453987
  30
767.974
  0
VERTEX
  8
Unknown Area Type
  70
32
  10
-5.49055963586386
  20
42.45351564741468
  30
767.802
  0
SEQEND
  8
Unknown Area Type
  0
TEXT
  8
Unknown Area Type
 62
7
  1
PNOA-H_AMS_1956-57_33k_ES_PAN_2
 40
0.00045
  10
-5.49050298326833
  20
42.4534291149716
  0
POLYLINE
  8
Unknown Area Type
  70
9
  66
1
  0
VERTEX
  8
Unknown Area Type
  70
32
  10
-5.4284929017749
  20
42.45839630269439
  30
774.523
  0
VERTEX
  8
Unknown Area Type
  70
32
  10
-5.42848022848111
  20
42.45838306353668
  30
775.195
  0
VERTEX
  8
Unknown Area Type
  70
32
  10
-5.42851633495819
  20
42.45837329288132
  30
774.493
  0
VERTEX
  8
Unknown Area Type
  70
32
  10
-5.42849862961287
  20
42.45838717605123
  30
774.654
  0
VERTEX
  8
Unknown Area Type
  70
32
  10
-5.4284929017749
  20
42.45839630269439
  30
774.523
  0
SEQEND
  8
Unknown Area Type
  0
TEXT
  8
Unknown Area Type
 62
7
  1
PNOA-H_AMS_1956-57_33k_ES_PAN_2
 40
0.00045
  10
-5.42849205881662
  20
42.45838307597918
  0
POLYLINE
  8
Unknown Area Type
  70
9
  66
1
  0
VERTEX
  8
Unknown Area Type
  70
32
  10
-5.4284929017749
  20
42.45839630269439
  30
774.523
  0
VERTEX
  8
Unknown Area Type
  70
32
  10
-5.42848022848111
  20
42.45838306353668
  30
775.195
  0
VERTEX
  8
Unknown Area Type
  70
32
  10
-5.42851633495819
  20
42.45837329288132
  30
774.493
  0
VERTEX
  8
Unknown Area Type
  70
32
  10
-5.42849862961287
  20
42.45838717605123
  30
774.654
  0
VERTEX
  8
Unknown Area Type
  70
32
  10
-5.4284929017749
  20
42.45839630269439
  30
774.523
  0
SEQEND
  8
Unknown Area Type
  0
TEXT
  8
Unknown Area Type
 62
7
  1
PNOA-H_AMS_1956-57_33k_ES_PAN_2
 40
0.00045
  10
-5.42849205881662
  20
42.45838307597918
  0
POLYLINE
  8
Unknown Area Type
  70
9
  66
1
  0
VERTEX
  8
Unknown Area Type
  70
32
  10
-5.45507961508072
  20
42.4568885467432
  30
787.067
  0
VERTEX
  8
Unknown Area Type
  70
32
  10
-5.45439916289496
  20
42.45690312799003
  30
787.159
  0
VERTEX
  8
Unknown Area Type
  70
32
  10
-5.45434985599892
  20
42.45688617401377
  30
787.138
  0
VERTEX
  8
Unknown Area Type
  70
32
  10
-5.45229295994345
  20
42.41539810306915
  30
792.17
  0
VERTEX
  8
Unknown Area Type
  70
32
  10
-5.48047806760039
  20
42.41344955766752
  30
778.563
  0
VERTEX
  8
Unknown Area Type
  70
32
  10
-5.48058912230638
  20
42.41349217939071
  30
778.517
  0
VERTEX
  8
Unknown Area Type
  70
32
  10
-5.48471889244432
  20
42.41543787150913
  30
778.248
  0
VERTEX
  8
Unknown Area Type
  70
32
  10
-5.4848639242477
  20
42.45616529447581
  30
782.042
  0
VERTEX
  8
Unknown Area Type
  70
32
  10
-5.45677449192222
  20
42.45684770744204
  30
786.041
  0
VERTEX
  8
Unknown Area Type
  70
32
  10
-5.45507961508072
  20
42.4568885467432
  30
787.067
  0
SEQEND
  8
Unknown Area Type
  0
TEXT
  8
Unknown Area Type
 62
7
  1
PNOA-H_AMS_1956-57_33k_ES_PAN_2
 40
0.00045
  10
-5.46857884798531
  20
42.43541542542874
  0
POLYLINE
  8
Unknown Area Type
  70
9
  66
1
  0
VERTEX
  8
Unknown Area Type
  70
32
  10
-5.45507961508072
  20
42.4568885467432
  30
787.067
  0
VERTEX
  8
Unknown Area Type
  70
32
  10
-5.45439916289496
  20
42.45690312799003
  30
787.159
  0
VERTEX
  8
Unknown Area Type
  70
32
  10
-5.45434985599892
  20
42.45688617401377
  30
787.138
  0
VERTEX
  8
Unknown Area Type
  70
32
  10
-5.45229295994345
  20
42.41539810306915
  30
792.17
  0
VERTEX
  8
Unknown Area Type
  70
32
  10
-5.48047806760039
  20
42.41344955766752
  30
778.563
  0
VERTEX
  8
Unknown Area Type
  70
32
  10
-5.48058912230638
  20
42.41349217939071
  30
778.517
  0
VERTEX
  8
Unknown Area Type
  70
32
  10
-5.48471889244432
  20
42.41543787150913
  30
778.248
  0
VERTEX
  8
Unknown Area Type
  70
32
  10
-5.4848639242477
  20
42.45616529447581
  30
782.042
  0
VERTEX
  8
Unknown Area Type
  70
32
  10
-5.45677449192222
  20
42.45684770744204
  30
786.041
  0
VERTEX
  8
Unknown Area Type
  70
32
  10
-5.45507961508072
  20
42.4568885467432
  30
787.067
  0
SEQEND
  8
Unknown Area Type
  0
TEXT
  8
Unknown Area Type
 62
7
  1
PNOA-H_AMS_1956-57_33k_ES_PAN_2
 40
0.00045
  10
-5.46857884798531
  20
42.43541542542874
  0
POLYLINE
  8
Unknown Area Type
  70
9
  66
1
  0
VERTEX
  8
Unknown Area Type
  70
32
  10
-5.42848109820449
  20
42.45840555813903
  30
774.494
  0
VERTEX
  8
Unknown Area Type
  70
32
  10
-5.42845054560715
  20
42.45840170322234
  30
775.403
  0
VERTEX
  8
Unknown Area Type
  70
32
  10
-5.4284682509674
  20
42.45838782005951
  30
775.422
  0
VERTEX
  8
Unknown Area Type
  70
32
  10
-5.42848665209987
  20
42.45839193257596
  30
774.813
  0
VERTEX
  8
Unknown Area Type
  70
32
  10
-5.42848109820449
  20
42.45840555813903
  30
774.494
  0
SEQEND
  8
Unknown Area Type
  0
TEXT
  8
Unknown Area Type
 62
7
  1
PNOA-H_AMS_1956-57_33k_ES_PAN_2
 40
0.00045
  10
-5.42847110825834
  20
42.45839496452641
  0
POLYLINE
  8
Unknown Area Type
  70
9
  66
1
  0
VERTEX
  8
Unknown Area Type
  70
32
  10
-5.42848109820449
  20
42.45840555813903
  30
774.494
  0
VERTEX
  8
Unknown Area Type
  70
32
  10
-5.42845054560715
  20
42.45840170322234
  30
775.403
  0
VERTEX
  8
Unknown Area Type
  70
32
  10
-5.4284682509674
  20
42.45838782005951
  30
775.422
  0
VERTEX
  8
Unknown Area Type
  70
32
  10
-5.42848665209987
  20
42.45839193257596
  30
774.813
  0
VERTEX
  8
Unknown Area Type
  70
32
  10
-5.42848109820449
  20
42.45840555813903
  30
774.494
  0
SEQEND
  8
Unknown Area Type
  0
TEXT
  8
Unknown Area Type
 62
7
  1
PNOA-H_AMS_1956-57_33k_ES_PAN_2
 40
0.00045
  10
-5.42847110825834
  20
42.45839496452641
  0
POLYLINE
  8
Unknown Area Type
  70
9
  66
1
  0
VERTEX
  8
Unknown Area Type
  70
32
  10
-5.41256713757776
  20
42.45632841658103
  30
796.134
  0
VERTEX
  8
Unknown Area Type
  70
32
  10
-5.38924347150296
  20
42.45620038035778
  30
809.172
  0
VERTEX
  8
Unknown Area Type
  70
32
  10
-5.38835966526027
  20
42.41598777142728
  30
832.442
  0
VERTEX
  8
Unknown Area Type
  70
32
  10
-5.41607458398919
  20
42.41360111087742
  30
813.358
  0
VERTEX
  8
Unknown Area Type
  70
32
  10
-5.41612315566884
  20
42.41360008658394
  30
813.334
  0
VERTEX
  8
Unknown Area Type
  70
32
  10
-5.41617883556382
  20
42.41362592820921
  30
813.456
  0
VERTEX
  8
Unknown Area Type
  70
32
  10
-5.42110763133545
  20
42.41601634047721
  30
809.401
  0
VERTEX
  8
Unknown Area Type
  70
32
  10
-5.42044159587343
  20
42.45633340772683
  30
796.268
  0
VERTEX
  8
Unknown Area Type
  70
32
  10
-5.42043708051473
  20
42.45637402663692
  30
796.174
  0
VERTEX
  8
Unknown Area Type
  70
32
  10
-5.42042492937334
  20
42.4563742833768
  30
796.134
  0
VERTEX
  8
Unknown Area Type
  70
32
  10
-5.41259751558492
  20
42.45632777681197
  30
796.119
  0
VERTEX
  8
Unknown Area Type
  70
32
  10
-5.41256713757776
  20
42.45632841658103
  30
796.134
  0
SEQEND
  8
Unknown Area Type
  0
TEXT
  8
Unknown Area Type
 62
7
  1
PNOA-H_AMS_1956-57_33k_ES_PAN_2
 40
0.00045
  10
-5.40473401510213
  20
42.43542983673737
  0
POLYLINE
  8
Unknown Area Type
  70
9
  66
1
  0
VERTEX
  8
Unknown Area Type
  70
32
  10
-5.41256713757776
  20
42.45632841658103
  30
796.134
  0
VERTEX
  8
Unknown Area Type
  70
32
  10
-5.38924347150296
  20
42.45620038035778
  30
809.172
  0
VERTEX
  8
Unknown Area Type
  70
32
  10
-5.38835966526027
  20
42.41598777142728
  30
832.442
  0
VERTEX
  8
Unknown Area Type
  70
32
  10
-5.41607458398919
  20
42.41360111087742
  30
813.358
  0
VERTEX
  8
Unknown Area Type
  70
32
  10
-5.41612315566884
  20
42.41360008658394
  30
813.334
  0
VERTEX
  8
Unknown Area Type
  70
32
  10
-5.41617883556382
  20
42.41362592820921
  30
813.456
  0
VERTEX
  8
Unknown Area Type
  70
32
  10
-5.42110763133545
  20
42.41601634047721
  30
809.401
  0
VERTEX
  8
Unknown Area Type
  70
32
  10
-5.42044159587343
  20
42.45633340772683
  30
796.268
  0
VERTEX
  8
Unknown Area Type
  70
32
  10
-5.42043708051473
  20
42.45637402663692
  30
796.174
  0
VERTEX
  8
Unknown Area Type
  70
32
  10
-5.42042492937334
  20
42.4563742833768
  30
796.134
  0
VERTEX
  8
Unknown Area Type
  70
32
  10
-5.41259751558492
  20
42.45632777681197
  30
796.119
  0
VERTEX
  8
Unknown Area Type
  70
32
  10
-5.41256713757776
  20
42.45632841658103
  30
796.134
  0
SEQEND
  8
Unknown Area Type
  0
TEXT
  8
Unknown Area Type
 62
7
  1
PNOA-H_AMS_1956-57_33k_ES_PAN_2
 40
0.00045
  10
-5.40473401510213
  20
42.43542983673737
  0
POLYLINE
  8
Unknown Area Type
  70
9
  66
1
  0
VERTEX
  8
Unknown Area Type
  70
32
  10
-5.51247157179318
  20
42.45348740678402
  30
772.129
  0
VERTEX
  8
Unknown Area Type
  70
32
  10
-5.5124531672569
  20
42.45348330786652
  30
772.125
  0
VERTEX
  8
Unknown Area Type
  70
32
  10
-5.51240294900508
  20
42.45344388602163
  30
772.165
  0
VERTEX
  8
Unknown Area Type
  70
32
  10
-5.51232987068754
  20
42.45344098620671
  30
772.153
  0
VERTEX
  8
Unknown Area Type
  70
32
  10
-5.51221067016867
  20
42.45334904614012
  30
772.069
  0
VERTEX
  8
Unknown Area Type
  70
32
  10
-5.51221368661529
  20
42.45327243602875
  30
778.235
  0
VERTEX
  8
Unknown Area Type
  70
32
  10
-5.5122608461449
  20
42.45323538108239
  30
792.855
  0
VERTEX
  8
Unknown Area Type
  70
32
  10
-5.51238234307849
  20
42.45323271643256
  30
799.535
  0
VERTEX
  8
Unknown Area Type
  70
32
  10
-5.51243256114258
  20
42.45327213829258
  30
799.458
  0
VERTEX
  8
Unknown Area Type
  70
32
  10
-5.51250563926484
  20
42.45327503804707
  30
797.753
  0
VERTEX
  8
Unknown Area Type
  70
32
  10
-5.51255585743886
  20
42.45331445984983
  30
795.443
  0
VERTEX
  8
Unknown Area Type
  70
32
  10
-5.51268968414332
  20
42.45331602701819
  30
785.332
  0
VERTEX
  8
Unknown Area Type
  70
32
  10
-5.51274633720923
  20
42.45336431275771
  30
784.115
  0
VERTEX
  8
Unknown Area Type
  70
32
  10
-5.51274332141409
  20
42.45344092286506
  30
772.135
  0
VERTEX
  8
Unknown Area Type
  70
32
  10
-5.51269616203015
  20
42.45347797800551
  30
772.242
  0
VERTEX
  8
Unknown Area Type
  70
32
  10
-5.51247157179318
  20
42.45348740678402
  30
772.129
  0
SEQEND
  8
Unknown Area Type
  0
TEXT
  8
Unknown Area Type
 62
7
  1
PNOA-H_AMS_1956-57_33k_ES_PAN_2
 40
0.00045
  10
-5.5124833271776
  20
42.45335802463043
  0
POLYLINE
  8
Unknown Area Type
  70
9
  66
1
  0
VERTEX
  8
Unknown Area Type
  70
32
  10
-5.51247157179318
  20
42.45348740678402
  30
772.129
  0
VERTEX
  8
Unknown Area Type
  70
32
  10
-5.5124531672569
  20
42.45348330786652
  30
772.125
  0
VERTEX
  8
Unknown Area Type
  70
32
  10
-5.51240294900508
  20
42.45344388602163
  30
772.165
  0
VERTEX
  8
Unknown Area Type
  70
32
  10
-5.51232987068754
  20
42.45344098620671
  30
772.153
  0
VERTEX
  8
Unknown Area Type
  70
32
  10
-5.51221067016867
  20
42.45334904614012
  30
772.069
  0
VERTEX
  8
Unknown Area Type
  70
32
  10
-5.51221368661529
  20
42.45327243602875
  30
778.235
  0
VERTEX
  8
Unknown Area Type
  70
32
  10
-5.5122608461449
  20
42.45323538108239
  30
792.855
  0
VERTEX
  8
Unknown Area Type
  70
32
  10
-5.51238234307849
  20
42.45323271643256
  30
799.535
  0
VERTEX
  8
Unknown Area Type
  70
32
  10
-5.51243256114258
  20
42.45327213829258
  30
799.458
  0
VERTEX
  8
Unknown Area Type
  70
32
  10
-5.51250563926484
  20
42.45327503804707
  30
797.753
  0
VERTEX
  8
Unknown Area Type
  70
32
  10
-5.51255585743886
  20
42.45331445984983
  30
795.443
  0
VERTEX
  8
Unknown Area Type
  70
32
  10
-5.51268968414332
  20
42.45331602701819
  30
785.332
  0
VERTEX
  8
Unknown Area Type
  70
32
  10
-5.51274633720923
  20
42.45336431275771
  30
784.115
  0
VERTEX
  8
Unknown Area Type
  70
32
  10
-5.51274332141409
  20
42.45344092286506
  30
772.135
  0
VERTEX
  8
Unknown Area Type
  70
32
  10
-5.51269616203015
  20
42.45347797800551
  30
772.242
  0
VERTEX
  8
Unknown Area Type
  70
32
  10
-5.51247157179318
  20
42.45348740678402
  30
772.129
  0
SEQEND
  8
Unknown Area Type
  0
TEXT
  8
Unknown Area Type
 62
7
  1
PNOA-H_AMS_1956-57_33k_ES_PAN_2
 40
0.00045
  10
-5.5124833271776
  20
42.45335802463043
  0
POLYLINE
  8
Unknown Area Type
  70
9
  66
1
  0
VERTEX
  8
Unknown Area Type
  70
32
  10
-5.4905110360634
  20
42.45351670404319
  30
768.652
  0
VERTEX
  8
Unknown Area Type
  70
32
  10
-5.49049870775923
  20
42.45351246948236
  30
769.641
  0
VERTEX
  8
Unknown Area Type
  70
32
  10
-5.4903924013002
  20
42.45343823658128
  30
774.479
  0
VERTEX
  8
Unknown Area Type
  70
32
  10
-5.49038454288281
  20
42.45339338149996
  30
775.737
  0
VERTEX
  8
Unknown Area Type
  70
32
  10
-5.49044350903114
  20
42.45334707363097
  30
777.931
  0
VERTEX
  8
Unknown Area Type
  70
32
  10
-5.4905651865631
  20
42.4533489308158
  30
786.966
  0
VERTEX
  8
Unknown Area Type
  70
32
  10
-5.49061539148102
  20
42.45338836259773
  30
786.363
  0
VERTEX
  8
Unknown Area Type
  70
32
  10
-5.49061860198932
  20
42.45346933945678
  30
772.265
  0
VERTEX
  8
Unknown Area Type
  70
32
  10
-5.49057160745471
  20
42.45351088453987
  30
767.974
  0
VERTEX
  8
Unknown Area Type
  70
32
  10
-5.4905110360634
  20
42.45351670404319
  30
768.652
  0
SEQEND
  8
Unknown Area Type
  0
TEXT
  8
Unknown Area Type
 62
7
  1
PNOA-H_AMS_1956-57_33k_ES_PAN_2
 40
0.00045
  10
-5.49050449402061
  20
42.45343084306127
  0
POLYLINE
  8
Unknown Area Type
  70
9
  66
1
  0
VERTEX
  8
Unknown Area Type
  70
32
  10
-5.4905110360634
  20
42.45351670404319
  30
768.652
  0
VERTEX
  8
Unknown Area Type
  70
32
  10
-5.49049870775923
  20
42.45351246948236
  30
769.641
  0
VERTEX
  8
Unknown Area Type
  70
32
  10
-5.4903924013002
  20
42.45343823658128
  30
774.479
  0
VERTEX
  8
Unknown Area Type
  70
32
  10
-5.49038454288281
  20
42.45339338149996
  30
775.737
  0
VERTEX
  8
Unknown Area Type
  70
32
  10
-5.49044350903114
  20
42.45334707363097
  30
777.931
  0
VERTEX
  8
Unknown Area Type
  70
32
  10
-5.4905651865631
  20
42.4533489308158
  30
786.966
  0
VERTEX
  8
Unknown Area Type
  70
32
  10
-5.49061539148102
  20
42.45338836259773
  30
786.363
  0
VERTEX
  8
Unknown Area Type
  70
32
  10
-5.49061860198932
  20
42.45346933945678
  30
772.265
  0
VERTEX
  8
Unknown Area Type
  70
32
  10
-5.49057160745471
  20
42.45351088453987
  30
767.974
  0
VERTEX
  8
Unknown Area Type
  70
32
  10
-5.4905110360634
  20
42.45351670404319
  30
768.652
  0
SEQEND
  8
Unknown Area Type
  0
TEXT
  8
Unknown Area Type
 62
7
  1
PNOA-H_AMS_1956-57_33k_ES_PAN_2
 40
0.00045
  10
-5.49050449402061
  20
42.45343084306127
  0
POLYLINE
  8
Unknown Area Type
  70
9
  66
1
  0
VERTEX
  8
Unknown Area Type
  70
32
  10
-5.48977439094837
  20
42.45748148977624
  30
778.484
  0
VERTEX
  8
Unknown Area Type
  70
32
  10
-5.48917900529196
  20
42.45749442894821
  30
778.737
  0
VERTEX
  8
Unknown Area Type
  70
32
  10
-5.4848639242477
  20
42.45616529447581
  30
782.042
  0
VERTEX
  8
Unknown Area Type
  70
32
  10
-5.48471907014743
  20
42.41544237027358
  30
778.249
  0
VERTEX
  8
Unknown Area Type
  70
32
  10
-5.51280933233656
  20
42.41312320927013
  30
769.761
  0
VERTEX
  8
Unknown Area Type
  70
32
  10
-5.51287611302584
  20
42.41312174452074
  30
769.756
  0
VERTEX
  8
Unknown Area Type
  70
32
  10
-5.51733155228063
  20
42.41543733055708
  30
766.562
  0
VERTEX
  8
Unknown Area Type
  70
32
  10
-5.51678517141667
  20
42.45674263654839
  30
770.854
  0
VERTEX
  8
Unknown Area Type
  70
32
  10
-5.51677945676144
  20
42.45675176726969
  30
770.683
  0
VERTEX
  8
Unknown Area Type
  70
32
  10
-5.51609314296048
  20
42.45677134681166
  30
771.793
  0
VERTEX
  8
Unknown Area Type
  70
32
  10
-5.49064906424096
  20
42.45745797279929
  30
778.155
  0
VERTEX
  8
Unknown Area Type
  70
32
  10
-5.48977439094837
  20
42.45748148977624
  30
778.484
  0
SEQEND
  8
Unknown Area Type
  0
TEXT
  8
Unknown Area Type
 62
7
  1
PNOA-H_AMS_1956-57_33k_ES_PAN_2
 40
0.00045
  10
-5.50102577993923
  20
42.43563570903138
  0
POLYLINE
  8
Unknown Area Type
  70
9
  66
1
  0
VERTEX
  8
Unknown Area Type
  70
32
  10
-5.48977439094837
  20
42.45748148977624
  30
778.484
  0
VERTEX
  8
Unknown Area Type
  70
32
  10
-5.48917900529196
  20
42.45749442894821
  30
778.737
  0
VERTEX
  8
Unknown Area Type
  70
32
  10
-5.4848639242477
  20
42.45616529447581
  30
782.042
  0
VERTEX
  8
Unknown Area Type
  70
32
  10
-5.48471907014743
  20
42.41544237027358
  30
778.249
  0
VERTEX
  8
Unknown Area Type
  70
32
  10
-5.51280933233656
  20
42.41312320927013
  30
769.761
  0
VERTEX
  8
Unknown Area Type
  70
32
  10
-5.51287611302584
  20
42.41312174452074
  30
769.756
  0
VERTEX
  8
Unknown Area Type
  70
32
  10
-5.51733155228063
  20
42.41543733055708
  30
766.562
  0
VERTEX
  8
Unknown Area Type
  70
32
  10
-5.51678517141667
  20
42.45674263654839
  30
770.854
  0
VERTEX
  8
Unknown Area Type
  70
32
  10
-5.51677945676144
  20
42.45675176726969
  30
770.683
  0
VERTEX
  8
Unknown Area Type
  70
32
  10
-5.51609314296048
  20
42.45677134681166
  30
771.793
  0
VERTEX
  8
Unknown Area Type
  70
32
  10
-5.49064906424096
  20
42.45745797279929
  30
778.155
  0
VERTEX
  8
Unknown Area Type
  70
32
  10
-5.48977439094837
  20
42.45748148977624
  30
778.484
  0
SEQEND
  8
Unknown Area Type
  0
TEXT
  8
Unknown Area Type
 62
7
  1
PNOA-H_AMS_1956-57_33k_ES_PAN_2
 40
0.00045
  10
-5.50102577993923
  20
42.43563570903138
  0
POLYLINE
  8
Unknown Area Type
  70
9
  66
1
  0
VERTEX
  8
Unknown Area Type
  70
32
  10
-5.42873542203106
  20
42.45853524459104
  30
791.811
  0
VERTEX
  8
Unknown Area Type
  70
32
  10
-5.42837070348715
  20
42.45853847401354
  30
791.974
  0
VERTEX
  8
Unknown Area Type
  70
32
  10
-5.42832053212604
  20
42.45849901408351
  30
784.835
  0
VERTEX
  8
Unknown Area Type
  70
32
  10
-5.42831740132319
  20
42.45841803350631
  30
777.6
  0
VERTEX
  8
Unknown Area Type
  70
32
  10
-5.42834673637556
  20
42.4583903960122
  30
777.723
  0
VERTEX
  8
Unknown Area Type
  70
32
  10
-5.42837781077427
  20
42.45840774771933
  30
776.988
  0
VERTEX
  8
Unknown Area Type
  70
32
  10
-5.42848109820449
  20
42.45840555813903
  30
774.494
  0
VERTEX
  8
Unknown Area Type
  70
32
  10
-5.42853438819234
  20
42.45836840754947
  30
774.496
  0
VERTEX
  8
Unknown Area Type
  70
32
  10
-5.42874113685111
  20
42.45836852693657
  30
776.95
  0
VERTEX
  8
Unknown Area Type
  70
32
  10
-5.42879130835998
  20
42.45840798667906
  30
778.143
  0
VERTEX
  8
Unknown Area Type
  70
32
  10
-5.42879443977236
  20
42.45848896722796
  30
783.693
  0
VERTEX
  8
Unknown Area Type
  70
32
  10
-5.42874739955085
  20
42.45853048804017
  30
791.805
  0
VERTEX
  8
Unknown Area Type
  70
32
  10
-5.42873542203106
  20
42.45853524459104
  30
791.811
  0
SEQEND
  8
Unknown Area Type
  0
TEXT
  8
Unknown Area Type
 62
7
  1
PNOA-H_AMS_1956-57_33k_ES_PAN_2
 40
0.00045
  10
-5.42855620213067
  20
42.45845171394345
  0
POLYLINE
  8
Unknown Area Type
  70
9
  66
1
  0
VERTEX
  8
Unknown Area Type
  70
32
  10
-5.42873542203106
  20
42.45853524459104
  30
791.811
  0
VERTEX
  8
Unknown Area Type
  70
32
  10
-5.42837070348715
  20
42.45853847401354
  30
791.974
  0
VERTEX
  8
Unknown Area Type
  70
32
  10
-5.42832053212604
  20
42.45849901408351
  30
784.835
  0
VERTEX
  8
Unknown Area Type
  70
32
  10
-5.42831740132319
  20
42.45841803350631
  30
777.6
  0
VERTEX
  8
Unknown Area Type
  70
32
  10
-5.42834673637556
  20
42.4583903960122
  30
777.723
  0
VERTEX
  8
Unknown Area Type
  70
32
  10
-5.42837781077427
  20
42.45840774771933
  30
776.988
  0
VERTEX
  8
Unknown Area Type
  70
32
  10
-5.42848109820449
  20
42.45840555813903
  30
774.494
  0
VERTEX
  8
Unknown Area Type
  70
32
  10
-5.42853438819234
  20
42.45836840754947
  30
774.496
  0
VERTEX
  8
Unknown Area Type
  70
32
  10
-5.42874113685111
  20
42.45836852693657
  30
776.95
  0
VERTEX
  8
Unknown Area Type
  70
32
  10
-5.42879130835998
  20
42.45840798667906
  30
778.143
  0
VERTEX
  8
Unknown Area Type
  70
32
  10
-5.42879443977236
  20
42.45848896722796
  30
783.693
  0
VERTEX
  8
Unknown Area Type
  70
32
  10
-5.42874739955085
  20
42.45853048804017
  30
791.805
  0
VERTEX
  8
Unknown Area Type
  70
32
  10
-5.42873542203106
  20
42.45853524459104
  30
791.811
  0
SEQEND
  8
Unknown Area Type
  0
TEXT
  8
Unknown Area Type
 62
7
  1
PNOA-H_AMS_1956-57_33k_ES_PAN_2
 40
0.00045
  10
-5.42855620213067
  20
42.45845171394345
  0
POLYLINE
  8
Unknown Area Type
  70
9
  66
1
  0
VERTEX
  8
Unknown Area Type
  70
32
  10
-5.42774069683915
  20
42.45797099094217
  30
810.02
  0
VERTEX
  8
Unknown Area Type
  70
32
  10
-5.42757057744262
  20
42.45797459613168
  30
810.125
  0
VERTEX
  8
Unknown Area Type
  70
32
  10
-5.42751450521813
  20
42.45793976349677
  30
802.919
  0
VERTEX
  8
Unknown Area Type
  70
32
  10
-5.42750495208961
  20
42.45784991376362
  30
794.565
  0
VERTEX
  8
Unknown Area Type
  70
32
  10
-5.42755199266729
  20
42.45780839344939
  30
794.612
  0
VERTEX
  8
Unknown Area Type
  70
32
  10
-5.42773408908095
  20
42.45780003185495
  30
794.338
  0
VERTEX
  8
Unknown Area Type
  70
32
  10
-5.42779016129392
  20
42.45783486438319
  30
794.333
  0
VERTEX
  8
Unknown Area Type
  70
32
  10
-5.42779971482619
  20
42.45792471408247
  30
800.164
  0
VERTEX
  8
Unknown Area Type
  70
32
  10
-5.42775267433345
  20
42.45796623449575
  30
809.907
  0
VERTEX
  8
Unknown Area Type
  70
32
  10
-5.42774069683915
  20
42.45797099094217
  30
810.02
  0
SEQEND
  8
Unknown Area Type
  0
TEXT
  8
Unknown Area Type
 62
7
  1
PNOA-H_AMS_1956-57_33k_ES_PAN_2
 40
0.00045
  10
-5.42765259714501
  20
42.45788552104032
  0
POLYLINE
  8
Unknown Area Type
  70
9
  66
1
  0
VERTEX
  8
Unknown Area Type
  70
32
  10
-5.42774069683915
  20
42.45797099094217
  30
810.02
  0
VERTEX
  8
Unknown Area Type
  70
32
  10
-5.42757057744262
  20
42.45797459613168
  30
810.125
  0
VERTEX
  8
Unknown Area Type
  70
32
  10
-5.42751450521813
  20
42.45793976349677
  30
802.919
  0
VERTEX
  8
Unknown Area Type
  70
32
  10
-5.42750495208961
  20
42.45784991376362
  30
794.565
  0
VERTEX
  8
Unknown Area Type
  70
32
  10
-5.42755199266729
  20
42.45780839344939
  30
794.612
  0
VERTEX
  8
Unknown Area Type
  70
32
  10
-5.42773408908095
  20
42.45780003185495
  30
794.338
  0
VERTEX
  8
Unknown Area Type
  70
32
  10
-5.42779016129392
  20
42.45783486438319
  30
794.333
  0
VERTEX
  8
Unknown Area Type
  70
32
  10
-5.42779971482619
  20
42.45792471408247
  30
800.164
  0
VERTEX
  8
Unknown Area Type
  70
32
  10
-5.42775267433345
  20
42.45796623449575
  30
809.907
  0
VERTEX
  8
Unknown Area Type
  70
32
  10
-5.42774069683915
  20
42.45797099094217
  30
810.02
  0
SEQEND
  8
Unknown Area Type
  0
TEXT
  8
Unknown Area Type
 62
7
  1
PNOA-H_AMS_1956-57_33k_ES_PAN_2
 40
0.00045
  10
-5.42765259714501
  20
42.45788552104032
  0
POLYLINE
  8
Unknown Area Type
  70
9
  66
1
  0
VERTEX
  8
Unknown Area Type
  70
32
  10
-5.43749942947247
  20
42.45701182422658
  30
788.015
  0
VERTEX
  8
Unknown Area Type
  70
32
  10
-5.42252740747708
  20
42.4571268033075
  30
794.432
  0
VERTEX
  8
Unknown Area Type
  70
32
  10
-5.42043708051473
  20
42.45637402663692
  30
796.174
  0
VERTEX
  8
Unknown Area Type
  70
32
  10
-5.42110763133545
  20
42.41601634047721
  30
809.401
  0
VERTEX
  8
Unknown Area Type
  70
32
  10
-5.44887080489343
  20
42.41380983160707
  30
792.881
  0
VERTEX
  8
Unknown Area Type
  70
32
  10
-5.4488950902224
  20
42.41380931251313
  30
792.877
  0
VERTEX
  8
Unknown Area Type
  70
32
  10
-5.44939632710963
  20
42.41404173956678
  30
793.135
  0
VERTEX
  8
Unknown Area Type
  70
32
  10
-5.45229278455827
  20
42.41539360419468
  30
792.129
  0
VERTEX
  8
Unknown Area Type
  70
32
  10
-5.45229938218476
  20
42.4154069708599
  30
792.272
  0
VERTEX
  8
Unknown Area Type
  70
32
  10
-5.45434985599892
  20
42.45688617401377
  30
787.138
  0
VERTEX
  8
Unknown Area Type
  70
32
  10
-5.4375115805832
  20
42.45701156567353
  30
788
  0
VERTEX
  8
Unknown Area Type
  70
32
  10
-5.43749942947247
  20
42.45701182422658
  30
788.015
  0
SEQEND
  8
Unknown Area Type
  0
TEXT
  8
Unknown Area Type
 62
7
  1
PNOA-H_AMS_1956-57_33k_ES_PAN_2
 40
0.00045
  10
-5.43739368060114
  20
42.43586615073667
  0
POLYLINE
  8
Unknown Area Type
  70
9
  66
1
  0
VERTEX
  8
Unknown Area Type
  70
32
  10
-5.43749942947247
  20
42.45701182422658
  30
788.015
  0
VERTEX
  8
Unknown Area Type
  70
32
  10
-5.42252740747708
  20
42.4571268033075
  30
794.432
  0
VERTEX
  8
Unknown Area Type
  70
32
  10
-5.42043708051473
  20
42.45637402663692
  30
796.174
  0
VERTEX
  8
Unknown Area Type
  70
32
  10
-5.42110763133545
  20
42.41601634047721
  30
809.401
  0
VERTEX
  8
Unknown Area Type
  70
32
  10
-5.44887080489343
  20
42.41380983160707
  30
792.881
  0
VERTEX
  8
Unknown Area Type
  70
32
  10
-5.4488950902224
  20
42.41380931251313
  30
792.877
  0
VERTEX
  8
Unknown Area Type
  70
32
  10
-5.44939632710963
  20
42.41404173956678
  30
793.135
  0
VERTEX
  8
Unknown Area Type
  70
32
  10
-5.45229278455827
  20
42.41539360419468
  30
792.129
  0
VERTEX
  8
Unknown Area Type
  70
32
  10
-5.45229938218476
  20
42.4154069708599
  30
792.272
  0
VERTEX
  8
Unknown Area Type
  70
32
  10
-5.45434985599892
  20
42.45688617401377
  30
787.138
  0
VERTEX
  8
Unknown Area Type
  70
32
  10
-5.4375115805832
  20
42.45701156567353
  30
788
  0
VERTEX
  8
Unknown Area Type
  70
32
  10
-5.43749942947247
  20
42.45701182422658
  30
788.015
  0
SEQEND
  8
Unknown Area Type
  0
TEXT
  8
Unknown Area Type
 62
7
  1
PNOA-H_AMS_1956-57_33k_ES_PAN_2
 40
0.00045
  10
-5.43739368060114
  20
42.43586615073667
  0
POLYLINE
  8
Unknown Area Type
  70
9
  66
1
  0
VERTEX
  8
Unknown Area Type
  70
32
  10
-5.33784623739753
  20
42.45623869632339
  30
846.278
  0
VERTEX
  8
Unknown Area Type
  70
32
  10
-5.32869547435546
  20
42.45575868075452
  30
847.32
  0
VERTEX
  8
Unknown Area Type
  70
32
  10
-5.32623166934838
  20
42.41728854581953
  30
836.726
  0
VERTEX
  8
Unknown Area Type
  70
32
  10
-5.35229278809016
  20
42.41446910317146
  30
830.583
  0
VERTEX
  8
Unknown Area Type
  70
32
  10
-5.35235367458267
  20
42.41447235576686
  30
830.557
  0
VERTEX
  8
Unknown Area Type
  70
32
  10
-5.3562431220541
  20
42.41610794671944
  30
831.954
  0
VERTEX
  8
Unknown Area Type
  70
32
  10
-5.35982311208224
  20
42.45596370394802
  30
842.972
  0
VERTEX
  8
Unknown Area Type
  70
32
  10
-5.35594724192606
  20
42.45719164878467
  30
842.037
  0
VERTEX
  8
Unknown Area Type
  70
32
  10
-5.33788269292987
  20
42.45623795236489
  30
846.267
  0
VERTEX
  8
Unknown Area Type
  70
32
  10
-5.33784623739753
  20
42.45623869632339
  30
846.278
  0
SEQEND
  8
Unknown Area Type
  0
TEXT
  8
Unknown Area Type
 62
7
  1
PNOA-H_AMS_1956-57_33k_ES_PAN_2
 40
0.00045
  10
-5.34302764834319
  20
42.43598920801286
  0
POLYLINE
  8
Unknown Area Type
  70
9
  66
1
  0
VERTEX
  8
Unknown Area Type
  70
32
  10
-5.33784623739753
  20
42.45623869632339
  30
846.278
  0
VERTEX
  8
Unknown Area Type
  70
32
  10
-5.32869547435546
  20
42.45575868075452
  30
847.32
  0
VERTEX
  8
Unknown Area Type
  70
32
  10
-5.32623166934838
  20
42.41728854581953
  30
836.726
  0
VERTEX
  8
Unknown Area Type
  70
32
  10
-5.35229278809016
  20
42.41446910317146
  30
830.583
  0
VERTEX
  8
Unknown Area Type
  70
32
  10
-5.35235367458267
  20
42.41447235576686
  30
830.557
  0
VERTEX
  8
Unknown Area Type
  70
32
  10
-5.3562431220541
  20
42.41610794671944
  30
831.954
  0
VERTEX
  8
Unknown Area Type
  70
32
  10
-5.35982311208224
  20
42.45596370394802
  30
842.972
  0
VERTEX
  8
Unknown Area Type
  70
32
  10
-5.35594724192606
  20
42.45719164878467
  30
842.037
  0
VERTEX
  8
Unknown Area Type
  70
32
  10
-5.33788269292987
  20
42.45623795236489
  30
846.267
  0
VERTEX
  8
Unknown Area Type
  70
32
  10
-5.33784623739753
  20
42.45623869632339
  30
846.278
  0
SEQEND
  8
Unknown Area Type
  0
TEXT
  8
Unknown Area Type
 62
7
  1
PNOA-H_AMS_1956-57_33k_ES_PAN_2
 40
0.00045
  10
-5.34302764834319
  20
42.43598920801286
  0
POLYLINE
  8
Unknown Area Type
  70
9
  66
1
  0
VERTEX
  8
Unknown Area Type
  70
32
  10
-5.3129657319736
  20
42.45692833990479
  30
847.727
  0
VERTEX
  8
Unknown Area Type
  70
32
  10
-5.29762712520072
  20
42.45567457605753
  30
861.453
  0
VERTEX
  8
Unknown Area Type
  70
32
  10
-5.29576543915575
  20
42.41819572852022
  30
836.103
  0
VERTEX
  8
Unknown Area Type
  70
32
  10
-5.31862184622023
  20
42.41443951735664
  30
835.735
  0
VERTEX
  8
Unknown Area Type
  70
32
  10
-5.31869520733357
  20
42.41445154076229
  30
835.781
  0
VERTEX
  8
Unknown Area Type
  70
32
  10
-5.32623166934838
  20
42.41728854581953
  30
836.726
  0
VERTEX
  8
Unknown Area Type
  70
32
  10
-5.32869547435546
  20
42.45575868075452
  30
847.32
  0
VERTEX
  8
Unknown Area Type
  70
32
  10
-5.32232775841037
  20
42.45769349969335
  30
847.91
  0
VERTEX
  8
Unknown Area Type
  70
32
  10
-5.31298396026203
  20
42.45692797187879
  30
847.718
  0
VERTEX
  8
Unknown Area Type
  70
32
  10
-5.3129657319736
  20
42.45692833990479
  30
847.727
  0
SEQEND
  8
Unknown Area Type
  0
TEXT
  8
Unknown Area Type
 62
7
  1
PNOA-H_AMS_1956-57_33k_ES_PAN_2
 40
0.00045
  10
-5.3122306894287
  20
42.43617767092999
  0
POLYLINE
  8
Unknown Area Type
  70
9
  66
1
  0
VERTEX
  8
Unknown Area Type
  70
32
  10
-5.3129657319736
  20
42.45692833990479
  30
847.727
  0
VERTEX
  8
Unknown Area Type
  70
32
  10
-5.29762712520072
  20
42.45567457605753
  30
861.453
  0
VERTEX
  8
Unknown Area Type
  70
32
  10
-5.29576543915575
  20
42.41819572852022
  30
836.103
  0
VERTEX
  8
Unknown Area Type
  70
32
  10
-5.31862184622023
  20
42.41443951735664
  30
835.735
  0
VERTEX
  8
Unknown Area Type
  70
32
  10
-5.31869520733357
  20
42.41445154076229
  30
835.781
  0
VERTEX
  8
Unknown Area Type
  70
32
  10
-5.32623166934838
  20
42.41728854581953
  30
836.726
  0
VERTEX
  8
Unknown Area Type
  70
32
  10
-5.32869547435546
  20
42.45575868075452
  30
847.32
  0
VERTEX
  8
Unknown Area Type
  70
32
  10
-5.32232775841037
  20
42.45769349969335
  30
847.91
  0
VERTEX
  8
Unknown Area Type
  70
32
  10
-5.31298396026203
  20
42.45692797187879
  30
847.718
  0
VERTEX
  8
Unknown Area Type
  70
32
  10
-5.3129657319736
  20
42.45692833990479
  30
847.727
  0
SEQEND
  8
Unknown Area Type
  0
TEXT
  8
Unknown Area Type
 62
7
  1
PNOA-H_AMS_1956-57_33k_ES_PAN_2
 40
0.00045
  10
-5.3122306894287
  20
42.43617767092999
  0
POLYLINE
  8
Unknown Area Type
  70
9
  66
1
  0
VERTEX
  8
Unknown Area Type
  70
32
  10
-5.28807674150901
  20
42.45740112026494
  30
862.891
  0
VERTEX
  8
Unknown Area Type
  70
32
  10
-5.26579789070487
  20
42.4550612700026
  30
871.982
  0
VERTEX
  8
Unknown Area Type
  70
32
  10
-5.26656396382177
  20
42.41813773613191
  30
861.745
  0
VERTEX
  8
Unknown Area Type
  70
32
  10
-5.2843413045572
  20
42.41452474621612
  30
851.556
  0
VERTEX
  8
Unknown Area Type
  70
32
  10
-5.295765274943
  20
42.41819122913735
  30
836.094
  0
VERTEX
  8
Unknown Area Type
  70
32
  10
-5.29762712520072
  20
42.45567457605753
  30
861.453
  0
VERTEX
  8
Unknown Area Type
  70
32
  10
-5.29084174859938
  20
42.45768806464137
  30
863.386
  0
VERTEX
  8
Unknown Area Type
  70
32
  10
-5.29060395391749
  20
42.45767030620495
  30
863.324
  0
VERTEX
  8
Unknown Area Type
  70
32
  10
-5.28811943913597
  20
42.45740477013712
  30
862.924
  0
VERTEX
  8
Unknown Area Type
  70
32
  10
-5.28807674150901
  20
42.45740112026494
  30
862.891
  0
SEQEND
  8
Unknown Area Type
  0
TEXT
  8
Unknown Area Type
 62
7
  1
PNOA-H_AMS_1956-57_33k_ES_PAN_2
 40
0.00045
  10
-5.28171271364061
  20
42.43589402222738
  0
POLYLINE
  8
Unknown Area Type
  70
9
  66
1
  0
VERTEX
  8
Unknown Area Type
  70
32
  10
-5.28807674150901
  20
42.45740112026494
  30
862.891
  0
VERTEX
  8
Unknown Area Type
  70
32
  10
-5.26579789070487
  20
42.4550612700026
  30
871.982
  0
VERTEX
  8
Unknown Area Type
  70
32
  10
-5.26656396382177
  20
42.41813773613191
  30
861.745
  0
VERTEX
  8
Unknown Area Type
  70
32
  10
-5.2843413045572
  20
42.41452474621612
  30
851.556
  0
VERTEX
  8
Unknown Area Type
  70
32
  10
-5.295765274943
  20
42.41819122913735
  30
836.094
  0
VERTEX
  8
Unknown Area Type
  70
32
  10
-5.29762712520072
  20
42.45567457605753
  30
861.453
  0
VERTEX
  8
Unknown Area Type
  70
32
  10
-5.29084174859938
  20
42.45768806464137
  30
863.386
  0
VERTEX
  8
Unknown Area Type
  70
32
  10
-5.29060395391749
  20
42.45767030620495
  30
863.324
  0
VERTEX
  8
Unknown Area Type
  70
32
  10
-5.28811943913597
  20
42.45740477013712
  30
862.924
  0
VERTEX
  8
Unknown Area Type
  70
32
  10
-5.28807674150901
  20
42.45740112026494
  30
862.891
  0
SEQEND
  8
Unknown Area Type
  0
TEXT
  8
Unknown Area Type
 62
7
  1
PNOA-H_AMS_1956-57_33k_ES_PAN_2
 40
0.00045
  10
-5.28171271364061
  20
42.43589402222738
  0
POLYLINE
  8
Unknown Area Type
  70
9
  66
1
  0
VERTEX
  8
Unknown Area Type
  70
32
  10
-5.38792272378272
  20
42.45664666241442
  30
809.691
  0
VERTEX
  8
Unknown Area Type
  70
32
  10
-5.35982294306689
  20
42.4559592047998
  30
842.969
  0
VERTEX
  8
Unknown Area Type
  70
32
  10
-5.3562431220541
  20
42.41610794671944
  30
831.954
  0
VERTEX
  8
Unknown Area Type
  70
32
  10
-5.38379074928168
  20
42.41392165226229
  30
826.688
  0
VERTEX
  8
Unknown Area Type
  70
32
  10
-5.38835966526027
  20
42.41598777142728
  30
832.442
  0
VERTEX
  8
Unknown Area Type
  70
32
  10
-5.3892485204577
  20
42.45617325932886
  30
809.196
  0
VERTEX
  8
Unknown Area Type
  70
32
  10
-5.38924364262571
  20
42.45620487940985
  30
809.176
  0
VERTEX
  8
Unknown Area Type
  70
32
  10
-5.38923166236057
  20
42.45620963189418
  30
809.186
  0
VERTEX
  8
Unknown Area Type
  70
32
  10
-5.38794077997655
  20
42.45664178341454
  30
809.67
  0
VERTEX
  8
Unknown Area Type
  70
32
  10
-5.38792272378272
  20
42.45664666241442
  30
809.691
  0
SEQEND
  8
Unknown Area Type
  0
TEXT
  8
Unknown Area Type
 62
7
  1
PNOA-H_AMS_1956-57_33k_ES_PAN_2
 40
0.00045
  10
-5.37274616908871
  20
42.43553543432262
  0
POLYLINE
  8
Unknown Area Type
  70
9
  66
1
  0
VERTEX
  8
Unknown Area Type
  70
32
  10
-5.38792272378272
  20
42.45664666241442
  30
809.691
  0
VERTEX
  8
Unknown Area Type
  70
32
  10
-5.35982294306689
  20
42.4559592047998
  30
842.969
  0
VERTEX
  8
Unknown Area Type
  70
32
  10
-5.3562431220541
  20
42.41610794671944
  30
831.954
  0
VERTEX
  8
Unknown Area Type
  70
32
  10
-5.38379074928168
  20
42.41392165226229
  30
826.688
  0
VERTEX
  8
Unknown Area Type
  70
32
  10
-5.38835966526027
  20
42.41598777142728
  30
832.442
  0
VERTEX
  8
Unknown Area Type
  70
32
  10
-5.3892485204577
  20
42.45617325932886
  30
809.196
  0
VERTEX
  8
Unknown Area Type
  70
32
  10
-5.38924364262571
  20
42.45620487940985
  30
809.176
  0
VERTEX
  8
Unknown Area Type
  70
32
  10
-5.38923166236057
  20
42.45620963189418
  30
809.186
  0
VERTEX
  8
Unknown Area Type
  70
32
  10
-5.38794077997655
  20
42.45664178341454
  30
809.67
  0
VERTEX
  8
Unknown Area Type
  70
32
  10
-5.38792272378272
  20
42.45664666241442
  30
809.691
  0
SEQEND
  8
Unknown Area Type
  0
TEXT
  8
Unknown Area Type
 62
7
  1
PNOA-H_AMS_1956-57_33k_ES_PAN_2
 40
0.00045
  10
-5.37274616908871
  20
42.43553543432262
  0
POLYLINE
  8
Unknown Area Type
  70
9
  66
1
  0
VERTEX
  8
Unknown Area Type
  70
32
  10
-5.26312999484862
  20
42.45577589383887
  30
877.169
  0
VERTEX
  8
Unknown Area Type
  70
32
  10
-5.25546265522474
  20
42.45781371331906
  30
880.872
  0
VERTEX
  8
Unknown Area Type
  70
32
  10
-5.23587171569832
  20
42.45460010097787
  30
887.121
  0
VERTEX
  8
Unknown Area Type
  70
32
  10
-5.23572181691128
  20
42.41859511086416
  30
874.361
  0
VERTEX
  8
Unknown Area Type
  70
32
  10
-5.2519889549134
  20
42.41449878769591
  30
868.632
  0
VERTEX
  8
Unknown Area Type
  70
32
  10
-5.26656396382177
  20
42.41813773613191
  30
861.745
  0
VERTEX
  8
Unknown Area Type
  70
32
  10
-5.26579805298443
  20
42.45506576945036
  30
871.982
  0
VERTEX
  8
Unknown Area Type
  70
32
  10
-5.26314806134368
  20
42.45577103429069
  30
877.122
  0
VERTEX
  8
Unknown Area Type
  70
32
  10
-5.26312999484862
  20
42.45577589383887
  30
877.169
  0
SEQEND
  8
Unknown Area Type
  0
TEXT
  8
Unknown Area Type
 62
7
  1
PNOA-H_AMS_1956-57_33k_ES_PAN_2
 40
0.00045
  10
-5.25114323307938
  20
42.43590702586796
  0
POLYLINE
  8
Unknown Area Type
  70
9
  66
1
  0
VERTEX
  8
Unknown Area Type
  70
32
  10
-5.26312999484862
  20
42.45577589383887
  30
877.169
  0
VERTEX
  8
Unknown Area Type
  70
32
  10
-5.25546265522474
  20
42.45781371331906
  30
880.872
  0
VERTEX
  8
Unknown Area Type
  70
32
  10
-5.23587171569832
  20
42.45460010097787
  30
887.121
  0
VERTEX
  8
Unknown Area Type
  70
32
  10
-5.23572181691128
  20
42.41859511086416
  30
874.361
  0
VERTEX
  8
Unknown Area Type
  70
32
  10
-5.2519889549134
  20
42.41449878769591
  30
868.632
  0
VERTEX
  8
Unknown Area Type
  70
32
  10
-5.26656396382177
  20
42.41813773613191
  30
861.745
  0
VERTEX
  8
Unknown Area Type
  70
32
  10
-5.26579805298443
  20
42.45506576945036
  30
871.982
  0
VERTEX
  8
Unknown Area Type
  70
32
  10
-5.26314806134368
  20
42.45577103429069
  30
877.122
  0
VERTEX
  8
Unknown Area Type
  70
32
  10
-5.26312999484862
  20
42.45577589383887
  30
877.169
  0
SEQEND
  8
Unknown Area Type
  0
TEXT
  8
Unknown Area Type
 62
7
  1
PNOA-H_AMS_1956-57_33k_ES_PAN_2
 40
0.00045
  10
-5.25114323307938
  20
42.43590702586796
  0
POLYLINE
  8
Unknown Area Type
  70
9
  66
1
  0
VERTEX
  8
Unknown Area Type
  70
32
  10
-5.25960649476203
  20
42.3582316064426
  30
852.919
  0
VERTEX
  8
Unknown Area Type
  70
32
  10
-5.25513466220849
  20
42.35575764185361
  30
847.357
  0
VERTEX
  8
Unknown Area Type
  70
32
  10
-5.25448090975415
  20
42.33832241671639
  30
847.814
  0
VERTEX
  8
Unknown Area Type
  70
32
  10
-5.272335401691
  20
42.33425054043999
  30
799.682
  0
VERTEX
  8
Unknown Area Type
  70
32
  10
-5.29002302546004
  20
42.33835167652903
  30
794.685
  0
VERTEX
  8
Unknown Area Type
  70
32
  10
-5.29077494635658
  20
42.35287143819229
  30
816.86
  0
VERTEX
  8
Unknown Area Type
  70
32
  10
-5.27895937930392
  20
42.36892955956819
  30
837.874
  0
VERTEX
  8
Unknown Area Type
  70
32
  10
-5.27894117604556
  20
42.36892992157973
  30
837.857
  0
VERTEX
  8
Unknown Area Type
  70
32
  10
-5.2788544375497
  20
42.36888211670577
  30
837.769
  0
VERTEX
  8
Unknown Area Type
  70
32
  10
-5.2596187896613
  20
42.35823586674012
  30
852.92
  0
VERTEX
  8
Unknown Area Type
  70
32
  10
-5.25960649476203
  20
42.3582316064426
  30
852.919
  0
SEQEND
  8
Unknown Area Type
  0
TEXT
  8
Unknown Area Type
 62
7
  1
PNOA-H_AMS_1956-57_33k_ES_PAN_2
 40
0.00045
  10
-5.27284353208888
  20
42.35158820994953
  0
POLYLINE
  8
Unknown Area Type
  70
9
  66
1
  0
VERTEX
  8
Unknown Area Type
  70
32
  10
-5.25960649476203
  20
42.3582316064426
  30
852.919
  0
VERTEX
  8
Unknown Area Type
  70
32
  10
-5.25513466220849
  20
42.35575764185361
  30
847.357
  0
VERTEX
  8
Unknown Area Type
  70
32
  10
-5.25448090975415
  20
42.33832241671639
  30
847.814
  0
VERTEX
  8
Unknown Area Type
  70
32
  10
-5.272335401691
  20
42.33425054043999
  30
799.682
  0
VERTEX
  8
Unknown Area Type
  70
32
  10
-5.29002302546004
  20
42.33835167652903
  30
794.685
  0
VERTEX
  8
Unknown Area Type
  70
32
  10
-5.29077494635658
  20
42.35287143819229
  30
816.86
  0
VERTEX
  8
Unknown Area Type
  70
32
  10
-5.27895937930392
  20
42.36892955956819
  30
837.874
  0
VERTEX
  8
Unknown Area Type
  70
32
  10
-5.27894117604556
  20
42.36892992157973
  30
837.857
  0
VERTEX
  8
Unknown Area Type
  70
32
  10
-5.2788544375497
  20
42.36888211670577
  30
837.769
  0
VERTEX
  8
Unknown Area Type
  70
32
  10
-5.2596187896613
  20
42.35823586674012
  30
852.92
  0
VERTEX
  8
Unknown Area Type
  70
32
  10
-5.25960649476203
  20
42.3582316064426
  30
852.919
  0
SEQEND
  8
Unknown Area Type
  0
TEXT
  8
Unknown Area Type
 62
7
  1
PNOA-H_AMS_1956-57_33k_ES_PAN_2
 40
0.00045
  10
-5.27284353208888
  20
42.35158820994953
  0
ENDSEC
  0
EOF
