  0
SECTION
  2
HEADER
  9
$ACADVER
  1
AC1009
  9
$LUNITS
  70
2
  9
$DWGCODEPAGE
  3
UTF8
  9
$LIMMIN
  10
-5.85416666666668
  20
42.33333333333331
  9
$LIMMAX
  10
-5.52083333333329
  20
42.5
  9
$EXTMIN
  10
-5.85416666666668
  20
42.33333333333331
  9
$EXTMAX
  10
-5.52083333333329
  20
42.5
  999
Created by Global Mapper
  999
Projection: Geographic (Latitude/Longitude)
  999
Datum: ETRS89
  999
Ground Units: arc degrees
  999
CENTRAL LONGITUDE: 0
  0
ENDSEC
  0
SECTION
  2
TABLES
  0
ENDSEC
  0
SECTION
  2
BLOCKS
  0
ENDSEC
  0
SECTION
  2
ENTITIES
  0
POLYLINE
  8
Unknown Area Type
  70
9
  66
1
  0
VERTEX
  8
Unknown Area Type
  70
32
  10
-5.85416666666668
  20
42.5
  30
840.287
  0
VERTEX
  8
Unknown Area Type
  70
32
  10
-5.82030707930781
  20
42.5
  30
853.898
  0
VERTEX
  8
Unknown Area Type
  70
32
  10
-5.82016961178726
  20
42.4984409660081
  30
852.606
  0
VERTEX
  8
Unknown Area Type
  70
32
  10
-5.820163948459
  20
42.49831503665995
  30
852.545
  0
VERTEX
  8
Unknown Area Type
  70
32
  10
-5.82017590156608
  20
42.49831023983683
  30
852.535
  0
VERTEX
  8
Unknown Area Type
  70
32
  10
-5.85324497759764
  20
42.49631143383854
  30
839.558
  0
VERTEX
  8
Unknown Area Type
  70
32
  10
-5.85416666666668
  20
42.49694527902466
  30
839.844
  0
SEQEND
  8
Unknown Area Type
  0
TEXT
  8
Unknown Area Type
 62
7
  1
PNOA-H_AMS_1956-57_33k_ES_PAN_2
 40
0.00045
  10
-5.83716530756284
  20
42.49815571691927
  0
POLYLINE
  8
Unknown Area Type
  70
9
  66
1
  0
VERTEX
  8
Unknown Area Type
  70
32
  10
-5.85416700000001
  20
42.50000016666667
  30
840.287
  0
VERTEX
  8
Unknown Area Type
  70
32
  10
-5.85416666666668
  20
42.50000016666667
  30
840.287
  0
VERTEX
  8
Unknown Area Type
  70
32
  10
-5.85416666666668
  20
42.5
  30
840.287
  0
VERTEX
  8
Unknown Area Type
  70
32
  10
-5.85416700000001
  20
42.5
  30
840.287
  0
SEQEND
  8
Unknown Area Type
  0
TEXT
  8
Unknown Area Type
 62
7
  1
PNOA-H_AMS_1956-57_33k_ES_PAN_2
 40
0.00045
  10
-5.85416683333334
  20
42.50000008333333
  0
POLYLINE
  8
Unknown Area Type
  70
9
  66
1
  0
VERTEX
  8
Unknown Area Type
  70
32
  10
-5.85416666666668
  20
42.50000016666667
  30
840.287
  0
VERTEX
  8
Unknown Area Type
  70
32
  10
-5.82030709400361
  20
42.50000016666667
  30
853.898
  0
VERTEX
  8
Unknown Area Type
  70
32
  10
-5.82030707930781
  20
42.5
  30
853.898
  0
VERTEX
  8
Unknown Area Type
  70
32
  10
-5.85416666666668
  20
42.5
  30
840.287
  0
SEQEND
  8
Unknown Area Type
  0
TEXT
  8
Unknown Area Type
 62
7
  1
PNOA-H_AMS_1956-57_33k_ES_PAN_2
 40
0.00045
  10
-5.83723687298724
  20
42.50000008333333
  0
POLYLINE
  8
Unknown Area Type
  70
9
  66
1
  0
VERTEX
  8
Unknown Area Type
  70
32
  10
-5.85416700000001
  20
42.5
  30
840.287
  0
VERTEX
  8
Unknown Area Type
  70
32
  10
-5.85416666666668
  20
42.5
  30
840.287
  0
VERTEX
  8
Unknown Area Type
  70
32
  10
-5.85416666666668
  20
42.49694527902466
  30
839.844
  0
VERTEX
  8
Unknown Area Type
  70
32
  10
-5.85416700000001
  20
42.49694550825785
  30
839.844
  0
SEQEND
  8
Unknown Area Type
  0
TEXT
  8
Unknown Area Type
 62
7
  1
PNOA-H_AMS_1956-57_33k_ES_PAN_2
 40
0.00045
  10
-5.85416683333334
  20
42.49847263951233
  0
POLYLINE
  8
Unknown Area Type
  70
9
  66
1
  0
VERTEX
  8
Unknown Area Type
  70
32
  10
-5.85416666666668
  20
42.5
  30
840.287
  0
VERTEX
  8
Unknown Area Type
  70
32
  10
-5.82030707930781
  20
42.5
  30
853.898
  0
VERTEX
  8
Unknown Area Type
  70
32
  10
-5.82016961178726
  20
42.4984409660081
  30
852.606
  0
VERTEX
  8
Unknown Area Type
  70
32
  10
-5.820163948459
  20
42.49831503665995
  30
852.545
  0
VERTEX
  8
Unknown Area Type
  70
32
  10
-5.82017590156608
  20
42.49831023983683
  30
852.535
  0
VERTEX
  8
Unknown Area Type
  70
32
  10
-5.85324497759764
  20
42.49631143383854
  30
839.558
  0
VERTEX
  8
Unknown Area Type
  70
32
  10
-5.85416666666668
  20
42.49694527902466
  30
839.844
  0
SEQEND
  8
Unknown Area Type
  0
TEXT
  8
Unknown Area Type
 62
7
  1
PNOA-H_AMS_1956-57_33k_ES_PAN_2
 40
0.00045
  10
-5.83716530756284
  20
42.49815571691927
  0
POLYLINE
  8
Unknown Area Type
  70
9
  66
1
  0
VERTEX
  8
Unknown Area Type
  70
32
  10
-5.7291666666667
  20
42.5
  30
883.058
  0
VERTEX
  8
Unknown Area Type
  70
32
  10
-5.71668062461321
  20
42.5
  30
881.74
  0
VERTEX
  8
Unknown Area Type
  70
32
  10
-5.72028374572631
  20
42.49807916529866
  30
881.338
  0
VERTEX
  8
Unknown Area Type
  70
32
  10
-5.74520192270196
  20
42.5
  30
886.113
  0
SEQEND
  8
Unknown Area Type
  0
TEXT
  8
Unknown Area Type
 62
7
  1
PNOA-H_AMS_1956-57_33k_ES_PAN_2
 40
0.00045
  10
-5.73094127365759
  20
42.49903958264933
  0
POLYLINE
  8
Unknown Area Type
  70
9
  66
1
  0
VERTEX
  8
Unknown Area Type
  70
32
  10
-5.74520408479825
  20
42.50000016666667
  30
886.113
  0
VERTEX
  8
Unknown Area Type
  70
32
  10
-5.7166803119782
  20
42.50000016666667
  30
881.74
  0
VERTEX
  8
Unknown Area Type
  70
32
  10
-5.71668062461321
  20
42.5
  30
881.74
  0
VERTEX
  8
Unknown Area Type
  70
32
  10
-5.7291666666667
  20
42.5
  30
883.058
  0
VERTEX
  8
Unknown Area Type
  70
32
  10
-5.74520192270196
  20
42.5
  30
886.113
  0
SEQEND
  8
Unknown Area Type
  0
TEXT
  8
Unknown Area Type
 62
7
  1
PNOA-H_AMS_1956-57_33k_ES_PAN_2
 40
0.00045
  10
-5.73094219838822
  20
42.50000008333333
  0
POLYLINE
  8
Unknown Area Type
  70
9
  66
1
  0
VERTEX
  8
Unknown Area Type
  70
32
  10
-5.7291666666667
  20
42.5
  30
883.058
  0
VERTEX
  8
Unknown Area Type
  70
32
  10
-5.71668062461321
  20
42.5
  30
881.74
  0
VERTEX
  8
Unknown Area Type
  70
32
  10
-5.72028374572631
  20
42.49807916529866
  30
881.338
  0
VERTEX
  8
Unknown Area Type
  70
32
  10
-5.74520192270196
  20
42.5
  30
886.113
  0
SEQEND
  8
Unknown Area Type
  0
TEXT
  8
Unknown Area Type
 62
7
  1
PNOA-H_AMS_1956-57_33k_ES_PAN_2
 40
0.00045
  10
-5.73094127365759
  20
42.49903958264933
  0
POLYLINE
  8
Unknown Area Type
  70
9
  66
1
  0
VERTEX
  8
Unknown Area Type
  70
32
  10
-5.78436297222715
  20
42.5
  30
867.553
  0
VERTEX
  8
Unknown Area Type
  70
32
  10
-5.77083333333333
  20
42.5
  30
867.876
  0
VERTEX
  8
Unknown Area Type
  70
32
  10
-5.74882646998284
  20
42.5
  30
885.141
  0
VERTEX
  8
Unknown Area Type
  70
32
  10
-5.75351289904433
  20
42.49743362526758
  30
868.582
  0
VERTEX
  8
Unknown Area Type
  70
32
  10
-5.78434937547486
  20
42.49951109583301
  30
867.332
  0
SEQEND
  8
Unknown Area Type
  0
TEXT
  8
Unknown Area Type
 62
7
  1
PNOA-H_AMS_1956-57_33k_ES_PAN_2
 40
0.00045
  10
-5.766594721105
  20
42.49871681263379
  0
POLYLINE
  8
Unknown Area Type
  70
9
  66
1
  0
VERTEX
  8
Unknown Area Type
  70
32
  10
-5.78436297686226
  20
42.50000016666667
  30
867.553
  0
VERTEX
  8
Unknown Area Type
  70
32
  10
-5.74882616563466
  20
42.50000016666667
  30
885.143
  0
VERTEX
  8
Unknown Area Type
  70
32
  10
-5.74882646998284
  20
42.5
  30
885.141
  0
VERTEX
  8
Unknown Area Type
  70
32
  10
-5.77083333333333
  20
42.5
  30
867.876
  0
VERTEX
  8
Unknown Area Type
  70
32
  10
-5.78436297222715
  20
42.5
  30
867.553
  0
SEQEND
  8
Unknown Area Type
  0
TEXT
  8
Unknown Area Type
 62
7
  1
PNOA-H_AMS_1956-57_33k_ES_PAN_2
 40
0.00045
  10
-5.76659457124846
  20
42.50000008333333
  0
POLYLINE
  8
Unknown Area Type
  70
9
  66
1
  0
VERTEX
  8
Unknown Area Type
  70
32
  10
-5.78436297222715
  20
42.5
  30
867.553
  0
VERTEX
  8
Unknown Area Type
  70
32
  10
-5.77083333333333
  20
42.5
  30
867.876
  0
VERTEX
  8
Unknown Area Type
  70
32
  10
-5.74882646998284
  20
42.5
  30
885.141
  0
VERTEX
  8
Unknown Area Type
  70
32
  10
-5.75351289904433
  20
42.49743362526758
  30
868.582
  0
VERTEX
  8
Unknown Area Type
  70
32
  10
-5.78434937547486
  20
42.49951109583301
  30
867.332
  0
SEQEND
  8
Unknown Area Type
  0
TEXT
  8
Unknown Area Type
 62
7
  1
PNOA-H_AMS_1956-57_33k_ES_PAN_2
 40
0.00045
  10
-5.766594721105
  20
42.49871681263379
  0
POLYLINE
  8
Unknown Area Type
  70
9
  66
1
  0
VERTEX
  8
Unknown Area Type
  70
32
  10
-5.82031243038199
  20
42.5
  30
853.945
  0
VERTEX
  8
Unknown Area Type
  70
32
  10
-5.81249999999996
  20
42.5
  30
854.361
  0
VERTEX
  8
Unknown Area Type
  70
32
  10
-5.78436297222715
  20
42.5
  30
867.553
  0
VERTEX
  8
Unknown Area Type
  70
32
  10
-5.78434937547486
  20
42.49951109583301
  30
867.332
  0
VERTEX
  8
Unknown Area Type
  70
32
  10
-5.78561490022312
  20
42.49868788498679
  30
866.579
  0
VERTEX
  8
Unknown Area Type
  70
32
  10
-5.81927442906509
  20
42.49774711703137
  30
851.249
  0
VERTEX
  8
Unknown Area Type
  70
32
  10
-5.82016374619795
  20
42.49831053918317
  30
852.547
  0
SEQEND
  8
Unknown Area Type
  0
TEXT
  8
Unknown Area Type
 62
7
  1
PNOA-H_AMS_1956-57_33k_ES_PAN_2
 40
0.00045
  10
-5.80233090292842
  20
42.49887355851568
  0
POLYLINE
  8
Unknown Area Type
  70
9
  66
1
  0
VERTEX
  8
Unknown Area Type
  70
32
  10
-5.82031244504981
  20
42.50000016666667
  30
853.945
  0
VERTEX
  8
Unknown Area Type
  70
32
  10
-5.78436297686226
  20
42.50000016666667
  30
867.553
  0
VERTEX
  8
Unknown Area Type
  70
32
  10
-5.78436297222715
  20
42.5
  30
867.553
  0
VERTEX
  8
Unknown Area Type
  70
32
  10
-5.81249999999996
  20
42.5
  30
854.361
  0
VERTEX
  8
Unknown Area Type
  70
32
  10
-5.82031243038199
  20
42.5
  30
853.945
  0
SEQEND
  8
Unknown Area Type
  0
TEXT
  8
Unknown Area Type
 62
7
  1
PNOA-H_AMS_1956-57_33k_ES_PAN_2
 40
0.00045
  10
-5.80233770863848
  20
42.50000008333333
  0
POLYLINE
  8
Unknown Area Type
  70
9
  66
1
  0
VERTEX
  8
Unknown Area Type
  70
32
  10
-5.82031243038199
  20
42.5
  30
853.945
  0
VERTEX
  8
Unknown Area Type
  70
32
  10
-5.81249999999996
  20
42.5
  30
854.361
  0
VERTEX
  8
Unknown Area Type
  70
32
  10
-5.78436297222715
  20
42.5
  30
867.553
  0
VERTEX
  8
Unknown Area Type
  70
32
  10
-5.78434937547486
  20
42.49951109583301
  30
867.332
  0
VERTEX
  8
Unknown Area Type
  70
32
  10
-5.78561490022312
  20
42.49868788498679
  30
866.579
  0
VERTEX
  8
Unknown Area Type
  70
32
  10
-5.81927442906509
  20
42.49774711703137
  30
851.249
  0
VERTEX
  8
Unknown Area Type
  70
32
  10
-5.82016374619795
  20
42.49831053918317
  30
852.547
  0
SEQEND
  8
Unknown Area Type
  0
TEXT
  8
Unknown Area Type
 62
7
  1
PNOA-H_AMS_1956-57_33k_ES_PAN_2
 40
0.00045
  10
-5.80233090292842
  20
42.49887355851568
  0
POLYLINE
  8
Unknown Area Type
  70
9
  66
1
  0
VERTEX
  8
Unknown Area Type
  70
32
  10
-5.67267621223287
  20
42.5
  30
872.121
  0
VERTEX
  8
Unknown Area Type
  70
32
  10
-5.64922000282923
  20
42.5
  30
868.36
  0
VERTEX
  8
Unknown Area Type
  70
32
  10
-5.65334749593003
  20
42.4980511287331
  30
868.932
  0
VERTEX
  8
Unknown Area Type
  70
32
  10
-5.65339612398127
  20
42.49805000212031
  30
869
  0
SEQEND
  8
Unknown Area Type
  0
TEXT
  8
Unknown Area Type
 62
7
  1
PNOA-H_AMS_1956-57_33k_ES_PAN_2
 40
0.00045
  10
-5.66094810753105
  20
42.49902500106015
  0
POLYLINE
  8
Unknown Area Type
  70
9
  66
1
  0
VERTEX
  8
Unknown Area Type
  70
32
  10
-5.67267786010543
  20
42.50000016666667
  30
872.121
  0
VERTEX
  8
Unknown Area Type
  70
32
  10
-5.64921964984772
  20
42.50000016666667
  30
868.36
  0
VERTEX
  8
Unknown Area Type
  70
32
  10
-5.64922000282923
  20
42.5
  30
868.36
  0
VERTEX
  8
Unknown Area Type
  70
32
  10
-5.67267621223287
  20
42.5
  30
872.121
  0
SEQEND
  8
Unknown Area Type
  0
TEXT
  8
Unknown Area Type
 62
7
  1
PNOA-H_AMS_1956-57_33k_ES_PAN_2
 40
0.00045
  10
-5.66094875497658
  20
42.50000008333333
  0
POLYLINE
  8
Unknown Area Type
  70
9
  66
1
  0
VERTEX
  8
Unknown Area Type
  70
32
  10
-5.67267621223287
  20
42.5
  30
872.121
  0
VERTEX
  8
Unknown Area Type
  70
32
  10
-5.64922000282923
  20
42.5
  30
868.36
  0
VERTEX
  8
Unknown Area Type
  70
32
  10
-5.65334749593003
  20
42.4980511287331
  30
868.932
  0
VERTEX
  8
Unknown Area Type
  70
32
  10
-5.65339612398127
  20
42.49805000212031
  30
869
  0
SEQEND
  8
Unknown Area Type
  0
TEXT
  8
Unknown Area Type
 62
7
  1
PNOA-H_AMS_1956-57_33k_ES_PAN_2
 40
0.00045
  10
-5.66094810753105
  20
42.49902500106015
  0
POLYLINE
  8
Unknown Area Type
  70
9
  66
1
  0
VERTEX
  8
Unknown Area Type
  70
32
  10
-5.59387760622968
  20
42.5
  30
820.851
  0
VERTEX
  8
Unknown Area Type
  70
32
  10
-5.58909229694532
  20
42.5
  30
810.609
  0
VERTEX
  8
Unknown Area Type
  70
32
  10
-5.58960382280405
  20
42.49828097364373
  30
810.736
  0
VERTEX
  8
Unknown Area Type
  70
32
  10
-5.5932311317091
  20
42.49889229109958
  30
820.311
  0
SEQEND
  8
Unknown Area Type
  0
TEXT
  8
Unknown Area Type
 62
7
  1
PNOA-H_AMS_1956-57_33k_ES_PAN_2
 40
0.00045
  10
-5.5914849515875
  20
42.49914048682187
  0
POLYLINE
  8
Unknown Area Type
  70
9
  66
1
  0
VERTEX
  8
Unknown Area Type
  70
32
  10
-5.59387770349869
  20
42.50000016666667
  30
820.851
  0
VERTEX
  8
Unknown Area Type
  70
32
  10
-5.58909224735079
  20
42.50000016666667
  30
810.609
  0
VERTEX
  8
Unknown Area Type
  70
32
  10
-5.58909229694532
  20
42.5
  30
810.609
  0
VERTEX
  8
Unknown Area Type
  70
32
  10
-5.59387760622968
  20
42.5
  30
820.851
  0
SEQEND
  8
Unknown Area Type
  0
TEXT
  8
Unknown Area Type
 62
7
  1
PNOA-H_AMS_1956-57_33k_ES_PAN_2
 40
0.00045
  10
-5.59148497542474
  20
42.50000008333333
  0
POLYLINE
  8
Unknown Area Type
  70
9
  66
1
  0
VERTEX
  8
Unknown Area Type
  70
32
  10
-5.59387760622968
  20
42.5
  30
820.851
  0
VERTEX
  8
Unknown Area Type
  70
32
  10
-5.58909229694532
  20
42.5
  30
810.609
  0
VERTEX
  8
Unknown Area Type
  70
32
  10
-5.58960382280405
  20
42.49828097364373
  30
810.736
  0
VERTEX
  8
Unknown Area Type
  70
32
  10
-5.5932311317091
  20
42.49889229109958
  30
820.311
  0
SEQEND
  8
Unknown Area Type
  0
TEXT
  8
Unknown Area Type
 62
7
  1
PNOA-H_AMS_1956-57_33k_ES_PAN_2
 40
0.00045
  10
-5.5914849515875
  20
42.49914048682187
  0
POLYLINE
  8
Unknown Area Type
  70
9
  66
1
  0
VERTEX
  8
Unknown Area Type
  70
32
  10
-5.63443907975538
  20
42.5
  30
857.065
  0
VERTEX
  8
Unknown Area Type
  70
32
  10
-5.62495403255634
  20
42.5
  30
848.18
  0
VERTEX
  8
Unknown Area Type
  70
32
  10
-5.62540960316221
  20
42.49882554809064
  30
848.61
  0
SEQEND
  8
Unknown Area Type
  0
TEXT
  8
Unknown Area Type
 62
7
  1
PNOA-H_AMS_1956-57_33k_ES_PAN_2
 40
0.00045
  10
-5.62969655615586
  20
42.49941277404533
  0
POLYLINE
  8
Unknown Area Type
  70
9
  66
1
  0
VERTEX
  8
Unknown Area Type
  70
32
  10
-5.63444036112989
  20
42.50000016666667
  30
857.067
  0
VERTEX
  8
Unknown Area Type
  70
32
  10
-5.62495396790624
  20
42.50000016666667
  30
848.18
  0
VERTEX
  8
Unknown Area Type
  70
32
  10
-5.62495403255634
  20
42.5
  30
848.18
  0
VERTEX
  8
Unknown Area Type
  70
32
  10
-5.63443907975538
  20
42.5
  30
857.065
  0
SEQEND
  8
Unknown Area Type
  0
TEXT
  8
Unknown Area Type
 62
7
  1
PNOA-H_AMS_1956-57_33k_ES_PAN_2
 40
0.00045
  10
-5.62969716451806
  20
42.50000008333333
  0
POLYLINE
  8
Unknown Area Type
  70
9
  66
1
  0
VERTEX
  8
Unknown Area Type
  70
32
  10
-5.63443907975538
  20
42.5
  30
857.065
  0
VERTEX
  8
Unknown Area Type
  70
32
  10
-5.62495403255634
  20
42.5
  30
848.18
  0
VERTEX
  8
Unknown Area Type
  70
32
  10
-5.62540960316221
  20
42.49882554809064
  30
848.61
  0
SEQEND
  8
Unknown Area Type
  0
TEXT
  8
Unknown Area Type
 62
7
  1
PNOA-H_AMS_1956-57_33k_ES_PAN_2
 40
0.00045
  10
-5.62969655615586
  20
42.49941277404533
  0
POLYLINE
  8
Unknown Area Type
  70
9
  66
1
  0
VERTEX
  8
Unknown Area Type
  70
32
  10
-5.68749999999998
  20
42.5
  30
876.115
  0
VERTEX
  8
Unknown Area Type
  70
32
  10
-5.68172297190414
  20
42.5
  30
873.98
  0
VERTEX
  8
Unknown Area Type
  70
32
  10
-5.68627042546026
  20
42.49776540823385
  30
875.808
  0
VERTEX
  8
Unknown Area Type
  70
32
  10
-5.70726931962999
  20
42.5
  30
880.254
  0
SEQEND
  8
Unknown Area Type
  0
TEXT
  8
Unknown Area Type
 62
7
  1
PNOA-H_AMS_1956-57_33k_ES_PAN_2
 40
0.00045
  10
-5.69449614576707
  20
42.49888270411692
  0
POLYLINE
  8
Unknown Area Type
  70
9
  66
1
  0
VERTEX
  8
Unknown Area Type
  70
32
  10
-5.70727088582913
  20
42.50000016666667
  30
880.254
  0
VERTEX
  8
Unknown Area Type
  70
32
  10
-5.68172263273306
  20
42.50000016666667
  30
873.98
  0
VERTEX
  8
Unknown Area Type
  70
32
  10
-5.68172297190414
  20
42.5
  30
873.98
  0
VERTEX
  8
Unknown Area Type
  70
32
  10
-5.68749999999998
  20
42.5
  30
876.115
  0
VERTEX
  8
Unknown Area Type
  70
32
  10
-5.70726931962999
  20
42.5
  30
880.254
  0
SEQEND
  8
Unknown Area Type
  0
TEXT
  8
Unknown Area Type
 62
7
  1
PNOA-H_AMS_1956-57_33k_ES_PAN_2
 40
0.00045
  10
-5.69449675928109
  20
42.50000008333333
  0
POLYLINE
  8
Unknown Area Type
  70
9
  66
1
  0
VERTEX
  8
Unknown Area Type
  70
32
  10
-5.68749999999998
  20
42.5
  30
876.115
  0
VERTEX
  8
Unknown Area Type
  70
32
  10
-5.68172297190414
  20
42.5
  30
873.98
  0
VERTEX
  8
Unknown Area Type
  70
32
  10
-5.68627042546026
  20
42.49776540823385
  30
875.808
  0
VERTEX
  8
Unknown Area Type
  70
32
  10
-5.70726931962999
  20
42.5
  30
880.254
  0
SEQEND
  8
Unknown Area Type
  0
TEXT
  8
Unknown Area Type
 62
7
  1
PNOA-H_AMS_1956-57_33k_ES_PAN_2
 40
0.00045
  10
-5.69449614576707
  20
42.49888270411692
  0
POLYLINE
  8
Unknown Area Type
  70
9
  66
1
  0
VERTEX
  8
Unknown Area Type
  70
32
  10
-5.85416666666668
  20
42.39583333333334
  30
806.546
  0
VERTEX
  8
Unknown Area Type
  70
32
  10
-5.85416666666668
  20
42.41452600445135
  30
813.046
  0
VERTEX
  8
Unknown Area Type
  70
32
  10
-5.8446586678827
  20
42.41251335703238
  30
812.784
  0
VERTEX
  8
Unknown Area Type
  70
32
  10
-5.84563208759828
  20
42.38164248750429
  30
801.432
  0
VERTEX
  8
Unknown Area Type
  70
32
  10
-5.84570386672525
  20
42.38161819184857
  30
801.449
  0
VERTEX
  8
Unknown Area Type
  70
32
  10
-5.85416666666668
  20
42.37974355205989
  30
801.952
  0
SEQEND
  8
Unknown Area Type
  0
TEXT
  8
Unknown Area Type
 62
7
  1
PNOA-H_AMS_1956-57_33k_ES_PAN_2
 40
0.00045
  10
-5.84941266727469
  20
42.39713477825562
  0
POLYLINE
  8
Unknown Area Type
  70
9
  66
1
  0
VERTEX
  8
Unknown Area Type
  70
32
  10
-5.85416700000001
  20
42.41452607501114
  30
813.046
  0
VERTEX
  8
Unknown Area Type
  70
32
  10
-5.85416666666668
  20
42.41452600445135
  30
813.046
  0
VERTEX
  8
Unknown Area Type
  70
32
  10
-5.85416666666668
  20
42.39583333333334
  30
806.546
  0
VERTEX
  8
Unknown Area Type
  70
32
  10
-5.85416666666668
  20
42.37974355205989
  30
801.952
  0
VERTEX
  8
Unknown Area Type
  70
32
  10
-5.85416700000001
  20
42.37974347822146
  30
801.952
  0
SEQEND
  8
Unknown Area Type
  0
TEXT
  8
Unknown Area Type
 62
7
  1
PNOA-H_AMS_1956-57_33k_ES_PAN_2
 40
0.00045
  10
-5.85416683333334
  20
42.3971347766163
  0
POLYLINE
  8
Unknown Area Type
  70
9
  66
1
  0
VERTEX
  8
Unknown Area Type
  70
32
  10
-5.85416666666668
  20
42.39583333333334
  30
806.546
  0
VERTEX
  8
Unknown Area Type
  70
32
  10
-5.85416666666668
  20
42.41452600445135
  30
813.046
  0
VERTEX
  8
Unknown Area Type
  70
32
  10
-5.8446586678827
  20
42.41251335703238
  30
812.784
  0
VERTEX
  8
Unknown Area Type
  70
32
  10
-5.84563208759828
  20
42.38164248750429
  30
801.432
  0
VERTEX
  8
Unknown Area Type
  70
32
  10
-5.84570386672525
  20
42.38161819184857
  30
801.449
  0
VERTEX
  8
Unknown Area Type
  70
32
  10
-5.85416666666668
  20
42.37974355205989
  30
801.952
  0
SEQEND
  8
Unknown Area Type
  0
TEXT
  8
Unknown Area Type
 62
7
  1
PNOA-H_AMS_1956-57_33k_ES_PAN_2
 40
0.00045
  10
-5.84941266727469
  20
42.39713477825562
  0
POLYLINE
  8
Unknown Area Type
  70
9
  66
1
  0
VERTEX
  8
Unknown Area Type
  70
32
  10
-5.8333746272637
  20
42.41613839386521
  30
820.209
  0
VERTEX
  8
Unknown Area Type
  70
32
  10
-5.81213802281353
  20
42.41275355397035
  30
821.643
  0
VERTEX
  8
Unknown Area Type
  70
32
  10
-5.81430452376999
  20
42.3810431237638
  30
810.012
  0
VERTEX
  8
Unknown Area Type
  70
32
  10
-5.83022222078386
  20
42.37753522337881
  30
809.249
  0
VERTEX
  8
Unknown Area Type
  70
32
  10
-5.84563795062889
  20
42.38163783934414
  30
801.438
  0
VERTEX
  8
Unknown Area Type
  70
32
  10
-5.8446586678827
  20
42.41251335703238
  30
812.784
  0
VERTEX
  8
Unknown Area Type
  70
32
  10
-5.83339263365963
  20
42.41613344595352
  30
820.37
  0
VERTEX
  8
Unknown Area Type
  70
32
  10
-5.8333746272637
  20
42.41613839386521
  30
820.209
  0
SEQEND
  8
Unknown Area Type
  0
TEXT
  8
Unknown Area Type
 62
7
  1
PNOA-H_AMS_1956-57_33k_ES_PAN_2
 40
0.00045
  10
-5.82888816066931
  20
42.39662517117586
  0
POLYLINE
  8
Unknown Area Type
  70
9
  66
1
  0
VERTEX
  8
Unknown Area Type
  70
32
  10
-5.8333746272637
  20
42.41613839386521
  30
820.209
  0
VERTEX
  8
Unknown Area Type
  70
32
  10
-5.81213802281353
  20
42.41275355397035
  30
821.643
  0
VERTEX
  8
Unknown Area Type
  70
32
  10
-5.81430452376999
  20
42.3810431237638
  30
810.012
  0
VERTEX
  8
Unknown Area Type
  70
32
  10
-5.83022222078386
  20
42.37753522337881
  30
809.249
  0
VERTEX
  8
Unknown Area Type
  70
32
  10
-5.84563795062889
  20
42.38163783934414
  30
801.438
  0
VERTEX
  8
Unknown Area Type
  70
32
  10
-5.8446586678827
  20
42.41251335703238
  30
812.784
  0
VERTEX
  8
Unknown Area Type
  70
32
  10
-5.83339263365963
  20
42.41613344595352
  30
820.37
  0
VERTEX
  8
Unknown Area Type
  70
32
  10
-5.8333746272637
  20
42.41613839386521
  30
820.209
  0
SEQEND
  8
Unknown Area Type
  0
TEXT
  8
Unknown Area Type
 62
7
  1
PNOA-H_AMS_1956-57_33k_ES_PAN_2
 40
0.00045
  10
-5.82888816066931
  20
42.39662517117586
  0
POLYLINE
  8
Unknown Area Type
  70
9
  66
1
  0
VERTEX
  8
Unknown Area Type
  70
32
  10
-5.73833943518883
  20
42.41545552916609
  30
832.898
  0
VERTEX
  8
Unknown Area Type
  70
32
  10
-5.7119708114838
  20
42.41298958551237
  30
832.418
  0
VERTEX
  8
Unknown Area Type
  70
32
  10
-5.71098519880599
  20
42.38122937046922
  30
819.313
  0
VERTEX
  8
Unknown Area Type
  70
32
  10
-5.73422621748407
  20
42.37771436366128
  30
820.62
  0
VERTEX
  8
Unknown Area Type
  70
32
  10
-5.74637992330875
  20
42.38207929504571
  30
819.913
  0
VERTEX
  8
Unknown Area Type
  70
32
  10
-5.74503523701684
  20
42.41280086559044
  30
833.239
  0
VERTEX
  8
Unknown Area Type
  70
32
  10
-5.73835137955719
  20
42.41545074109874
  30
832.893
  0
VERTEX
  8
Unknown Area Type
  70
32
  10
-5.73833943518883
  20
42.41545552916609
  30
832.898
  0
SEQEND
  8
Unknown Area Type
  0
TEXT
  8
Unknown Area Type
 62
7
  1
PNOA-H_AMS_1956-57_33k_ES_PAN_2
 40
0.00045
  10
-5.72868276919219
  20
42.39655101884124
  0
POLYLINE
  8
Unknown Area Type
  70
9
  66
1
  0
VERTEX
  8
Unknown Area Type
  70
32
  10
-5.73833943518883
  20
42.41545552916609
  30
832.898
  0
VERTEX
  8
Unknown Area Type
  70
32
  10
-5.7119708114838
  20
42.41298958551237
  30
832.418
  0
VERTEX
  8
Unknown Area Type
  70
32
  10
-5.71098519880599
  20
42.38122937046922
  30
819.313
  0
VERTEX
  8
Unknown Area Type
  70
32
  10
-5.73422621748407
  20
42.37771436366128
  30
820.62
  0
VERTEX
  8
Unknown Area Type
  70
32
  10
-5.74637992330875
  20
42.38207929504571
  30
819.913
  0
VERTEX
  8
Unknown Area Type
  70
32
  10
-5.74503523701684
  20
42.41280086559044
  30
833.239
  0
VERTEX
  8
Unknown Area Type
  70
32
  10
-5.73835137955719
  20
42.41545074109874
  30
832.893
  0
VERTEX
  8
Unknown Area Type
  70
32
  10
-5.73833943518883
  20
42.41545552916609
  30
832.898
  0
SEQEND
  8
Unknown Area Type
  0
TEXT
  8
Unknown Area Type
 62
7
  1
PNOA-H_AMS_1956-57_33k_ES_PAN_2
 40
0.00045
  10
-5.72868276919219
  20
42.39655101884124
  0
POLYLINE
  8
Unknown Area Type
  70
9
  66
1
  0
VERTEX
  8
Unknown Area Type
  70
32
  10
-5.66218970454903
  20
42.37969910053901
  30
819.274
  0
VERTEX
  8
Unknown Area Type
  70
32
  10
-5.67182104000342
  20
42.37868694234682
  30
819.487
  0
VERTEX
  8
Unknown Area Type
  70
32
  10
-5.67817574930653
  20
42.38117257649806
  30
818.968
  0
VERTEX
  8
Unknown Area Type
  70
32
  10
-5.67804066889455
  20
42.41311694723812
  30
831.148
  0
VERTEX
  8
Unknown Area Type
  70
32
  10
-5.67392360822506
  20
42.41503665681164
  30
830.764
  0
VERTEX
  8
Unknown Area Type
  70
32
  10
-5.64482425459219
  20
42.41346090587743
  30
826.651
  0
VERTEX
  8
Unknown Area Type
  70
32
  10
-5.64456437134119
  20
42.38154362490039
  30
817.617
  0
VERTEX
  8
Unknown Area Type
  70
32
  10
-5.66213510123347
  20
42.37970036933127
  30
819.304
  0
VERTEX
  8
Unknown Area Type
  70
32
  10
-5.66218970454903
  20
42.37969910053901
  30
819.274
  0
SEQEND
  8
Unknown Area Type
  0
TEXT
  8
Unknown Area Type
 62
7
  1
PNOA-H_AMS_1956-57_33k_ES_PAN_2
 40
0.00045
  10
-5.66137015994337
  20
42.39706743920645
  0
POLYLINE
  8
Unknown Area Type
  70
9
  66
1
  0
VERTEX
  8
Unknown Area Type
  70
32
  10
-5.66218970454903
  20
42.37969910053901
  30
819.274
  0
VERTEX
  8
Unknown Area Type
  70
32
  10
-5.67182104000342
  20
42.37868694234682
  30
819.487
  0
VERTEX
  8
Unknown Area Type
  70
32
  10
-5.67817574930653
  20
42.38117257649806
  30
818.968
  0
VERTEX
  8
Unknown Area Type
  70
32
  10
-5.67804066889455
  20
42.41311694723812
  30
831.148
  0
VERTEX
  8
Unknown Area Type
  70
32
  10
-5.67392360822506
  20
42.41503665681164
  30
830.764
  0
VERTEX
  8
Unknown Area Type
  70
32
  10
-5.64482425459219
  20
42.41346090587743
  30
826.651
  0
VERTEX
  8
Unknown Area Type
  70
32
  10
-5.64456437134119
  20
42.38154362490039
  30
817.617
  0
VERTEX
  8
Unknown Area Type
  70
32
  10
-5.66213510123347
  20
42.37970036933127
  30
819.304
  0
VERTEX
  8
Unknown Area Type
  70
32
  10
-5.66218970454903
  20
42.37969910053901
  30
819.274
  0
SEQEND
  8
Unknown Area Type
  0
TEXT
  8
Unknown Area Type
 62
7
  1
PNOA-H_AMS_1956-57_33k_ES_PAN_2
 40
0.00045
  10
-5.66137015994337
  20
42.39706743920645
  0
POLYLINE
  8
Unknown Area Type
  70
9
  66
1
  0
VERTEX
  8
Unknown Area Type
  70
32
  10
-5.75943517322007
  20
42.41514289763217
  30
835.261
  0
VERTEX
  8
Unknown Area Type
  70
32
  10
-5.74503523701684
  20
42.41280086559044
  30
833.239
  0
VERTEX
  8
Unknown Area Type
  70
32
  10
-5.74637992330875
  20
42.38207929504571
  30
819.913
  0
VERTEX
  8
Unknown Area Type
  70
32
  10
-5.76735727404333
  20
42.37808500931098
  30
814.48
  0
VERTEX
  8
Unknown Area Type
  70
32
  10
-5.77918274305462
  20
42.38170244681996
  30
813.428
  0
VERTEX
  8
Unknown Area Type
  70
32
  10
-5.78156899757609
  20
42.41192856294614
  30
825.327
  0
VERTEX
  8
Unknown Area Type
  70
32
  10
-5.76849310801043
  20
42.41661728739173
  30
835.107
  0
VERTEX
  8
Unknown Area Type
  70
32
  10
-5.75946572036216
  20
42.41514666429148
  30
834.926
  0
VERTEX
  8
Unknown Area Type
  70
32
  10
-5.75943517322007
  20
42.41514289763217
  30
835.261
  0
SEQEND
  8
Unknown Area Type
  0
TEXT
  8
Unknown Area Type
 62
7
  1
PNOA-H_AMS_1956-57_33k_ES_PAN_2
 40
0.00045
  10
-5.76330260666006
  20
42.39731255635766
  0
POLYLINE
  8
Unknown Area Type
  70
9
  66
1
  0
VERTEX
  8
Unknown Area Type
  70
32
  10
-5.75943517322007
  20
42.41514289763217
  30
835.261
  0
VERTEX
  8
Unknown Area Type
  70
32
  10
-5.74503523701684
  20
42.41280086559044
  30
833.239
  0
VERTEX
  8
Unknown Area Type
  70
32
  10
-5.74637992330875
  20
42.38207929504571
  30
819.913
  0
VERTEX
  8
Unknown Area Type
  70
32
  10
-5.76735727404333
  20
42.37808500931098
  30
814.48
  0
VERTEX
  8
Unknown Area Type
  70
32
  10
-5.77918274305462
  20
42.38170244681996
  30
813.428
  0
VERTEX
  8
Unknown Area Type
  70
32
  10
-5.78156899757609
  20
42.41192856294614
  30
825.327
  0
VERTEX
  8
Unknown Area Type
  70
32
  10
-5.76849310801043
  20
42.41661728739173
  30
835.107
  0
VERTEX
  8
Unknown Area Type
  70
32
  10
-5.75946572036216
  20
42.41514666429148
  30
834.926
  0
VERTEX
  8
Unknown Area Type
  70
32
  10
-5.75943517322007
  20
42.41514289763217
  30
835.261
  0
SEQEND
  8
Unknown Area Type
  0
TEXT
  8
Unknown Area Type
 62
7
  1
PNOA-H_AMS_1956-57_33k_ES_PAN_2
 40
0.00045
  10
-5.76330260666006
  20
42.39731255635766
  0
POLYLINE
  8
Unknown Area Type
  70
9
  66
1
  0
VERTEX
  8
Unknown Area Type
  70
32
  10
-5.85416666666668
  20
42.49694774996316
  30
839.827
  0
VERTEX
  8
Unknown Area Type
  70
32
  10
-5.85323890028131
  20
42.49631158525978
  30
839.539
  0
VERTEX
  8
Unknown Area Type
  70
32
  10
-5.85416666666668
  20
42.47951272245047
  30
833.535
  0
SEQEND
  8
Unknown Area Type
  0
TEXT
  8
Unknown Area Type
 62
7
  1
PNOA-H_AMS_1956-57_33k_ES_PAN_2
 40
0.00045
  10
-5.85370278347399
  20
42.48823023620681
  0
POLYLINE
  8
Unknown Area Type
  70
9
  66
1
  0
VERTEX
  8
Unknown Area Type
  70
32
  10
-5.85416700000001
  20
42.49694797852813
  30
839.827
  0
VERTEX
  8
Unknown Area Type
  70
32
  10
-5.85416666666668
  20
42.49694774996316
  30
839.827
  0
VERTEX
  8
Unknown Area Type
  70
32
  10
-5.85416666666668
  20
42.47951272245047
  30
833.535
  0
VERTEX
  8
Unknown Area Type
  70
32
  10
-5.85416700000001
  20
42.47950668685678
  30
833.533
  0
SEQEND
  8
Unknown Area Type
  0
TEXT
  8
Unknown Area Type
 62
7
  1
PNOA-H_AMS_1956-57_33k_ES_PAN_2
 40
0.00045
  10
-5.85416683333334
  20
42.48822733269245
  0
POLYLINE
  8
Unknown Area Type
  70
9
  66
1
  0
VERTEX
  8
Unknown Area Type
  70
32
  10
-5.85416666666668
  20
42.49694774996316
  30
839.827
  0
VERTEX
  8
Unknown Area Type
  70
32
  10
-5.85323890028131
  20
42.49631158525978
  30
839.539
  0
VERTEX
  8
Unknown Area Type
  70
32
  10
-5.85416666666668
  20
42.47951272245047
  30
833.535
  0
SEQEND
  8
Unknown Area Type
  0
TEXT
  8
Unknown Area Type
 62
7
  1
PNOA-H_AMS_1956-57_33k_ES_PAN_2
 40
0.00045
  10
-5.85370278347399
  20
42.48823023620681
  0
POLYLINE
  8
Unknown Area Type
  70
9
  66
1
  0
VERTEX
  8
Unknown Area Type
  70
32
  10
-5.63496039128705
  20
42.41442663312079
  30
825.305
  0
VERTEX
  8
Unknown Area Type
  70
32
  10
-5.61236880942286
  20
42.41443524535163
  30
818.173
  0
VERTEX
  8
Unknown Area Type
  70
32
  10
-5.61119531756268
  20
42.41383163827081
  30
818.923
  0
VERTEX
  8
Unknown Area Type
  70
32
  10
-5.61180512288408
  20
42.38109291847644
  30
814.256
  0
VERTEX
  8
Unknown Area Type
  70
32
  10
-5.63925583436229
  20
42.37935620889159
  30
815.576
  0
VERTEX
  8
Unknown Area Type
  70
32
  10
-5.63934096247691
  20
42.37935875041511
  30
815.662
  0
VERTEX
  8
Unknown Area Type
  70
32
  10
-5.64456437134119
  20
42.38154362490039
  30
817.617
  0
VERTEX
  8
Unknown Area Type
  70
32
  10
-5.64482444372484
  20
42.41346540407923
  30
826.652
  0
VERTEX
  8
Unknown Area Type
  70
32
  10
-5.64288386576483
  20
42.41442421193211
  30
826.548
  0
VERTEX
  8
Unknown Area Type
  70
32
  10
-5.63497860283103
  20
42.41442621423163
  30
825.305
  0
VERTEX
  8
Unknown Area Type
  70
32
  10
-5.63496039128705
  20
42.41442663312079
  30
825.305
  0
SEQEND
  8
Unknown Area Type
  0
TEXT
  8
Unknown Area Type
 62
7
  1
PNOA-H_AMS_1956-57_33k_ES_PAN_2
 40
0.00045
  10
-5.62801031546542
  20
42.39724689254113
  0
POLYLINE
  8
Unknown Area Type
  70
9
  66
1
  0
VERTEX
  8
Unknown Area Type
  70
32
  10
-5.63496039128705
  20
42.41442663312079
  30
825.305
  0
VERTEX
  8
Unknown Area Type
  70
32
  10
-5.61236880942286
  20
42.41443524535163
  30
818.173
  0
VERTEX
  8
Unknown Area Type
  70
32
  10
-5.61119531756268
  20
42.41383163827081
  30
818.923
  0
VERTEX
  8
Unknown Area Type
  70
32
  10
-5.61180512288408
  20
42.38109291847644
  30
814.256
  0
VERTEX
  8
Unknown Area Type
  70
32
  10
-5.63925583436229
  20
42.37935620889159
  30
815.576
  0
VERTEX
  8
Unknown Area Type
  70
32
  10
-5.63934096247691
  20
42.37935875041511
  30
815.662
  0
VERTEX
  8
Unknown Area Type
  70
32
  10
-5.64456437134119
  20
42.38154362490039
  30
817.617
  0
VERTEX
  8
Unknown Area Type
  70
32
  10
-5.64482444372484
  20
42.41346540407923
  30
826.652
  0
VERTEX
  8
Unknown Area Type
  70
32
  10
-5.64288386576483
  20
42.41442421193211
  30
826.548
  0
VERTEX
  8
Unknown Area Type
  70
32
  10
-5.63497860283103
  20
42.41442621423163
  30
825.305
  0
VERTEX
  8
Unknown Area Type
  70
32
  10
-5.63496039128705
  20
42.41442663312079
  30
825.305
  0
SEQEND
  8
Unknown Area Type
  0
TEXT
  8
Unknown Area Type
 62
7
  1
PNOA-H_AMS_1956-57_33k_ES_PAN_2
 40
0.00045
  10
-5.62801031546542
  20
42.39724689254113
  0
POLYLINE
  8
Unknown Area Type
  70
9
  66
1
  0
VERTEX
  8
Unknown Area Type
  70
32
  10
-5.54916222179944
  20
42.41503515875234
  30
761.348
  0
VERTEX
  8
Unknown Area Type
  70
32
  10
-5.54659637922556
  20
42.41379547460404
  30
761.732
  0
VERTEX
  8
Unknown Area Type
  70
32
  10
-5.54549326120179
  20
42.38141920394671
  30
758.459
  0
VERTEX
  8
Unknown Area Type
  70
32
  10
-5.575717553594
  20
42.38047806741756
  30
798.735
  0
VERTEX
  8
Unknown Area Type
  70
32
  10
-5.57756856606939
  20
42.3813369619571
  30
798.79
  0
VERTEX
  8
Unknown Area Type
  70
32
  10
-5.57918285493737
  20
42.41377338358132
  30
793.742
  0
VERTEX
  8
Unknown Area Type
  70
32
  10
-5.54938666592225
  20
42.4150256617615
  30
761.377
  0
VERTEX
  8
Unknown Area Type
  70
32
  10
-5.54916222179944
  20
42.41503515875234
  30
761.348
  0
SEQEND
  8
Unknown Area Type
  0
TEXT
  8
Unknown Area Type
 62
7
  1
PNOA-H_AMS_1956-57_33k_ES_PAN_2
 40
0.00045
  10
-5.56233835641829
  20
42.3976863658043
  0
POLYLINE
  8
Unknown Area Type
  70
9
  66
1
  0
VERTEX
  8
Unknown Area Type
  70
32
  10
-5.54916222179944
  20
42.41503515875234
  30
761.348
  0
VERTEX
  8
Unknown Area Type
  70
32
  10
-5.54659637922556
  20
42.41379547460404
  30
761.732
  0
VERTEX
  8
Unknown Area Type
  70
32
  10
-5.54549326120179
  20
42.38141920394671
  30
758.459
  0
VERTEX
  8
Unknown Area Type
  70
32
  10
-5.575717553594
  20
42.38047806741756
  30
798.735
  0
VERTEX
  8
Unknown Area Type
  70
32
  10
-5.57756856606939
  20
42.3813369619571
  30
798.79
  0
VERTEX
  8
Unknown Area Type
  70
32
  10
-5.57918285493737
  20
42.41377338358132
  30
793.742
  0
VERTEX
  8
Unknown Area Type
  70
32
  10
-5.54938666592225
  20
42.4150256617615
  30
761.377
  0
VERTEX
  8
Unknown Area Type
  70
32
  10
-5.54916222179944
  20
42.41503515875234
  30
761.348
  0
SEQEND
  8
Unknown Area Type
  0
TEXT
  8
Unknown Area Type
 62
7
  1
PNOA-H_AMS_1956-57_33k_ES_PAN_2
 40
0.00045
  10
-5.56233835641829
  20
42.3976863658043
  0
POLYLINE
  8
Unknown Area Type
  70
9
  66
1
  0
VERTEX
  8
Unknown Area Type
  70
32
  10
-5.54659619711045
  20
42.41379097605218
  30
761.731
  0
VERTEX
  8
Unknown Area Type
  70
32
  10
-5.52083333333329
  20
42.41524493404343
  30
766.083
  0
VERTEX
  8
Unknown Area Type
  70
32
  10
-5.52083333333329
  20
42.39583333333334
  30
767.49
  0
VERTEX
  8
Unknown Area Type
  70
32
  10
-5.52083333333329
  20
42.38184758394492
  30
763.849
  0
VERTEX
  8
Unknown Area Type
  70
32
  10
-5.5434093613058
  20
42.38049741915034
  30
758.031
  0
VERTEX
  8
Unknown Area Type
  70
32
  10
-5.54350055825307
  20
42.38049989728574
  30
758.137
  0
VERTEX
  8
Unknown Area Type
  70
32
  10
-5.54549326120179
  20
42.38141920394671
  30
758.459
  0
SEQEND
  8
Unknown Area Type
  0
TEXT
  8
Unknown Area Type
 62
7
  1
PNOA-H_AMS_1956-57_33k_ES_PAN_2
 40
0.00045
  10
-5.52973344615193
  20
42.39802712493226
  0
POLYLINE
  8
Unknown Area Type
  70
9
  66
1
  0
VERTEX
  8
Unknown Area Type
  70
32
  10
-5.54659619711045
  20
42.41379097605218
  30
761.731
  0
VERTEX
  8
Unknown Area Type
  70
32
  10
-5.52083333333329
  20
42.41524493404343
  30
766.083
  0
VERTEX
  8
Unknown Area Type
  70
32
  10
-5.52083333333329
  20
42.39583333333334
  30
767.49
  0
VERTEX
  8
Unknown Area Type
  70
32
  10
-5.52083333333329
  20
42.38184758394492
  30
763.849
  0
VERTEX
  8
Unknown Area Type
  70
32
  10
-5.5434093613058
  20
42.38049741915034
  30
758.031
  0
VERTEX
  8
Unknown Area Type
  70
32
  10
-5.54350055825307
  20
42.38049989728574
  30
758.137
  0
VERTEX
  8
Unknown Area Type
  70
32
  10
-5.54549326120179
  20
42.38141920394671
  30
758.459
  0
SEQEND
  8
Unknown Area Type
  0
TEXT
  8
Unknown Area Type
 62
7
  1
PNOA-H_AMS_1956-57_33k_ES_PAN_2
 40
0.00045
  10
-5.52973344615193
  20
42.39802712493226
  0
POLYLINE
  8
Unknown Area Type
  70
9
  66
1
  0
VERTEX
  8
Unknown Area Type
  70
32
  10
-5.52083333333329
  20
42.39583333333334
  30
767.49
  0
VERTEX
  8
Unknown Area Type
  70
32
  10
-5.52083333333329
  20
42.41524493404343
  30
766.083
  0
VERTEX
  8
Unknown Area Type
  70
32
  10
-5.52083299999996
  20
42.4152449528555
  30
766.083
  0
VERTEX
  8
Unknown Area Type
  70
32
  10
-5.52083299999996
  20
42.38184760388
  30
763.849
  0
VERTEX
  8
Unknown Area Type
  70
32
  10
-5.52083333333329
  20
42.38184758394492
  30
763.849
  0
SEQEND
  8
Unknown Area Type
  0
TEXT
  8
Unknown Area Type
 62
7
  1
PNOA-H_AMS_1956-57_33k_ES_PAN_2
 40
0.00045
  10
-5.52083316666663
  20
42.39854626840021
  0
POLYLINE
  8
Unknown Area Type
  70
9
  66
1
  0
VERTEX
  8
Unknown Area Type
  70
32
  10
-5.80916307684091
  20
42.41375857072241
  30
820.979
  0
VERTEX
  8
Unknown Area Type
  70
32
  10
-5.80242209759406
  20
42.41602186070732
  30
823.494
  0
VERTEX
  8
Unknown Area Type
  70
32
  10
-5.7815687986829
  20
42.41192406525287
  30
825.326
  0
VERTEX
  8
Unknown Area Type
  70
32
  10
-5.77918711034357
  20
42.38180139679452
  30
812.68
  0
VERTEX
  8
Unknown Area Type
  70
32
  10
-5.77918861117942
  20
42.38169780191898
  30
813.411
  0
VERTEX
  8
Unknown Area Type
  70
32
  10
-5.79908593402479
  20
42.37722862315447
  30
810.746
  0
VERTEX
  8
Unknown Area Type
  70
32
  10
-5.79948309793296
  20
42.37714687781751
  30
810.862
  0
VERTEX
  8
Unknown Area Type
  70
32
  10
-5.81430452376999
  20
42.3810431237638
  30
810.012
  0
VERTEX
  8
Unknown Area Type
  70
32
  10
-5.8121438911887
  20
42.41274890738897
  30
821.547
  0
VERTEX
  8
Unknown Area Type
  70
32
  10
-5.81209634092216
  20
42.41277258730631
  30
821.98
  0
VERTEX
  8
Unknown Area Type
  70
32
  10
-5.80918108467513
  20
42.41375362658096
  30
820.977
  0
VERTEX
  8
Unknown Area Type
  70
32
  10
-5.80916307684091
  20
42.41375857072241
  30
820.979
  0
SEQEND
  8
Unknown Area Type
  0
TEXT
  8
Unknown Area Type
 62
7
  1
PNOA-H_AMS_1956-57_33k_ES_PAN_2
 40
0.00045
  10
-5.79674580155901
  20
42.39632890663112
  0
POLYLINE
  8
Unknown Area Type
  70
9
  66
1
  0
VERTEX
  8
Unknown Area Type
  70
32
  10
-5.80916307684091
  20
42.41375857072241
  30
820.979
  0
VERTEX
  8
Unknown Area Type
  70
32
  10
-5.80242209759406
  20
42.41602186070732
  30
823.494
  0
VERTEX
  8
Unknown Area Type
  70
32
  10
-5.7815687986829
  20
42.41192406525287
  30
825.326
  0
VERTEX
  8
Unknown Area Type
  70
32
  10
-5.77918711034357
  20
42.38180139679452
  30
812.68
  0
VERTEX
  8
Unknown Area Type
  70
32
  10
-5.77918861117942
  20
42.38169780191898
  30
813.411
  0
VERTEX
  8
Unknown Area Type
  70
32
  10
-5.79908593402479
  20
42.37722862315447
  30
810.746
  0
VERTEX
  8
Unknown Area Type
  70
32
  10
-5.79948309793296
  20
42.37714687781751
  30
810.862
  0
VERTEX
  8
Unknown Area Type
  70
32
  10
-5.81430452376999
  20
42.3810431237638
  30
810.012
  0
VERTEX
  8
Unknown Area Type
  70
32
  10
-5.8121438911887
  20
42.41274890738897
  30
821.547
  0
VERTEX
  8
Unknown Area Type
  70
32
  10
-5.81209634092216
  20
42.41277258730631
  30
821.98
  0
VERTEX
  8
Unknown Area Type
  70
32
  10
-5.80918108467513
  20
42.41375362658096
  30
820.977
  0
VERTEX
  8
Unknown Area Type
  70
32
  10
-5.80916307684091
  20
42.41375857072241
  30
820.979
  0
SEQEND
  8
Unknown Area Type
  0
TEXT
  8
Unknown Area Type
 62
7
  1
PNOA-H_AMS_1956-57_33k_ES_PAN_2
 40
0.00045
  10
-5.79674580155901
  20
42.39632890663112
  0
POLYLINE
  8
Unknown Area Type
  70
9
  66
1
  0
VERTEX
  8
Unknown Area Type
  70
32
  10
-5.68470644616325
  20
42.41369033624493
  30
831.627
  0
VERTEX
  8
Unknown Area Type
  70
32
  10
-5.67804066889455
  20
42.41311694723812
  30
831.148
  0
VERTEX
  8
Unknown Area Type
  70
32
  10
-5.67817574930653
  20
42.38117257649806
  30
818.968
  0
VERTEX
  8
Unknown Area Type
  70
32
  10
-5.70249903095558
  20
42.37821053028015
  30
816.544
  0
VERTEX
  8
Unknown Area Type
  70
32
  10
-5.70255969786543
  20
42.37820909919039
  30
816.629
  0
VERTEX
  8
Unknown Area Type
  70
32
  10
-5.70260900348458
  20
42.37822594636456
  30
816.734
  0
VERTEX
  8
Unknown Area Type
  70
32
  10
-5.71098519880599
  20
42.38122937046922
  30
819.313
  0
VERTEX
  8
Unknown Area Type
  70
32
  10
-5.7119708114838
  20
42.41298958551237
  30
832.418
  0
VERTEX
  8
Unknown Area Type
  70
32
  10
-5.70626534256321
  20
42.415533379349
  30
833.234
  0
VERTEX
  8
Unknown Area Type
  70
32
  10
-5.68474286735275
  20
42.41368948267046
  30
831.632
  0
VERTEX
  8
Unknown Area Type
  70
32
  10
-5.68470644616325
  20
42.41369033624493
  30
831.627
  0
SEQEND
  8
Unknown Area Type
  0
TEXT
  8
Unknown Area Type
 62
7
  1
PNOA-H_AMS_1956-57_33k_ES_PAN_2
 40
0.00045
  10
-5.69500615210601
  20
42.3968448525498
  0
POLYLINE
  8
Unknown Area Type
  70
9
  66
1
  0
VERTEX
  8
Unknown Area Type
  70
32
  10
-5.68470644616325
  20
42.41369033624493
  30
831.627
  0
VERTEX
  8
Unknown Area Type
  70
32
  10
-5.67804066889455
  20
42.41311694723812
  30
831.148
  0
VERTEX
  8
Unknown Area Type
  70
32
  10
-5.67817574930653
  20
42.38117257649806
  30
818.968
  0
VERTEX
  8
Unknown Area Type
  70
32
  10
-5.70249903095558
  20
42.37821053028015
  30
816.544
  0
VERTEX
  8
Unknown Area Type
  70
32
  10
-5.70255969786543
  20
42.37820909919039
  30
816.629
  0
VERTEX
  8
Unknown Area Type
  70
32
  10
-5.70260900348458
  20
42.37822594636456
  30
816.734
  0
VERTEX
  8
Unknown Area Type
  70
32
  10
-5.71098519880599
  20
42.38122937046922
  30
819.313
  0
VERTEX
  8
Unknown Area Type
  70
32
  10
-5.7119708114838
  20
42.41298958551237
  30
832.418
  0
VERTEX
  8
Unknown Area Type
  70
32
  10
-5.70626534256321
  20
42.415533379349
  30
833.234
  0
VERTEX
  8
Unknown Area Type
  70
32
  10
-5.68474286735275
  20
42.41368948267046
  30
831.632
  0
VERTEX
  8
Unknown Area Type
  70
32
  10
-5.68470644616325
  20
42.41369033624493
  30
831.627
  0
SEQEND
  8
Unknown Area Type
  0
TEXT
  8
Unknown Area Type
 62
7
  1
PNOA-H_AMS_1956-57_33k_ES_PAN_2
 40
0.00045
  10
-5.69500615210601
  20
42.3968448525498
  0
POLYLINE
  8
Unknown Area Type
  70
9
  66
1
  0
VERTEX
  8
Unknown Area Type
  70
32
  10
-5.61025456491058
  20
42.4138575799682
  30
817.43
  0
VERTEX
  8
Unknown Area Type
  70
32
  10
-5.58096372587244
  20
42.41467431694802
  30
796.99
  0
VERTEX
  8
Unknown Area Type
  70
32
  10
-5.5791953652694
  20
42.41378210710719
  30
793.785
  0
VERTEX
  8
Unknown Area Type
  70
32
  10
-5.57918285493737
  20
42.41377338358132
  30
793.742
  0
VERTEX
  8
Unknown Area Type
  70
32
  10
-5.57916848430732
  20
42.41357109057862
  30
793.711
  0
VERTEX
  8
Unknown Area Type
  70
32
  10
-5.57756875018875
  20
42.38134146042547
  30
798.784
  0
VERTEX
  8
Unknown Area Type
  70
32
  10
-5.60827794181019
  20
42.37951181162384
  30
813.812
  0
VERTEX
  8
Unknown Area Type
  70
32
  10
-5.60838733915269
  20
42.37951382368352
  30
813.854
  0
VERTEX
  8
Unknown Area Type
  70
32
  10
-5.61180493632247
  20
42.38108842012991
  30
814.254
  0
VERTEX
  8
Unknown Area Type
  70
32
  10
-5.61120026774234
  20
42.41380450996382
  30
818.996
  0
VERTEX
  8
Unknown Area Type
  70
32
  10
-5.6111951308308
  20
42.41382713994787
  30
818.935
  0
VERTEX
  8
Unknown Area Type
  70
32
  10
-5.61111640011103
  20
42.41383343704347
  30
818.873
  0
VERTEX
  8
Unknown Area Type
  70
32
  10
-5.61025456491058
  20
42.4138575799682
  30
817.43
  0
SEQEND
  8
Unknown Area Type
  0
TEXT
  8
Unknown Area Type
 62
7
  1
PNOA-H_AMS_1956-57_33k_ES_PAN_2
 40
0.00045
  10
-5.5946871434066
  20
42.39730542003015
  0
POLYLINE
  8
Unknown Area Type
  70
9
  66
1
  0
VERTEX
  8
Unknown Area Type
  70
32
  10
-5.61025456491058
  20
42.4138575799682
  30
817.43
  0
VERTEX
  8
Unknown Area Type
  70
32
  10
-5.58096372587244
  20
42.41467431694802
  30
796.99
  0
VERTEX
  8
Unknown Area Type
  70
32
  10
-5.5791953652694
  20
42.41378210710719
  30
793.785
  0
VERTEX
  8
Unknown Area Type
  70
32
  10
-5.57918285493737
  20
42.41377338358132
  30
793.742
  0
VERTEX
  8
Unknown Area Type
  70
32
  10
-5.57916848430732
  20
42.41357109057862
  30
793.711
  0
VERTEX
  8
Unknown Area Type
  70
32
  10
-5.57756875018875
  20
42.38134146042547
  30
798.784
  0
VERTEX
  8
Unknown Area Type
  70
32
  10
-5.60827794181019
  20
42.37951181162384
  30
813.812
  0
VERTEX
  8
Unknown Area Type
  70
32
  10
-5.60838733915269
  20
42.37951382368352
  30
813.854
  0
VERTEX
  8
Unknown Area Type
  70
32
  10
-5.61180493632247
  20
42.38108842012991
  30
814.254
  0
VERTEX
  8
Unknown Area Type
  70
32
  10
-5.61120026774234
  20
42.41380450996382
  30
818.996
  0
VERTEX
  8
Unknown Area Type
  70
32
  10
-5.6111951308308
  20
42.41382713994787
  30
818.935
  0
VERTEX
  8
Unknown Area Type
  70
32
  10
-5.61111640011103
  20
42.41383343704347
  30
818.873
  0
VERTEX
  8
Unknown Area Type
  70
32
  10
-5.61025456491058
  20
42.4138575799682
  30
817.43
  0
SEQEND
  8
Unknown Area Type
  0
TEXT
  8
Unknown Area Type
 62
7
  1
PNOA-H_AMS_1956-57_33k_ES_PAN_2
 40
0.00045
  10
-5.5946871434066
  20
42.39730542003015
  0
POLYLINE
  8
Unknown Area Type
  70
9
  66
1
  0
VERTEX
  8
Unknown Area Type
  70
32
  10
-5.85416666666668
  20
42.47916666666669
  30
833.412
  0
VERTEX
  8
Unknown Area Type
  70
32
  10
-5.85416666666668
  20
42.47951272245047
  30
833.535
  0
VERTEX
  8
Unknown Area Type
  70
32
  10
-5.85323890028131
  20
42.49631158525978
  30
839.539
  0
VERTEX
  8
Unknown Area Type
  70
32
  10
-5.82029745523721
  20
42.49830724630263
  30
852.567
  0
VERTEX
  8
Unknown Area Type
  70
32
  10
-5.820176103828
  20
42.49831473731356
  30
852.535
  0
VERTEX
  8
Unknown Area Type
  70
32
  10
-5.82015159082963
  20
42.49831083852822
  30
852.559
  0
VERTEX
  8
Unknown Area Type
  70
32
  10
-5.81926835143086
  20
42.49774726665531
  30
851.191
  0
VERTEX
  8
Unknown Area Type
  70
32
  10
-5.81926471196654
  20
42.49766631200206
  30
851.334
  0
VERTEX
  8
Unknown Area Type
  70
32
  10
-5.81885850886083
  20
42.45937830106351
  30
838.252
  0
VERTEX
  8
Unknown Area Type
  70
32
  10
-5.83453364055653
  20
42.45653307224354
  30
832.032
  0
VERTEX
  8
Unknown Area Type
  70
32
  10
-5.83493693216966
  20
42.45657712009997
  30
831.737
  0
VERTEX
  8
Unknown Area Type
  70
32
  10
-5.85416666666668
  20
42.45902612134026
  30
826.567
  0
SEQEND
  8
Unknown Area Type
  0
TEXT
  8
Unknown Area Type
 62
7
  1
PNOA-H_AMS_1956-57_33k_ES_PAN_2
 40
0.00045
  10
-5.83707472646983
  20
42.47706862444454
  0
POLYLINE
  8
Unknown Area Type
  70
9
  66
1
  0
VERTEX
  8
Unknown Area Type
  70
32
  10
-5.85416700000001
  20
42.47950668685678
  30
833.533
  0
VERTEX
  8
Unknown Area Type
  70
32
  10
-5.85416666666668
  20
42.47951272245047
  30
833.535
  0
VERTEX
  8
Unknown Area Type
  70
32
  10
-5.85416666666668
  20
42.47916666666669
  30
833.412
  0
VERTEX
  8
Unknown Area Type
  70
32
  10
-5.85416666666668
  20
42.45902612134026
  30
826.567
  0
VERTEX
  8
Unknown Area Type
  70
32
  10
-5.85416700000001
  20
42.45902616379189
  30
826.567
  0
SEQEND
  8
Unknown Area Type
  0
TEXT
  8
Unknown Area Type
 62
7
  1
PNOA-H_AMS_1956-57_33k_ES_PAN_2
 40
0.00045
  10
-5.85416683333334
  20
42.46926942189536
  0
POLYLINE
  8
Unknown Area Type
  70
9
  66
1
  0
VERTEX
  8
Unknown Area Type
  70
32
  10
-5.85416666666668
  20
42.47916666666669
  30
833.412
  0
VERTEX
  8
Unknown Area Type
  70
32
  10
-5.85416666666668
  20
42.47951272245047
  30
833.535
  0
VERTEX
  8
Unknown Area Type
  70
32
  10
-5.85323890028131
  20
42.49631158525978
  30
839.539
  0
VERTEX
  8
Unknown Area Type
  70
32
  10
-5.82029745523721
  20
42.49830724630263
  30
852.567
  0
VERTEX
  8
Unknown Area Type
  70
32
  10
-5.820176103828
  20
42.49831473731356
  30
852.535
  0
VERTEX
  8
Unknown Area Type
  70
32
  10
-5.82015159082963
  20
42.49831083852822
  30
852.559
  0
VERTEX
  8
Unknown Area Type
  70
32
  10
-5.81926835143086
  20
42.49774726665531
  30
851.191
  0
VERTEX
  8
Unknown Area Type
  70
32
  10
-5.81926471196654
  20
42.49766631200206
  30
851.334
  0
VERTEX
  8
Unknown Area Type
  70
32
  10
-5.81885850886083
  20
42.45937830106351
  30
838.252
  0
VERTEX
  8
Unknown Area Type
  70
32
  10
-5.83453364055653
  20
42.45653307224354
  30
832.032
  0
VERTEX
  8
Unknown Area Type
  70
32
  10
-5.83493693216966
  20
42.45657712009997
  30
831.737
  0
VERTEX
  8
Unknown Area Type
  70
32
  10
-5.85416666666668
  20
42.45902612134026
  30
826.567
  0
SEQEND
  8
Unknown Area Type
  0
TEXT
  8
Unknown Area Type
 62
7
  1
PNOA-H_AMS_1956-57_33k_ES_PAN_2
 40
0.00045
  10
-5.83707472646983
  20
42.47706862444454
  0
POLYLINE
  8
Unknown Area Type
  70
9
  66
1
  0
VERTEX
  8
Unknown Area Type
  70
32
  10
-5.7630815035011
  20
42.49807664160325
  30
870.192
  0
VERTEX
  8
Unknown Area Type
  70
32
  10
-5.75351897698834
  20
42.49743347913157
  30
868.585
  0
VERTEX
  8
Unknown Area Type
  70
32
  10
-5.75327169492606
  20
42.45935734374086
  30
851.684
  0
VERTEX
  8
Unknown Area Type
  70
32
  10
-5.7702651311869
  20
42.45641717483289
  30
851.003
  0
VERTEX
  8
Unknown Area Type
  70
32
  10
-5.78604648878773
  20
42.4589474928433
  30
851.537
  0
VERTEX
  8
Unknown Area Type
  70
32
  10
-5.78562097812353
  20
42.49868773714487
  30
866.577
  0
VERTEX
  8
Unknown Area Type
  70
32
  10
-5.78437916629297
  20
42.49949686410346
  30
867.319
  0
VERTEX
  8
Unknown Area Type
  70
32
  10
-5.78435545346154
  20
42.49951094805591
  30
867.331
  0
VERTEX
  8
Unknown Area Type
  70
32
  10
-5.78432506352767
  20
42.49951168693819
  30
867.337
  0
VERTEX
  8
Unknown Area Type
  70
32
  10
-5.76313640328762
  20
42.49807981948028
  30
870.159
  0
VERTEX
  8
Unknown Area Type
  70
32
  10
-5.7630815035011
  20
42.49807664160325
  30
870.192
  0
SEQEND
  8
Unknown Area Type
  0
TEXT
  8
Unknown Area Type
 62
7
  1
PNOA-H_AMS_1956-57_33k_ES_PAN_2
 40
0.00045
  10
-5.76965961547714
  20
42.47751942059311
  0
POLYLINE
  8
Unknown Area Type
  70
9
  66
1
  0
VERTEX
  8
Unknown Area Type
  70
32
  10
-5.7630815035011
  20
42.49807664160325
  30
870.192
  0
VERTEX
  8
Unknown Area Type
  70
32
  10
-5.75351897698834
  20
42.49743347913157
  30
868.585
  0
VERTEX
  8
Unknown Area Type
  70
32
  10
-5.75327169492606
  20
42.45935734374086
  30
851.684
  0
VERTEX
  8
Unknown Area Type
  70
32
  10
-5.7702651311869
  20
42.45641717483289
  30
851.003
  0
VERTEX
  8
Unknown Area Type
  70
32
  10
-5.78604648878773
  20
42.4589474928433
  30
851.537
  0
VERTEX
  8
Unknown Area Type
  70
32
  10
-5.78562097812353
  20
42.49868773714487
  30
866.577
  0
VERTEX
  8
Unknown Area Type
  70
32
  10
-5.78437916629297
  20
42.49949686410346
  30
867.319
  0
VERTEX
  8
Unknown Area Type
  70
32
  10
-5.78435545346154
  20
42.49951094805591
  30
867.331
  0
VERTEX
  8
Unknown Area Type
  70
32
  10
-5.78432506352767
  20
42.49951168693819
  30
867.337
  0
VERTEX
  8
Unknown Area Type
  70
32
  10
-5.76313640328762
  20
42.49807981948028
  30
870.159
  0
VERTEX
  8
Unknown Area Type
  70
32
  10
-5.7630815035011
  20
42.49807664160325
  30
870.192
  0
SEQEND
  8
Unknown Area Type
  0
TEXT
  8
Unknown Area Type
 62
7
  1
PNOA-H_AMS_1956-57_33k_ES_PAN_2
 40
0.00045
  10
-5.76965961547714
  20
42.47751942059311
  0
POLYLINE
  8
Unknown Area Type
  70
9
  66
1
  0
VERTEX
  8
Unknown Area Type
  70
32
  10
-5.81322816893284
  20
42.49791832119602
  30
865.135
  0
VERTEX
  8
Unknown Area Type
  70
32
  10
-5.78562097812353
  20
42.49868773714487
  30
866.577
  0
VERTEX
  8
Unknown Area Type
  70
32
  10
-5.78604648878773
  20
42.4589474928433
  30
851.537
  0
VERTEX
  8
Unknown Area Type
  70
32
  10
-5.80143812352577
  20
42.45625777050054
  30
840.188
  0
VERTEX
  8
Unknown Area Type
  70
32
  10
-5.81885850886083
  20
42.45937830106351
  30
838.252
  0
VERTEX
  8
Unknown Area Type
  70
32
  10
-5.81926835143086
  20
42.49774726665531
  30
851.191
  0
VERTEX
  8
Unknown Area Type
  70
32
  10
-5.81450427936503
  20
42.49788246277033
  30
859.968
  0
VERTEX
  8
Unknown Area Type
  70
32
  10
-5.81322816893284
  20
42.49791832119602
  30
865.135
  0
SEQEND
  8
Unknown Area Type
  0
TEXT
  8
Unknown Area Type
 62
7
  1
PNOA-H_AMS_1956-57_33k_ES_PAN_2
 40
0.00045
  10
-5.80244496076226
  20
42.47732690825853
  0
POLYLINE
  8
Unknown Area Type
  70
9
  66
1
  0
VERTEX
  8
Unknown Area Type
  70
32
  10
-5.81322816893284
  20
42.49791832119602
  30
865.135
  0
VERTEX
  8
Unknown Area Type
  70
32
  10
-5.78562097812353
  20
42.49868773714487
  30
866.577
  0
VERTEX
  8
Unknown Area Type
  70
32
  10
-5.78604648878773
  20
42.4589474928433
  30
851.537
  0
VERTEX
  8
Unknown Area Type
  70
32
  10
-5.80143812352577
  20
42.45625777050054
  30
840.188
  0
VERTEX
  8
Unknown Area Type
  70
32
  10
-5.81885850886083
  20
42.45937830106351
  30
838.252
  0
VERTEX
  8
Unknown Area Type
  70
32
  10
-5.81926835143086
  20
42.49774726665531
  30
851.191
  0
VERTEX
  8
Unknown Area Type
  70
32
  10
-5.81450427936503
  20
42.49788246277033
  30
859.968
  0
VERTEX
  8
Unknown Area Type
  70
32
  10
-5.81322816893284
  20
42.49791832119602
  30
865.135
  0
SEQEND
  8
Unknown Area Type
  0
TEXT
  8
Unknown Area Type
 62
7
  1
PNOA-H_AMS_1956-57_33k_ES_PAN_2
 40
0.00045
  10
-5.80244496076226
  20
42.47732690825853
  0
POLYLINE
  8
Unknown Area Type
  70
9
  66
1
  0
VERTEX
  8
Unknown Area Type
  70
32
  10
-5.68627554046559
  20
42.49774277574473
  30
875.783
  0
VERTEX
  8
Unknown Area Type
  70
32
  10
-5.68627061812203
  20
42.49776990621751
  30
875.81
  0
VERTEX
  8
Unknown Area Type
  70
32
  10
-5.68617529160857
  20
42.49781716714708
  30
875.94
  0
VERTEX
  8
Unknown Area Type
  70
32
  10
-5.68173253808408
  20
42.5
  30
874.002
  0
VERTEX
  8
Unknown Area Type
  70
32
  10
-5.67263715844645
  20
42.5
  30
872.095
  0
VERTEX
  8
Unknown Area Type
  70
32
  10
-5.6533596529431
  20
42.49805084708183
  30
868.952
  0
VERTEX
  8
Unknown Area Type
  70
32
  10
-5.65327037158418
  20
42.47220394148706
  30
863.291
  0
VERTEX
  8
Unknown Area Type
  70
32
  10
-5.65326675918747
  20
42.47211847711436
  30
863.227
  0
VERTEX
  8
Unknown Area Type
  70
32
  10
-5.6532159672844
  20
42.45868409400759
  30
860.426
  0
VERTEX
  8
Unknown Area Type
  70
32
  10
-5.65322507614842
  20
42.45861184240891
  30
860.423
  0
VERTEX
  8
Unknown Area Type
  70
32
  10
-5.67378045134715
  20
42.4561077122412
  30
862.054
  0
VERTEX
  8
Unknown Area Type
  70
32
  10
-5.68704413996449
  20
42.45886354327789
  30
863.709
  0
SEQEND
  8
Unknown Area Type
  0
TEXT
  8
Unknown Area Type
 62
7
  1
PNOA-H_AMS_1956-57_33k_ES_PAN_2
 40
0.00045
  10
-5.67013043458017
  20
42.47814769584276
  0
POLYLINE
  8
Unknown Area Type
  70
9
  66
1
  0
VERTEX
  8
Unknown Area Type
  70
32
  10
-5.68173219886484
  20
42.50000016666667
  30
874.002
  0
VERTEX
  8
Unknown Area Type
  70
32
  10
-5.67263880681251
  20
42.50000016666667
  30
872.095
  0
VERTEX
  8
Unknown Area Type
  70
32
  10
-5.67263715844645
  20
42.5
  30
872.095
  0
VERTEX
  8
Unknown Area Type
  70
32
  10
-5.68173253808408
  20
42.5
  30
874.002
  0
SEQEND
  8
Unknown Area Type
  0
TEXT
  8
Unknown Area Type
 62
7
  1
PNOA-H_AMS_1956-57_33k_ES_PAN_2
 40
0.00045
  10
-5.67718484826526
  20
42.50000008333333
  0
POLYLINE
  8
Unknown Area Type
  70
9
  66
1
  0
VERTEX
  8
Unknown Area Type
  70
32
  10
-5.68627554046559
  20
42.49774277574473
  30
875.783
  0
VERTEX
  8
Unknown Area Type
  70
32
  10
-5.68627061812203
  20
42.49776990621751
  30
875.81
  0
VERTEX
  8
Unknown Area Type
  70
32
  10
-5.68617529160857
  20
42.49781716714708
  30
875.94
  0
VERTEX
  8
Unknown Area Type
  70
32
  10
-5.68173253808408
  20
42.5
  30
874.002
  0
VERTEX
  8
Unknown Area Type
  70
32
  10
-5.67263715844645
  20
42.5
  30
872.095
  0
VERTEX
  8
Unknown Area Type
  70
32
  10
-5.6533596529431
  20
42.49805084708183
  30
868.952
  0
VERTEX
  8
Unknown Area Type
  70
32
  10
-5.65327037158418
  20
42.47220394148706
  30
863.291
  0
VERTEX
  8
Unknown Area Type
  70
32
  10
-5.65326675918747
  20
42.47211847711436
  30
863.227
  0
VERTEX
  8
Unknown Area Type
  70
32
  10
-5.6532159672844
  20
42.45868409400759
  30
860.426
  0
VERTEX
  8
Unknown Area Type
  70
32
  10
-5.65322507614842
  20
42.45861184240891
  30
860.423
  0
VERTEX
  8
Unknown Area Type
  70
32
  10
-5.67378045134715
  20
42.4561077122412
  30
862.054
  0
VERTEX
  8
Unknown Area Type
  70
32
  10
-5.68704413996449
  20
42.45886354327789
  30
863.709
  0
SEQEND
  8
Unknown Area Type
  0
TEXT
  8
Unknown Area Type
 62
7
  1
PNOA-H_AMS_1956-57_33k_ES_PAN_2
 40
0.00045
  10
-5.67013043458017
  20
42.47814769584276
  0
POLYLINE
  8
Unknown Area Type
  70
9
  66
1
  0
VERTEX
  8
Unknown Area Type
  70
32
  10
-5.55425268021393
  20
42.47436931517412
  30
788.729
  0
VERTEX
  8
Unknown Area Type
  70
32
  10
-5.55418435744071
  20
42.45818862204518
  30
783.509
  0
VERTEX
  8
Unknown Area Type
  70
32
  10
-5.57972861581064
  20
42.456400490466
  30
797.635
  0
VERTEX
  8
Unknown Area Type
  70
32
  10
-5.58703220176022
  20
42.45834296924774
  30
814.385
  0
VERTEX
  8
Unknown Area Type
  70
32
  10
-5.58849579686401
  20
42.4976756664774
  30
809.399
  0
VERTEX
  8
Unknown Area Type
  70
32
  10
-5.55567368378458
  20
42.49985357392798
  30
786.291
  0
VERTEX
  8
Unknown Area Type
  70
32
  10
-5.55438524978894
  20
42.49914389949847
  30
785.967
  0
VERTEX
  8
Unknown Area Type
  70
32
  10
-5.55436020056028
  20
42.49912644798296
  30
785.994
  0
VERTEX
  8
Unknown Area Type
  70
32
  10
-5.55435745232287
  20
42.49905897112005
  30
786.067
  0
VERTEX
  8
Unknown Area Type
  70
32
  10
-5.55425670732036
  20
42.47446828167507
  30
788.743
  0
VERTEX
  8
Unknown Area Type
  70
32
  10
-5.55425268021393
  20
42.47436931517412
  30
788.729
  0
SEQEND
  8
Unknown Area Type
  0
TEXT
  8
Unknown Area Type
 62
7
  1
PNOA-H_AMS_1956-57_33k_ES_PAN_2
 40
0.00045
  10
-5.57134028887847
  20
42.47789913601889
  0
POLYLINE
  8
Unknown Area Type
  70
9
  66
1
  0
VERTEX
  8
Unknown Area Type
  70
32
  10
-5.55425268021393
  20
42.47436931517412
  30
788.729
  0
VERTEX
  8
Unknown Area Type
  70
32
  10
-5.55418435744071
  20
42.45818862204518
  30
783.509
  0
VERTEX
  8
Unknown Area Type
  70
32
  10
-5.57972861581064
  20
42.456400490466
  30
797.635
  0
VERTEX
  8
Unknown Area Type
  70
32
  10
-5.58703220176022
  20
42.45834296924774
  30
814.385
  0
VERTEX
  8
Unknown Area Type
  70
32
  10
-5.58849579686401
  20
42.4976756664774
  30
809.399
  0
VERTEX
  8
Unknown Area Type
  70
32
  10
-5.55567368378458
  20
42.49985357392798
  30
786.291
  0
VERTEX
  8
Unknown Area Type
  70
32
  10
-5.55438524978894
  20
42.49914389949847
  30
785.967
  0
VERTEX
  8
Unknown Area Type
  70
32
  10
-5.55436020056028
  20
42.49912644798296
  30
785.994
  0
VERTEX
  8
Unknown Area Type
  70
32
  10
-5.55435745232287
  20
42.49905897112005
  30
786.067
  0
VERTEX
  8
Unknown Area Type
  70
32
  10
-5.55425670732036
  20
42.47446828167507
  30
788.743
  0
VERTEX
  8
Unknown Area Type
  70
32
  10
-5.55425268021393
  20
42.47436931517412
  30
788.729
  0
SEQEND
  8
Unknown Area Type
  0
TEXT
  8
Unknown Area Type
 62
7
  1
PNOA-H_AMS_1956-57_33k_ES_PAN_2
 40
0.00045
  10
-5.57134028887847
  20
42.47789913601889
  0
POLYLINE
  8
Unknown Area Type
  70
9
  66
1
  0
VERTEX
  8
Unknown Area Type
  70
32
  10
-5.75351897698834
  20
42.49743347913157
  30
868.585
  0
VERTEX
  8
Unknown Area Type
  70
32
  10
-5.74883228178294
  20
42.5
  30
885.141
  0
VERTEX
  8
Unknown Area Type
  70
32
  10
-5.74521276538713
  20
42.5
  30
886.014
  0
VERTEX
  8
Unknown Area Type
  70
32
  10
-5.73823233597331
  20
42.49946142169049
  30
884.459
  0
VERTEX
  8
Unknown Area Type
  70
32
  10
-5.73822017953659
  20
42.49946171235194
  30
884.452
  0
VERTEX
  8
Unknown Area Type
  70
32
  10
-5.72036315221714
  20
42.49808628410514
  30
881.388
  0
VERTEX
  8
Unknown Area Type
  70
32
  10
-5.72028982390168
  20
42.49807902092311
  30
881.342
  0
VERTEX
  8
Unknown Area Type
  70
32
  10
-5.72028845818892
  20
42.49804753592345
  30
881.323
  0
VERTEX
  8
Unknown Area Type
  70
32
  10
-5.72025746634843
  20
42.45916465377482
  30
851.014
  0
VERTEX
  8
Unknown Area Type
  70
32
  10
-5.73681199565595
  20
42.45658206382488
  30
852.268
  0
VERTEX
  8
Unknown Area Type
  70
32
  10
-5.73686058827113
  20
42.4565809027095
  30
852.223
  0
VERTEX
  8
Unknown Area Type
  70
32
  10
-5.73705045277519
  20
42.45661238580828
  30
852.195
  0
VERTEX
  8
Unknown Area Type
  70
32
  10
-5.75324700348665
  20
42.45934893228309
  30
851.682
  0
VERTEX
  8
Unknown Area Type
  70
32
  10
-5.75327169492606
  20
42.45935734374086
  30
851.684
  0
VERTEX
  8
Unknown Area Type
  70
32
  10
-5.75327662489923
  20
42.45946978782803
  30
851.629
  0
SEQEND
  8
Unknown Area Type
  0
TEXT
  8
Unknown Area Type
 62
7
  1
PNOA-H_AMS_1956-57_33k_ES_PAN_2
 40
0.00045
  10
-5.73688865504174
  20
42.47797040869358
  0
POLYLINE
  8
Unknown Area Type
  70
9
  66
1
  0
VERTEX
  8
Unknown Area Type
  70
32
  10
-5.7488319774348
  20
42.50000016666667
  30
885.142
  0
VERTEX
  8
Unknown Area Type
  70
32
  10
-5.74521492552777
  20
42.50000016666667
  30
886.014
  0
VERTEX
  8
Unknown Area Type
  70
32
  10
-5.74521276538713
  20
42.5
  30
886.014
  0
VERTEX
  8
Unknown Area Type
  70
32
  10
-5.74883228178294
  20
42.5
  30
885.141
  0
SEQEND
  8
Unknown Area Type
  0
TEXT
  8
Unknown Area Type
 62
7
  1
PNOA-H_AMS_1956-57_33k_ES_PAN_2
 40
0.00045
  10
-5.74702252358503
  20
42.50000008333333
  0
POLYLINE
  8
Unknown Area Type
  70
9
  66
1
  0
VERTEX
  8
Unknown Area Type
  70
32
  10
-5.75351897698834
  20
42.49743347913157
  30
868.585
  0
VERTEX
  8
Unknown Area Type
  70
32
  10
-5.74883228178294
  20
42.5
  30
885.141
  0
VERTEX
  8
Unknown Area Type
  70
32
  10
-5.74521276538713
  20
42.5
  30
886.014
  0
VERTEX
  8
Unknown Area Type
  70
32
  10
-5.73823233597331
  20
42.49946142169049
  30
884.459
  0
VERTEX
  8
Unknown Area Type
  70
32
  10
-5.73822017953659
  20
42.49946171235194
  30
884.452
  0
VERTEX
  8
Unknown Area Type
  70
32
  10
-5.72036315221714
  20
42.49808628410514
  30
881.388
  0
VERTEX
  8
Unknown Area Type
  70
32
  10
-5.72028982390168
  20
42.49807902092311
  30
881.342
  0
VERTEX
  8
Unknown Area Type
  70
32
  10
-5.72028845818892
  20
42.49804753592345
  30
881.323
  0
VERTEX
  8
Unknown Area Type
  70
32
  10
-5.72025746634843
  20
42.45916465377482
  30
851.014
  0
VERTEX
  8
Unknown Area Type
  70
32
  10
-5.73681199565595
  20
42.45658206382488
  30
852.268
  0
VERTEX
  8
Unknown Area Type
  70
32
  10
-5.73686058827113
  20
42.4565809027095
  30
852.223
  0
VERTEX
  8
Unknown Area Type
  70
32
  10
-5.73705045277519
  20
42.45661238580828
  30
852.195
  0
VERTEX
  8
Unknown Area Type
  70
32
  10
-5.75324700348665
  20
42.45934893228309
  30
851.682
  0
VERTEX
  8
Unknown Area Type
  70
32
  10
-5.75327169492606
  20
42.45935734374086
  30
851.684
  0
VERTEX
  8
Unknown Area Type
  70
32
  10
-5.75327662489923
  20
42.45946978782803
  30
851.629
  0
SEQEND
  8
Unknown Area Type
  0
TEXT
  8
Unknown Area Type
 62
7
  1
PNOA-H_AMS_1956-57_33k_ES_PAN_2
 40
0.00045
  10
-5.73688865504174
  20
42.47797040869358
  0
POLYLINE
  8
Unknown Area Type
  70
9
  66
1
  0
VERTEX
  8
Unknown Area Type
  70
32
  10
-5.6533596529431
  20
42.49805084708183
  30
868.952
  0
VERTEX
  8
Unknown Area Type
  70
32
  10
-5.64922830429484
  20
42.5
  30
868.373
  0
VERTEX
  8
Unknown Area Type
  70
32
  10
-5.64583333333336
  20
42.5
  30
867.983
  0
VERTEX
  8
Unknown Area Type
  70
32
  10
-5.6344282226539
  20
42.5
  30
852.211
  0
VERTEX
  8
Unknown Area Type
  70
32
  10
-5.62540960316221
  20
42.49882554809064
  30
848.61
  0
VERTEX
  8
Unknown Area Type
  70
32
  10
-5.62045151860534
  20
42.49622407543848
  30
846.524
  0
VERTEX
  8
Unknown Area Type
  70
32
  10
-5.62161639038316
  20
42.45843014365763
  30
834.068
  0
VERTEX
  8
Unknown Area Type
  70
32
  10
-5.64330133617045
  20
42.45644143060229
  30
846.798
  0
VERTEX
  8
Unknown Area Type
  70
32
  10
-5.64333778335089
  20
42.45644058950282
  30
846.871
  0
VERTEX
  8
Unknown Area Type
  70
32
  10
-5.64352798700378
  20
42.45648122536463
  30
847.101
  0
VERTEX
  8
Unknown Area Type
  70
32
  10
-5.65321919148969
  20
42.45861648125844
  30
860.426
  0
SEQEND
  8
Unknown Area Type
  0
TEXT
  8
Unknown Area Type
 62
7
  1
PNOA-H_AMS_1956-57_33k_ES_PAN_2
 40
0.00045
  10
-5.63690587131256
  20
42.47867343593734
  0
POLYLINE
  8
Unknown Area Type
  70
9
  66
1
  0
VERTEX
  8
Unknown Area Type
  70
32
  10
-5.64922795103466
  20
42.50000016666667
  30
868.373
  0
VERTEX
  8
Unknown Area Type
  70
32
  10
-5.63442950248771
  20
42.50000016666667
  30
852.212
  0
VERTEX
  8
Unknown Area Type
  70
32
  10
-5.6344282226539
  20
42.5
  30
852.211
  0
VERTEX
  8
Unknown Area Type
  70
32
  10
-5.64583333333336
  20
42.5
  30
867.983
  0
VERTEX
  8
Unknown Area Type
  70
32
  10
-5.64922830429484
  20
42.5
  30
868.373
  0
SEQEND
  8
Unknown Area Type
  0
TEXT
  8
Unknown Area Type
 62
7
  1
PNOA-H_AMS_1956-57_33k_ES_PAN_2
 40
0.00045
  10
-5.64182826347437
  20
42.50000008333333
  0
POLYLINE
  8
Unknown Area Type
  70
9
  66
1
  0
VERTEX
  8
Unknown Area Type
  70
32
  10
-5.6533596529431
  20
42.49805084708183
  30
868.952
  0
VERTEX
  8
Unknown Area Type
  70
32
  10
-5.64922830429484
  20
42.5
  30
868.373
  0
VERTEX
  8
Unknown Area Type
  70
32
  10
-5.64583333333336
  20
42.5
  30
867.983
  0
VERTEX
  8
Unknown Area Type
  70
32
  10
-5.6344282226539
  20
42.5
  30
852.211
  0
VERTEX
  8
Unknown Area Type
  70
32
  10
-5.62540960316221
  20
42.49882554809064
  30
848.61
  0
VERTEX
  8
Unknown Area Type
  70
32
  10
-5.62045151860534
  20
42.49622407543848
  30
846.524
  0
VERTEX
  8
Unknown Area Type
  70
32
  10
-5.62161639038316
  20
42.45843014365763
  30
834.068
  0
VERTEX
  8
Unknown Area Type
  70
32
  10
-5.64330133617045
  20
42.45644143060229
  30
846.798
  0
VERTEX
  8
Unknown Area Type
  70
32
  10
-5.64333778335089
  20
42.45644058950282
  30
846.871
  0
VERTEX
  8
Unknown Area Type
  70
32
  10
-5.64352798700378
  20
42.45648122536463
  30
847.101
  0
VERTEX
  8
Unknown Area Type
  70
32
  10
-5.65321919148969
  20
42.45861648125844
  30
860.426
  0
SEQEND
  8
Unknown Area Type
  0
TEXT
  8
Unknown Area Type
 62
7
  1
PNOA-H_AMS_1956-57_33k_ES_PAN_2
 40
0.00045
  10
-5.63690587131256
  20
42.47867343593734
  0
POLYLINE
  8
Unknown Area Type
  70
9
  66
1
  0
VERTEX
  8
Unknown Area Type
  70
32
  10
-5.53264452372923
  20
42.46069755317293
  30
791.463
  0
VERTEX
  8
Unknown Area Type
  70
32
  10
-5.53262611589592
  20
42.46069345759329
  30
787.346
  0
VERTEX
  8
Unknown Area Type
  70
32
  10
-5.53257606082906
  20
42.46065854369203
  30
776.916
  0
VERTEX
  8
Unknown Area Type
  70
32
  10
-5.53256690139687
  20
42.46058220242929
  30
766.7
  0
VERTEX
  8
Unknown Area Type
  70
32
  10
-5.53261958501311
  20
42.46053150929726
  30
766.321
  0
VERTEX
  8
Unknown Area Type
  70
32
  10
-5.53268033958148
  20
42.46053016601358
  30
767.092
  0
VERTEX
  8
Unknown Area Type
  70
32
  10
-5.53273039459834
  20
42.46056507987116
  30
767.901
  0
VERTEX
  8
Unknown Area Type
  70
32
  10
-5.53273955422522
  20
42.46064142111582
  30
774.983
  0
VERTEX
  8
Unknown Area Type
  70
32
  10
-5.53268687062056
  20
42.46069211430205
  30
791.942
  0
VERTEX
  8
Unknown Area Type
  70
32
  10
-5.53264452372923
  20
42.46069755317293
  30
791.463
  0
SEQEND
  8
Unknown Area Type
  0
TEXT
  8
Unknown Area Type
 62
7
  1
PNOA-H_AMS_1956-57_33k_ES_PAN_2
 40
0.00045
  10
-5.53265372090709
  20
42.46061291238935
  0
POLYLINE
  8
Unknown Area Type
  70
9
  66
1
  0
VERTEX
  8
Unknown Area Type
  70
32
  10
-5.53264452372923
  20
42.46069755317293
  30
791.463
  0
VERTEX
  8
Unknown Area Type
  70
32
  10
-5.53262611589592
  20
42.46069345759329
  30
787.346
  0
VERTEX
  8
Unknown Area Type
  70
32
  10
-5.53257606082906
  20
42.46065854369203
  30
776.916
  0
VERTEX
  8
Unknown Area Type
  70
32
  10
-5.53256690139687
  20
42.46058220242929
  30
766.7
  0
VERTEX
  8
Unknown Area Type
  70
32
  10
-5.53261958501311
  20
42.46053150929726
  30
766.321
  0
VERTEX
  8
Unknown Area Type
  70
32
  10
-5.53268033958148
  20
42.46053016601358
  30
767.092
  0
VERTEX
  8
Unknown Area Type
  70
32
  10
-5.53273039459834
  20
42.46056507987116
  30
767.901
  0
VERTEX
  8
Unknown Area Type
  70
32
  10
-5.53273955422522
  20
42.46064142111582
  30
774.983
  0
VERTEX
  8
Unknown Area Type
  70
32
  10
-5.53268687062056
  20
42.46069211430205
  30
791.942
  0
VERTEX
  8
Unknown Area Type
  70
32
  10
-5.53264452372923
  20
42.46069755317293
  30
791.463
  0
SEQEND
  8
Unknown Area Type
  0
TEXT
  8
Unknown Area Type
 62
7
  1
PNOA-H_AMS_1956-57_33k_ES_PAN_2
 40
0.00045
  10
-5.53265372090709
  20
42.46061291238935
  0
POLYLINE
  8
Unknown Area Type
  70
9
  66
1
  0
VERTEX
  8
Unknown Area Type
  70
32
  10
-5.55436020056028
  20
42.49912644798296
  30
785.994
  0
VERTEX
  8
Unknown Area Type
  70
32
  10
-5.52524354303507
  20
42.5
  30
782.689
  0
VERTEX
  8
Unknown Area Type
  70
32
  10
-5.52129005175943
  20
42.5
  30
784.294
  0
VERTEX
  8
Unknown Area Type
  70
32
  10
-5.52083333333329
  20
42.49975084384606
  30
788.003
  0
VERTEX
  8
Unknown Area Type
  70
32
  10
-5.52083333333329
  20
42.47916666666669
  30
780.317
  0
VERTEX
  8
Unknown Area Type
  70
32
  10
-5.52083333333329
  20
42.45833333333337
  30
770.759
  0
VERTEX
  8
Unknown Area Type
  70
32
  10
-5.52083333333329
  20
42.45774832122358
  30
770.77
  0
VERTEX
  8
Unknown Area Type
  70
32
  10
-5.54853302843084
  20
42.45663053447085
  30
784.671
  0
VERTEX
  8
Unknown Area Type
  70
32
  10
-5.55418435744071
  20
42.45818862204518
  30
783.509
  0
SEQEND
  8
Unknown Area Type
  0
TEXT
  8
Unknown Area Type
 62
7
  1
PNOA-H_AMS_1956-57_33k_ES_PAN_2
 40
0.00045
  10
-5.53724452860248
  20
42.47836121128141
  0
POLYLINE
  8
Unknown Area Type
  70
9
  66
1
  0
VERTEX
  8
Unknown Area Type
  70
32
  10
-5.52523798781204
  20
42.50000016666667
  30
782.689
  0
VERTEX
  8
Unknown Area Type
  70
32
  10
-5.5212903572696
  20
42.50000016666667
  30
784.291
  0
VERTEX
  8
Unknown Area Type
  70
32
  10
-5.52129005175943
  20
42.5
  30
784.294
  0
VERTEX
  8
Unknown Area Type
  70
32
  10
-5.52524354303507
  20
42.5
  30
782.689
  0
SEQEND
  8
Unknown Area Type
  0
TEXT
  8
Unknown Area Type
 62
7
  1
PNOA-H_AMS_1956-57_33k_ES_PAN_2
 40
0.00045
  10
-5.52326679739725
  20
42.50000008333333
  0
POLYLINE
  8
Unknown Area Type
  70
9
  66
1
  0
VERTEX
  8
Unknown Area Type
  70
32
  10
-5.55436020056028
  20
42.49912644798296
  30
785.994
  0
VERTEX
  8
Unknown Area Type
  70
32
  10
-5.52524354303507
  20
42.5
  30
782.689
  0
VERTEX
  8
Unknown Area Type
  70
32
  10
-5.52129005175943
  20
42.5
  30
784.294
  0
VERTEX
  8
Unknown Area Type
  70
32
  10
-5.52083333333329
  20
42.49975084384606
  30
788.003
  0
VERTEX
  8
Unknown Area Type
  70
32
  10
-5.52083333333329
  20
42.47916666666669
  30
780.317
  0
VERTEX
  8
Unknown Area Type
  70
32
  10
-5.52083333333329
  20
42.45833333333337
  30
770.759
  0
VERTEX
  8
Unknown Area Type
  70
32
  10
-5.52083333333329
  20
42.45774832122358
  30
770.77
  0
VERTEX
  8
Unknown Area Type
  70
32
  10
-5.54853302843084
  20
42.45663053447085
  30
784.671
  0
VERTEX
  8
Unknown Area Type
  70
32
  10
-5.55418435744071
  20
42.45818862204518
  30
783.509
  0
SEQEND
  8
Unknown Area Type
  0
TEXT
  8
Unknown Area Type
 62
7
  1
PNOA-H_AMS_1956-57_33k_ES_PAN_2
 40
0.00045
  10
-5.53724452860248
  20
42.47836121128141
  0
POLYLINE
  8
Unknown Area Type
  70
9
  66
1
  0
VERTEX
  8
Unknown Area Type
  70
32
  10
-5.52083333333329
  20
42.45833333333337
  30
770.759
  0
VERTEX
  8
Unknown Area Type
  70
32
  10
-5.52083333333329
  20
42.47916666666669
  30
780.317
  0
VERTEX
  8
Unknown Area Type
  70
32
  10
-5.52083333333329
  20
42.49975084384606
  30
788.003
  0
VERTEX
  8
Unknown Area Type
  70
32
  10
-5.52083299999996
  20
42.49975066200086
  30
788.005
  0
VERTEX
  8
Unknown Area Type
  70
32
  10
-5.52083299999996
  20
42.45774833467482
  30
770.77
  0
VERTEX
  8
Unknown Area Type
  70
32
  10
-5.52083333333329
  20
42.45774832122358
  30
770.77
  0
SEQEND
  8
Unknown Area Type
  0
TEXT
  8
Unknown Area Type
 62
7
  1
PNOA-H_AMS_1956-57_33k_ES_PAN_2
 40
0.00045
  10
-5.52083316666663
  20
42.47874958253482
  0
POLYLINE
  8
Unknown Area Type
  70
9
  66
1
  0
VERTEX
  8
Unknown Area Type
  70
32
  10
-5.61356180279871
  20
42.4968992951362
  30
830.142
  0
VERTEX
  8
Unknown Area Type
  70
32
  10
-5.5932311317091
  20
42.49889229109958
  30
820.311
  0
VERTEX
  8
Unknown Area Type
  70
32
  10
-5.58960382280405
  20
42.49828097364373
  30
810.736
  0
VERTEX
  8
Unknown Area Type
  70
32
  10
-5.58849598251754
  20
42.49768016481543
  30
809.418
  0
VERTEX
  8
Unknown Area Type
  70
32
  10
-5.58707022771735
  20
42.45941371939877
  30
810.651
  0
VERTEX
  8
Unknown Area Type
  70
32
  10
-5.58703220176022
  20
42.45834296924774
  30
814.385
  0
VERTEX
  8
Unknown Area Type
  70
32
  10
-5.58705631641281
  20
42.45833792205055
  30
814.507
  0
VERTEX
  8
Unknown Area Type
  70
32
  10
-5.61237063048388
  20
42.45616047745009
  30
832.047
  0
VERTEX
  8
Unknown Area Type
  70
32
  10
-5.62161620261379
  20
42.45842564540723
  30
834.057
  0
VERTEX
  8
Unknown Area Type
  70
32
  10
-5.62045133067102
  20
42.49621957721366
  30
846.521
  0
VERTEX
  8
Unknown Area Type
  70
32
  10
-5.61362240124271
  20
42.49689340974973
  30
830.461
  0
VERTEX
  8
Unknown Area Type
  70
32
  10
-5.61356180279871
  20
42.4968992951362
  30
830.142
  0
SEQEND
  8
Unknown Area Type
  0
TEXT
  8
Unknown Area Type
 62
7
  1
PNOA-H_AMS_1956-57_33k_ES_PAN_2
 40
0.00045
  10
-5.6043246197767
  20
42.47732733641213
  0
POLYLINE
  8
Unknown Area Type
  70
9
  66
1
  0
VERTEX
  8
Unknown Area Type
  70
32
  10
-5.61356180279871
  20
42.4968992951362
  30
830.142
  0
VERTEX
  8
Unknown Area Type
  70
32
  10
-5.5932311317091
  20
42.49889229109958
  30
820.311
  0
VERTEX
  8
Unknown Area Type
  70
32
  10
-5.58960382280405
  20
42.49828097364373
  30
810.736
  0
VERTEX
  8
Unknown Area Type
  70
32
  10
-5.58849598251754
  20
42.49768016481543
  30
809.418
  0
VERTEX
  8
Unknown Area Type
  70
32
  10
-5.58707022771735
  20
42.45941371939877
  30
810.651
  0
VERTEX
  8
Unknown Area Type
  70
32
  10
-5.58703220176022
  20
42.45834296924774
  30
814.385
  0
VERTEX
  8
Unknown Area Type
  70
32
  10
-5.58705631641281
  20
42.45833792205055
  30
814.507
  0
VERTEX
  8
Unknown Area Type
  70
32
  10
-5.61237063048388
  20
42.45616047745009
  30
832.047
  0
VERTEX
  8
Unknown Area Type
  70
32
  10
-5.62161620261379
  20
42.45842564540723
  30
834.057
  0
VERTEX
  8
Unknown Area Type
  70
32
  10
-5.62045133067102
  20
42.49621957721366
  30
846.521
  0
VERTEX
  8
Unknown Area Type
  70
32
  10
-5.61362240124271
  20
42.49689340974973
  30
830.461
  0
VERTEX
  8
Unknown Area Type
  70
32
  10
-5.61356180279871
  20
42.4968992951362
  30
830.142
  0
SEQEND
  8
Unknown Area Type
  0
TEXT
  8
Unknown Area Type
 62
7
  1
PNOA-H_AMS_1956-57_33k_ES_PAN_2
 40
0.00045
  10
-5.6043246197767
  20
42.47732733641213
  0
POLYLINE
  8
Unknown Area Type
  70
9
  66
1
  0
VERTEX
  8
Unknown Area Type
  70
32
  10
-5.72028982390168
  20
42.49807902092311
  30
881.342
  0
VERTEX
  8
Unknown Area Type
  70
32
  10
-5.72018295296596
  20
42.49814009178053
  30
881.312
  0
VERTEX
  8
Unknown Area Type
  70
32
  10
-5.7166928206166
  20
42.5
  30
881.729
  0
VERTEX
  8
Unknown Area Type
  70
32
  10
-5.70726931962999
  20
42.5
  30
880.254
  0
VERTEX
  8
Unknown Area Type
  70
32
  10
-5.68627042546026
  20
42.49776540823385
  30
875.808
  0
VERTEX
  8
Unknown Area Type
  70
32
  10
-5.68704413996449
  20
42.45886354327789
  30
863.709
  0
VERTEX
  8
Unknown Area Type
  70
32
  10
-5.70549613265134
  20
42.45625896203312
  30
848.643
  0
VERTEX
  8
Unknown Area Type
  70
32
  10
-5.72025746634843
  20
42.45916465377482
  30
851.014
  0
VERTEX
  8
Unknown Area Type
  70
32
  10
-5.72029453636121
  20
42.49804739154776
  30
881.327
  0
SEQEND
  8
Unknown Area Type
  0
TEXT
  8
Unknown Area Type
 62
7
  1
PNOA-H_AMS_1956-57_33k_ES_PAN_2
 40
0.00045
  10
-5.70328269786096
  20
42.4780725845136
  0
POLYLINE
  8
Unknown Area Type
  70
9
  66
1
  0
VERTEX
  8
Unknown Area Type
  70
32
  10
-5.7166925078653
  20
42.50000016666667
  30
881.729
  0
VERTEX
  8
Unknown Area Type
  70
32
  10
-5.70727088582913
  20
42.50000016666667
  30
880.254
  0
VERTEX
  8
Unknown Area Type
  70
32
  10
-5.70726931962999
  20
42.5
  30
880.254
  0
VERTEX
  8
Unknown Area Type
  70
32
  10
-5.7166928206166
  20
42.5
  30
881.729
  0
SEQEND
  8
Unknown Area Type
  0
TEXT
  8
Unknown Area Type
 62
7
  1
PNOA-H_AMS_1956-57_33k_ES_PAN_2
 40
0.00045
  10
-5.7119810701233
  20
42.50000008333333
  0
POLYLINE
  8
Unknown Area Type
  70
9
  66
1
  0
VERTEX
  8
Unknown Area Type
  70
32
  10
-5.72028982390168
  20
42.49807902092311
  30
881.342
  0
VERTEX
  8
Unknown Area Type
  70
32
  10
-5.72018295296596
  20
42.49814009178053
  30
881.312
  0
VERTEX
  8
Unknown Area Type
  70
32
  10
-5.7166928206166
  20
42.5
  30
881.729
  0
VERTEX
  8
Unknown Area Type
  70
32
  10
-5.70726931962999
  20
42.5
  30
880.254
  0
VERTEX
  8
Unknown Area Type
  70
32
  10
-5.68627042546026
  20
42.49776540823385
  30
875.808
  0
VERTEX
  8
Unknown Area Type
  70
32
  10
-5.68704413996449
  20
42.45886354327789
  30
863.709
  0
VERTEX
  8
Unknown Area Type
  70
32
  10
-5.70549613265134
  20
42.45625896203312
  30
848.643
  0
VERTEX
  8
Unknown Area Type
  70
32
  10
-5.72025746634843
  20
42.45916465377482
  30
851.014
  0
VERTEX
  8
Unknown Area Type
  70
32
  10
-5.72029453636121
  20
42.49804739154776
  30
881.327
  0
SEQEND
  8
Unknown Area Type
  0
TEXT
  8
Unknown Area Type
 62
7
  1
PNOA-H_AMS_1956-57_33k_ES_PAN_2
 40
0.00045
  10
-5.70328269786096
  20
42.4780725845136
  0
POLYLINE
  8
Unknown Area Type
  70
9
  66
1
  0
VERTEX
  8
Unknown Area Type
  70
32
  10
-5.55076223474419
  20
42.34130514266892
  30
749.642
  0
VERTEX
  8
Unknown Area Type
  70
32
  10
-5.54294834587037
  20
42.34199211652024
  30
750.349
  0
VERTEX
  8
Unknown Area Type
  70
32
  10
-5.54287575946284
  20
42.34199822998003
  30
750.328
  0
VERTEX
  8
Unknown Area Type
  70
32
  10
-5.54279692766671
  20
42.34199997933653
  30
750.196
  0
VERTEX
  8
Unknown Area Type
  70
32
  10
-5.54093434416959
  20
42.34141542812559
  30
751.696
  0
VERTEX
  8
Unknown Area Type
  70
32
  10
-5.54019033184548
  20
42.33333333333331
  30
749.827
  0
VERTEX
  8
Unknown Area Type
  70
32
  10
-5.55263300072412
  20
42.33333333333331
  30
750.194
  0
SEQEND
  8
Unknown Area Type
  0
TEXT
  8
Unknown Area Type
 62
7
  1
PNOA-H_AMS_1956-57_33k_ES_PAN_2
 40
0.00045
  10
-5.5464116662848
  20
42.33766665633492
  0
POLYLINE
  8
Unknown Area Type
  70
9
  66
1
  0
VERTEX
  8
Unknown Area Type
  70
32
  10
-5.55076223474419
  20
42.34130514266892
  30
749.642
  0
VERTEX
  8
Unknown Area Type
  70
32
  10
-5.54294834587037
  20
42.34199211652024
  30
750.349
  0
VERTEX
  8
Unknown Area Type
  70
32
  10
-5.54287575946284
  20
42.34199822998003
  30
750.328
  0
VERTEX
  8
Unknown Area Type
  70
32
  10
-5.54279692766671
  20
42.34199997933653
  30
750.196
  0
VERTEX
  8
Unknown Area Type
  70
32
  10
-5.54093434416959
  20
42.34141542812559
  30
751.696
  0
VERTEX
  8
Unknown Area Type
  70
32
  10
-5.54019033184548
  20
42.33333333333331
  30
749.827
  0
VERTEX
  8
Unknown Area Type
  70
32
  10
-5.55263300072412
  20
42.33333333333331
  30
750.194
  0
SEQEND
  8
Unknown Area Type
  0
TEXT
  8
Unknown Area Type
 62
7
  1
PNOA-H_AMS_1956-57_33k_ES_PAN_2
 40
0.00045
  10
-5.5464116662848
  20
42.33766665633492
  0
POLYLINE
  8
Unknown Area Type
  70
9
  66
1
  0
VERTEX
  8
Unknown Area Type
  70
32
  10
-5.55263300072412
  20
42.33333333333331
  30
750.194
  0
VERTEX
  8
Unknown Area Type
  70
32
  10
-5.54019033184548
  20
42.33333333333331
  30
749.827
  0
VERTEX
  8
Unknown Area Type
  70
32
  10
-5.54019031650267
  20
42.33333316666665
  30
749.827
  0
VERTEX
  8
Unknown Area Type
  70
32
  10
-5.55263303983624
  20
42.33333316666665
  30
750.194
  0
SEQEND
  8
Unknown Area Type
  0
TEXT
  8
Unknown Area Type
 62
7
  1
PNOA-H_AMS_1956-57_33k_ES_PAN_2
 40
0.00045
  10
-5.54641167816945
  20
42.33333324999998
  0
POLYLINE
  8
Unknown Area Type
  70
9
  66
1
  0
VERTEX
  8
Unknown Area Type
  70
32
  10
-5.58854887268816
  20
42.34098457450855
  30
773.57
  0
VERTEX
  8
Unknown Area Type
  70
32
  10
-5.57558887340595
  20
42.3418259339125
  30
790.616
  0
VERTEX
  8
Unknown Area Type
  70
32
  10
-5.5754799084914
  20
42.34183288572308
  30
790.446
  0
VERTEX
  8
Unknown Area Type
  70
32
  10
-5.57537682365377
  20
42.34183520263721
  30
790.175
  0
VERTEX
  8
Unknown Area Type
  70
32
  10
-5.57533382583543
  20
42.34182266111166
  30
790.114
  0
VERTEX
  8
Unknown Area Type
  70
32
  10
-5.57348897969112
  20
42.34123373993706
  30
765.563
  0
VERTEX
  8
Unknown Area Type
  70
32
  10
-5.57324908133795
  20
42.33333333333331
  30
763.162
  0
VERTEX
  8
Unknown Area Type
  70
32
  10
-5.58933316467067
  20
42.33333333333331
  30
775.315
  0
SEQEND
  8
Unknown Area Type
  0
TEXT
  8
Unknown Area Type
 62
7
  1
PNOA-H_AMS_1956-57_33k_ES_PAN_2
 40
0.00045
  10
-5.58129112300431
  20
42.33758426798526
  0
POLYLINE
  8
Unknown Area Type
  70
9
  66
1
  0
VERTEX
  8
Unknown Area Type
  70
32
  10
-5.58854887268816
  20
42.34098457450855
  30
773.57
  0
VERTEX
  8
Unknown Area Type
  70
32
  10
-5.57558887340595
  20
42.3418259339125
  30
790.616
  0
VERTEX
  8
Unknown Area Type
  70
32
  10
-5.5754799084914
  20
42.34183288572308
  30
790.446
  0
VERTEX
  8
Unknown Area Type
  70
32
  10
-5.57537682365377
  20
42.34183520263721
  30
790.175
  0
VERTEX
  8
Unknown Area Type
  70
32
  10
-5.57533382583543
  20
42.34182266111166
  30
790.114
  0
VERTEX
  8
Unknown Area Type
  70
32
  10
-5.57348897969112
  20
42.34123373993706
  30
765.563
  0
VERTEX
  8
Unknown Area Type
  70
32
  10
-5.57324908133795
  20
42.33333333333331
  30
763.162
  0
VERTEX
  8
Unknown Area Type
  70
32
  10
-5.58933316467067
  20
42.33333333333331
  30
775.315
  0
SEQEND
  8
Unknown Area Type
  0
TEXT
  8
Unknown Area Type
 62
7
  1
PNOA-H_AMS_1956-57_33k_ES_PAN_2
 40
0.00045
  10
-5.58129112300431
  20
42.33758426798526
  0
POLYLINE
  8
Unknown Area Type
  70
9
  66
1
  0
VERTEX
  8
Unknown Area Type
  70
32
  10
-5.58933316467067
  20
42.33333333333331
  30
775.315
  0
VERTEX
  8
Unknown Area Type
  70
32
  10
-5.57324908133795
  20
42.33333333333331
  30
763.162
  0
VERTEX
  8
Unknown Area Type
  70
32
  10
-5.57324907627706
  20
42.33333316666665
  30
763.161
  0
VERTEX
  8
Unknown Area Type
  70
32
  10
-5.58933318175487
  20
42.33333316666665
  30
775.315
  0
SEQEND
  8
Unknown Area Type
  0
TEXT
  8
Unknown Area Type
 62
7
  1
PNOA-H_AMS_1956-57_33k_ES_PAN_2
 40
0.00045
  10
-5.58129112901596
  20
42.33333324999998
  0
POLYLINE
  8
Unknown Area Type
  70
9
  66
1
  0
VERTEX
  8
Unknown Area Type
  70
32
  10
-5.57348879612084
  20
42.34122924142267
  30
765.529
  0
VERTEX
  8
Unknown Area Type
  70
32
  10
-5.55076223474419
  20
42.34130514266892
  30
749.642
  0
VERTEX
  8
Unknown Area Type
  70
32
  10
-5.55263368079398
  20
42.33333333333331
  30
749.716
  0
VERTEX
  8
Unknown Area Type
  70
32
  10
-5.56250000000001
  20
42.33333333333331
  30
757.866
  0
VERTEX
  8
Unknown Area Type
  70
32
  10
-5.57325014780314
  20
42.33333333333331
  30
763.076
  0
SEQEND
  8
Unknown Area Type
  0
TEXT
  8
Unknown Area Type
 62
7
  1
PNOA-H_AMS_1956-57_33k_ES_PAN_2
 40
0.00045
  10
-5.56212551543252
  20
42.33731923800111
  0
POLYLINE
  8
Unknown Area Type
  70
9
  66
1
  0
VERTEX
  8
Unknown Area Type
  70
32
  10
-5.57348879612084
  20
42.34122924142267
  30
765.529
  0
VERTEX
  8
Unknown Area Type
  70
32
  10
-5.55076223474419
  20
42.34130514266892
  30
749.642
  0
VERTEX
  8
Unknown Area Type
  70
32
  10
-5.55263368079398
  20
42.33333333333331
  30
749.716
  0
VERTEX
  8
Unknown Area Type
  70
32
  10
-5.56250000000001
  20
42.33333333333331
  30
757.866
  0
VERTEX
  8
Unknown Area Type
  70
32
  10
-5.57325014780314
  20
42.33333333333331
  30
763.076
  0
SEQEND
  8
Unknown Area Type
  0
TEXT
  8
Unknown Area Type
 62
7
  1
PNOA-H_AMS_1956-57_33k_ES_PAN_2
 40
0.00045
  10
-5.56212551543252
  20
42.33731923800111
  0
POLYLINE
  8
Unknown Area Type
  70
9
  66
1
  0
VERTEX
  8
Unknown Area Type
  70
32
  10
-5.57325014780314
  20
42.33333333333331
  30
763.076
  0
VERTEX
  8
Unknown Area Type
  70
32
  10
-5.56250000000001
  20
42.33333333333331
  30
757.866
  0
VERTEX
  8
Unknown Area Type
  70
32
  10
-5.55263368079398
  20
42.33333333333331
  30
749.716
  0
VERTEX
  8
Unknown Area Type
  70
32
  10
-5.55263371992031
  20
42.33333316666665
  30
749.716
  0
VERTEX
  8
Unknown Area Type
  70
32
  10
-5.57325014276576
  20
42.33333316666665
  30
763.076
  0
SEQEND
  8
Unknown Area Type
  0
TEXT
  8
Unknown Area Type
 62
7
  1
PNOA-H_AMS_1956-57_33k_ES_PAN_2
 40
0.00045
  10
-5.56294191429856
  20
42.33333324999998
  0
POLYLINE
  8
Unknown Area Type
  70
9
  66
1
  0
VERTEX
  8
Unknown Area Type
  70
32
  10
-5.54093434416959
  20
42.34141542812559
  30
751.696
  0
VERTEX
  8
Unknown Area Type
  70
32
  10
-5.53257657350404
  20
42.3415599271821
  30
751.175
  0
VERTEX
  8
Unknown Area Type
  70
32
  10
-5.53247348566232
  20
42.34156220551282
  30
751.099
  0
VERTEX
  8
Unknown Area Type
  70
32
  10
-5.52083333333329
  20
42.34176803443306
  30
756.36
  0
VERTEX
  8
Unknown Area Type
  70
32
  10
-5.52083333333329
  20
42.33333333333331
  30
757.375
  0
VERTEX
  8
Unknown Area Type
  70
32
  10
-5.54019149956443
  20
42.33333333333331
  30
749.823
  0
SEQEND
  8
Unknown Area Type
  0
TEXT
  8
Unknown Area Type
 62
7
  1
PNOA-H_AMS_1956-57_33k_ES_PAN_2
 40
0.00045
  10
-5.53088383875144
  20
42.33755068388319
  0
POLYLINE
  8
Unknown Area Type
  70
9
  66
1
  0
VERTEX
  8
Unknown Area Type
  70
32
  10
-5.54093434416959
  20
42.34141542812559
  30
751.696
  0
VERTEX
  8
Unknown Area Type
  70
32
  10
-5.53257657350404
  20
42.3415599271821
  30
751.175
  0
VERTEX
  8
Unknown Area Type
  70
32
  10
-5.53247348566232
  20
42.34156220551282
  30
751.099
  0
VERTEX
  8
Unknown Area Type
  70
32
  10
-5.52083333333329
  20
42.34176803443306
  30
756.36
  0
VERTEX
  8
Unknown Area Type
  70
32
  10
-5.52083333333329
  20
42.33333333333331
  30
757.375
  0
VERTEX
  8
Unknown Area Type
  70
32
  10
-5.54019149956443
  20
42.33333333333331
  30
749.823
  0
SEQEND
  8
Unknown Area Type
  0
TEXT
  8
Unknown Area Type
 62
7
  1
PNOA-H_AMS_1956-57_33k_ES_PAN_2
 40
0.00045
  10
-5.53088383875144
  20
42.33755068388319
  0
POLYLINE
  8
Unknown Area Type
  70
9
  66
1
  0
VERTEX
  8
Unknown Area Type
  70
32
  10
-5.52083333333329
  20
42.34176803443306
  30
756.36
  0
VERTEX
  8
Unknown Area Type
  70
32
  10
-5.52083299999996
  20
42.34176804032728
  30
756.36
  0
VERTEX
  8
Unknown Area Type
  70
32
  10
-5.52083299999996
  20
42.33333333333331
  30
757.375
  0
VERTEX
  8
Unknown Area Type
  70
32
  10
-5.52083333333329
  20
42.33333333333331
  30
757.375
  0
SEQEND
  8
Unknown Area Type
  0
TEXT
  8
Unknown Area Type
 62
7
  1
PNOA-H_AMS_1956-57_33k_ES_PAN_2
 40
0.00045
  10
-5.52083316666663
  20
42.3375506868303
  0
POLYLINE
  8
Unknown Area Type
  70
9
  66
1
  0
VERTEX
  8
Unknown Area Type
  70
32
  10
-5.54019149956443
  20
42.33333333333331
  30
749.823
  0
VERTEX
  8
Unknown Area Type
  70
32
  10
-5.52083333333329
  20
42.33333333333331
  30
757.375
  0
VERTEX
  8
Unknown Area Type
  70
32
  10
-5.52083333333329
  20
42.33333316666665
  30
757.374
  0
VERTEX
  8
Unknown Area Type
  70
32
  10
-5.54019148424569
  20
42.33333316666665
  30
749.823
  0
SEQEND
  8
Unknown Area Type
  0
TEXT
  8
Unknown Area Type
 62
7
  1
PNOA-H_AMS_1956-57_33k_ES_PAN_2
 40
0.00045
  10
-5.53051241644886
  20
42.33333324999998
  0
POLYLINE
  8
Unknown Area Type
  70
9
  66
1
  0
VERTEX
  8
Unknown Area Type
  70
32
  10
-5.52083333333329
  20
42.33333333333331
  30
757.375
  0
VERTEX
  8
Unknown Area Type
  70
32
  10
-5.52083299999996
  20
42.33333333333331
  30
757.375
  0
VERTEX
  8
Unknown Area Type
  70
32
  10
-5.52083299999996
  20
42.33333316666665
  30
757.375
  0
VERTEX
  8
Unknown Area Type
  70
32
  10
-5.52083333333329
  20
42.33333316666665
  30
757.374
  0
SEQEND
  8
Unknown Area Type
  0
TEXT
  8
Unknown Area Type
 62
7
  1
PNOA-H_AMS_1956-57_33k_ES_PAN_2
 40
0.00045
  10
-5.52083316666663
  20
42.33333324999998
  0
POLYLINE
  8
Unknown Area Type
  70
9
  66
1
  0
VERTEX
  8
Unknown Area Type
  70
32
  10
-5.61206581872453
  20
42.34006817807916
  30
804.079
  0
VERTEX
  8
Unknown Area Type
  70
32
  10
-5.60674900983912
  20
42.34197229572956
  30
800.73
  0
VERTEX
  8
Unknown Area Type
  70
32
  10
-5.60673706843025
  20
42.34197707001591
  30
800.687
  0
VERTEX
  8
Unknown Area Type
  70
32
  10
-5.58854299366032
  20
42.3409892099503
  30
773.581
  0
VERTEX
  8
Unknown Area Type
  70
32
  10
-5.58932890348025
  20
42.33333333333331
  30
775.312
  0
VERTEX
  8
Unknown Area Type
  70
32
  10
-5.60416666666664
  20
42.33333333333331
  30
802.643
  0
VERTEX
  8
Unknown Area Type
  70
32
  10
-5.61224161997282
  20
42.33333333333331
  30
802.596
  0
SEQEND
  8
Unknown Area Type
  0
TEXT
  8
Unknown Area Type
 62
7
  1
PNOA-H_AMS_1956-57_33k_ES_PAN_2
 40
0.00045
  10
-5.60039230681657
  20
42.33765520167461
  0
POLYLINE
  8
Unknown Area Type
  70
9
  66
1
  0
VERTEX
  8
Unknown Area Type
  70
32
  10
-5.61206581872453
  20
42.34006817807916
  30
804.079
  0
VERTEX
  8
Unknown Area Type
  70
32
  10
-5.60674900983912
  20
42.34197229572956
  30
800.73
  0
VERTEX
  8
Unknown Area Type
  70
32
  10
-5.60673706843025
  20
42.34197707001591
  30
800.687
  0
VERTEX
  8
Unknown Area Type
  70
32
  10
-5.58854299366032
  20
42.3409892099503
  30
773.581
  0
VERTEX
  8
Unknown Area Type
  70
32
  10
-5.58932890348025
  20
42.33333333333331
  30
775.312
  0
VERTEX
  8
Unknown Area Type
  70
32
  10
-5.60416666666664
  20
42.33333333333331
  30
802.643
  0
VERTEX
  8
Unknown Area Type
  70
32
  10
-5.61224161997282
  20
42.33333333333331
  30
802.596
  0
SEQEND
  8
Unknown Area Type
  0
TEXT
  8
Unknown Area Type
 62
7
  1
PNOA-H_AMS_1956-57_33k_ES_PAN_2
 40
0.00045
  10
-5.60039230681657
  20
42.33765520167461
  0
POLYLINE
  8
Unknown Area Type
  70
9
  66
1
  0
VERTEX
  8
Unknown Area Type
  70
32
  10
-5.61224161997282
  20
42.33333333333331
  30
802.596
  0
VERTEX
  8
Unknown Area Type
  70
32
  10
-5.60416666666664
  20
42.33333333333331
  30
802.643
  0
VERTEX
  8
Unknown Area Type
  70
32
  10
-5.58932890348025
  20
42.33333333333331
  30
775.312
  0
VERTEX
  8
Unknown Area Type
  70
32
  10
-5.58932892058933
  20
42.33333316666665
  30
775.312
  0
VERTEX
  8
Unknown Area Type
  70
32
  10
-5.61224162432336
  20
42.33333316666665
  30
802.596
  0
SEQEND
  8
Unknown Area Type
  0
TEXT
  8
Unknown Area Type
 62
7
  1
PNOA-H_AMS_1956-57_33k_ES_PAN_2
 40
0.00045
  10
-5.6007852639018
  20
42.33333324999998
  0
POLYLINE
  8
Unknown Area Type
  70
9
  66
1
  0
VERTEX
  8
Unknown Area Type
  70
32
  10
-5.64681726272229
  20
42.33961741438371
  30
804.722
  0
VERTEX
  8
Unknown Area Type
  70
32
  10
-5.63940316800885
  20
42.34199471782288
  30
805.491
  0
VERTEX
  8
Unknown Area Type
  70
32
  10
-5.63195835013291
  20
42.34146806067767
  30
807.362
  0
VERTEX
  8
Unknown Area Type
  70
32
  10
-5.63190965434566
  20
42.34146467658247
  30
807.361
  0
VERTEX
  8
Unknown Area Type
  70
32
  10
-5.61206581872453
  20
42.34006817807916
  30
804.079
  0
VERTEX
  8
Unknown Area Type
  70
32
  10
-5.6122416731206
  20
42.33333333333331
  30
802.6
  0
VERTEX
  8
Unknown Area Type
  70
32
  10
-5.64583333333336
  20
42.33333333333331
  30
802.65
  0
VERTEX
  8
Unknown Area Type
  70
32
  10
-5.64687346406067
  20
42.33333333333331
  30
802.647
  0
SEQEND
  8
Unknown Area Type
  0
TEXT
  8
Unknown Area Type
 62
7
  1
PNOA-H_AMS_1956-57_33k_ES_PAN_2
 40
0.00045
  10
-5.6294696413926
  20
42.33766402557809
  0
POLYLINE
  8
Unknown Area Type
  70
9
  66
1
  0
VERTEX
  8
Unknown Area Type
  70
32
  10
-5.64681726272229
  20
42.33961741438371
  30
804.722
  0
VERTEX
  8
Unknown Area Type
  70
32
  10
-5.63940316800885
  20
42.34199471782288
  30
805.491
  0
VERTEX
  8
Unknown Area Type
  70
32
  10
-5.63195835013291
  20
42.34146806067767
  30
807.362
  0
VERTEX
  8
Unknown Area Type
  70
32
  10
-5.63190965434566
  20
42.34146467658247
  30
807.361
  0
VERTEX
  8
Unknown Area Type
  70
32
  10
-5.61206581872453
  20
42.34006817807916
  30
804.079
  0
VERTEX
  8
Unknown Area Type
  70
32
  10
-5.6122416731206
  20
42.33333333333331
  30
802.6
  0
VERTEX
  8
Unknown Area Type
  70
32
  10
-5.64583333333336
  20
42.33333333333331
  30
802.65
  0
VERTEX
  8
Unknown Area Type
  70
32
  10
-5.64687346406067
  20
42.33333333333331
  30
802.647
  0
SEQEND
  8
Unknown Area Type
  0
TEXT
  8
Unknown Area Type
 62
7
  1
PNOA-H_AMS_1956-57_33k_ES_PAN_2
 40
0.00045
  10
-5.6294696413926
  20
42.33766402557809
  0
POLYLINE
  8
Unknown Area Type
  70
9
  66
1
  0
VERTEX
  8
Unknown Area Type
  70
32
  10
-5.64687346406067
  20
42.33333333333331
  30
802.647
  0
VERTEX
  8
Unknown Area Type
  70
32
  10
-5.64583333333336
  20
42.33333333333331
  30
802.65
  0
VERTEX
  8
Unknown Area Type
  70
32
  10
-5.6122416731206
  20
42.33333333333331
  30
802.6
  0
VERTEX
  8
Unknown Area Type
  70
32
  10
-5.61224167747245
  20
42.33333316666665
  30
802.6
  0
VERTEX
  8
Unknown Area Type
  70
32
  10
-5.64687346555125
  20
42.33333316666665
  30
802.647
  0
SEQEND
  8
Unknown Area Type
  0
TEXT
  8
Unknown Area Type
 62
7
  1
PNOA-H_AMS_1956-57_33k_ES_PAN_2
 40
0.00045
  10
-5.62955756933592
  20
42.33333324999998
  0
POLYLINE
  8
Unknown Area Type
  70
9
  66
1
  0
VERTEX
  8
Unknown Area Type
  70
32
  10
-5.71597179194339
  20
42.33926430998702
  30
807.382
  0
VERTEX
  8
Unknown Area Type
  70
32
  10
-5.70269813204566
  20
42.34264894681964
  30
807.926
  0
VERTEX
  8
Unknown Area Type
  70
32
  10
-5.68155516170699
  20
42.33914740801883
  30
805.086
  0
VERTEX
  8
Unknown Area Type
  70
32
  10
-5.68153071829214
  20
42.33914347746615
  30
805.072
  0
VERTEX
  8
Unknown Area Type
  70
32
  10
-5.68105416787257
  20
42.33906907969212
  30
805.044
  0
VERTEX
  8
Unknown Area Type
  70
32
  10
-5.68105225564356
  20
42.33902409841405
  30
805.042
  0
VERTEX
  8
Unknown Area Type
  70
32
  10
-5.68128818461885
  20
42.33333333333331
  30
803.424
  0
VERTEX
  8
Unknown Area Type
  70
32
  10
-5.68749999999998
  20
42.33333333333331
  30
803.351
  0
VERTEX
  8
Unknown Area Type
  70
32
  10
-5.71628827034559
  20
42.33333333333331
  30
805.265
  0
SEQEND
  8
Unknown Area Type
  0
TEXT
  8
Unknown Area Type
 62
7
  1
PNOA-H_AMS_1956-57_33k_ES_PAN_2
 40
0.00045
  10
-5.69867026299457
  20
42.33799114007648
  0
POLYLINE
  8
Unknown Area Type
  70
9
  66
1
  0
VERTEX
  8
Unknown Area Type
  70
32
  10
-5.71597179194339
  20
42.33926430998702
  30
807.382
  0
VERTEX
  8
Unknown Area Type
  70
32
  10
-5.70269813204566
  20
42.34264894681964
  30
807.926
  0
VERTEX
  8
Unknown Area Type
  70
32
  10
-5.68155516170699
  20
42.33914740801883
  30
805.086
  0
VERTEX
  8
Unknown Area Type
  70
32
  10
-5.68153071829214
  20
42.33914347746615
  30
805.072
  0
VERTEX
  8
Unknown Area Type
  70
32
  10
-5.68105416787257
  20
42.33906907969212
  30
805.044
  0
VERTEX
  8
Unknown Area Type
  70
32
  10
-5.68105225564356
  20
42.33902409841405
  30
805.042
  0
VERTEX
  8
Unknown Area Type
  70
32
  10
-5.68128818461885
  20
42.33333333333331
  30
803.424
  0
VERTEX
  8
Unknown Area Type
  70
32
  10
-5.68749999999998
  20
42.33333333333331
  30
803.351
  0
VERTEX
  8
Unknown Area Type
  70
32
  10
-5.71628827034559
  20
42.33333333333331
  30
805.265
  0
SEQEND
  8
Unknown Area Type
  0
TEXT
  8
Unknown Area Type
 62
7
  1
PNOA-H_AMS_1956-57_33k_ES_PAN_2
 40
0.00045
  10
-5.69867026299457
  20
42.33799114007648
  0
POLYLINE
  8
Unknown Area Type
  70
9
  66
1
  0
VERTEX
  8
Unknown Area Type
  70
32
  10
-5.71628827034559
  20
42.33333333333331
  30
805.265
  0
VERTEX
  8
Unknown Area Type
  70
32
  10
-5.68749999999998
  20
42.33333333333331
  30
803.351
  0
VERTEX
  8
Unknown Area Type
  70
32
  10
-5.68128818461885
  20
42.33333333333331
  30
803.424
  0
VERTEX
  8
Unknown Area Type
  70
32
  10
-5.68128819152856
  20
42.33333316666665
  30
803.424
  0
VERTEX
  8
Unknown Area Type
  70
32
  10
-5.71628827923896
  20
42.33333316666665
  30
805.265
  0
SEQEND
  8
Unknown Area Type
  0
TEXT
  8
Unknown Area Type
 62
7
  1
PNOA-H_AMS_1956-57_33k_ES_PAN_2
 40
0.00045
  10
-5.69878823192891
  20
42.33333324999998
  0
POLYLINE
  8
Unknown Area Type
  70
9
  66
1
  0
VERTEX
  8
Unknown Area Type
  70
32
  10
-5.7529830894131
  20
42.33959220419836
  30
801.148
  0
VERTEX
  8
Unknown Area Type
  70
32
  10
-5.73514090261362
  20
42.34353152958835
  30
806.263
  0
VERTEX
  8
Unknown Area Type
  70
32
  10
-5.73511684495332
  20
42.34353660646635
  30
806.269
  0
VERTEX
  8
Unknown Area Type
  70
32
  10
-5.73508046579892
  20
42.3435374748892
  30
806.277
  0
VERTEX
  8
Unknown Area Type
  70
32
  10
-5.73454731096709
  20
42.34341962589183
  30
806.204
  0
VERTEX
  8
Unknown Area Type
  70
32
  10
-5.71597179194339
  20
42.33926430998702
  30
807.382
  0
VERTEX
  8
Unknown Area Type
  70
32
  10
-5.71628834093785
  20
42.33333333333331
  30
805.247
  0
VERTEX
  8
Unknown Area Type
  70
32
  10
-5.7291666666667
  20
42.33333333333331
  30
806.665
  0
VERTEX
  8
Unknown Area Type
  70
32
  10
-5.7527947187768
  20
42.33333333333331
  30
798.922
  0
SEQEND
  8
Unknown Area Type
  0
TEXT
  8
Unknown Area Type
 62
7
  1
PNOA-H_AMS_1956-57_33k_ES_PAN_2
 40
0.00045
  10
-5.73447744067825
  20
42.33843540411125
  0
POLYLINE
  8
Unknown Area Type
  70
9
  66
1
  0
VERTEX
  8
Unknown Area Type
  70
32
  10
-5.7529830894131
  20
42.33959220419836
  30
801.148
  0
VERTEX
  8
Unknown Area Type
  70
32
  10
-5.73514090261362
  20
42.34353152958835
  30
806.263
  0
VERTEX
  8
Unknown Area Type
  70
32
  10
-5.73511684495332
  20
42.34353660646635
  30
806.269
  0
VERTEX
  8
Unknown Area Type
  70
32
  10
-5.73508046579892
  20
42.3435374748892
  30
806.277
  0
VERTEX
  8
Unknown Area Type
  70
32
  10
-5.73454731096709
  20
42.34341962589183
  30
806.204
  0
VERTEX
  8
Unknown Area Type
  70
32
  10
-5.71597179194339
  20
42.33926430998702
  30
807.382
  0
VERTEX
  8
Unknown Area Type
  70
32
  10
-5.71628834093785
  20
42.33333333333331
  30
805.247
  0
VERTEX
  8
Unknown Area Type
  70
32
  10
-5.7291666666667
  20
42.33333333333331
  30
806.665
  0
VERTEX
  8
Unknown Area Type
  70
32
  10
-5.7527947187768
  20
42.33333333333331
  30
798.922
  0
SEQEND
  8
Unknown Area Type
  0
TEXT
  8
Unknown Area Type
 62
7
  1
PNOA-H_AMS_1956-57_33k_ES_PAN_2
 40
0.00045
  10
-5.73447744067825
  20
42.33843540411125
  0
POLYLINE
  8
Unknown Area Type
  70
9
  66
1
  0
VERTEX
  8
Unknown Area Type
  70
32
  10
-5.7527947187768
  20
42.33333333333331
  30
798.922
  0
VERTEX
  8
Unknown Area Type
  70
32
  10
-5.7291666666667
  20
42.33333333333331
  30
806.665
  0
VERTEX
  8
Unknown Area Type
  70
32
  10
-5.71628834093785
  20
42.33333333333331
  30
805.247
  0
VERTEX
  8
Unknown Area Type
  70
32
  10
-5.7162883498332
  20
42.33333316666665
  30
805.247
  0
VERTEX
  8
Unknown Area Type
  70
32
  10
-5.75279471376071
  20
42.33333316666665
  30
798.922
  0
SEQEND
  8
Unknown Area Type
  0
TEXT
  8
Unknown Area Type
 62
7
  1
PNOA-H_AMS_1956-57_33k_ES_PAN_2
 40
0.00045
  10
-5.73454152985732
  20
42.33333324999998
  0
POLYLINE
  8
Unknown Area Type
  70
9
  66
1
  0
VERTEX
  8
Unknown Area Type
  70
32
  10
-5.68129181569972
  20
42.33338123275144
  30
802.825
  0
VERTEX
  8
Unknown Area Type
  70
32
  10
-5.68105416787257
  20
42.33906907969212
  30
805.044
  0
VERTEX
  8
Unknown Area Type
  70
32
  10
-5.66956946019782
  20
42.34246203874626
  30
805.749
  0
VERTEX
  8
Unknown Area Type
  70
32
  10
-5.64681726272229
  20
42.33961741438371
  30
804.722
  0
VERTEX
  8
Unknown Area Type
  70
32
  10
-5.64687346406067
  20
42.33333333333331
  30
802.647
  0
VERTEX
  8
Unknown Area Type
  70
32
  10
-5.68128977964375
  20
42.33333333333331
  30
802.827
  0
SEQEND
  8
Unknown Area Type
  0
TEXT
  8
Unknown Area Type
 62
7
  1
PNOA-H_AMS_1956-57_33k_ES_PAN_2
 40
0.00045
  10
-5.66405453921101
  20
42.33789768603978
  0
POLYLINE
  8
Unknown Area Type
  70
9
  66
1
  0
VERTEX
  8
Unknown Area Type
  70
32
  10
-5.68129181569972
  20
42.33338123275144
  30
802.825
  0
VERTEX
  8
Unknown Area Type
  70
32
  10
-5.68105416787257
  20
42.33906907969212
  30
805.044
  0
VERTEX
  8
Unknown Area Type
  70
32
  10
-5.66956946019782
  20
42.34246203874626
  30
805.749
  0
VERTEX
  8
Unknown Area Type
  70
32
  10
-5.64681726272229
  20
42.33961741438371
  30
804.722
  0
VERTEX
  8
Unknown Area Type
  70
32
  10
-5.64687346406067
  20
42.33333333333331
  30
802.647
  0
VERTEX
  8
Unknown Area Type
  70
32
  10
-5.68128977964375
  20
42.33333333333331
  30
802.827
  0
SEQEND
  8
Unknown Area Type
  0
TEXT
  8
Unknown Area Type
 62
7
  1
PNOA-H_AMS_1956-57_33k_ES_PAN_2
 40
0.00045
  10
-5.66405453921101
  20
42.33789768603978
  0
POLYLINE
  8
Unknown Area Type
  70
9
  66
1
  0
VERTEX
  8
Unknown Area Type
  70
32
  10
-5.68128977964375
  20
42.33333333333331
  30
802.827
  0
VERTEX
  8
Unknown Area Type
  70
32
  10
-5.64687346406067
  20
42.33333333333331
  30
802.647
  0
VERTEX
  8
Unknown Area Type
  70
32
  10
-5.64687346555125
  20
42.33333316666665
  30
802.647
  0
VERTEX
  8
Unknown Area Type
  70
32
  10
-5.68128977255926
  20
42.33333316666665
  30
802.827
  0
SEQEND
  8
Unknown Area Type
  0
TEXT
  8
Unknown Area Type
 62
7
  1
PNOA-H_AMS_1956-57_33k_ES_PAN_2
 40
0.00045
  10
-5.66408162185221
  20
42.33333324999998
  0
POLYLINE
  8
Unknown Area Type
  70
9
  66
1
  0
VERTEX
  8
Unknown Area Type
  70
32
  10
-5.82301187709868
  20
42.33981525119373
  30
797.093
  0
VERTEX
  8
Unknown Area Type
  70
32
  10
-5.79810566994935
  20
42.34285310068143
  30
798.561
  0
VERTEX
  8
Unknown Area Type
  70
32
  10
-5.78729092103132
  20
42.33957769435153
  30
798.841
  0
VERTEX
  8
Unknown Area Type
  70
32
  10
-5.78749489592065
  20
42.33333333333331
  30
797.01
  0
VERTEX
  8
Unknown Area Type
  70
32
  10
-5.81249999999996
  20
42.33333333333331
  30
797.657
  0
VERTEX
  8
Unknown Area Type
  70
32
  10
-5.82313025423388
  20
42.33333333333331
  30
795.185
  0
SEQEND
  8
Unknown Area Type
  0
TEXT
  8
Unknown Area Type
 62
7
  1
PNOA-H_AMS_1956-57_33k_ES_PAN_2
 40
0.00045
  10
-5.8052105876326
  20
42.33809321700737
  0
POLYLINE
  8
Unknown Area Type
  70
9
  66
1
  0
VERTEX
  8
Unknown Area Type
  70
32
  10
-5.82301187709868
  20
42.33981525119373
  30
797.093
  0
VERTEX
  8
Unknown Area Type
  70
32
  10
-5.79810566994935
  20
42.34285310068143
  30
798.561
  0
VERTEX
  8
Unknown Area Type
  70
32
  10
-5.78729092103132
  20
42.33957769435153
  30
798.841
  0
VERTEX
  8
Unknown Area Type
  70
32
  10
-5.78749489592065
  20
42.33333333333331
  30
797.01
  0
VERTEX
  8
Unknown Area Type
  70
32
  10
-5.81249999999996
  20
42.33333333333331
  30
797.657
  0
VERTEX
  8
Unknown Area Type
  70
32
  10
-5.82313025423388
  20
42.33333333333331
  30
795.185
  0
SEQEND
  8
Unknown Area Type
  0
TEXT
  8
Unknown Area Type
 62
7
  1
PNOA-H_AMS_1956-57_33k_ES_PAN_2
 40
0.00045
  10
-5.8052105876326
  20
42.33809321700737
  0
POLYLINE
  8
Unknown Area Type
  70
9
  66
1
  0
VERTEX
  8
Unknown Area Type
  70
32
  10
-5.82313025423388
  20
42.33333333333331
  30
795.185
  0
VERTEX
  8
Unknown Area Type
  70
32
  10
-5.81249999999996
  20
42.33333333333331
  30
797.657
  0
VERTEX
  8
Unknown Area Type
  70
32
  10
-5.78749489592065
  20
42.33333333333331
  30
797.01
  0
VERTEX
  8
Unknown Area Type
  70
32
  10
-5.78749490136489
  20
42.33333316666665
  30
797.01
  0
VERTEX
  8
Unknown Area Type
  70
32
  10
-5.82313025727766
  20
42.33333316666665
  30
795.185
  0
SEQEND
  8
Unknown Area Type
  0
TEXT
  8
Unknown Area Type
 62
7
  1
PNOA-H_AMS_1956-57_33k_ES_PAN_2
 40
0.00045
  10
-5.80531257659915
  20
42.33333324999998
  0
POLYLINE
  8
Unknown Area Type
  70
9
  66
1
  0
VERTEX
  8
Unknown Area Type
  70
32
  10
-5.78729678477796
  20
42.33957304913724
  30
798.866
  0
VERTEX
  8
Unknown Area Type
  70
32
  10
-5.76692937258173
  20
42.34317799943941
  30
799.605
  0
VERTEX
  8
Unknown Area Type
  70
32
  10
-5.7668992549722
  20
42.34318322933508
  30
799.558
  0
VERTEX
  8
Unknown Area Type
  70
32
  10
-5.7529830894131
  20
42.33959220419836
  30
801.148
  0
VERTEX
  8
Unknown Area Type
  70
32
  10
-5.7527947187768
  20
42.33333333333331
  30
798.922
  0
VERTEX
  8
Unknown Area Type
  70
32
  10
-5.77083333333333
  20
42.33333333333331
  30
799.406
  0
VERTEX
  8
Unknown Area Type
  70
32
  10
-5.78749829053502
  20
42.33333333333331
  30
796.911
  0
SEQEND
  8
Unknown Area Type
  0
TEXT
  8
Unknown Area Type
 62
7
  1
PNOA-H_AMS_1956-57_33k_ES_PAN_2
 40
0.00045
  10
-5.77014650465591
  20
42.33825828133419
  0
POLYLINE
  8
Unknown Area Type
  70
9
  66
1
  0
VERTEX
  8
Unknown Area Type
  70
32
  10
-5.78729678477796
  20
42.33957304913724
  30
798.866
  0
VERTEX
  8
Unknown Area Type
  70
32
  10
-5.76692937258173
  20
42.34317799943941
  30
799.605
  0
VERTEX
  8
Unknown Area Type
  70
32
  10
-5.7668992549722
  20
42.34318322933508
  30
799.558
  0
VERTEX
  8
Unknown Area Type
  70
32
  10
-5.7529830894131
  20
42.33959220419836
  30
801.148
  0
VERTEX
  8
Unknown Area Type
  70
32
  10
-5.7527947187768
  20
42.33333333333331
  30
798.922
  0
VERTEX
  8
Unknown Area Type
  70
32
  10
-5.77083333333333
  20
42.33333333333331
  30
799.406
  0
VERTEX
  8
Unknown Area Type
  70
32
  10
-5.78749829053502
  20
42.33333333333331
  30
796.911
  0
SEQEND
  8
Unknown Area Type
  0
TEXT
  8
Unknown Area Type
 62
7
  1
PNOA-H_AMS_1956-57_33k_ES_PAN_2
 40
0.00045
  10
-5.77014650465591
  20
42.33825828133419
  0
POLYLINE
  8
Unknown Area Type
  70
9
  66
1
  0
VERTEX
  8
Unknown Area Type
  70
32
  10
-5.78749829053502
  20
42.33333333333331
  30
796.911
  0
VERTEX
  8
Unknown Area Type
  70
32
  10
-5.77083333333333
  20
42.33333333333331
  30
799.406
  0
VERTEX
  8
Unknown Area Type
  70
32
  10
-5.7527947187768
  20
42.33333333333331
  30
798.922
  0
VERTEX
  8
Unknown Area Type
  70
32
  10
-5.75279471376071
  20
42.33333316666665
  30
798.922
  0
VERTEX
  8
Unknown Area Type
  70
32
  10
-5.78749829591737
  20
42.33333316666665
  30
796.911
  0
SEQEND
  8
Unknown Area Type
  0
TEXT
  8
Unknown Area Type
 62
7
  1
PNOA-H_AMS_1956-57_33k_ES_PAN_2
 40
0.00045
  10
-5.77014650483904
  20
42.33333324999998
  0
POLYLINE
  8
Unknown Area Type
  70
9
  66
1
  0
VERTEX
  8
Unknown Area Type
  70
32
  10
-5.85416666666668
  20
42.34091745471314
  30
789.383
  0
VERTEX
  8
Unknown Area Type
  70
32
  10
-5.83060484904432
  20
42.34266713074872
  30
792.148
  0
VERTEX
  8
Unknown Area Type
  70
32
  10
-5.82301187709868
  20
42.33981525119373
  30
797.093
  0
VERTEX
  8
Unknown Area Type
  70
32
  10
-5.82312972004488
  20
42.33333333333331
  30
795.191
  0
VERTEX
  8
Unknown Area Type
  70
32
  10
-5.85416666666668
  20
42.33333333333331
  30
786.965
  0
SEQEND
  8
Unknown Area Type
  0
TEXT
  8
Unknown Area Type
 62
7
  1
PNOA-H_AMS_1956-57_33k_ES_PAN_2
 40
0.00045
  10
-5.83858927188268
  20
42.33800023204102
  0
POLYLINE
  8
Unknown Area Type
  70
9
  66
1
  0
VERTEX
  8
Unknown Area Type
  70
32
  10
-5.85416700000001
  20
42.34091742996014
  30
789.383
  0
VERTEX
  8
Unknown Area Type
  70
32
  10
-5.85416666666668
  20
42.34091745471314
  30
789.383
  0
VERTEX
  8
Unknown Area Type
  70
32
  10
-5.85416666666668
  20
42.33333333333331
  30
786.965
  0
VERTEX
  8
Unknown Area Type
  70
32
  10
-5.85416700000001
  20
42.33333333333331
  30
786.965
  0
SEQEND
  8
Unknown Area Type
  0
TEXT
  8
Unknown Area Type
 62
7
  1
PNOA-H_AMS_1956-57_33k_ES_PAN_2
 40
0.00045
  10
-5.85416683333334
  20
42.33712539402323
  0
POLYLINE
  8
Unknown Area Type
  70
9
  66
1
  0
VERTEX
  8
Unknown Area Type
  70
32
  10
-5.85416666666668
  20
42.34091745471314
  30
789.383
  0
VERTEX
  8
Unknown Area Type
  70
32
  10
-5.83060484904432
  20
42.34266713074872
  30
792.148
  0
VERTEX
  8
Unknown Area Type
  70
32
  10
-5.82301187709868
  20
42.33981525119373
  30
797.093
  0
VERTEX
  8
Unknown Area Type
  70
32
  10
-5.82312972004488
  20
42.33333333333331
  30
795.191
  0
VERTEX
  8
Unknown Area Type
  70
32
  10
-5.85416666666668
  20
42.33333333333331
  30
786.965
  0
SEQEND
  8
Unknown Area Type
  0
TEXT
  8
Unknown Area Type
 62
7
  1
PNOA-H_AMS_1956-57_33k_ES_PAN_2
 40
0.00045
  10
-5.83858927188268
  20
42.33800023204102
  0
POLYLINE
  8
Unknown Area Type
  70
9
  66
1
  0
VERTEX
  8
Unknown Area Type
  70
32
  10
-5.85416700000001
  20
42.33333333333331
  30
786.965
  0
VERTEX
  8
Unknown Area Type
  70
32
  10
-5.85416666666668
  20
42.33333333333331
  30
786.965
  0
VERTEX
  8
Unknown Area Type
  70
32
  10
-5.85416666666668
  20
42.33333316666665
  30
786.965
  0
VERTEX
  8
Unknown Area Type
  70
32
  10
-5.85416700000001
  20
42.33333316666665
  30
786.965
  0
SEQEND
  8
Unknown Area Type
  0
TEXT
  8
Unknown Area Type
 62
7
  1
PNOA-H_AMS_1956-57_33k_ES_PAN_2
 40
0.00045
  10
-5.85416683333334
  20
42.33333324999998
  0
POLYLINE
  8
Unknown Area Type
  70
9
  66
1
  0
VERTEX
  8
Unknown Area Type
  70
32
  10
-5.85416666666668
  20
42.33333333333331
  30
786.965
  0
VERTEX
  8
Unknown Area Type
  70
32
  10
-5.82312972004488
  20
42.33333333333331
  30
795.191
  0
VERTEX
  8
Unknown Area Type
  70
32
  10
-5.82312972307493
  20
42.33333316666665
  30
795.191
  0
VERTEX
  8
Unknown Area Type
  70
32
  10
-5.85416666666668
  20
42.33333316666665
  30
786.965
  0
SEQEND
  8
Unknown Area Type
  0
TEXT
  8
Unknown Area Type
 62
7
  1
PNOA-H_AMS_1956-57_33k_ES_PAN_2
 40
0.00045
  10
-5.83864819335578
  20
42.33333324999998
  0
POLYLINE
  8
Unknown Area Type
  70
9
  66
1
  0
VERTEX
  8
Unknown Area Type
  70
32
  10
-5.62495216814675
  20
42.5
  30
848.178
  0
VERTEX
  8
Unknown Area Type
  70
32
  10
-5.60416666666664
  20
42.5
  30
830.583
  0
VERTEX
  8
Unknown Area Type
  70
32
  10
-5.59386972220817
  20
42.5
  30
819.82
  0
VERTEX
  8
Unknown Area Type
  70
32
  10
-5.59341510543505
  20
42.4992213127207
  30
819.416
  0
VERTEX
  8
Unknown Area Type
  70
32
  10
-5.59323094570829
  20
42.49888779277935
  30
820.223
  0
VERTEX
  8
Unknown Area Type
  70
32
  10
-5.62045133067102
  20
42.49621957721366
  30
846.521
  0
VERTEX
  8
Unknown Area Type
  70
32
  10
-5.62540941485542
  20
42.49882104988573
  30
848.609
  0
SEQEND
  8
Unknown Area Type
  0
TEXT
  8
Unknown Area Type
 62
7
  1
PNOA-H_AMS_1956-57_33k_ES_PAN_2
 40
0.00045
  10
-5.60932018028186
  20
42.49810978860683
  0
POLYLINE
  8
Unknown Area Type
  70
9
  66
1
  0
VERTEX
  8
Unknown Area Type
  70
32
  10
-5.62495210350637
  20
42.50000016666667
  30
848.178
  0
VERTEX
  8
Unknown Area Type
  70
32
  10
-5.59386981951226
  20
42.50000016666667
  30
819.82
  0
VERTEX
  8
Unknown Area Type
  70
32
  10
-5.59386972220817
  20
42.5
  30
819.82
  0
VERTEX
  8
Unknown Area Type
  70
32
  10
-5.60416666666664
  20
42.5
  30
830.583
  0
VERTEX
  8
Unknown Area Type
  70
32
  10
-5.62495216814675
  20
42.5
  30
848.178
  0
SEQEND
  8
Unknown Area Type
  0
TEXT
  8
Unknown Area Type
 62
7
  1
PNOA-H_AMS_1956-57_33k_ES_PAN_2
 40
0.00045
  10
-5.60941094517746
  20
42.50000008333333
  0
POLYLINE
  8
Unknown Area Type
  70
9
  66
1
  0
VERTEX
  8
Unknown Area Type
  70
32
  10
-5.62495216814675
  20
42.5
  30
848.178
  0
VERTEX
  8
Unknown Area Type
  70
32
  10
-5.60416666666664
  20
42.5
  30
830.583
  0
VERTEX
  8
Unknown Area Type
  70
32
  10
-5.59386972220817
  20
42.5
  30
819.82
  0
VERTEX
  8
Unknown Area Type
  70
32
  10
-5.59341510543505
  20
42.4992213127207
  30
819.416
  0
VERTEX
  8
Unknown Area Type
  70
32
  10
-5.59323094570829
  20
42.49888779277935
  30
820.223
  0
VERTEX
  8
Unknown Area Type
  70
32
  10
-5.62045133067102
  20
42.49621957721366
  30
846.521
  0
VERTEX
  8
Unknown Area Type
  70
32
  10
-5.62540941485542
  20
42.49882104988573
  30
848.609
  0
SEQEND
  8
Unknown Area Type
  0
TEXT
  8
Unknown Area Type
 62
7
  1
PNOA-H_AMS_1956-57_33k_ES_PAN_2
 40
0.00045
  10
-5.60932018028186
  20
42.49810978860683
  0
POLYLINE
  8
Unknown Area Type
  70
9
  66
1
  0
VERTEX
  8
Unknown Area Type
  70
32
  10
-5.58909099166467
  20
42.5
  30
810.634
  0
VERTEX
  8
Unknown Area Type
  70
32
  10
-5.56250000000001
  20
42.5
  30
791.114
  0
VERTEX
  8
Unknown Area Type
  70
32
  10
-5.55567297160735
  20
42.5
  30
786.27
  0
VERTEX
  8
Unknown Area Type
  70
32
  10
-5.55566280867715
  20
42.49988533439254
  30
786.237
  0
VERTEX
  8
Unknown Area Type
  70
32
  10
-5.55566152547753
  20
42.49985384522615
  30
786.279
  0
VERTEX
  8
Unknown Area Type
  70
32
  10
-5.55567350046965
  20
42.49984907547567
  30
786.301
  0
VERTEX
  8
Unknown Area Type
  70
32
  10
-5.58844108779021
  20
42.49767690292681
  30
809.539
  0
VERTEX
  8
Unknown Area Type
  70
32
  10
-5.5885081400899
  20
42.49767989004532
  30
809.37
  0
VERTEX
  8
Unknown Area Type
  70
32
  10
-5.58960363706721
  20
42.49827647531011
  30
810.762
  0
SEQEND
  8
Unknown Area Type
  0
TEXT
  8
Unknown Area Type
 62
7
  1
PNOA-H_AMS_1956-57_33k_ES_PAN_2
 40
0.00045
  10
-5.57263258127237
  20
42.4988384514634
  0
POLYLINE
  8
Unknown Area Type
  70
9
  66
1
  0
VERTEX
  8
Unknown Area Type
  70
32
  10
-5.58909094209132
  20
42.50000016666667
  30
810.634
  0
VERTEX
  8
Unknown Area Type
  70
32
  10
-5.55567298637918
  20
42.50000016666667
  30
786.27
  0
VERTEX
  8
Unknown Area Type
  70
32
  10
-5.55567297160735
  20
42.5
  30
786.27
  0
VERTEX
  8
Unknown Area Type
  70
32
  10
-5.56250000000001
  20
42.5
  30
791.114
  0
VERTEX
  8
Unknown Area Type
  70
32
  10
-5.58909099166467
  20
42.5
  30
810.634
  0
SEQEND
  8
Unknown Area Type
  0
TEXT
  8
Unknown Area Type
 62
7
  1
PNOA-H_AMS_1956-57_33k_ES_PAN_2
 40
0.00045
  10
-5.57238198163601
  20
42.50000008333333
  0
POLYLINE
  8
Unknown Area Type
  70
9
  66
1
  0
VERTEX
  8
Unknown Area Type
  70
32
  10
-5.58909099166467
  20
42.5
  30
810.634
  0
VERTEX
  8
Unknown Area Type
  70
32
  10
-5.56250000000001
  20
42.5
  30
791.114
  0
VERTEX
  8
Unknown Area Type
  70
32
  10
-5.55567297160735
  20
42.5
  30
786.27
  0
VERTEX
  8
Unknown Area Type
  70
32
  10
-5.55566280867715
  20
42.49988533439254
  30
786.237
  0
VERTEX
  8
Unknown Area Type
  70
32
  10
-5.55566152547753
  20
42.49985384522615
  30
786.279
  0
VERTEX
  8
Unknown Area Type
  70
32
  10
-5.55567350046965
  20
42.49984907547567
  30
786.301
  0
VERTEX
  8
Unknown Area Type
  70
32
  10
-5.58844108779021
  20
42.49767690292681
  30
809.539
  0
VERTEX
  8
Unknown Area Type
  70
32
  10
-5.5885081400899
  20
42.49767989004532
  30
809.37
  0
VERTEX
  8
Unknown Area Type
  70
32
  10
-5.58960363706721
  20
42.49827647531011
  30
810.762
  0
SEQEND
  8
Unknown Area Type
  0
TEXT
  8
Unknown Area Type
 62
7
  1
PNOA-H_AMS_1956-57_33k_ES_PAN_2
 40
0.00045
  10
-5.57263258127237
  20
42.4988384514634
  0
POLYLINE
  8
Unknown Area Type
  70
9
  66
1
  0
VERTEX
  8
Unknown Area Type
  70
32
  10
-5.55567900965362
  20
42.5
  30
786.273
  0
VERTEX
  8
Unknown Area Type
  70
32
  10
-5.52521042841728
  20
42.5
  30
783.016
  0
VERTEX
  8
Unknown Area Type
  70
32
  10
-5.55436627964954
  20
42.49912631240493
  30
785.995
  0
VERTEX
  8
Unknown Area Type
  70
32
  10
-5.55564881723085
  20
42.49984062116584
  30
786.291
  0
VERTEX
  8
Unknown Area Type
  70
32
  10
-5.55566888783374
  20
42.49988519874347
  30
786.238
  0
SEQEND
  8
Unknown Area Type
  0
TEXT
  8
Unknown Area Type
 62
7
  1
PNOA-H_AMS_1956-57_33k_ES_PAN_2
 40
0.00045
  10
-5.54044471903545
  20
42.49956315620246
  0
POLYLINE
  8
Unknown Area Type
  70
9
  66
1
  0
VERTEX
  8
Unknown Area Type
  70
32
  10
-5.55567902434832
  20
42.50000016666667
  30
786.273
  0
VERTEX
  8
Unknown Area Type
  70
32
  10
-5.52520486657976
  20
42.50000016666667
  30
783.015
  0
VERTEX
  8
Unknown Area Type
  70
32
  10
-5.52521042841728
  20
42.5
  30
783.016
  0
VERTEX
  8
Unknown Area Type
  70
32
  10
-5.55567900965362
  20
42.5
  30
786.273
  0
SEQEND
  8
Unknown Area Type
  0
TEXT
  8
Unknown Area Type
 62
7
  1
PNOA-H_AMS_1956-57_33k_ES_PAN_2
 40
0.00045
  10
-5.54044194546404
  20
42.50000008333333
  0
POLYLINE
  8
Unknown Area Type
  70
9
  66
1
  0
VERTEX
  8
Unknown Area Type
  70
32
  10
-5.55567900965362
  20
42.5
  30
786.273
  0
VERTEX
  8
Unknown Area Type
  70
32
  10
-5.52521042841728
  20
42.5
  30
783.016
  0
VERTEX
  8
Unknown Area Type
  70
32
  10
-5.55436627964954
  20
42.49912631240493
  30
785.995
  0
VERTEX
  8
Unknown Area Type
  70
32
  10
-5.55564881723085
  20
42.49984062116584
  30
786.291
  0
VERTEX
  8
Unknown Area Type
  70
32
  10
-5.55566888783374
  20
42.49988519874347
  30
786.238
  0
SEQEND
  8
Unknown Area Type
  0
TEXT
  8
Unknown Area Type
 62
7
  1
PNOA-H_AMS_1956-57_33k_ES_PAN_2
 40
0.00045
  10
-5.54044471903545
  20
42.49956315620246
  0
POLYLINE
  8
Unknown Area Type
  70
9
  66
1
  0
VERTEX
  8
Unknown Area Type
  70
32
  10
-5.52129850779166
  20
42.5
  30
784.224
  0
VERTEX
  8
Unknown Area Type
  70
32
  10
-5.52083333333329
  20
42.5
  30
787.11
  0
VERTEX
  8
Unknown Area Type
  70
32
  10
-5.52083333333329
  20
42.49974572356248
  30
787.973
  0
SEQEND
  8
Unknown Area Type
  0
TEXT
  8
Unknown Area Type
 62
7
  1
PNOA-H_AMS_1956-57_33k_ES_PAN_2
 40
0.00045
  10
-5.52106592056248
  20
42.49987286178124
  0
POLYLINE
  8
Unknown Area Type
  70
9
  66
1
  0
VERTEX
  8
Unknown Area Type
  70
32
  10
-5.52129881269241
  20
42.50000016666667
  30
784.221
  0
VERTEX
  8
Unknown Area Type
  70
32
  10
-5.52083333333329
  20
42.50000016666667
  30
787.11
  0
VERTEX
  8
Unknown Area Type
  70
32
  10
-5.52083333333329
  20
42.5
  30
787.11
  0
VERTEX
  8
Unknown Area Type
  70
32
  10
-5.52129850779166
  20
42.5
  30
784.224
  0
SEQEND
  8
Unknown Area Type
  0
TEXT
  8
Unknown Area Type
 62
7
  1
PNOA-H_AMS_1956-57_33k_ES_PAN_2
 40
0.00045
  10
-5.52106607301285
  20
42.50000008333333
  0
POLYLINE
  8
Unknown Area Type
  70
9
  66
1
  0
VERTEX
  8
Unknown Area Type
  70
32
  10
-5.52083333333329
  20
42.50000016666667
  30
787.11
  0
VERTEX
  8
Unknown Area Type
  70
32
  10
-5.52083299999996
  20
42.50000016666667
  30
787.112
  0
VERTEX
  8
Unknown Area Type
  70
32
  10
-5.52083299999996
  20
42.5
  30
787.112
  0
VERTEX
  8
Unknown Area Type
  70
32
  10
-5.52083333333329
  20
42.5
  30
787.11
  0
SEQEND
  8
Unknown Area Type
  0
TEXT
  8
Unknown Area Type
 62
7
  1
PNOA-H_AMS_1956-57_33k_ES_PAN_2
 40
0.00045
  10
-5.52083316666663
  20
42.50000008333333
  0
POLYLINE
  8
Unknown Area Type
  70
9
  66
1
  0
VERTEX
  8
Unknown Area Type
  70
32
  10
-5.52129850779166
  20
42.5
  30
784.224
  0
VERTEX
  8
Unknown Area Type
  70
32
  10
-5.52083333333329
  20
42.5
  30
787.11
  0
VERTEX
  8
Unknown Area Type
  70
32
  10
-5.52083333333329
  20
42.49974572356248
  30
787.973
  0
SEQEND
  8
Unknown Area Type
  0
TEXT
  8
Unknown Area Type
 62
7
  1
PNOA-H_AMS_1956-57_33k_ES_PAN_2
 40
0.00045
  10
-5.52106592056248
  20
42.49987286178124
  0
POLYLINE
  8
Unknown Area Type
  70
9
  66
1
  0
VERTEX
  8
Unknown Area Type
  70
32
  10
-5.52083333333329
  20
42.5
  30
787.11
  0
VERTEX
  8
Unknown Area Type
  70
32
  10
-5.52083299999996
  20
42.5
  30
787.112
  0
VERTEX
  8
Unknown Area Type
  70
32
  10
-5.52083299999996
  20
42.49974554135382
  30
787.976
  0
VERTEX
  8
Unknown Area Type
  70
32
  10
-5.52083333333329
  20
42.49974572356248
  30
787.973
  0
SEQEND
  8
Unknown Area Type
  0
TEXT
  8
Unknown Area Type
 62
7
  1
PNOA-H_AMS_1956-57_33k_ES_PAN_2
 40
0.00045
  10
-5.52083316666663
  20
42.49987277067691
  0
POLYLINE
  8
Unknown Area Type
  70
9
  66
1
  0
VERTEX
  8
Unknown Area Type
  70
32
  10
-5.74013146149962
  20
42.41474630138202
  30
831.987
  0
VERTEX
  8
Unknown Area Type
  70
32
  10
-5.74504130682576
  20
42.41280072013689
  30
833.259
  0
VERTEX
  8
Unknown Area Type
  70
32
  10
-5.76849310801043
  20
42.41661728739173
  30
835.107
  0
VERTEX
  8
Unknown Area Type
  70
32
  10
-5.77024690951598
  20
42.45641761556263
  30
851
  0
VERTEX
  8
Unknown Area Type
  70
32
  10
-5.7532777691875
  20
42.45935719772268
  30
851.681
  0
VERTEX
  8
Unknown Area Type
  70
32
  10
-5.73684236604078
  20
42.45658133813018
  30
852.233
  0
VERTEX
  8
Unknown Area Type
  70
32
  10
-5.73832788247434
  20
42.41546931294113
  30
832.844
  0
VERTEX
  8
Unknown Area Type
  70
32
  10
-5.73833923936021
  20
42.41545103131165
  30
832.88
  0
VERTEX
  8
Unknown Area Type
  70
32
  10
-5.74011932145658
  20
42.41474659177958
  30
831.98
  0
VERTEX
  8
Unknown Area Type
  70
32
  10
-5.74013146149962
  20
42.41474630138202
  30
831.987
  0
SEQEND
  8
Unknown Area Type
  0
TEXT
  8
Unknown Area Type
 62
7
  1
PNOA-H_AMS_1956-57_33k_ES_PAN_2
 40
0.00045
  10
-5.75354499501378
  20
42.43674688405271
  0
POLYLINE
  8
Unknown Area Type
  70
9
  66
1
  0
VERTEX
  8
Unknown Area Type
  70
32
  10
-5.74013146149962
  20
42.41474630138202
  30
831.987
  0
VERTEX
  8
Unknown Area Type
  70
32
  10
-5.74504130682576
  20
42.41280072013689
  30
833.259
  0
VERTEX
  8
Unknown Area Type
  70
32
  10
-5.76849310801043
  20
42.41661728739173
  30
835.107
  0
VERTEX
  8
Unknown Area Type
  70
32
  10
-5.77024690951598
  20
42.45641761556263
  30
851
  0
VERTEX
  8
Unknown Area Type
  70
32
  10
-5.7532777691875
  20
42.45935719772268
  30
851.681
  0
VERTEX
  8
Unknown Area Type
  70
32
  10
-5.73684236604078
  20
42.45658133813018
  30
852.233
  0
VERTEX
  8
Unknown Area Type
  70
32
  10
-5.73832788247434
  20
42.41546931294113
  30
832.844
  0
VERTEX
  8
Unknown Area Type
  70
32
  10
-5.73833923936021
  20
42.41545103131165
  30
832.88
  0
VERTEX
  8
Unknown Area Type
  70
32
  10
-5.74011932145658
  20
42.41474659177958
  30
831.98
  0
VERTEX
  8
Unknown Area Type
  70
32
  10
-5.74013146149962
  20
42.41474630138202
  30
831.987
  0
SEQEND
  8
Unknown Area Type
  0
TEXT
  8
Unknown Area Type
 62
7
  1
PNOA-H_AMS_1956-57_33k_ES_PAN_2
 40
0.00045
  10
-5.75354499501378
  20
42.43674688405271
  0
POLYLINE
  8
Unknown Area Type
  70
9
  66
1
  0
VERTEX
  8
Unknown Area Type
  70
32
  10
-5.68708058725168
  20
42.45886268823046
  30
863.745
  0
VERTEX
  8
Unknown Area Type
  70
32
  10
-5.68697066803587
  20
42.4588517593029
  30
863.689
  0
VERTEX
  8
Unknown Area Type
  70
32
  10
-5.67376830265185
  20
42.45610799583381
  30
862.05
  0
VERTEX
  8
Unknown Area Type
  70
32
  10
-5.6739114674614
  20
42.41503694019919
  30
830.771
  0
VERTEX
  8
Unknown Area Type
  70
32
  10
-5.6780345987183
  20
42.41311708914491
  30
831.17
  0
VERTEX
  8
Unknown Area Type
  70
32
  10
-5.70625927229482
  20
42.41553352275685
  30
833.263
  0
VERTEX
  8
Unknown Area Type
  70
32
  10
-5.70548967093219
  20
42.45625010962041
  30
848.574
  0
VERTEX
  8
Unknown Area Type
  70
32
  10
-5.70547202959152
  20
42.4562640338868
  30
848.63
  0
VERTEX
  8
Unknown Area Type
  70
32
  10
-5.70539952663594
  20
42.45627475147253
  30
848.57
  0
VERTEX
  8
Unknown Area Type
  70
32
  10
-5.68711684207699
  20
42.45885733516029
  30
863.786
  0
VERTEX
  8
Unknown Area Type
  70
32
  10
-5.68708058725168
  20
42.45886268823046
  30
863.745
  0
SEQEND
  8
Unknown Area Type
  0
TEXT
  8
Unknown Area Type
 62
7
  1
PNOA-H_AMS_1956-57_33k_ES_PAN_2
 40
0.00045
  10
-5.69001426362751
  20
42.43629377463103
  0
POLYLINE
  8
Unknown Area Type
  70
9
  66
1
  0
VERTEX
  8
Unknown Area Type
  70
32
  10
-5.68708058725168
  20
42.45886268823046
  30
863.745
  0
VERTEX
  8
Unknown Area Type
  70
32
  10
-5.68697066803587
  20
42.4588517593029
  30
863.689
  0
VERTEX
  8
Unknown Area Type
  70
32
  10
-5.67376830265185
  20
42.45610799583381
  30
862.05
  0
VERTEX
  8
Unknown Area Type
  70
32
  10
-5.6739114674614
  20
42.41503694019919
  30
830.771
  0
VERTEX
  8
Unknown Area Type
  70
32
  10
-5.6780345987183
  20
42.41311708914491
  30
831.17
  0
VERTEX
  8
Unknown Area Type
  70
32
  10
-5.70625927229482
  20
42.41553352275685
  30
833.263
  0
VERTEX
  8
Unknown Area Type
  70
32
  10
-5.70548967093219
  20
42.45625010962041
  30
848.574
  0
VERTEX
  8
Unknown Area Type
  70
32
  10
-5.70547202959152
  20
42.4562640338868
  30
848.63
  0
VERTEX
  8
Unknown Area Type
  70
32
  10
-5.70539952663594
  20
42.45627475147253
  30
848.57
  0
VERTEX
  8
Unknown Area Type
  70
32
  10
-5.68711684207699
  20
42.45885733516029
  30
863.786
  0
VERTEX
  8
Unknown Area Type
  70
32
  10
-5.68708058725168
  20
42.45886268823046
  30
863.745
  0
SEQEND
  8
Unknown Area Type
  0
TEXT
  8
Unknown Area Type
 62
7
  1
PNOA-H_AMS_1956-57_33k_ES_PAN_2
 40
0.00045
  10
-5.69001426362751
  20
42.43629377463103
  0
POLYLINE
  8
Unknown Area Type
  70
9
  66
1
  0
VERTEX
  8
Unknown Area Type
  70
32
  10
-5.85416666666668
  20
42.41666666666666
  30
812.532
  0
VERTEX
  8
Unknown Area Type
  70
32
  10
-5.85416666666668
  20
42.43750000000006
  30
819.189
  0
VERTEX
  8
Unknown Area Type
  70
32
  10
-5.85416666666668
  20
42.45833333333337
  30
826.512
  0
VERTEX
  8
Unknown Area Type
  70
32
  10
-5.85416666666668
  20
42.45902981676336
  30
826.487
  0
VERTEX
  8
Unknown Area Type
  70
32
  10
-5.8345579348253
  20
42.45653247097608
  30
831.995
  0
VERTEX
  8
Unknown Area Type
  70
32
  10
-5.83336855758974
  20
42.4161385440051
  30
820.175
  0
VERTEX
  8
Unknown Area Type
  70
32
  10
-5.84464046008751
  20
42.41251380921243
  30
812.814
  0
VERTEX
  8
Unknown Area Type
  70
32
  10
-5.84479341218857
  20
42.41253702564779
  30
812.667
  0
VERTEX
  8
Unknown Area Type
  70
32
  10
-5.85416666666668
  20
42.41452340941025
  30
812.538
  0
SEQEND
  8
Unknown Area Type
  0
TEXT
  8
Unknown Area Type
 62
7
  1
PNOA-H_AMS_1956-57_33k_ES_PAN_2
 40
0.00045
  10
-5.84891934896428
  20
42.4358848348555
  0
POLYLINE
  8
Unknown Area Type
  70
9
  66
1
  0
VERTEX
  8
Unknown Area Type
  70
32
  10
-5.85416700000001
  20
42.45902985921632
  30
826.487
  0
VERTEX
  8
Unknown Area Type
  70
32
  10
-5.85416666666668
  20
42.45902981676336
  30
826.487
  0
VERTEX
  8
Unknown Area Type
  70
32
  10
-5.85416666666668
  20
42.45833333333337
  30
826.512
  0
VERTEX
  8
Unknown Area Type
  70
32
  10
-5.85416666666668
  20
42.43750000000006
  30
819.189
  0
VERTEX
  8
Unknown Area Type
  70
32
  10
-5.85416666666668
  20
42.41666666666666
  30
812.532
  0
VERTEX
  8
Unknown Area Type
  70
32
  10
-5.85416666666668
  20
42.41452340941025
  30
812.538
  0
VERTEX
  8
Unknown Area Type
  70
32
  10
-5.85416700000001
  20
42.41452348005039
  30
812.538
  0
SEQEND
  8
Unknown Area Type
  0
TEXT
  8
Unknown Area Type
 62
7
  1
PNOA-H_AMS_1956-57_33k_ES_PAN_2
 40
0.00045
  10
-5.85416683333334
  20
42.43677663431328
  0
POLYLINE
  8
Unknown Area Type
  70
9
  66
1
  0
VERTEX
  8
Unknown Area Type
  70
32
  10
-5.85416666666668
  20
42.41666666666666
  30
812.532
  0
VERTEX
  8
Unknown Area Type
  70
32
  10
-5.85416666666668
  20
42.43750000000006
  30
819.189
  0
VERTEX
  8
Unknown Area Type
  70
32
  10
-5.85416666666668
  20
42.45833333333337
  30
826.512
  0
VERTEX
  8
Unknown Area Type
  70
32
  10
-5.85416666666668
  20
42.45902981676336
  30
826.487
  0
VERTEX
  8
Unknown Area Type
  70
32
  10
-5.8345579348253
  20
42.45653247097608
  30
831.995
  0
VERTEX
  8
Unknown Area Type
  70
32
  10
-5.83336855758974
  20
42.4161385440051
  30
820.175
  0
VERTEX
  8
Unknown Area Type
  70
32
  10
-5.84464046008751
  20
42.41251380921243
  30
812.814
  0
VERTEX
  8
Unknown Area Type
  70
32
  10
-5.84479341218857
  20
42.41253702564779
  30
812.667
  0
VERTEX
  8
Unknown Area Type
  70
32
  10
-5.85416666666668
  20
42.41452340941025
  30
812.538
  0
SEQEND
  8
Unknown Area Type
  0
TEXT
  8
Unknown Area Type
 62
7
  1
PNOA-H_AMS_1956-57_33k_ES_PAN_2
 40
0.00045
  10
-5.84891934896428
  20
42.4358848348555
  0
POLYLINE
  8
Unknown Area Type
  70
9
  66
1
  0
VERTEX
  8
Unknown Area Type
  70
32
  10
-5.66171255711318
  20
42.45758195477907
  30
858.654
  0
VERTEX
  8
Unknown Area Type
  70
32
  10
-5.65321311679798
  20
42.45861662197194
  30
860.43
  0
VERTEX
  8
Unknown Area Type
  70
32
  10
-5.64333170882092
  20
42.45644072968686
  30
846.863
  0
VERTEX
  8
Unknown Area Type
  70
32
  10
-5.64287779528909
  20
42.41442435198076
  30
826.548
  0
VERTEX
  8
Unknown Area Type
  70
32
  10
-5.64482425459219
  20
42.41346090587743
  30
826.651
  0
VERTEX
  8
Unknown Area Type
  70
32
  10
-5.6739114674614
  20
42.41503694019919
  30
830.771
  0
VERTEX
  8
Unknown Area Type
  70
32
  10
-5.67377361105226
  20
42.45608986178774
  30
862.043
  0
VERTEX
  8
Unknown Area Type
  70
32
  10
-5.67375634544199
  20
42.45611277748766
  30
862.047
  0
VERTEX
  8
Unknown Area Type
  70
32
  10
-5.66175488832434
  20
42.4575764685386
  30
858.761
  0
VERTEX
  8
Unknown Area Type
  70
32
  10
-5.66171255711318
  20
42.45758195477907
  30
858.654
  0
SEQEND
  8
Unknown Area Type
  0
TEXT
  8
Unknown Area Type
 62
7
  1
PNOA-H_AMS_1956-57_33k_ES_PAN_2
 40
0.00045
  10
-5.65839499665813
  20
42.43608974685292
  0
POLYLINE
  8
Unknown Area Type
  70
9
  66
1
  0
VERTEX
  8
Unknown Area Type
  70
32
  10
-5.66171255711318
  20
42.45758195477907
  30
858.654
  0
VERTEX
  8
Unknown Area Type
  70
32
  10
-5.65321311679798
  20
42.45861662197194
  30
860.43
  0
VERTEX
  8
Unknown Area Type
  70
32
  10
-5.64333170882092
  20
42.45644072968686
  30
846.863
  0
VERTEX
  8
Unknown Area Type
  70
32
  10
-5.64287779528909
  20
42.41442435198076
  30
826.548
  0
VERTEX
  8
Unknown Area Type
  70
32
  10
-5.64482425459219
  20
42.41346090587743
  30
826.651
  0
VERTEX
  8
Unknown Area Type
  70
32
  10
-5.6739114674614
  20
42.41503694019919
  30
830.771
  0
VERTEX
  8
Unknown Area Type
  70
32
  10
-5.67377361105226
  20
42.45608986178774
  30
862.043
  0
VERTEX
  8
Unknown Area Type
  70
32
  10
-5.67375634544199
  20
42.45611277748766
  30
862.047
  0
VERTEX
  8
Unknown Area Type
  70
32
  10
-5.66175488832434
  20
42.4575764685386
  30
858.761
  0
VERTEX
  8
Unknown Area Type
  70
32
  10
-5.66171255711318
  20
42.45758195477907
  30
858.654
  0
SEQEND
  8
Unknown Area Type
  0
TEXT
  8
Unknown Area Type
 62
7
  1
PNOA-H_AMS_1956-57_33k_ES_PAN_2
 40
0.00045
  10
-5.65839499665813
  20
42.43608974685292
  0
POLYLINE
  8
Unknown Area Type
  70
9
  66
1
  0
VERTEX
  8
Unknown Area Type
  70
32
  10
-5.54592407231144
  20
42.38140963183147
  30
758.424
  0
VERTEX
  8
Unknown Area Type
  70
32
  10
-5.54547487608198
  20
42.38141510978542
  30
758.438
  0
VERTEX
  8
Unknown Area Type
  70
32
  10
-5.54348217351871
  20
42.38049580279332
  30
758.088
  0
VERTEX
  8
Unknown Area Type
  70
32
  10
-5.54280905563581
  20
42.34199971020828
  30
750.207
  0
VERTEX
  8
Unknown Area Type
  70
32
  10
-5.55071372370087
  20
42.34130622252481
  30
749.682
  0
VERTEX
  8
Unknown Area Type
  70
32
  10
-5.57348879612084
  20
42.34122924142267
  30
765.529
  0
VERTEX
  8
Unknown Area Type
  70
32
  10
-5.57538895128236
  20
42.34183493006389
  30
790.216
  0
VERTEX
  8
Unknown Area Type
  70
32
  10
-5.57571148606444
  20
42.38047820382169
  30
798.735
  0
VERTEX
  8
Unknown Area Type
  70
32
  10
-5.54643358216044
  20
42.38139380640916
  30
758.58
  0
VERTEX
  8
Unknown Area Type
  70
32
  10
-5.54592407231144
  20
42.38140963183147
  30
758.424
  0
SEQEND
  8
Unknown Area Type
  0
TEXT
  8
Unknown Area Type
 62
7
  1
PNOA-H_AMS_1956-57_33k_ES_PAN_2
 40
0.00045
  10
-5.55926035011404
  20
42.36113338239655
  0
POLYLINE
  8
Unknown Area Type
  70
9
  66
1
  0
VERTEX
  8
Unknown Area Type
  70
32
  10
-5.54592407231144
  20
42.38140963183147
  30
758.424
  0
VERTEX
  8
Unknown Area Type
  70
32
  10
-5.54547487608198
  20
42.38141510978542
  30
758.438
  0
VERTEX
  8
Unknown Area Type
  70
32
  10
-5.54348217351871
  20
42.38049580279332
  30
758.088
  0
VERTEX
  8
Unknown Area Type
  70
32
  10
-5.54280905563581
  20
42.34199971020828
  30
750.207
  0
VERTEX
  8
Unknown Area Type
  70
32
  10
-5.55071372370087
  20
42.34130622252481
  30
749.682
  0
VERTEX
  8
Unknown Area Type
  70
32
  10
-5.57348879612084
  20
42.34122924142267
  30
765.529
  0
VERTEX
  8
Unknown Area Type
  70
32
  10
-5.57538895128236
  20
42.34183493006389
  30
790.216
  0
VERTEX
  8
Unknown Area Type
  70
32
  10
-5.57571148606444
  20
42.38047820382169
  30
798.735
  0
VERTEX
  8
Unknown Area Type
  70
32
  10
-5.54643358216044
  20
42.38139380640916
  30
758.58
  0
VERTEX
  8
Unknown Area Type
  70
32
  10
-5.54592407231144
  20
42.38140963183147
  30
758.424
  0
SEQEND
  8
Unknown Area Type
  0
TEXT
  8
Unknown Area Type
 62
7
  1
PNOA-H_AMS_1956-57_33k_ES_PAN_2
 40
0.00045
  10
-5.55926035011404
  20
42.36113338239655
  0
POLYLINE
  8
Unknown Area Type
  70
9
  66
1
  0
VERTEX
  8
Unknown Area Type
  70
32
  10
-5.57761122341454
  20
42.38134050488615
  30
798.776
  0
VERTEX
  8
Unknown Area Type
  70
32
  10
-5.57755643086251
  20
42.38133723496539
  30
798.794
  0
VERTEX
  8
Unknown Area Type
  70
32
  10
-5.57571148606444
  20
42.38047820382169
  30
798.735
  0
VERTEX
  8
Unknown Area Type
  70
32
  10
-5.57538895128236
  20
42.34183493006389
  30
790.216
  0
VERTEX
  8
Unknown Area Type
  70
32
  10
-5.58848842062784
  20
42.34099044276107
  30
773.915
  0
VERTEX
  8
Unknown Area Type
  70
32
  10
-5.58869495470457
  20
42.34099478226108
  30
772.204
  0
VERTEX
  8
Unknown Area Type
  70
32
  10
-5.60672494107521
  20
42.34197734590555
  30
800.631
  0
VERTEX
  8
Unknown Area Type
  70
32
  10
-5.60836895100711
  20
42.37950973971409
  30
813.84
  0
VERTEX
  8
Unknown Area Type
  70
32
  10
-5.57773239134584
  20
42.38133327621942
  30
798.766
  0
VERTEX
  8
Unknown Area Type
  70
32
  10
-5.57761122341454
  20
42.38134050488615
  30
798.776
  0
SEQEND
  8
Unknown Area Type
  0
TEXT
  8
Unknown Area Type
 62
7
  1
PNOA-H_AMS_1956-57_33k_ES_PAN_2
 40
0.00045
  10
-5.59187908019739
  20
42.36082824363007
  0
POLYLINE
  8
Unknown Area Type
  70
9
  66
1
  0
VERTEX
  8
Unknown Area Type
  70
32
  10
-5.57761122341454
  20
42.38134050488615
  30
798.776
  0
VERTEX
  8
Unknown Area Type
  70
32
  10
-5.57755643086251
  20
42.38133723496539
  30
798.794
  0
VERTEX
  8
Unknown Area Type
  70
32
  10
-5.57571148606444
  20
42.38047820382169
  30
798.735
  0
VERTEX
  8
Unknown Area Type
  70
32
  10
-5.57538895128236
  20
42.34183493006389
  30
790.216
  0
VERTEX
  8
Unknown Area Type
  70
32
  10
-5.58848842062784
  20
42.34099044276107
  30
773.915
  0
VERTEX
  8
Unknown Area Type
  70
32
  10
-5.58869495470457
  20
42.34099478226108
  30
772.204
  0
VERTEX
  8
Unknown Area Type
  70
32
  10
-5.60672494107521
  20
42.34197734590555
  30
800.631
  0
VERTEX
  8
Unknown Area Type
  70
32
  10
-5.60836895100711
  20
42.37950973971409
  30
813.84
  0
VERTEX
  8
Unknown Area Type
  70
32
  10
-5.57773239134584
  20
42.38133327621942
  30
798.766
  0
VERTEX
  8
Unknown Area Type
  70
32
  10
-5.57761122341454
  20
42.38134050488615
  30
798.776
  0
SEQEND
  8
Unknown Area Type
  0
TEXT
  8
Unknown Area Type
 62
7
  1
PNOA-H_AMS_1956-57_33k_ES_PAN_2
 40
0.00045
  10
-5.59187908019739
  20
42.36082824363007
  0
POLYLINE
  8
Unknown Area Type
  70
9
  66
1
  0
VERTEX
  8
Unknown Area Type
  70
32
  10
-5.65843497948397
  20
42.38009246241347
  30
819.757
  0
VERTEX
  8
Unknown Area Type
  70
32
  10
-5.64455830404206
  20
42.38154376495077
  30
817.613
  0
VERTEX
  8
Unknown Area Type
  70
32
  10
-5.63932257261931
  20
42.37935467147007
  30
815.637
  0
VERTEX
  8
Unknown Area Type
  70
32
  10
-5.63939710448835
  20
42.34199485749534
  30
805.492
  0
VERTEX
  8
Unknown Area Type
  70
32
  10
-5.64681119946649
  20
42.33961755444192
  30
804.723
  0
VERTEX
  8
Unknown Area Type
  70
32
  10
-5.66956946019782
  20
42.34246203874626
  30
805.749
  0
VERTEX
  8
Unknown Area Type
  70
32
  10
-5.67181497311357
  20
42.37868708383198
  30
819.501
  0
VERTEX
  8
Unknown Area Type
  70
32
  10
-5.65848939341614
  20
42.38008669719575
  30
819.764
  0
VERTEX
  8
Unknown Area Type
  70
32
  10
-5.65843497948397
  20
42.38009246241347
  30
819.757
  0
SEQEND
  8
Unknown Area Type
  0
TEXT
  8
Unknown Area Type
 62
7
  1
PNOA-H_AMS_1956-57_33k_ES_PAN_2
 40
0.00045
  10
-5.65556895349939
  20
42.36055117127655
  0
POLYLINE
  8
Unknown Area Type
  70
9
  66
1
  0
VERTEX
  8
Unknown Area Type
  70
32
  10
-5.65843497948397
  20
42.38009246241347
  30
819.757
  0
VERTEX
  8
Unknown Area Type
  70
32
  10
-5.64455830404206
  20
42.38154376495077
  30
817.613
  0
VERTEX
  8
Unknown Area Type
  70
32
  10
-5.63932257261931
  20
42.37935467147007
  30
815.637
  0
VERTEX
  8
Unknown Area Type
  70
32
  10
-5.63939710448835
  20
42.34199485749534
  30
805.492
  0
VERTEX
  8
Unknown Area Type
  70
32
  10
-5.64681119946649
  20
42.33961755444192
  30
804.723
  0
VERTEX
  8
Unknown Area Type
  70
32
  10
-5.66956946019782
  20
42.34246203874626
  30
805.749
  0
VERTEX
  8
Unknown Area Type
  70
32
  10
-5.67181497311357
  20
42.37868708383198
  30
819.501
  0
VERTEX
  8
Unknown Area Type
  70
32
  10
-5.65848939341614
  20
42.38008669719575
  30
819.764
  0
VERTEX
  8
Unknown Area Type
  70
32
  10
-5.65843497948397
  20
42.38009246241347
  30
819.757
  0
SEQEND
  8
Unknown Area Type
  0
TEXT
  8
Unknown Area Type
 62
7
  1
PNOA-H_AMS_1956-57_33k_ES_PAN_2
 40
0.00045
  10
-5.65556895349939
  20
42.36055117127655
  0
POLYLINE
  8
Unknown Area Type
  70
9
  66
1
  0
VERTEX
  8
Unknown Area Type
  70
32
  10
-5.75789592232515
  20
42.37988905955974
  30
817.253
  0
VERTEX
  8
Unknown Area Type
  70
32
  10
-5.74637385646663
  20
42.38207944048549
  30
819.916
  0
VERTEX
  8
Unknown Area Type
  70
32
  10
-5.73422641276074
  20
42.37771886156085
  30
820.616
  0
VERTEX
  8
Unknown Area Type
  70
32
  10
-5.7350925921839
  20
42.3435371854162
  30
806.275
  0
VERTEX
  8
Unknown Area Type
  70
32
  10
-5.75291679215955
  20
42.33960280228844
  30
801.213
  0
VERTEX
  8
Unknown Area Type
  70
32
  10
-5.75299521485803
  20
42.33959191285386
  30
801.148
  0
VERTEX
  8
Unknown Area Type
  70
32
  10
-5.75306269023708
  20
42.33960830187042
  30
800.967
  0
VERTEX
  8
Unknown Area Type
  70
32
  10
-5.76689299460657
  20
42.34317887794933
  30
799.588
  0
VERTEX
  8
Unknown Area Type
  70
32
  10
-5.76735120769288
  20
42.3780851558497
  30
814.485
  0
VERTEX
  8
Unknown Area Type
  70
32
  10
-5.75791999163231
  20
42.37988397757565
  30
817.234
  0
VERTEX
  8
Unknown Area Type
  70
32
  10
-5.75789592232515
  20
42.37988905955974
  30
817.253
  0
SEQEND
  8
Unknown Area Type
  0
TEXT
  8
Unknown Area Type
 62
7
  1
PNOA-H_AMS_1956-57_33k_ES_PAN_2
 40
0.00045
  10
-5.75078896234633
  20
42.36065531786825
  0
POLYLINE
  8
Unknown Area Type
  70
9
  66
1
  0
VERTEX
  8
Unknown Area Type
  70
32
  10
-5.75789592232515
  20
42.37988905955974
  30
817.253
  0
VERTEX
  8
Unknown Area Type
  70
32
  10
-5.74637385646663
  20
42.38207944048549
  30
819.916
  0
VERTEX
  8
Unknown Area Type
  70
32
  10
-5.73422641276074
  20
42.37771886156085
  30
820.616
  0
VERTEX
  8
Unknown Area Type
  70
32
  10
-5.7350925921839
  20
42.3435371854162
  30
806.275
  0
VERTEX
  8
Unknown Area Type
  70
32
  10
-5.75291679215955
  20
42.33960280228844
  30
801.213
  0
VERTEX
  8
Unknown Area Type
  70
32
  10
-5.75299521485803
  20
42.33959191285386
  30
801.148
  0
VERTEX
  8
Unknown Area Type
  70
32
  10
-5.75306269023708
  20
42.33960830187042
  30
800.967
  0
VERTEX
  8
Unknown Area Type
  70
32
  10
-5.76689299460657
  20
42.34317887794933
  30
799.588
  0
VERTEX
  8
Unknown Area Type
  70
32
  10
-5.76735120769288
  20
42.3780851558497
  30
814.485
  0
VERTEX
  8
Unknown Area Type
  70
32
  10
-5.75791999163231
  20
42.37988397757565
  30
817.234
  0
VERTEX
  8
Unknown Area Type
  70
32
  10
-5.75789592232515
  20
42.37988905955974
  30
817.253
  0
SEQEND
  8
Unknown Area Type
  0
TEXT
  8
Unknown Area Type
 62
7
  1
PNOA-H_AMS_1956-57_33k_ES_PAN_2
 40
0.00045
  10
-5.75078896234633
  20
42.36065531786825
  0
POLYLINE
  8
Unknown Area Type
  70
9
  66
1
  0
VERTEX
  8
Unknown Area Type
  70
32
  10
-5.76709785757242
  20
42.35877081506912
  30
807.62
  0
VERTEX
  8
Unknown Area Type
  70
32
  10
-5.76689905760254
  20
42.34317873153181
  30
799.59
  0
VERTEX
  8
Unknown Area Type
  70
32
  10
-5.78730304612146
  20
42.33957739937919
  30
798.804
  0
VERTEX
  8
Unknown Area Type
  70
32
  10
-5.79811173275318
  20
42.34285295261443
  30
798.56
  0
VERTEX
  8
Unknown Area Type
  70
32
  10
-5.799470965744
  20
42.37714717428898
  30
810.921
  0
VERTEX
  8
Unknown Area Type
  70
32
  10
-5.77918880969246
  20
42.38170229964513
  30
813.424
  0
VERTEX
  8
Unknown Area Type
  70
32
  10
-5.76735747168695
  20
42.37808950708504
  30
814.481
  0
VERTEX
  8
Unknown Area Type
  70
32
  10
-5.76734304382182
  20
42.37776116956703
  30
814.422
  0
VERTEX
  8
Unknown Area Type
  70
32
  10
-5.76710318986065
  20
42.35889225540424
  30
807.571
  0
VERTEX
  8
Unknown Area Type
  70
32
  10
-5.76709785757242
  20
42.35877081506912
  30
807.62
  0
SEQEND
  8
Unknown Area Type
  0
TEXT
  8
Unknown Area Type
 62
7
  1
PNOA-H_AMS_1956-57_33k_ES_PAN_2
 40
0.00045
  10
-5.78318508065712
  20
42.36055327395275
  0
POLYLINE
  8
Unknown Area Type
  70
9
  66
1
  0
VERTEX
  8
Unknown Area Type
  70
32
  10
-5.76709785757242
  20
42.35877081506912
  30
807.62
  0
VERTEX
  8
Unknown Area Type
  70
32
  10
-5.76689905760254
  20
42.34317873153181
  30
799.59
  0
VERTEX
  8
Unknown Area Type
  70
32
  10
-5.78730304612146
  20
42.33957739937919
  30
798.804
  0
VERTEX
  8
Unknown Area Type
  70
32
  10
-5.79811173275318
  20
42.34285295261443
  30
798.56
  0
VERTEX
  8
Unknown Area Type
  70
32
  10
-5.799470965744
  20
42.37714717428898
  30
810.921
  0
VERTEX
  8
Unknown Area Type
  70
32
  10
-5.77918880969246
  20
42.38170229964513
  30
813.424
  0
VERTEX
  8
Unknown Area Type
  70
32
  10
-5.76735747168695
  20
42.37808950708504
  30
814.481
  0
VERTEX
  8
Unknown Area Type
  70
32
  10
-5.76734304382182
  20
42.37776116956703
  30
814.422
  0
VERTEX
  8
Unknown Area Type
  70
32
  10
-5.76710318986065
  20
42.35889225540424
  30
807.571
  0
VERTEX
  8
Unknown Area Type
  70
32
  10
-5.76709785757242
  20
42.35877081506912
  30
807.62
  0
SEQEND
  8
Unknown Area Type
  0
TEXT
  8
Unknown Area Type
 62
7
  1
PNOA-H_AMS_1956-57_33k_ES_PAN_2
 40
0.00045
  10
-5.78318508065712
  20
42.36055327395275
  0
POLYLINE
  8
Unknown Area Type
  70
9
  66
1
  0
VERTEX
  8
Unknown Area Type
  70
32
  10
-5.70262975788125
  20
42.3603097061662
  30
812.139
  0
VERTEX
  8
Unknown Area Type
  70
32
  10
-5.70271025858601
  20
42.34264866077616
  30
807.847
  0
VERTEX
  8
Unknown Area Type
  70
32
  10
-5.7158755607077
  20
42.33928460136539
  30
807.279
  0
VERTEX
  8
Unknown Area Type
  70
32
  10
-5.71598998057851
  20
42.33926387884333
  30
807.478
  0
VERTEX
  8
Unknown Area Type
  70
32
  10
-5.7350925921839
  20
42.3435371854162
  30
806.275
  0
VERTEX
  8
Unknown Area Type
  70
32
  10
-5.73422034627666
  20
42.37771900634553
  30
820.63
  0
VERTEX
  8
Unknown Area Type
  70
32
  10
-5.71097306492741
  20
42.38122965759784
  30
819.333
  0
VERTEX
  8
Unknown Area Type
  70
32
  10
-5.70254756448382
  20
42.3782093854109
  30
816.606
  0
VERTEX
  8
Unknown Area Type
  70
32
  10
-5.70263187983004
  20
42.36035918451
  30
812.403
  0
VERTEX
  8
Unknown Area Type
  70
32
  10
-5.70262975788125
  20
42.3603097061662
  30
812.139
  0
SEQEND
  8
Unknown Area Type
  0
TEXT
  8
Unknown Area Type
 62
7
  1
PNOA-H_AMS_1956-57_33k_ES_PAN_2
 40
0.00045
  10
-5.71882027484292
  20
42.35996920440593
  0
POLYLINE
  8
Unknown Area Type
  70
9
  66
1
  0
VERTEX
  8
Unknown Area Type
  70
32
  10
-5.70262975788125
  20
42.3603097061662
  30
812.139
  0
VERTEX
  8
Unknown Area Type
  70
32
  10
-5.70271025858601
  20
42.34264866077616
  30
807.847
  0
VERTEX
  8
Unknown Area Type
  70
32
  10
-5.7158755607077
  20
42.33928460136539
  30
807.279
  0
VERTEX
  8
Unknown Area Type
  70
32
  10
-5.71598998057851
  20
42.33926387884333
  30
807.478
  0
VERTEX
  8
Unknown Area Type
  70
32
  10
-5.7350925921839
  20
42.3435371854162
  30
806.275
  0
VERTEX
  8
Unknown Area Type
  70
32
  10
-5.73422034627666
  20
42.37771900634553
  30
820.63
  0
VERTEX
  8
Unknown Area Type
  70
32
  10
-5.71097306492741
  20
42.38122965759784
  30
819.333
  0
VERTEX
  8
Unknown Area Type
  70
32
  10
-5.70254756448382
  20
42.3782093854109
  30
816.606
  0
VERTEX
  8
Unknown Area Type
  70
32
  10
-5.70263187983004
  20
42.36035918451
  30
812.403
  0
VERTEX
  8
Unknown Area Type
  70
32
  10
-5.70262975788125
  20
42.3603097061662
  30
812.139
  0
SEQEND
  8
Unknown Area Type
  0
TEXT
  8
Unknown Area Type
 62
7
  1
PNOA-H_AMS_1956-57_33k_ES_PAN_2
 40
0.00045
  10
-5.71882027484292
  20
42.35996920440593
  0
POLYLINE
  8
Unknown Area Type
  70
9
  66
1
  0
VERTEX
  8
Unknown Area Type
  70
32
  10
-5.60681821750315
  20
42.34408695498225
  30
785.865
  0
VERTEX
  8
Unknown Area Type
  70
32
  10
-5.60672494107521
  20
42.34197734590555
  30
800.631
  0
VERTEX
  8
Unknown Area Type
  70
32
  10
-5.61205369178783
  20
42.34006845452237
  30
804.055
  0
VERTEX
  8
Unknown Area Type
  70
32
  10
-5.63939710448835
  20
42.34199485749534
  30
805.492
  0
VERTEX
  8
Unknown Area Type
  70
32
  10
-5.63932543498801
  20
42.37927806147579
  30
815.635
  0
VERTEX
  8
Unknown Area Type
  70
32
  10
-5.63932257261931
  20
42.37935467147007
  30
815.637
  0
VERTEX
  8
Unknown Area Type
  70
32
  10
-5.63925602287193
  20
42.37936070714044
  30
815.576
  0
VERTEX
  8
Unknown Area Type
  70
32
  10
-5.61180512288408
  20
42.38109291847644
  30
814.256
  0
VERTEX
  8
Unknown Area Type
  70
32
  10
-5.60836895100711
  20
42.37950973971409
  30
813.84
  0
VERTEX
  8
Unknown Area Type
  70
32
  10
-5.60684964613909
  20
42.34484718342635
  30
786.21
  0
VERTEX
  8
Unknown Area Type
  70
32
  10
-5.60681821750315
  20
42.34408695498225
  30
785.865
  0
SEQEND
  8
Unknown Area Type
  0
TEXT
  8
Unknown Area Type
 62
7
  1
PNOA-H_AMS_1956-57_33k_ES_PAN_2
 40
0.00045
  10
-5.62306084536951
  20
42.36061225096096
  0
POLYLINE
  8
Unknown Area Type
  70
9
  66
1
  0
VERTEX
  8
Unknown Area Type
  70
32
  10
-5.60681821750315
  20
42.34408695498225
  30
785.865
  0
VERTEX
  8
Unknown Area Type
  70
32
  10
-5.60672494107521
  20
42.34197734590555
  30
800.631
  0
VERTEX
  8
Unknown Area Type
  70
32
  10
-5.61205369178783
  20
42.34006845452237
  30
804.055
  0
VERTEX
  8
Unknown Area Type
  70
32
  10
-5.63939710448835
  20
42.34199485749534
  30
805.492
  0
VERTEX
  8
Unknown Area Type
  70
32
  10
-5.63932543498801
  20
42.37927806147579
  30
815.635
  0
VERTEX
  8
Unknown Area Type
  70
32
  10
-5.63932257261931
  20
42.37935467147007
  30
815.637
  0
VERTEX
  8
Unknown Area Type
  70
32
  10
-5.63925602287193
  20
42.37936070714044
  30
815.576
  0
VERTEX
  8
Unknown Area Type
  70
32
  10
-5.61180512288408
  20
42.38109291847644
  30
814.256
  0
VERTEX
  8
Unknown Area Type
  70
32
  10
-5.60836895100711
  20
42.37950973971409
  30
813.84
  0
VERTEX
  8
Unknown Area Type
  70
32
  10
-5.60684964613909
  20
42.34484718342635
  30
786.21
  0
VERTEX
  8
Unknown Area Type
  70
32
  10
-5.60681821750315
  20
42.34408695498225
  30
785.865
  0
SEQEND
  8
Unknown Area Type
  0
TEXT
  8
Unknown Area Type
 62
7
  1
PNOA-H_AMS_1956-57_33k_ES_PAN_2
 40
0.00045
  10
-5.62306084536951
  20
42.36061225096096
  0
POLYLINE
  8
Unknown Area Type
  70
9
  66
1
  0
VERTEX
  8
Unknown Area Type
  70
32
  10
-5.68332950107542
  20
42.38054769463355
  30
819.075
  0
VERTEX
  8
Unknown Area Type
  70
32
  10
-5.6781696822089
  20
42.38117271832616
  30
818.969
  0
VERTEX
  8
Unknown Area Type
  70
32
  10
-5.67181497311357
  20
42.37868708383198
  30
819.501
  0
VERTEX
  8
Unknown Area Type
  70
32
  10
-5.66957860075307
  20
42.34267795077328
  30
805.62
  0
VERTEX
  8
Unknown Area Type
  70
32
  10
-5.66956926977065
  20
42.34245754057891
  30
805.738
  0
VERTEX
  8
Unknown Area Type
  70
32
  10
-5.68103597876982
  20
42.33906950529245
  30
805.041
  0
VERTEX
  8
Unknown Area Type
  70
32
  10
-5.68107842000896
  20
42.33906851222053
  30
805.047
  0
VERTEX
  8
Unknown Area Type
  70
32
  10
-5.70271025858601
  20
42.34264866077616
  30
807.847
  0
VERTEX
  8
Unknown Area Type
  70
32
  10
-5.70254756448382
  20
42.3782093854109
  30
816.606
  0
VERTEX
  8
Unknown Area Type
  70
32
  10
-5.68337177849102
  20
42.38054220184392
  30
819.152
  0
VERTEX
  8
Unknown Area Type
  70
32
  10
-5.68332950107542
  20
42.38054769463355
  30
819.075
  0
SEQEND
  8
Unknown Area Type
  0
TEXT
  8
Unknown Area Type
 62
7
  1
PNOA-H_AMS_1956-57_33k_ES_PAN_2
 40
0.00045
  10
-5.68613970570261
  20
42.36005407319497
  0
POLYLINE
  8
Unknown Area Type
  70
9
  66
1
  0
VERTEX
  8
Unknown Area Type
  70
32
  10
-5.68332950107542
  20
42.38054769463355
  30
819.075
  0
VERTEX
  8
Unknown Area Type
  70
32
  10
-5.6781696822089
  20
42.38117271832616
  30
818.969
  0
VERTEX
  8
Unknown Area Type
  70
32
  10
-5.67181497311357
  20
42.37868708383198
  30
819.501
  0
VERTEX
  8
Unknown Area Type
  70
32
  10
-5.66957860075307
  20
42.34267795077328
  30
805.62
  0
VERTEX
  8
Unknown Area Type
  70
32
  10
-5.66956926977065
  20
42.34245754057891
  30
805.738
  0
VERTEX
  8
Unknown Area Type
  70
32
  10
-5.68103597876982
  20
42.33906950529245
  30
805.041
  0
VERTEX
  8
Unknown Area Type
  70
32
  10
-5.68107842000896
  20
42.33906851222053
  30
805.047
  0
VERTEX
  8
Unknown Area Type
  70
32
  10
-5.70271025858601
  20
42.34264866077616
  30
807.847
  0
VERTEX
  8
Unknown Area Type
  70
32
  10
-5.70254756448382
  20
42.3782093854109
  30
816.606
  0
VERTEX
  8
Unknown Area Type
  70
32
  10
-5.68337177849102
  20
42.38054220184392
  30
819.152
  0
VERTEX
  8
Unknown Area Type
  70
32
  10
-5.68332950107542
  20
42.38054769463355
  30
819.075
  0
SEQEND
  8
Unknown Area Type
  0
TEXT
  8
Unknown Area Type
 62
7
  1
PNOA-H_AMS_1956-57_33k_ES_PAN_2
 40
0.00045
  10
-5.68613970570261
  20
42.36005407319497
  0
POLYLINE
  8
Unknown Area Type
  70
9
  66
1
  0
VERTEX
  8
Unknown Area Type
  70
32
  10
-5.80761256697722
  20
42.37928474580984
  30
810.29
  0
VERTEX
  8
Unknown Area Type
  70
32
  10
-5.799470965744
  20
42.37714717428898
  30
810.921
  0
VERTEX
  8
Unknown Area Type
  70
32
  10
-5.79811173275318
  20
42.34285295261443
  30
798.56
  0
VERTEX
  8
Unknown Area Type
  70
32
  10
-5.82302400186333
  20
42.33981495244282
  30
797.083
  0
VERTEX
  8
Unknown Area Type
  70
32
  10
-5.83060464713767
  20
42.34266263319002
  30
792.146
  0
VERTEX
  8
Unknown Area Type
  70
32
  10
-5.83022222078386
  20
42.37753522337881
  30
809.249
  0
VERTEX
  8
Unknown Area Type
  70
32
  10
-5.81432878933911
  20
42.38104252763623
  30
809.837
  0
VERTEX
  8
Unknown Area Type
  70
32
  10
-5.81428632459267
  20
42.3810435708561
  30
810.143
  0
VERTEX
  8
Unknown Area Type
  70
32
  10
-5.807630966277
  20
42.37928879741067
  30
810.571
  0
VERTEX
  8
Unknown Area Type
  70
32
  10
-5.80761256697722
  20
42.37928474580984
  30
810.29
  0
SEQEND
  8
Unknown Area Type
  0
TEXT
  8
Unknown Area Type
 62
7
  1
PNOA-H_AMS_1956-57_33k_ES_PAN_2
 40
0.00045
  10
-5.81435828750036
  20
42.3609520318699
  0
POLYLINE
  8
Unknown Area Type
  70
9
  66
1
  0
VERTEX
  8
Unknown Area Type
  70
32
  10
-5.80761256697722
  20
42.37928474580984
  30
810.29
  0
VERTEX
  8
Unknown Area Type
  70
32
  10
-5.799470965744
  20
42.37714717428898
  30
810.921
  0
VERTEX
  8
Unknown Area Type
  70
32
  10
-5.79811173275318
  20
42.34285295261443
  30
798.56
  0
VERTEX
  8
Unknown Area Type
  70
32
  10
-5.82302400186333
  20
42.33981495244282
  30
797.083
  0
VERTEX
  8
Unknown Area Type
  70
32
  10
-5.83060464713767
  20
42.34266263319002
  30
792.146
  0
VERTEX
  8
Unknown Area Type
  70
32
  10
-5.83022222078386
  20
42.37753522337881
  30
809.249
  0
VERTEX
  8
Unknown Area Type
  70
32
  10
-5.81432878933911
  20
42.38104252763623
  30
809.837
  0
VERTEX
  8
Unknown Area Type
  70
32
  10
-5.81428632459267
  20
42.3810435708561
  30
810.143
  0
VERTEX
  8
Unknown Area Type
  70
32
  10
-5.807630966277
  20
42.37928879741067
  30
810.571
  0
VERTEX
  8
Unknown Area Type
  70
32
  10
-5.80761256697722
  20
42.37928474580984
  30
810.29
  0
SEQEND
  8
Unknown Area Type
  0
TEXT
  8
Unknown Area Type
 62
7
  1
PNOA-H_AMS_1956-57_33k_ES_PAN_2
 40
0.00045
  10
-5.81435828750036
  20
42.3609520318699
  0
POLYLINE
  8
Unknown Area Type
  70
9
  66
1
  0
VERTEX
  8
Unknown Area Type
  70
32
  10
-5.85416666666668
  20
42.35416666666671
  30
793.763
  0
VERTEX
  8
Unknown Area Type
  70
32
  10
-5.85416666666668
  20
42.37500000000003
  30
801.896
  0
VERTEX
  8
Unknown Area Type
  70
32
  10
-5.85416666666668
  20
42.37974587812803
  30
801.847
  0
VERTEX
  8
Unknown Area Type
  70
32
  10
-5.84563188434356
  20
42.38163799003483
  30
801.434
  0
VERTEX
  8
Unknown Area Type
  70
32
  10
-5.83022242290979
  20
42.37753972091157
  30
809.294
  0
VERTEX
  8
Unknown Area Type
  70
32
  10
-5.83060141121281
  20
42.34272574879637
  30
792.167
  0
VERTEX
  8
Unknown Area Type
  70
32
  10
-5.83060484904432
  20
42.34266713074872
  30
792.148
  0
VERTEX
  8
Unknown Area Type
  70
32
  10
-5.8306167723699
  20
42.34266233362005
  30
792.137
  0
VERTEX
  8
Unknown Area Type
  70
32
  10
-5.85416666666668
  20
42.34091631430186
  30
789.792
  0
SEQEND
  8
Unknown Area Type
  0
TEXT
  8
Unknown Area Type
 62
7
  1
PNOA-H_AMS_1956-57_33k_ES_PAN_2
 40
0.00045
  10
-5.84677763291833
  20
42.36142254372906
  0
POLYLINE
  8
Unknown Area Type
  70
9
  66
1
  0
VERTEX
  8
Unknown Area Type
  70
32
  10
-5.85416700000001
  20
42.37974580422997
  30
801.847
  0
VERTEX
  8
Unknown Area Type
  70
32
  10
-5.85416666666668
  20
42.37974587812803
  30
801.847
  0
VERTEX
  8
Unknown Area Type
  70
32
  10
-5.85416666666668
  20
42.37500000000003
  30
801.896
  0
VERTEX
  8
Unknown Area Type
  70
32
  10
-5.85416666666668
  20
42.35416666666671
  30
793.763
  0
VERTEX
  8
Unknown Area Type
  70
32
  10
-5.85416666666668
  20
42.34091631430186
  30
789.792
  0
VERTEX
  8
Unknown Area Type
  70
32
  10
-5.85416700000001
  20
42.34091628958811
  30
789.792
  0
SEQEND
  8
Unknown Area Type
  0
TEXT
  8
Unknown Area Type
 62
7
  1
PNOA-H_AMS_1956-57_33k_ES_PAN_2
 40
0.00045
  10
-5.85416683333334
  20
42.36033108385807
  0
POLYLINE
  8
Unknown Area Type
  70
9
  66
1
  0
VERTEX
  8
Unknown Area Type
  70
32
  10
-5.85416666666668
  20
42.35416666666671
  30
793.763
  0
VERTEX
  8
Unknown Area Type
  70
32
  10
-5.85416666666668
  20
42.37500000000003
  30
801.896
  0
VERTEX
  8
Unknown Area Type
  70
32
  10
-5.85416666666668
  20
42.37974587812803
  30
801.847
  0
VERTEX
  8
Unknown Area Type
  70
32
  10
-5.84563188434356
  20
42.38163799003483
  30
801.434
  0
VERTEX
  8
Unknown Area Type
  70
32
  10
-5.83022242290979
  20
42.37753972091157
  30
809.294
  0
VERTEX
  8
Unknown Area Type
  70
32
  10
-5.83060141121281
  20
42.34272574879637
  30
792.167
  0
VERTEX
  8
Unknown Area Type
  70
32
  10
-5.83060484904432
  20
42.34266713074872
  30
792.148
  0
VERTEX
  8
Unknown Area Type
  70
32
  10
-5.8306167723699
  20
42.34266233362005
  30
792.137
  0
VERTEX
  8
Unknown Area Type
  70
32
  10
-5.85416666666668
  20
42.34091631430186
  30
789.792
  0
SEQEND
  8
Unknown Area Type
  0
TEXT
  8
Unknown Area Type
 62
7
  1
PNOA-H_AMS_1956-57_33k_ES_PAN_2
 40
0.00045
  10
-5.84677763291833
  20
42.36142254372906
  0
POLYLINE
  8
Unknown Area Type
  70
9
  66
1
  0
VERTEX
  8
Unknown Area Type
  70
32
  10
-5.54348217351871
  20
42.38049580279332
  30
758.088
  0
VERTEX
  8
Unknown Area Type
  70
32
  10
-5.52083333333329
  20
42.38185040209734
  30
763.754
  0
VERTEX
  8
Unknown Area Type
  70
32
  10
-5.52083333333329
  20
42.37500000000003
  30
763.652
  0
VERTEX
  8
Unknown Area Type
  70
32
  10
-5.52083333333329
  20
42.35416666666671
  30
764.506
  0
VERTEX
  8
Unknown Area Type
  70
32
  10
-5.52083333333329
  20
42.34176616735213
  30
757.957
  0
VERTEX
  8
Unknown Area Type
  70
32
  10
-5.54094647204388
  20
42.34141515919733
  30
751.645
  0
VERTEX
  8
Unknown Area Type
  70
32
  10
-5.54280905563581
  20
42.34199971020828
  30
750.207
  0
SEQEND
  8
Unknown Area Type
  0
TEXT
  8
Unknown Area Type
 62
7
  1
PNOA-H_AMS_1956-57_33k_ES_PAN_2
 40
0.00045
  10
-5.52700904488861
  20
42.36156780097663
  0
POLYLINE
  8
Unknown Area Type
  70
9
  66
1
  0
VERTEX
  8
Unknown Area Type
  70
32
  10
-5.54348217351871
  20
42.38049580279332
  30
758.088
  0
VERTEX
  8
Unknown Area Type
  70
32
  10
-5.52083333333329
  20
42.38185040209734
  30
763.754
  0
VERTEX
  8
Unknown Area Type
  70
32
  10
-5.52083333333329
  20
42.37500000000003
  30
763.652
  0
VERTEX
  8
Unknown Area Type
  70
32
  10
-5.52083333333329
  20
42.35416666666671
  30
764.506
  0
VERTEX
  8
Unknown Area Type
  70
32
  10
-5.52083333333329
  20
42.34176616735213
  30
757.957
  0
VERTEX
  8
Unknown Area Type
  70
32
  10
-5.54094647204388
  20
42.34141515919733
  30
751.645
  0
VERTEX
  8
Unknown Area Type
  70
32
  10
-5.54280905563581
  20
42.34199971020828
  30
750.207
  0
SEQEND
  8
Unknown Area Type
  0
TEXT
  8
Unknown Area Type
 62
7
  1
PNOA-H_AMS_1956-57_33k_ES_PAN_2
 40
0.00045
  10
-5.52700904488861
  20
42.36156780097663
  0
POLYLINE
  8
Unknown Area Type
  70
9
  66
1
  0
VERTEX
  8
Unknown Area Type
  70
32
  10
-5.52083333333329
  20
42.35416666666671
  30
764.506
  0
VERTEX
  8
Unknown Area Type
  70
32
  10
-5.52083333333329
  20
42.37500000000003
  30
763.652
  0
VERTEX
  8
Unknown Area Type
  70
32
  10
-5.52083333333329
  20
42.38185040209734
  30
763.754
  0
VERTEX
  8
Unknown Area Type
  70
32
  10
-5.52083299999996
  20
42.38185042203361
  30
763.754
  0
VERTEX
  8
Unknown Area Type
  70
32
  10
-5.52083299999996
  20
42.34176617316936
  30
757.957
  0
VERTEX
  8
Unknown Area Type
  70
32
  10
-5.52083333333329
  20
42.34176616735213
  30
757.957
  0
SEQEND
  8
Unknown Area Type
  0
TEXT
  8
Unknown Area Type
 62
7
  1
PNOA-H_AMS_1956-57_33k_ES_PAN_2
 40
0.00045
  10
-5.52083316666663
  20
42.36180829469287
  0
POLYLINE
  8
Unknown Area Type
  70
9
  66
1
  0
VERTEX
  8
Unknown Area Type
  70
32
  10
-5.80205085255193
  20
42.43169066783148
  30
826.675
  0
VERTEX
  8
Unknown Area Type
  70
32
  10
-5.80242816741845
  20
42.41602171220629
  30
823.495
  0
VERTEX
  8
Unknown Area Type
  70
32
  10
-5.81214409227219
  20
42.41275340496411
  30
821.592
  0
VERTEX
  8
Unknown Area Type
  70
32
  10
-5.83336855758974
  20
42.4161385440051
  30
820.175
  0
VERTEX
  8
Unknown Area Type
  70
32
  10
-5.8345579348253
  20
42.45653247097608
  30
831.995
  0
VERTEX
  8
Unknown Area Type
  70
32
  10
-5.81884636101182
  20
42.45937860005021
  30
838.17
  0
VERTEX
  8
Unknown Area Type
  70
32
  10
-5.8014563446667
  20
42.45625732481374
  30
840.191
  0
VERTEX
  8
Unknown Area Type
  70
32
  10
-5.80205365948883
  20
42.4317536342193
  30
826.646
  0
VERTEX
  8
Unknown Area Type
  70
32
  10
-5.80205085255193
  20
42.43169066783148
  30
826.675
  0
SEQEND
  8
Unknown Area Type
  0
TEXT
  8
Unknown Area Type
 62
7
  1
PNOA-H_AMS_1956-57_33k_ES_PAN_2
 40
0.00045
  10
-5.81800766316619
  20
42.43645630888128
  0
POLYLINE
  8
Unknown Area Type
  70
9
  66
1
  0
VERTEX
  8
Unknown Area Type
  70
32
  10
-5.80205085255193
  20
42.43169066783148
  30
826.675
  0
VERTEX
  8
Unknown Area Type
  70
32
  10
-5.80242816741845
  20
42.41602171220629
  30
823.495
  0
VERTEX
  8
Unknown Area Type
  70
32
  10
-5.81214409227219
  20
42.41275340496411
  30
821.592
  0
VERTEX
  8
Unknown Area Type
  70
32
  10
-5.83336855758974
  20
42.4161385440051
  30
820.175
  0
VERTEX
  8
Unknown Area Type
  70
32
  10
-5.8345579348253
  20
42.45653247097608
  30
831.995
  0
VERTEX
  8
Unknown Area Type
  70
32
  10
-5.81884636101182
  20
42.45937860005021
  30
838.17
  0
VERTEX
  8
Unknown Area Type
  70
32
  10
-5.8014563446667
  20
42.45625732481374
  30
840.191
  0
VERTEX
  8
Unknown Area Type
  70
32
  10
-5.80205365948883
  20
42.4317536342193
  30
826.646
  0
VERTEX
  8
Unknown Area Type
  70
32
  10
-5.80205085255193
  20
42.43169066783148
  30
826.675
  0
SEQEND
  8
Unknown Area Type
  0
TEXT
  8
Unknown Area Type
 62
7
  1
PNOA-H_AMS_1956-57_33k_ES_PAN_2
 40
0.00045
  10
-5.81800766316619
  20
42.43645630888128
  0
POLYLINE
  8
Unknown Area Type
  70
9
  66
1
  0
VERTEX
  8
Unknown Area Type
  70
32
  10
-5.7862819799318
  20
42.45891024673638
  30
851.558
  0
VERTEX
  8
Unknown Area Type
  70
32
  10
-5.78602826662722
  20
42.45894793610297
  30
851.525
  0
VERTEX
  8
Unknown Area Type
  70
32
  10
-5.77024690951598
  20
42.45641761556263
  30
851
  0
VERTEX
  8
Unknown Area Type
  70
32
  10
-5.76849291001902
  20
42.41661278965228
  30
835.11
  0
VERTEX
  8
Unknown Area Type
  70
32
  10
-5.7815687986829
  20
42.41192406525287
  30
825.326
  0
VERTEX
  8
Unknown Area Type
  70
32
  10
-5.80242816741845
  20
42.41602171220629
  30
823.495
  0
VERTEX
  8
Unknown Area Type
  70
32
  10
-5.8014563446667
  20
42.45625732481374
  30
840.191
  0
VERTEX
  8
Unknown Area Type
  70
32
  10
-5.78631215061446
  20
42.45890501026378
  30
851.533
  0
VERTEX
  8
Unknown Area Type
  70
32
  10
-5.7862819799318
  20
42.45891024673638
  30
851.558
  0
SEQEND
  8
Unknown Area Type
  0
TEXT
  8
Unknown Area Type
 62
7
  1
PNOA-H_AMS_1956-57_33k_ES_PAN_2
 40
0.00045
  10
-5.78546091771516
  20
42.43577115436805
  0
POLYLINE
  8
Unknown Area Type
  70
9
  66
1
  0
VERTEX
  8
Unknown Area Type
  70
32
  10
-5.7862819799318
  20
42.45891024673638
  30
851.558
  0
VERTEX
  8
Unknown Area Type
  70
32
  10
-5.78602826662722
  20
42.45894793610297
  30
851.525
  0
VERTEX
  8
Unknown Area Type
  70
32
  10
-5.77024690951598
  20
42.45641761556263
  30
851
  0
VERTEX
  8
Unknown Area Type
  70
32
  10
-5.76849291001902
  20
42.41661278965228
  30
835.11
  0
VERTEX
  8
Unknown Area Type
  70
32
  10
-5.7815687986829
  20
42.41192406525287
  30
825.326
  0
VERTEX
  8
Unknown Area Type
  70
32
  10
-5.80242816741845
  20
42.41602171220629
  30
823.495
  0
VERTEX
  8
Unknown Area Type
  70
32
  10
-5.8014563446667
  20
42.45625732481374
  30
840.191
  0
VERTEX
  8
Unknown Area Type
  70
32
  10
-5.78631215061446
  20
42.45890501026378
  30
851.533
  0
VERTEX
  8
Unknown Area Type
  70
32
  10
-5.7862819799318
  20
42.45891024673638
  30
851.558
  0
SEQEND
  8
Unknown Area Type
  0
TEXT
  8
Unknown Area Type
 62
7
  1
PNOA-H_AMS_1956-57_33k_ES_PAN_2
 40
0.00045
  10
-5.78546091771516
  20
42.43577115436805
  0
POLYLINE
  8
Unknown Area Type
  70
9
  66
1
  0
VERTEX
  8
Unknown Area Type
  70
32
  10
-5.63679615020939
  20
42.45704162060493
  30
836.678
  0
VERTEX
  8
Unknown Area Type
  70
32
  10
-5.62161639038316
  20
42.45843014365763
  30
834.068
  0
VERTEX
  8
Unknown Area Type
  70
32
  10
-5.61236455583
  20
42.45616061599226
  30
832.038
  0
VERTEX
  8
Unknown Area Type
  70
32
  10
-5.61236880942286
  20
42.41443524535163
  30
818.173
  0
VERTEX
  8
Unknown Area Type
  70
32
  10
-5.64287779528909
  20
42.41442435198076
  30
826.548
  0
VERTEX
  8
Unknown Area Type
  70
32
  10
-5.64333170882092
  20
42.45644072968686
  30
846.863
  0
VERTEX
  8
Unknown Area Type
  70
32
  10
-5.63686278217617
  20
42.45703558415875
  30
836.725
  0
VERTEX
  8
Unknown Area Type
  70
32
  10
-5.63679615020939
  20
42.45704162060493
  30
836.678
  0
SEQEND
  8
Unknown Area Type
  0
TEXT
  8
Unknown Area Type
 62
7
  1
PNOA-H_AMS_1956-57_33k_ES_PAN_2
 40
0.00045
  10
-5.62784850142313
  20
42.43614355649677
  0
POLYLINE
  8
Unknown Area Type
  70
9
  66
1
  0
VERTEX
  8
Unknown Area Type
  70
32
  10
-5.63679615020939
  20
42.45704162060493
  30
836.678
  0
VERTEX
  8
Unknown Area Type
  70
32
  10
-5.62161639038316
  20
42.45843014365763
  30
834.068
  0
VERTEX
  8
Unknown Area Type
  70
32
  10
-5.61236455583
  20
42.45616061599226
  30
832.038
  0
VERTEX
  8
Unknown Area Type
  70
32
  10
-5.61236880942286
  20
42.41443524535163
  30
818.173
  0
VERTEX
  8
Unknown Area Type
  70
32
  10
-5.64287779528909
  20
42.41442435198076
  30
826.548
  0
VERTEX
  8
Unknown Area Type
  70
32
  10
-5.64333170882092
  20
42.45644072968686
  30
846.863
  0
VERTEX
  8
Unknown Area Type
  70
32
  10
-5.63686278217617
  20
42.45703558415875
  30
836.725
  0
VERTEX
  8
Unknown Area Type
  70
32
  10
-5.63679615020939
  20
42.45704162060493
  30
836.678
  0
SEQEND
  8
Unknown Area Type
  0
TEXT
  8
Unknown Area Type
 62
7
  1
PNOA-H_AMS_1956-57_33k_ES_PAN_2
 40
0.00045
  10
-5.62784850142313
  20
42.43614355649677
  0
POLYLINE
  8
Unknown Area Type
  70
9
  66
1
  0
VERTEX
  8
Unknown Area Type
  70
32
  10
-5.56209713381074
  20
42.45763819552465
  30
791.145
  0
VERTEX
  8
Unknown Area Type
  70
32
  10
-5.5541782823119
  20
42.4581887575088
  30
783.564
  0
VERTEX
  8
Unknown Area Type
  70
32
  10
-5.54854536096841
  20
42.456634762661
  30
784.655
  0
VERTEX
  8
Unknown Area Type
  70
32
  10
-5.54914911340145
  20
42.41516152318642
  30
761.292
  0
VERTEX
  8
Unknown Area Type
  70
32
  10
-5.54916203949305
  20
42.41503066021043
  30
761.347
  0
VERTEX
  8
Unknown Area Type
  70
32
  10
-5.5791889256587
  20
42.41377324690732
  30
793.754
  0
VERTEX
  8
Unknown Area Type
  70
32
  10
-5.58096354129557
  20
42.41466981851789
  30
796.995
  0
VERTEX
  8
Unknown Area Type
  70
32
  10
-5.57972861581064
  20
42.456400490466
  30
797.635
  0
VERTEX
  8
Unknown Area Type
  70
32
  10
-5.56218807586566
  20
42.45763165879961
  30
791.985
  0
VERTEX
  8
Unknown Area Type
  70
32
  10
-5.56209713381074
  20
42.45763819552465
  30
791.145
  0
SEQEND
  8
Unknown Area Type
  0
TEXT
  8
Unknown Area Type
 62
7
  1
PNOA-H_AMS_1956-57_33k_ES_PAN_2
 40
0.00045
  10
-5.56475478774314
  20
42.43591296599281
  0
POLYLINE
  8
Unknown Area Type
  70
9
  66
1
  0
VERTEX
  8
Unknown Area Type
  70
32
  10
-5.56209713381074
  20
42.45763819552465
  30
791.145
  0
VERTEX
  8
Unknown Area Type
  70
32
  10
-5.5541782823119
  20
42.4581887575088
  30
783.564
  0
VERTEX
  8
Unknown Area Type
  70
32
  10
-5.54854536096841
  20
42.456634762661
  30
784.655
  0
VERTEX
  8
Unknown Area Type
  70
32
  10
-5.54914911340145
  20
42.41516152318642
  30
761.292
  0
VERTEX
  8
Unknown Area Type
  70
32
  10
-5.54916203949305
  20
42.41503066021043
  30
761.347
  0
VERTEX
  8
Unknown Area Type
  70
32
  10
-5.5791889256587
  20
42.41377324690732
  30
793.754
  0
VERTEX
  8
Unknown Area Type
  70
32
  10
-5.58096354129557
  20
42.41466981851789
  30
796.995
  0
VERTEX
  8
Unknown Area Type
  70
32
  10
-5.57972861581064
  20
42.456400490466
  30
797.635
  0
VERTEX
  8
Unknown Area Type
  70
32
  10
-5.56218807586566
  20
42.45763165879961
  30
791.985
  0
VERTEX
  8
Unknown Area Type
  70
32
  10
-5.56209713381074
  20
42.45763819552465
  30
791.145
  0
SEQEND
  8
Unknown Area Type
  0
TEXT
  8
Unknown Area Type
 62
7
  1
PNOA-H_AMS_1956-57_33k_ES_PAN_2
 40
0.00045
  10
-5.56475478774314
  20
42.43591296599281
  0
POLYLINE
  8
Unknown Area Type
  70
9
  66
1
  0
VERTEX
  8
Unknown Area Type
  70
32
  10
-5.53266882562082
  20
42.46069701585635
  30
793.148
  0
VERTEX
  8
Unknown Area Type
  70
32
  10
-5.53262611589592
  20
42.46069345759329
  30
787.346
  0
VERTEX
  8
Unknown Area Type
  70
32
  10
-5.53256944112994
  20
42.46064518232483
  30
775.11
  0
VERTEX
  8
Unknown Area Type
  70
32
  10
-5.53257243263028
  20
42.46056857241309
  30
766.491
  0
VERTEX
  8
Unknown Area Type
  70
32
  10
-5.53261958501311
  20
42.46053150929726
  30
766.321
  0
VERTEX
  8
Unknown Area Type
  70
32
  10
-5.53268033958148
  20
42.46053016601358
  30
767.092
  0
VERTEX
  8
Unknown Area Type
  70
32
  10
-5.532737014322
  20
42.46057844122852
  30
768.034
  0
VERTEX
  8
Unknown Area Type
  70
32
  10
-5.53273402302282
  20
42.46065505113916
  30
779.596
  0
VERTEX
  8
Unknown Area Type
  70
32
  10
-5.53268687062056
  20
42.46069211430205
  30
791.942
  0
VERTEX
  8
Unknown Area Type
  70
32
  10
-5.53266882562082
  20
42.46069701585635
  30
793.148
  0
SEQEND
  8
Unknown Area Type
  0
TEXT
  8
Unknown Area Type
 62
7
  1
PNOA-H_AMS_1956-57_33k_ES_PAN_2
 40
0.00045
  10
-5.53265365155125
  20
42.46061289946016
  0
POLYLINE
  8
Unknown Area Type
  70
9
  66
1
  0
VERTEX
  8
Unknown Area Type
  70
32
  10
-5.53266882562082
  20
42.46069701585635
  30
793.148
  0
VERTEX
  8
Unknown Area Type
  70
32
  10
-5.53262611589592
  20
42.46069345759329
  30
787.346
  0
VERTEX
  8
Unknown Area Type
  70
32
  10
-5.53256944112994
  20
42.46064518232483
  30
775.11
  0
VERTEX
  8
Unknown Area Type
  70
32
  10
-5.53257243263028
  20
42.46056857241309
  30
766.491
  0
VERTEX
  8
Unknown Area Type
  70
32
  10
-5.53261958501311
  20
42.46053150929726
  30
766.321
  0
VERTEX
  8
Unknown Area Type
  70
32
  10
-5.53268033958148
  20
42.46053016601358
  30
767.092
  0
VERTEX
  8
Unknown Area Type
  70
32
  10
-5.532737014322
  20
42.46057844122852
  30
768.034
  0
VERTEX
  8
Unknown Area Type
  70
32
  10
-5.53273402302282
  20
42.46065505113916
  30
779.596
  0
VERTEX
  8
Unknown Area Type
  70
32
  10
-5.53268687062056
  20
42.46069211430205
  30
791.942
  0
VERTEX
  8
Unknown Area Type
  70
32
  10
-5.53266882562082
  20
42.46069701585635
  30
793.148
  0
SEQEND
  8
Unknown Area Type
  0
TEXT
  8
Unknown Area Type
 62
7
  1
PNOA-H_AMS_1956-57_33k_ES_PAN_2
 40
0.00045
  10
-5.53265365155125
  20
42.46061289946016
  0
POLYLINE
  8
Unknown Area Type
  70
9
  66
1
  0
VERTEX
  8
Unknown Area Type
  70
32
  10
-5.54854517844063
  20
42.45663026414967
  30
784.622
  0
VERTEX
  8
Unknown Area Type
  70
32
  10
-5.53739975887049
  20
42.45708481079237
  30
768.46
  0
VERTEX
  8
Unknown Area Type
  70
32
  10
-5.5371569364978
  20
42.45709469194029
  30
768.551
  0
VERTEX
  8
Unknown Area Type
  70
32
  10
-5.52083333333329
  20
42.45774832177612
  30
770.4
  0
VERTEX
  8
Unknown Area Type
  70
32
  10
-5.52083333333329
  20
42.43750000000006
  30
768.753
  0
VERTEX
  8
Unknown Area Type
  70
32
  10
-5.52083333333329
  20
42.41666666666666
  30
765.986
  0
VERTEX
  8
Unknown Area Type
  70
32
  10
-5.52083333333329
  20
42.41524412448086
  30
765.973
  0
VERTEX
  8
Unknown Area Type
  70
32
  10
-5.54655370096411
  20
42.41379192068187
  30
761.722
  0
VERTEX
  8
Unknown Area Type
  70
32
  10
-5.54659619711045
  20
42.41379097605218
  30
761.731
  0
VERTEX
  8
Unknown Area Type
  70
32
  10
-5.54665192772456
  20
42.41381675281517
  30
761.678
  0
VERTEX
  8
Unknown Area Type
  70
32
  10
-5.54915596850768
  20
42.41503079529754
  30
761.35
  0
SEQEND
  8
Unknown Area Type
  0
TEXT
  8
Unknown Area Type
 62
7
  1
PNOA-H_AMS_1956-57_33k_ES_PAN_2
 40
0.00045
  10
-5.53296802001638
  20
42.43590910331286
  0
POLYLINE
  8
Unknown Area Type
  70
9
  66
1
  0
VERTEX
  8
Unknown Area Type
  70
32
  10
-5.54854517844063
  20
42.45663026414967
  30
784.622
  0
VERTEX
  8
Unknown Area Type
  70
32
  10
-5.53739975887049
  20
42.45708481079237
  30
768.46
  0
VERTEX
  8
Unknown Area Type
  70
32
  10
-5.5371569364978
  20
42.45709469194029
  30
768.551
  0
VERTEX
  8
Unknown Area Type
  70
32
  10
-5.52083333333329
  20
42.45774832177612
  30
770.4
  0
VERTEX
  8
Unknown Area Type
  70
32
  10
-5.52083333333329
  20
42.43750000000006
  30
768.753
  0
VERTEX
  8
Unknown Area Type
  70
32
  10
-5.52083333333329
  20
42.41666666666666
  30
765.986
  0
VERTEX
  8
Unknown Area Type
  70
32
  10
-5.52083333333329
  20
42.41524412448086
  30
765.973
  0
VERTEX
  8
Unknown Area Type
  70
32
  10
-5.54655370096411
  20
42.41379192068187
  30
761.722
  0
VERTEX
  8
Unknown Area Type
  70
32
  10
-5.54659619711045
  20
42.41379097605218
  30
761.731
  0
VERTEX
  8
Unknown Area Type
  70
32
  10
-5.54665192772456
  20
42.41381675281517
  30
761.678
  0
VERTEX
  8
Unknown Area Type
  70
32
  10
-5.54915596850768
  20
42.41503079529754
  30
761.35
  0
SEQEND
  8
Unknown Area Type
  0
TEXT
  8
Unknown Area Type
 62
7
  1
PNOA-H_AMS_1956-57_33k_ES_PAN_2
 40
0.00045
  10
-5.53296802001638
  20
42.43590910331286
  0
POLYLINE
  8
Unknown Area Type
  70
9
  66
1
  0
VERTEX
  8
Unknown Area Type
  70
32
  10
-5.52083333333329
  20
42.41666666666666
  30
765.986
  0
VERTEX
  8
Unknown Area Type
  70
32
  10
-5.52083333333329
  20
42.43750000000006
  30
768.753
  0
VERTEX
  8
Unknown Area Type
  70
32
  10
-5.52083333333329
  20
42.45774832177612
  30
770.4
  0
VERTEX
  8
Unknown Area Type
  70
32
  10
-5.52083299999996
  20
42.45774833512345
  30
770.4
  0
VERTEX
  8
Unknown Area Type
  70
32
  10
-5.52083299999996
  20
42.41524414330128
  30
765.973
  0
VERTEX
  8
Unknown Area Type
  70
32
  10
-5.52083333333329
  20
42.41524412448086
  30
765.973
  0
SEQEND
  8
Unknown Area Type
  0
TEXT
  8
Unknown Area Type
 62
7
  1
PNOA-H_AMS_1956-57_33k_ES_PAN_2
 40
0.00045
  10
-5.52083316666663
  20
42.43649622980216
  0
POLYLINE
  8
Unknown Area Type
  70
9
  66
1
  0
VERTEX
  8
Unknown Area Type
  70
32
  10
-5.58698912097886
  20
42.45833043455267
  30
814.131
  0
VERTEX
  8
Unknown Area Type
  70
32
  10
-5.57972880056882
  20
42.45640498886765
  30
797.635
  0
VERTEX
  8
Unknown Area Type
  70
32
  10
-5.58096372587244
  20
42.41467431694802
  30
796.99
  0
VERTEX
  8
Unknown Area Type
  70
32
  10
-5.6111951308308
  20
42.41382713994787
  30
818.935
  0
VERTEX
  8
Unknown Area Type
  70
32
  10
-5.61236862260317
  20
42.41443074703338
  30
818.195
  0
VERTEX
  8
Unknown Area Type
  70
32
  10
-5.61237235900508
  20
42.41452071339779
  30
817.82
  0
VERTEX
  8
Unknown Area Type
  70
32
  10
-5.61236455583
  20
42.45616061599226
  30
832.038
  0
VERTEX
  8
Unknown Area Type
  70
32
  10
-5.58712921624688
  20
42.45833627555068
  30
814.844
  0
VERTEX
  8
Unknown Area Type
  70
32
  10
-5.58702612677317
  20
42.4583431064527
  30
814.351
  0
VERTEX
  8
Unknown Area Type
  70
32
  10
-5.58701360621469
  20
42.45833438411313
  30
814.274
  0
VERTEX
  8
Unknown Area Type
  70
32
  10
-5.58698912097886
  20
42.45833043455267
  30
814.131
  0
SEQEND
  8
Unknown Area Type
  0
TEXT
  8
Unknown Area Type
 62
7
  1
PNOA-H_AMS_1956-57_33k_ES_PAN_2
 40
0.00045
  10
-5.59605104770188
  20
42.43590795868859
  0
POLYLINE
  8
Unknown Area Type
  70
9
  66
1
  0
VERTEX
  8
Unknown Area Type
  70
32
  10
-5.58698912097886
  20
42.45833043455267
  30
814.131
  0
VERTEX
  8
Unknown Area Type
  70
32
  10
-5.57972880056882
  20
42.45640498886765
  30
797.635
  0
VERTEX
  8
Unknown Area Type
  70
32
  10
-5.58096372587244
  20
42.41467431694802
  30
796.99
  0
VERTEX
  8
Unknown Area Type
  70
32
  10
-5.6111951308308
  20
42.41382713994787
  30
818.935
  0
VERTEX
  8
Unknown Area Type
  70
32
  10
-5.61236862260317
  20
42.41443074703338
  30
818.195
  0
VERTEX
  8
Unknown Area Type
  70
32
  10
-5.61237235900508
  20
42.41452071339779
  30
817.82
  0
VERTEX
  8
Unknown Area Type
  70
32
  10
-5.61236455583
  20
42.45616061599226
  30
832.038
  0
VERTEX
  8
Unknown Area Type
  70
32
  10
-5.58712921624688
  20
42.45833627555068
  30
814.844
  0
VERTEX
  8
Unknown Area Type
  70
32
  10
-5.58702612677317
  20
42.4583431064527
  30
814.351
  0
VERTEX
  8
Unknown Area Type
  70
32
  10
-5.58701360621469
  20
42.45833438411313
  30
814.274
  0
VERTEX
  8
Unknown Area Type
  70
32
  10
-5.58698912097886
  20
42.45833043455267
  30
814.131
  0
SEQEND
  8
Unknown Area Type
  0
TEXT
  8
Unknown Area Type
 62
7
  1
PNOA-H_AMS_1956-57_33k_ES_PAN_2
 40
0.00045
  10
-5.59605104770188
  20
42.43590795868859
  0
POLYLINE
  8
Unknown Area Type
  70
9
  66
1
  0
VERTEX
  8
Unknown Area Type
  70
32
  10
-5.70626004644201
  20
42.41555151465418
  30
833.035
  0
VERTEX
  8
Unknown Area Type
  70
32
  10
-5.70627102575651
  20
42.41552423999224
  30
833.326
  0
VERTEX
  8
Unknown Area Type
  70
32
  10
-5.70636640813237
  20
42.4154814636529
  30
832.521
  0
VERTEX
  8
Unknown Area Type
  70
32
  10
-5.7119586714949
  20
42.41298987291814
  30
832.49
  0
VERTEX
  8
Unknown Area Type
  70
32
  10
-5.71199509146106
  20
42.41298901069699
  30
832.339
  0
VERTEX
  8
Unknown Area Type
  70
32
  10
-5.73833336508984
  20
42.41545567427209
  30
832.844
  0
VERTEX
  8
Unknown Area Type
  70
32
  10
-5.73684236604078
  20
42.45658133813018
  30
852.233
  0
VERTEX
  8
Unknown Area Type
  70
32
  10
-5.72024531752737
  20
42.45916494231001
  30
851.012
  0
VERTEX
  8
Unknown Area Type
  70
32
  10
-5.70548398424334
  20
42.45625924898799
  30
848.62
  0
VERTEX
  8
Unknown Area Type
  70
32
  10
-5.70626236888782
  20
42.41560549034578
  30
832.826
  0
VERTEX
  8
Unknown Area Type
  70
32
  10
-5.70626004644201
  20
42.41555151465418
  30
833.035
  0
SEQEND
  8
Unknown Area Type
  0
TEXT
  8
Unknown Area Type
 62
7
  1
PNOA-H_AMS_1956-57_33k_ES_PAN_2
 40
0.00045
  10
-5.72190917814855
  20
42.43641008000618
  0
POLYLINE
  8
Unknown Area Type
  70
9
  66
1
  0
VERTEX
  8
Unknown Area Type
  70
32
  10
-5.70626004644201
  20
42.41555151465418
  30
833.035
  0
VERTEX
  8
Unknown Area Type
  70
32
  10
-5.70627102575651
  20
42.41552423999224
  30
833.326
  0
VERTEX
  8
Unknown Area Type
  70
32
  10
-5.70636640813237
  20
42.4154814636529
  30
832.521
  0
VERTEX
  8
Unknown Area Type
  70
32
  10
-5.7119586714949
  20
42.41298987291814
  30
832.49
  0
VERTEX
  8
Unknown Area Type
  70
32
  10
-5.71199509146106
  20
42.41298901069699
  30
832.339
  0
VERTEX
  8
Unknown Area Type
  70
32
  10
-5.73833336508984
  20
42.41545567427209
  30
832.844
  0
VERTEX
  8
Unknown Area Type
  70
32
  10
-5.73684236604078
  20
42.45658133813018
  30
852.233
  0
VERTEX
  8
Unknown Area Type
  70
32
  10
-5.72024531752737
  20
42.45916494231001
  30
851.012
  0
VERTEX
  8
Unknown Area Type
  70
32
  10
-5.70548398424334
  20
42.45625924898799
  30
848.62
  0
VERTEX
  8
Unknown Area Type
  70
32
  10
-5.70626236888782
  20
42.41560549034578
  30
832.826
  0
VERTEX
  8
Unknown Area Type
  70
32
  10
-5.70626004644201
  20
42.41555151465418
  30
833.035
  0
SEQEND
  8
Unknown Area Type
  0
TEXT
  8
Unknown Area Type
 62
7
  1
PNOA-H_AMS_1956-57_33k_ES_PAN_2
 40
0.00045
  10
-5.72190917814855
  20
42.43641008000618
  0
ENDSEC
  0
EOF
