  0
SECTION
  2
HEADER
  9
$ACADVER
  1
AC1009
  9
$LUNITS
  70
2
  9
$DWGCODEPAGE
  3
UTF8
  9
$LIMMIN
  10
-6.18749999999997
  20
42.33333333333331
  9
$LIMMAX
  10
-5.85416666666668
  20
42.5
  9
$EXTMIN
  10
-6.18749999999997
  20
42.33333333333331
  9
$EXTMAX
  10
-5.85416666666668
  20
42.5
  999
Created by Global Mapper
  999
Projection: Geographic (Latitude/Longitude)
  999
Datum: ETRS89
  999
Ground Units: arc degrees
  999
CENTRAL LONGITUDE: 0
  0
ENDSEC
  0
SECTION
  2
TABLES
  0
ENDSEC
  0
SECTION
  2
BLOCKS
  0
ENDSEC
  0
SECTION
  2
ENTITIES
  0
POLYLINE
  8
Unknown Area Type
  70
9
  66
1
  0
VERTEX
  8
Unknown Area Type
  70
32
  10
-6.18749999999997
  20
42.5
  30
1035.704
  0
VERTEX
  8
Unknown Area Type
  70
32
  10
-6.17116930373258
  20
42.5
  30
1037.384
  0
VERTEX
  8
Unknown Area Type
  70
32
  10
-6.17124314305534
  20
42.49400614570636
  30
1033.668
  0
VERTEX
  8
Unknown Area Type
  70
32
  10
-6.18749999999997
  20
42.49364203634323
  30
1035.722
  0
SEQEND
  8
Unknown Area Type
  0
TEXT
  8
Unknown Area Type
 62
7
  1
PNOA-H_AMS_1956-57_33k_ES_PAN_2
 40
0.00045
  10
-6.17933465186628
  20
42.49682101817162
  0
POLYLINE
  8
Unknown Area Type
  70
9
  66
1
  0
VERTEX
  8
Unknown Area Type
  70
32
  10
-6.18749999999997
  20
42.50000016666667
  30
1035.704
  0
VERTEX
  8
Unknown Area Type
  70
32
  10
-6.17116930167939
  20
42.50000016666667
  30
1037.384
  0
VERTEX
  8
Unknown Area Type
  70
32
  10
-6.17116930373258
  20
42.5
  30
1037.384
  0
VERTEX
  8
Unknown Area Type
  70
32
  10
-6.18749999999997
  20
42.5
  30
1035.704
  0
SEQEND
  8
Unknown Area Type
  0
TEXT
  8
Unknown Area Type
 62
7
  1
PNOA-H_AMS_1956-57_33k_ES_PAN_2
 40
0.00045
  10
-6.17933465083968
  20
42.50000008333333
  0
POLYLINE
  8
Unknown Area Type
  70
9
  66
1
  0
VERTEX
  8
Unknown Area Type
  70
32
  10
-6.18749999999997
  20
42.5
  30
1035.704
  0
VERTEX
  8
Unknown Area Type
  70
32
  10
-6.17116930373258
  20
42.5
  30
1037.384
  0
VERTEX
  8
Unknown Area Type
  70
32
  10
-6.17124314305534
  20
42.49400614570636
  30
1033.668
  0
VERTEX
  8
Unknown Area Type
  70
32
  10
-6.18749999999997
  20
42.49364203634323
  30
1035.722
  0
SEQEND
  8
Unknown Area Type
  0
TEXT
  8
Unknown Area Type
 62
7
  1
PNOA-H_AMS_1956-57_33k_ES_PAN_2
 40
0.00045
  10
-6.17933465186628
  20
42.49682101817162
  0
POLYLINE
  8
Unknown Area Type
  70
9
  66
1
  0
VERTEX
  8
Unknown Area Type
  70
32
  10
-6.10255204664889
  20
42.5
  30
950.742
  0
VERTEX
  8
Unknown Area Type
  70
32
  10
-6.06706068455728
  20
42.5
  30
925.811
  0
VERTEX
  8
Unknown Area Type
  70
32
  10
-6.06688921207408
  20
42.49654273838501
  30
929.382
  0
VERTEX
  8
Unknown Area Type
  70
32
  10
-6.07399463797364
  20
42.49354722286953
  30
899.733
  0
VERTEX
  8
Unknown Area Type
  70
32
  10
-6.09666078127347
  20
42.49424214497333
  30
929.808
  0
VERTEX
  8
Unknown Area Type
  70
32
  10
-6.10245234637189
  20
42.49521995814995
  30
944.093
  0
SEQEND
  8
Unknown Area Type
  0
TEXT
  8
Unknown Area Type
 62
7
  1
PNOA-H_AMS_1956-57_33k_ES_PAN_2
 40
0.00045
  10
-6.08472062936148
  20
42.49677361143476
  0
POLYLINE
  8
Unknown Area Type
  70
9
  66
1
  0
VERTEX
  8
Unknown Area Type
  70
32
  10
-6.10255205012516
  20
42.50000016666667
  30
950.743
  0
VERTEX
  8
Unknown Area Type
  70
32
  10
-6.06706069282357
  20
42.50000016666667
  30
925.811
  0
VERTEX
  8
Unknown Area Type
  70
32
  10
-6.06706068455728
  20
42.5
  30
925.811
  0
VERTEX
  8
Unknown Area Type
  70
32
  10
-6.10255204664889
  20
42.5
  30
950.742
  0
SEQEND
  8
Unknown Area Type
  0
TEXT
  8
Unknown Area Type
 62
7
  1
PNOA-H_AMS_1956-57_33k_ES_PAN_2
 40
0.00045
  10
-6.08480636734122
  20
42.50000008333333
  0
POLYLINE
  8
Unknown Area Type
  70
9
  66
1
  0
VERTEX
  8
Unknown Area Type
  70
32
  10
-6.10255204664889
  20
42.5
  30
950.742
  0
VERTEX
  8
Unknown Area Type
  70
32
  10
-6.06706068455728
  20
42.5
  30
925.811
  0
VERTEX
  8
Unknown Area Type
  70
32
  10
-6.06688921207408
  20
42.49654273838501
  30
929.382
  0
VERTEX
  8
Unknown Area Type
  70
32
  10
-6.07399463797364
  20
42.49354722286953
  30
899.733
  0
VERTEX
  8
Unknown Area Type
  70
32
  10
-6.09666078127347
  20
42.49424214497333
  30
929.808
  0
VERTEX
  8
Unknown Area Type
  70
32
  10
-6.10245234637189
  20
42.49521995814995
  30
944.093
  0
SEQEND
  8
Unknown Area Type
  0
TEXT
  8
Unknown Area Type
 62
7
  1
PNOA-H_AMS_1956-57_33k_ES_PAN_2
 40
0.00045
  10
-6.08472062936148
  20
42.49677361143476
  0
POLYLINE
  8
Unknown Area Type
  70
9
  66
1
  0
VERTEX
  8
Unknown Area Type
  70
32
  10
-6.17116980357418
  20
42.5
  30
1037.397
  0
VERTEX
  8
Unknown Area Type
  70
32
  10
-6.14583333333334
  20
42.5
  30
1013.531
  0
VERTEX
  8
Unknown Area Type
  70
32
  10
-6.1377486874769
  20
42.5
  30
990.325
  0
VERTEX
  8
Unknown Area Type
  70
32
  10
-6.13775724820374
  20
42.49436143616686
  30
987.887
  0
VERTEX
  8
Unknown Area Type
  70
32
  10
-6.13777344995503
  20
42.49432047104457
  30
989.825
  0
VERTEX
  8
Unknown Area Type
  70
32
  10
-6.13932359931483
  20
42.49356660796633
  30
1012.032
  0
VERTEX
  8
Unknown Area Type
  70
32
  10
-6.13953601525513
  20
42.49355628127821
  30
1010.286
  0
VERTEX
  8
Unknown Area Type
  70
32
  10
-6.17020281717175
  20
42.49340462914711
  30
1026.167
  0
VERTEX
  8
Unknown Area Type
  70
32
  10
-6.17124314305534
  20
42.49400614570636
  30
1033.668
  0
SEQEND
  8
Unknown Area Type
  0
TEXT
  8
Unknown Area Type
 62
7
  1
PNOA-H_AMS_1956-57_33k_ES_PAN_2
 40
0.00045
  10
-6.15449591526612
  20
42.49670231457355
  0
POLYLINE
  8
Unknown Area Type
  70
9
  66
1
  0
VERTEX
  8
Unknown Area Type
  70
32
  10
-6.17116980153488
  20
42.50000016666667
  30
1037.398
  0
VERTEX
  8
Unknown Area Type
  70
32
  10
-6.13774868722386
  20
42.50000016666667
  30
990.325
  0
VERTEX
  8
Unknown Area Type
  70
32
  10
-6.1377486874769
  20
42.5
  30
990.325
  0
VERTEX
  8
Unknown Area Type
  70
32
  10
-6.14583333333334
  20
42.5
  30
1013.531
  0
VERTEX
  8
Unknown Area Type
  70
32
  10
-6.17116980357418
  20
42.5
  30
1037.397
  0
SEQEND
  8
Unknown Area Type
  0
TEXT
  8
Unknown Area Type
 62
7
  1
PNOA-H_AMS_1956-57_33k_ES_PAN_2
 40
0.00045
  10
-6.15445924539902
  20
42.50000008333333
  0
POLYLINE
  8
Unknown Area Type
  70
9
  66
1
  0
VERTEX
  8
Unknown Area Type
  70
32
  10
-6.17116980357418
  20
42.5
  30
1037.397
  0
VERTEX
  8
Unknown Area Type
  70
32
  10
-6.14583333333334
  20
42.5
  30
1013.531
  0
VERTEX
  8
Unknown Area Type
  70
32
  10
-6.1377486874769
  20
42.5
  30
990.325
  0
VERTEX
  8
Unknown Area Type
  70
32
  10
-6.13775724820374
  20
42.49436143616686
  30
987.887
  0
VERTEX
  8
Unknown Area Type
  70
32
  10
-6.13777344995503
  20
42.49432047104457
  30
989.825
  0
VERTEX
  8
Unknown Area Type
  70
32
  10
-6.13932359931483
  20
42.49356660796633
  30
1012.032
  0
VERTEX
  8
Unknown Area Type
  70
32
  10
-6.13953601525513
  20
42.49355628127821
  30
1010.286
  0
VERTEX
  8
Unknown Area Type
  70
32
  10
-6.17020281717175
  20
42.49340462914711
  30
1026.167
  0
VERTEX
  8
Unknown Area Type
  70
32
  10
-6.17124314305534
  20
42.49400614570636
  30
1033.668
  0
SEQEND
  8
Unknown Area Type
  0
TEXT
  8
Unknown Area Type
 62
7
  1
PNOA-H_AMS_1956-57_33k_ES_PAN_2
 40
0.00045
  10
-6.15449591526612
  20
42.49670231457355
  0
POLYLINE
  8
Unknown Area Type
  70
9
  66
1
  0
VERTEX
  8
Unknown Area Type
  70
32
  10
-6.13775099012908
  20
42.5
  30
1007.034
  0
VERTEX
  8
Unknown Area Type
  70
32
  10
-6.10416666666663
  20
42.5
  30
951.51
  0
VERTEX
  8
Unknown Area Type
  70
32
  10
-6.10254907784657
  20
42.5
  30
951.464
  0
VERTEX
  8
Unknown Area Type
  70
32
  10
-6.10245094228134
  20
42.49531454572733
  30
945.045
  0
VERTEX
  8
Unknown Area Type
  70
32
  10
-6.10245819974066
  20
42.49521529718792
  30
944.03
  0
VERTEX
  8
Unknown Area Type
  70
32
  10
-6.10704373385587
  20
42.49309190832906
  30
911.083
  0
VERTEX
  8
Unknown Area Type
  70
32
  10
-6.10711034267839
  20
42.49308559845048
  30
911.056
  0
VERTEX
  8
Unknown Area Type
  70
32
  10
-6.13218760575904
  20
42.49369450883876
  30
972.648
  0
VERTEX
  8
Unknown Area Type
  70
32
  10
-6.13776174884444
  20
42.49432979640569
  30
989.306
  0
SEQEND
  8
Unknown Area Type
  0
TEXT
  8
Unknown Area Type
 62
7
  1
PNOA-H_AMS_1956-57_33k_ES_PAN_2
 40
0.00045
  10
-6.12010634556289
  20
42.49654279922524
  0
POLYLINE
  8
Unknown Area Type
  70
9
  66
1
  0
VERTEX
  8
Unknown Area Type
  70
32
  10
-6.13775098981285
  20
42.50000016666667
  30
1007.034
  0
VERTEX
  8
Unknown Area Type
  70
32
  10
-6.10254908133736
  20
42.50000016666667
  30
951.464
  0
VERTEX
  8
Unknown Area Type
  70
32
  10
-6.10254907784657
  20
42.5
  30
951.464
  0
VERTEX
  8
Unknown Area Type
  70
32
  10
-6.10416666666663
  20
42.5
  30
951.51
  0
VERTEX
  8
Unknown Area Type
  70
32
  10
-6.13775099012908
  20
42.5
  30
1007.034
  0
SEQEND
  8
Unknown Area Type
  0
TEXT
  8
Unknown Area Type
 62
7
  1
PNOA-H_AMS_1956-57_33k_ES_PAN_2
 40
0.00045
  10
-6.12015003398783
  20
42.50000008333333
  0
POLYLINE
  8
Unknown Area Type
  70
9
  66
1
  0
VERTEX
  8
Unknown Area Type
  70
32
  10
-6.13775099012908
  20
42.5
  30
1007.034
  0
VERTEX
  8
Unknown Area Type
  70
32
  10
-6.10416666666663
  20
42.5
  30
951.51
  0
VERTEX
  8
Unknown Area Type
  70
32
  10
-6.10254907784657
  20
42.5
  30
951.464
  0
VERTEX
  8
Unknown Area Type
  70
32
  10
-6.10245094228134
  20
42.49531454572733
  30
945.045
  0
VERTEX
  8
Unknown Area Type
  70
32
  10
-6.10245819974066
  20
42.49521529718792
  30
944.03
  0
VERTEX
  8
Unknown Area Type
  70
32
  10
-6.10704373385587
  20
42.49309190832906
  30
911.083
  0
VERTEX
  8
Unknown Area Type
  70
32
  10
-6.10711034267839
  20
42.49308559845048
  30
911.056
  0
VERTEX
  8
Unknown Area Type
  70
32
  10
-6.13218760575904
  20
42.49369450883876
  30
972.648
  0
VERTEX
  8
Unknown Area Type
  70
32
  10
-6.13776174884444
  20
42.49432979640569
  30
989.306
  0
SEQEND
  8
Unknown Area Type
  0
TEXT
  8
Unknown Area Type
 62
7
  1
PNOA-H_AMS_1956-57_33k_ES_PAN_2
 40
0.00045
  10
-6.12010634556289
  20
42.49654279922524
  0
POLYLINE
  8
Unknown Area Type
  70
9
  66
1
  0
VERTEX
  8
Unknown Area Type
  70
32
  10
-5.99874216581189
  20
42.5
  30
944.644
  0
VERTEX
  8
Unknown Area Type
  70
32
  10
-5.97916666666665
  20
42.5
  30
933.443
  0
VERTEX
  8
Unknown Area Type
  70
32
  10
-5.96356081558226
  20
42.5
  30
936.288
  0
VERTEX
  8
Unknown Area Type
  70
32
  10
-5.96355801251093
  20
42.49851635868804
  30
938.004
  0
VERTEX
  8
Unknown Area Type
  70
32
  10
-5.9682197744953
  20
42.49545554087872
  30
927.982
  0
VERTEX
  8
Unknown Area Type
  70
32
  10
-5.99866258419412
  20
42.49656237414669
  30
942.963
  0
SEQEND
  8
Unknown Area Type
  0
TEXT
  8
Unknown Area Type
 62
7
  1
PNOA-H_AMS_1956-57_33k_ES_PAN_2
 40
0.00045
  10
-5.98115008916141
  20
42.49772777043935
  0
POLYLINE
  8
Unknown Area Type
  70
9
  66
1
  0
VERTEX
  8
Unknown Area Type
  70
32
  10
-5.99874216967025
  20
42.50000016666667
  30
944.644
  0
VERTEX
  8
Unknown Area Type
  70
32
  10
-5.96356081589715
  20
42.50000016666667
  30
936.288
  0
VERTEX
  8
Unknown Area Type
  70
32
  10
-5.96356081558226
  20
42.5
  30
936.288
  0
VERTEX
  8
Unknown Area Type
  70
32
  10
-5.97916666666665
  20
42.5
  30
933.443
  0
VERTEX
  8
Unknown Area Type
  70
32
  10
-5.99874216581189
  20
42.5
  30
944.644
  0
SEQEND
  8
Unknown Area Type
  0
TEXT
  8
Unknown Area Type
 62
7
  1
PNOA-H_AMS_1956-57_33k_ES_PAN_2
 40
0.00045
  10
-5.98115149262626
  20
42.50000008333333
  0
POLYLINE
  8
Unknown Area Type
  70
9
  66
1
  0
VERTEX
  8
Unknown Area Type
  70
32
  10
-5.99874216581189
  20
42.5
  30
944.644
  0
VERTEX
  8
Unknown Area Type
  70
32
  10
-5.97916666666665
  20
42.5
  30
933.443
  0
VERTEX
  8
Unknown Area Type
  70
32
  10
-5.96356081558226
  20
42.5
  30
936.288
  0
VERTEX
  8
Unknown Area Type
  70
32
  10
-5.96355801251093
  20
42.49851635868804
  30
938.004
  0
VERTEX
  8
Unknown Area Type
  70
32
  10
-5.9682197744953
  20
42.49545554087872
  30
927.982
  0
VERTEX
  8
Unknown Area Type
  70
32
  10
-5.99866258419412
  20
42.49656237414669
  30
942.963
  0
SEQEND
  8
Unknown Area Type
  0
TEXT
  8
Unknown Area Type
 62
7
  1
PNOA-H_AMS_1956-57_33k_ES_PAN_2
 40
0.00045
  10
-5.98115008916141
  20
42.49772777043935
  0
POLYLINE
  8
Unknown Area Type
  70
9
  66
1
  0
VERTEX
  8
Unknown Area Type
  70
32
  10
-5.9253871792548
  20
42.5
  30
923.202
  0
VERTEX
  8
Unknown Area Type
  70
32
  10
-5.89583333333331
  20
42.5
  30
848.648
  0
VERTEX
  8
Unknown Area Type
  70
32
  10
-5.89356655642473
  20
42.5
  30
836.921
  0
VERTEX
  8
Unknown Area Type
  70
32
  10
-5.90784561803308
  20
42.49699108489506
  30
914.072
  0
SEQEND
  8
Unknown Area Type
  0
TEXT
  8
Unknown Area Type
 62
7
  1
PNOA-H_AMS_1956-57_33k_ES_PAN_2
 40
0.00045
  10
-5.90947686783977
  20
42.49849554244753
  0
POLYLINE
  8
Unknown Area Type
  70
9
  66
1
  0
VERTEX
  8
Unknown Area Type
  70
32
  10
-5.92538815089853
  20
42.50000016666667
  30
923.202
  0
VERTEX
  8
Unknown Area Type
  70
32
  10
-5.89356576549395
  20
42.50000016666667
  30
836.917
  0
VERTEX
  8
Unknown Area Type
  70
32
  10
-5.89356655642473
  20
42.5
  30
836.921
  0
VERTEX
  8
Unknown Area Type
  70
32
  10
-5.89583333333331
  20
42.5
  30
848.648
  0
VERTEX
  8
Unknown Area Type
  70
32
  10
-5.9253871792548
  20
42.5
  30
923.202
  0
SEQEND
  8
Unknown Area Type
  0
TEXT
  8
Unknown Area Type
 62
7
  1
PNOA-H_AMS_1956-57_33k_ES_PAN_2
 40
0.00045
  10
-5.90947695819624
  20
42.50000008333333
  0
POLYLINE
  8
Unknown Area Type
  70
9
  66
1
  0
VERTEX
  8
Unknown Area Type
  70
32
  10
-5.9253871792548
  20
42.5
  30
923.202
  0
VERTEX
  8
Unknown Area Type
  70
32
  10
-5.89583333333331
  20
42.5
  30
848.648
  0
VERTEX
  8
Unknown Area Type
  70
32
  10
-5.89356655642473
  20
42.5
  30
836.921
  0
VERTEX
  8
Unknown Area Type
  70
32
  10
-5.90784561803308
  20
42.49699108489506
  30
914.072
  0
SEQEND
  8
Unknown Area Type
  0
TEXT
  8
Unknown Area Type
 62
7
  1
PNOA-H_AMS_1956-57_33k_ES_PAN_2
 40
0.00045
  10
-5.90947686783977
  20
42.49849554244753
  0
POLYLINE
  8
Unknown Area Type
  70
9
  66
1
  0
VERTEX
  8
Unknown Area Type
  70
32
  10
-5.9635609369283
  20
42.5
  30
938.825
  0
VERTEX
  8
Unknown Area Type
  70
32
  10
-5.93750000000002
  20
42.5
  30
925.143
  0
VERTEX
  8
Unknown Area Type
  70
32
  10
-5.92837570525148
  20
42.5
  30
924.371
  0
VERTEX
  8
Unknown Area Type
  70
32
  10
-5.93557329583872
  20
42.4957298225055
  30
923.976
  0
VERTEX
  8
Unknown Area Type
  70
32
  10
-5.9635582250488
  20
42.49852085559498
  30
937.995
  0
SEQEND
  8
Unknown Area Type
  0
TEXT
  8
Unknown Area Type
 62
7
  1
PNOA-H_AMS_1956-57_33k_ES_PAN_2
 40
0.00045
  10
-5.94596832108989
  20
42.49786491125275
  0
POLYLINE
  8
Unknown Area Type
  70
9
  66
1
  0
VERTEX
  8
Unknown Area Type
  70
32
  10
-5.96356093723387
  20
42.50000016666667
  30
938.825
  0
VERTEX
  8
Unknown Area Type
  70
32
  10
-5.92837542432676
  20
42.50000016666667
  30
924.371
  0
VERTEX
  8
Unknown Area Type
  70
32
  10
-5.92837570525148
  20
42.5
  30
924.371
  0
VERTEX
  8
Unknown Area Type
  70
32
  10
-5.93750000000002
  20
42.5
  30
925.143
  0
VERTEX
  8
Unknown Area Type
  70
32
  10
-5.9635609369283
  20
42.5
  30
938.825
  0
SEQEND
  8
Unknown Area Type
  0
TEXT
  8
Unknown Area Type
 62
7
  1
PNOA-H_AMS_1956-57_33k_ES_PAN_2
 40
0.00045
  10
-5.94596818078031
  20
42.50000008333333
  0
POLYLINE
  8
Unknown Area Type
  70
9
  66
1
  0
VERTEX
  8
Unknown Area Type
  70
32
  10
-5.9635609369283
  20
42.5
  30
938.825
  0
VERTEX
  8
Unknown Area Type
  70
32
  10
-5.93750000000002
  20
42.5
  30
925.143
  0
VERTEX
  8
Unknown Area Type
  70
32
  10
-5.92837570525148
  20
42.5
  30
924.371
  0
VERTEX
  8
Unknown Area Type
  70
32
  10
-5.93557329583872
  20
42.4957298225055
  30
923.976
  0
VERTEX
  8
Unknown Area Type
  70
32
  10
-5.9635582250488
  20
42.49852085559498
  30
937.995
  0
SEQEND
  8
Unknown Area Type
  0
TEXT
  8
Unknown Area Type
 62
7
  1
PNOA-H_AMS_1956-57_33k_ES_PAN_2
 40
0.00045
  10
-5.94596832108989
  20
42.49786491125275
  0
POLYLINE
  8
Unknown Area Type
  70
9
  66
1
  0
VERTEX
  8
Unknown Area Type
  70
32
  10
-6.06706068736565
  20
42.5
  30
925.877
  0
VERTEX
  8
Unknown Area Type
  70
32
  10
-6.0625
  20
42.5
  30
909.147
  0
VERTEX
  8
Unknown Area Type
  70
32
  10
-6.03295851929562
  20
42.5
  30
900.333
  0
VERTEX
  8
Unknown Area Type
  70
32
  10
-6.03293264537204
  20
42.49740219615147
  30
901.052
  0
VERTEX
  8
Unknown Area Type
  70
32
  10
-6.04087860298536
  20
42.49426490048246
  30
891.549
  0
VERTEX
  8
Unknown Area Type
  70
32
  10
-6.0588986858023
  20
42.49487899480431
  30
883.33
  0
VERTEX
  8
Unknown Area Type
  70
32
  10
-6.06688899214774
  20
42.49653824190453
  30
929.459
  0
SEQEND
  8
Unknown Area Type
  0
TEXT
  8
Unknown Area Type
 62
7
  1
PNOA-H_AMS_1956-57_33k_ES_PAN_2
 40
0.00045
  10
-6.04999666636884
  20
42.49713245024123
  0
POLYLINE
  8
Unknown Area Type
  70
9
  66
1
  0
VERTEX
  8
Unknown Area Type
  70
32
  10
-6.06706069563193
  20
42.50000016666667
  30
925.877
  0
VERTEX
  8
Unknown Area Type
  70
32
  10
-6.0329585209556
  20
42.50000016666667
  30
900.333
  0
VERTEX
  8
Unknown Area Type
  70
32
  10
-6.03295851929562
  20
42.5
  30
900.333
  0
VERTEX
  8
Unknown Area Type
  70
32
  10
-6.0625
  20
42.5
  30
909.147
  0
VERTEX
  8
Unknown Area Type
  70
32
  10
-6.06706068736565
  20
42.5
  30
925.877
  0
SEQEND
  8
Unknown Area Type
  0
TEXT
  8
Unknown Area Type
 62
7
  1
PNOA-H_AMS_1956-57_33k_ES_PAN_2
 40
0.00045
  10
-6.05000960746377
  20
42.50000008333333
  0
POLYLINE
  8
Unknown Area Type
  70
9
  66
1
  0
VERTEX
  8
Unknown Area Type
  70
32
  10
-6.06706068736565
  20
42.5
  30
925.877
  0
VERTEX
  8
Unknown Area Type
  70
32
  10
-6.0625
  20
42.5
  30
909.147
  0
VERTEX
  8
Unknown Area Type
  70
32
  10
-6.03295851929562
  20
42.5
  30
900.333
  0
VERTEX
  8
Unknown Area Type
  70
32
  10
-6.03293264537204
  20
42.49740219615147
  30
901.052
  0
VERTEX
  8
Unknown Area Type
  70
32
  10
-6.04087860298536
  20
42.49426490048246
  30
891.549
  0
VERTEX
  8
Unknown Area Type
  70
32
  10
-6.0588986858023
  20
42.49487899480431
  30
883.33
  0
VERTEX
  8
Unknown Area Type
  70
32
  10
-6.06688899214774
  20
42.49653824190453
  30
929.459
  0
SEQEND
  8
Unknown Area Type
  0
TEXT
  8
Unknown Area Type
 62
7
  1
PNOA-H_AMS_1956-57_33k_ES_PAN_2
 40
0.00045
  10
-6.04999666636884
  20
42.49713245024123
  0
POLYLINE
  8
Unknown Area Type
  70
9
  66
1
  0
VERTEX
  8
Unknown Area Type
  70
32
  10
-6.03295850721203
  20
42.5
  30
900.332
  0
VERTEX
  8
Unknown Area Type
  70
32
  10
-6.02083333333337
  20
42.5
  30
940.466
  0
VERTEX
  8
Unknown Area Type
  70
32
  10
-5.99874217596217
  20
42.5
  30
944.642
  0
VERTEX
  8
Unknown Area Type
  70
32
  10
-5.99866258419412
  20
42.49656237414669
  30
942.963
  0
VERTEX
  8
Unknown Area Type
  70
32
  10
-6.00196529519653
  20
42.49450828824265
  30
943.041
  0
VERTEX
  8
Unknown Area Type
  70
32
  10
-6.02362097902558
  20
42.49519916476759
  30
940.109
  0
VERTEX
  8
Unknown Area Type
  70
32
  10
-6.03293264537204
  20
42.49740219615147
  30
901.052
  0
SEQEND
  8
Unknown Area Type
  0
TEXT
  8
Unknown Area Type
 62
7
  1
PNOA-H_AMS_1956-57_33k_ES_PAN_2
 40
0.00045
  10
-6.01581054570307
  20
42.49725414412133
  0
POLYLINE
  8
Unknown Area Type
  70
9
  66
1
  0
VERTEX
  8
Unknown Area Type
  70
32
  10
-6.03295850887124
  20
42.50000016666667
  30
900.332
  0
VERTEX
  8
Unknown Area Type
  70
32
  10
-5.99874217982102
  20
42.50000016666667
  30
944.642
  0
VERTEX
  8
Unknown Area Type
  70
32
  10
-5.99874217596217
  20
42.5
  30
944.642
  0
VERTEX
  8
Unknown Area Type
  70
32
  10
-6.02083333333337
  20
42.5
  30
940.466
  0
VERTEX
  8
Unknown Area Type
  70
32
  10
-6.03295850721203
  20
42.5
  30
900.332
  0
SEQEND
  8
Unknown Area Type
  0
TEXT
  8
Unknown Area Type
 62
7
  1
PNOA-H_AMS_1956-57_33k_ES_PAN_2
 40
0.00045
  10
-6.0158503424167
  20
42.50000008333333
  0
POLYLINE
  8
Unknown Area Type
  70
9
  66
1
  0
VERTEX
  8
Unknown Area Type
  70
32
  10
-6.03295850721203
  20
42.5
  30
900.332
  0
VERTEX
  8
Unknown Area Type
  70
32
  10
-6.02083333333337
  20
42.5
  30
940.466
  0
VERTEX
  8
Unknown Area Type
  70
32
  10
-5.99874217596217
  20
42.5
  30
944.642
  0
VERTEX
  8
Unknown Area Type
  70
32
  10
-5.99866258419412
  20
42.49656237414669
  30
942.963
  0
VERTEX
  8
Unknown Area Type
  70
32
  10
-6.00196529519653
  20
42.49450828824265
  30
943.041
  0
VERTEX
  8
Unknown Area Type
  70
32
  10
-6.02362097902558
  20
42.49519916476759
  30
940.109
  0
VERTEX
  8
Unknown Area Type
  70
32
  10
-6.03293264537204
  20
42.49740219615147
  30
901.052
  0
SEQEND
  8
Unknown Area Type
  0
TEXT
  8
Unknown Area Type
 62
7
  1
PNOA-H_AMS_1956-57_33k_ES_PAN_2
 40
0.00045
  10
-6.01581054570307
  20
42.49725414412133
  0
POLYLINE
  8
Unknown Area Type
  70
9
  66
1
  0
VERTEX
  8
Unknown Area Type
  70
32
  10
-5.89226742542955
  20
42.5
  30
831.88
  0
VERTEX
  8
Unknown Area Type
  70
32
  10
-5.85751691763221
  20
42.5
  30
841.099
  0
VERTEX
  8
Unknown Area Type
  70
32
  10
-5.85753055394084
  20
42.49943282808632
  30
841.031
  0
VERTEX
  8
Unknown Area Type
  70
32
  10
-5.85753512610035
  20
42.49926612355313
  30
840.876
  0
VERTEX
  8
Unknown Area Type
  70
32
  10
-5.85754707631284
  20
42.49926132290756
  30
840.885
  0
VERTEX
  8
Unknown Area Type
  70
32
  10
-5.88644065870552
  20
42.49697882856626
  30
831.109
  0
SEQEND
  8
Unknown Area Type
  0
TEXT
  8
Unknown Area Type
 62
7
  1
PNOA-H_AMS_1956-57_33k_ES_PAN_2
 40
0.00045
  10
-5.87489217153088
  20
42.49848941428313
  0
POLYLINE
  8
Unknown Area Type
  70
9
  66
1
  0
VERTEX
  8
Unknown Area Type
  70
32
  10
-5.89226774687036
  20
42.50000016666667
  30
831.88
  0
VERTEX
  8
Unknown Area Type
  70
32
  10
-5.85751691362511
  20
42.50000016666667
  30
841.099
  0
VERTEX
  8
Unknown Area Type
  70
32
  10
-5.85751691763221
  20
42.5
  30
841.099
  0
VERTEX
  8
Unknown Area Type
  70
32
  10
-5.89226742542955
  20
42.5
  30
831.88
  0
SEQEND
  8
Unknown Area Type
  0
TEXT
  8
Unknown Area Type
 62
7
  1
PNOA-H_AMS_1956-57_33k_ES_PAN_2
 40
0.00045
  10
-5.87489233024774
  20
42.50000008333333
  0
POLYLINE
  8
Unknown Area Type
  70
9
  66
1
  0
VERTEX
  8
Unknown Area Type
  70
32
  10
-5.89226742542955
  20
42.5
  30
831.88
  0
VERTEX
  8
Unknown Area Type
  70
32
  10
-5.85751691763221
  20
42.5
  30
841.099
  0
VERTEX
  8
Unknown Area Type
  70
32
  10
-5.85753055394084
  20
42.49943282808632
  30
841.031
  0
VERTEX
  8
Unknown Area Type
  70
32
  10
-5.85753512610035
  20
42.49926612355313
  30
840.876
  0
VERTEX
  8
Unknown Area Type
  70
32
  10
-5.85754707631284
  20
42.49926132290756
  30
840.885
  0
VERTEX
  8
Unknown Area Type
  70
32
  10
-5.88644065870552
  20
42.49697882856626
  30
831.109
  0
SEQEND
  8
Unknown Area Type
  0
TEXT
  8
Unknown Area Type
 62
7
  1
PNOA-H_AMS_1956-57_33k_ES_PAN_2
 40
0.00045
  10
-5.87489217153088
  20
42.49848941428313
  0
POLYLINE
  8
Unknown Area Type
  70
9
  66
1
  0
VERTEX
  8
Unknown Area Type
  70
32
  10
-5.85751715595131
  20
42.5
  30
840.982
  0
VERTEX
  8
Unknown Area Type
  70
32
  10
-5.85416666666668
  20
42.5
  30
840.287
  0
VERTEX
  8
Unknown Area Type
  70
32
  10
-5.85416666666668
  20
42.49694527902466
  30
839.844
  0
VERTEX
  8
Unknown Area Type
  70
32
  10
-5.85753492115443
  20
42.49926162622285
  30
840.889
  0
SEQEND
  8
Unknown Area Type
  0
TEXT
  8
Unknown Area Type
 62
7
  1
PNOA-H_AMS_1956-57_33k_ES_PAN_2
 40
0.00045
  10
-5.85585079391055
  20
42.49847263951233
  0
POLYLINE
  8
Unknown Area Type
  70
9
  66
1
  0
VERTEX
  8
Unknown Area Type
  70
32
  10
-5.85751715194132
  20
42.50000016666667
  30
840.982
  0
VERTEX
  8
Unknown Area Type
  70
32
  10
-5.85416666666668
  20
42.50000016666667
  30
840.287
  0
VERTEX
  8
Unknown Area Type
  70
32
  10
-5.85416666666668
  20
42.5
  30
840.287
  0
VERTEX
  8
Unknown Area Type
  70
32
  10
-5.85751715595131
  20
42.5
  30
840.982
  0
SEQEND
  8
Unknown Area Type
  0
TEXT
  8
Unknown Area Type
 62
7
  1
PNOA-H_AMS_1956-57_33k_ES_PAN_2
 40
0.00045
  10
-5.85584191130899
  20
42.50000008333333
  0
POLYLINE
  8
Unknown Area Type
  70
9
  66
1
  0
VERTEX
  8
Unknown Area Type
  70
32
  10
-5.85416666666668
  20
42.50000016666667
  30
840.287
  0
VERTEX
  8
Unknown Area Type
  70
32
  10
-5.85416633333334
  20
42.50000016666667
  30
840.287
  0
VERTEX
  8
Unknown Area Type
  70
32
  10
-5.85416633333334
  20
42.5
  30
840.287
  0
VERTEX
  8
Unknown Area Type
  70
32
  10
-5.85416666666668
  20
42.5
  30
840.287
  0
SEQEND
  8
Unknown Area Type
  0
TEXT
  8
Unknown Area Type
 62
7
  1
PNOA-H_AMS_1956-57_33k_ES_PAN_2
 40
0.00045
  10
-5.85416650000001
  20
42.50000008333333
  0
POLYLINE
  8
Unknown Area Type
  70
9
  66
1
  0
VERTEX
  8
Unknown Area Type
  70
32
  10
-5.85751715595131
  20
42.5
  30
840.982
  0
VERTEX
  8
Unknown Area Type
  70
32
  10
-5.85416666666668
  20
42.5
  30
840.287
  0
VERTEX
  8
Unknown Area Type
  70
32
  10
-5.85416666666668
  20
42.49694527902466
  30
839.844
  0
VERTEX
  8
Unknown Area Type
  70
32
  10
-5.85753492115443
  20
42.49926162622285
  30
840.889
  0
SEQEND
  8
Unknown Area Type
  0
TEXT
  8
Unknown Area Type
 62
7
  1
PNOA-H_AMS_1956-57_33k_ES_PAN_2
 40
0.00045
  10
-5.85585079391055
  20
42.49847263951233
  0
POLYLINE
  8
Unknown Area Type
  70
9
  66
1
  0
VERTEX
  8
Unknown Area Type
  70
32
  10
-5.85416666666668
  20
42.5
  30
840.287
  0
VERTEX
  8
Unknown Area Type
  70
32
  10
-5.85416633333334
  20
42.5
  30
840.287
  0
VERTEX
  8
Unknown Area Type
  70
32
  10
-5.85416633333334
  20
42.49694504979146
  30
839.844
  0
VERTEX
  8
Unknown Area Type
  70
32
  10
-5.85416666666668
  20
42.49694527902466
  30
839.844
  0
SEQEND
  8
Unknown Area Type
  0
TEXT
  8
Unknown Area Type
 62
7
  1
PNOA-H_AMS_1956-57_33k_ES_PAN_2
 40
0.00045
  10
-5.85416650000001
  20
42.49847252489573
  0
POLYLINE
  8
Unknown Area Type
  70
9
  66
1
  0
VERTEX
  8
Unknown Area Type
  70
32
  10
-6.18749999999997
  20
42.39583333333334
  30
1026.986
  0
VERTEX
  8
Unknown Area Type
  70
32
  10
-6.18749999999997
  20
42.41666666666666
  30
983.367
  0
VERTEX
  8
Unknown Area Type
  70
32
  10
-6.18749999999997
  20
42.41719901617317
  30
983.291
  0
VERTEX
  8
Unknown Area Type
  70
32
  10
-6.17733102854425
  20
42.4179096995995
  30
962.641
  0
VERTEX
  8
Unknown Area Type
  70
32
  10
-6.17722810096235
  20
42.41791705764576
  30
962.542
  0
VERTEX
  8
Unknown Area Type
  70
32
  10
-6.1771429227452
  20
42.41791491842948
  30
962.552
  0
VERTEX
  8
Unknown Area Type
  70
32
  10
-6.1721944226865
  20
42.41618361337765
  30
942.93
  0
VERTEX
  8
Unknown Area Type
  70
32
  10
-6.17009360998117
  20
42.37884046059143
  30
1047.804
  0
VERTEX
  8
Unknown Area Type
  70
32
  10
-6.18145661990248
  20
42.375616841009
  30
1023.854
  0
VERTEX
  8
Unknown Area Type
  70
32
  10
-6.18749999999997
  20
42.37656918735482
  30
1018.331
  0
SEQEND
  8
Unknown Area Type
  0
TEXT
  8
Unknown Area Type
 62
7
  1
PNOA-H_AMS_1956-57_33k_ES_PAN_2
 40
0.00045
  10
-6.18699665763646
  20
42.39686085270763
  0
POLYLINE
  8
Unknown Area Type
  70
9
  66
1
  0
VERTEX
  8
Unknown Area Type
  70
32
  10
-6.18749999999997
  20
42.39583333333334
  30
1026.986
  0
VERTEX
  8
Unknown Area Type
  70
32
  10
-6.18749999999997
  20
42.41666666666666
  30
983.367
  0
VERTEX
  8
Unknown Area Type
  70
32
  10
-6.18749999999997
  20
42.41719901617317
  30
983.291
  0
VERTEX
  8
Unknown Area Type
  70
32
  10
-6.17733102854425
  20
42.4179096995995
  30
962.641
  0
VERTEX
  8
Unknown Area Type
  70
32
  10
-6.17722810096235
  20
42.41791705764576
  30
962.542
  0
VERTEX
  8
Unknown Area Type
  70
32
  10
-6.1771429227452
  20
42.41791491842948
  30
962.552
  0
VERTEX
  8
Unknown Area Type
  70
32
  10
-6.1721944226865
  20
42.41618361337765
  30
942.93
  0
VERTEX
  8
Unknown Area Type
  70
32
  10
-6.17009360998117
  20
42.37884046059143
  30
1047.804
  0
VERTEX
  8
Unknown Area Type
  70
32
  10
-6.18145661990248
  20
42.375616841009
  30
1023.854
  0
VERTEX
  8
Unknown Area Type
  70
32
  10
-6.18749999999997
  20
42.37656918735482
  30
1018.331
  0
SEQEND
  8
Unknown Area Type
  0
TEXT
  8
Unknown Area Type
 62
7
  1
PNOA-H_AMS_1956-57_33k_ES_PAN_2
 40
0.00045
  10
-6.18699665763646
  20
42.39686085270763
  0
POLYLINE
  8
Unknown Area Type
  70
9
  66
1
  0
VERTEX
  8
Unknown Area Type
  70
32
  10
-6.08400189103249
  20
42.45888446852681
  30
874.317
  0
VERTEX
  8
Unknown Area Type
  70
32
  10
-6.08399537688622
  20
42.4588756391917
  30
872.442
  0
VERTEX
  8
Unknown Area Type
  70
32
  10
-6.08394525149323
  20
42.45884547243764
  30
860.854
  0
VERTEX
  8
Unknown Area Type
  70
32
  10
-6.08394127607871
  20
42.45876453655189
  30
860.796
  0
VERTEX
  8
Unknown Area Type
  70
32
  10
-6.08398179524445
  20
42.45872292384249
  30
860.072
  0
VERTEX
  8
Unknown Area Type
  70
32
  10
-6.08400564316121
  20
42.45871327680764
  30
859.131
  0
VERTEX
  8
Unknown Area Type
  70
32
  10
-6.08410280168763
  20
42.45871066012085
  30
857.407
  0
VERTEX
  8
Unknown Area Type
  70
32
  10
-6.08417202776004
  20
42.45875832191008
  30
857.455
  0
VERTEX
  8
Unknown Area Type
  70
32
  10
-6.08417556172441
  20
42.45883026490412
  30
864.508
  0
VERTEX
  8
Unknown Area Type
  70
32
  10
-6.08413504262607
  20
42.45887187767955
  30
882.212
  0
VERTEX
  8
Unknown Area Type
  70
32
  10
-6.08411119467194
  20
42.45888152474245
  30
885.122
  0
VERTEX
  8
Unknown Area Type
  70
32
  10
-6.08400189103249
  20
42.45888446852681
  30
874.317
  0
SEQEND
  8
Unknown Area Type
  0
TEXT
  8
Unknown Area Type
 62
7
  1
PNOA-H_AMS_1956-57_33k_ES_PAN_2
 40
0.00045
  10
-6.08405876105042
  20
42.4587953703511
  0
POLYLINE
  8
Unknown Area Type
  70
9
  66
1
  0
VERTEX
  8
Unknown Area Type
  70
32
  10
-6.08400189103249
  20
42.45888446852681
  30
874.317
  0
VERTEX
  8
Unknown Area Type
  70
32
  10
-6.08399537688622
  20
42.4588756391917
  30
872.442
  0
VERTEX
  8
Unknown Area Type
  70
32
  10
-6.08394525149323
  20
42.45884547243764
  30
860.854
  0
VERTEX
  8
Unknown Area Type
  70
32
  10
-6.08394127607871
  20
42.45876453655189
  30
860.796
  0
VERTEX
  8
Unknown Area Type
  70
32
  10
-6.08398179524445
  20
42.45872292384249
  30
860.072
  0
VERTEX
  8
Unknown Area Type
  70
32
  10
-6.08400564316121
  20
42.45871327680764
  30
859.131
  0
VERTEX
  8
Unknown Area Type
  70
32
  10
-6.08410280168763
  20
42.45871066012085
  30
857.407
  0
VERTEX
  8
Unknown Area Type
  70
32
  10
-6.08417202776004
  20
42.45875832191008
  30
857.455
  0
VERTEX
  8
Unknown Area Type
  70
32
  10
-6.08417556172441
  20
42.45883026490412
  30
864.508
  0
VERTEX
  8
Unknown Area Type
  70
32
  10
-6.08413504262607
  20
42.45887187767955
  30
882.212
  0
VERTEX
  8
Unknown Area Type
  70
32
  10
-6.08411119467194
  20
42.45888152474245
  30
885.122
  0
VERTEX
  8
Unknown Area Type
  70
32
  10
-6.08400189103249
  20
42.45888446852681
  30
874.317
  0
SEQEND
  8
Unknown Area Type
  0
TEXT
  8
Unknown Area Type
 62
7
  1
PNOA-H_AMS_1956-57_33k_ES_PAN_2
 40
0.00045
  10
-6.08405876105042
  20
42.4587953703511
  0
POLYLINE
  8
Unknown Area Type
  70
9
  66
1
  0
VERTEX
  8
Unknown Area Type
  70
32
  10
-6.08402893265336
  20
42.45807331073659
  30
883.713
  0
VERTEX
  8
Unknown Area Type
  70
32
  10
-6.08401656710463
  20
42.45806914137682
  30
883.755
  0
VERTEX
  8
Unknown Area Type
  70
32
  10
-6.08396600066491
  20
42.45802998173077
  30
871.645
  0
VERTEX
  8
Unknown Area Type
  70
32
  10
-6.08396202533709
  20
42.45794904583506
  30
864.3
  0
VERTEX
  8
Unknown Area Type
  70
32
  10
-6.08400861632423
  20
42.45790726959277
  30
871.103
  0
VERTEX
  8
Unknown Area Type
  70
32
  10
-6.08426365415698
  20
42.4579004007126
  30
866.962
  0
VERTEX
  8
Unknown Area Type
  70
32
  10
-6.08431422066556
  20
42.45793956022528
  30
863.861
  0
VERTEX
  8
Unknown Area Type
  70
32
  10
-6.08431819644562
  20
42.45802049609426
  30
876.4
  0
VERTEX
  8
Unknown Area Type
  70
32
  10
-6.08427160559234
  20
42.45806227245794
  30
882.445
  0
VERTEX
  8
Unknown Area Type
  70
32
  10
-6.08402893265336
  20
42.45807331073659
  30
883.713
  0
SEQEND
  8
Unknown Area Type
  0
TEXT
  8
Unknown Area Type
 62
7
  1
PNOA-H_AMS_1956-57_33k_ES_PAN_2
 40
0.00045
  10
-6.08414056051689
  20
42.45798466148882
  0
POLYLINE
  8
Unknown Area Type
  70
9
  66
1
  0
VERTEX
  8
Unknown Area Type
  70
32
  10
-6.08402893265336
  20
42.45807331073659
  30
883.713
  0
VERTEX
  8
Unknown Area Type
  70
32
  10
-6.08401656710463
  20
42.45806914137682
  30
883.755
  0
VERTEX
  8
Unknown Area Type
  70
32
  10
-6.08396600066491
  20
42.45802998173077
  30
871.645
  0
VERTEX
  8
Unknown Area Type
  70
32
  10
-6.08396202533709
  20
42.45794904583506
  30
864.3
  0
VERTEX
  8
Unknown Area Type
  70
32
  10
-6.08400861632423
  20
42.45790726959277
  30
871.103
  0
VERTEX
  8
Unknown Area Type
  70
32
  10
-6.08426365415698
  20
42.4579004007126
  30
866.962
  0
VERTEX
  8
Unknown Area Type
  70
32
  10
-6.08431422066556
  20
42.45793956022528
  30
863.861
  0
VERTEX
  8
Unknown Area Type
  70
32
  10
-6.08431819644562
  20
42.45802049609426
  30
876.4
  0
VERTEX
  8
Unknown Area Type
  70
32
  10
-6.08427160559234
  20
42.45806227245794
  30
882.445
  0
VERTEX
  8
Unknown Area Type
  70
32
  10
-6.08402893265336
  20
42.45807331073659
  30
883.713
  0
SEQEND
  8
Unknown Area Type
  0
TEXT
  8
Unknown Area Type
 62
7
  1
PNOA-H_AMS_1956-57_33k_ES_PAN_2
 40
0.00045
  10
-6.08414056051689
  20
42.45798466148882
  0
POLYLINE
  8
Unknown Area Type
  70
9
  66
1
  0
VERTEX
  8
Unknown Area Type
  70
32
  10
-6.08247349524125
  20
42.45351375019359
  30
863.683
  0
VERTEX
  8
Unknown Area Type
  70
32
  10
-6.08246952246324
  20
42.45343281412015
  30
876.629
  0
VERTEX
  8
Unknown Area Type
  70
32
  10
-6.08251070153676
  20
42.45340469132327
  30
883.554
  0
VERTEX
  8
Unknown Area Type
  70
32
  10
-6.08251423293784
  20
42.45347663449728
  30
870.266
  0
VERTEX
  8
Unknown Area Type
  70
32
  10
-6.08247912573452
  20
42.45350459385337
  30
863.514
  0
VERTEX
  8
Unknown Area Type
  70
32
  10
-6.08247349524125
  20
42.45351375019359
  30
863.683
  0
SEQEND
  8
Unknown Area Type
  0
TEXT
  8
Unknown Area Type
 62
7
  1
PNOA-H_AMS_1956-57_33k_ES_PAN_2
 40
0.00045
  10
-6.0824922675707
  20
42.45345379453777
  0
POLYLINE
  8
Unknown Area Type
  70
9
  66
1
  0
VERTEX
  8
Unknown Area Type
  70
32
  10
-6.08247349524125
  20
42.45351375019359
  30
863.683
  0
VERTEX
  8
Unknown Area Type
  70
32
  10
-6.08246952246324
  20
42.45343281412015
  30
876.629
  0
VERTEX
  8
Unknown Area Type
  70
32
  10
-6.08251070153676
  20
42.45340469132327
  30
883.554
  0
VERTEX
  8
Unknown Area Type
  70
32
  10
-6.08251423293784
  20
42.45347663449728
  30
870.266
  0
VERTEX
  8
Unknown Area Type
  70
32
  10
-6.08247912573452
  20
42.45350459385337
  30
863.514
  0
VERTEX
  8
Unknown Area Type
  70
32
  10
-6.08247349524125
  20
42.45351375019359
  30
863.683
  0
SEQEND
  8
Unknown Area Type
  0
TEXT
  8
Unknown Area Type
 62
7
  1
PNOA-H_AMS_1956-57_33k_ES_PAN_2
 40
0.00045
  10
-6.0824922675707
  20
42.45345379453777
  0
POLYLINE
  8
Unknown Area Type
  70
9
  66
1
  0
VERTEX
  8
Unknown Area Type
  70
32
  10
-6.08395179159744
  20
42.46133061298774
  30
866.587
  0
VERTEX
  8
Unknown Area Type
  70
32
  10
-6.08198855473693
  20
42.45626875760802
  30
858.307
  0
VERTEX
  8
Unknown Area Type
  70
32
  10
-6.08421560052806
  20
42.45556045369386
  30
859.328
  0
VERTEX
  8
Unknown Area Type
  70
32
  10
-6.10981176238147
  20
42.45762365427046
  30
884.445
  0
VERTEX
  8
Unknown Area Type
  70
32
  10
-6.10706692236902
  20
42.493068767291
  30
911.024
  0
VERTEX
  8
Unknown Area Type
  70
32
  10
-6.10706173787999
  20
42.4930869174112
  30
911.101
  0
VERTEX
  8
Unknown Area Type
  70
32
  10
-6.10703810380679
  20
42.49310106582259
  30
911.107
  0
VERTEX
  8
Unknown Area Type
  70
32
  10
-6.1024584222049
  20
42.49521979351871
  30
944.102
  0
VERTEX
  8
Unknown Area Type
  70
32
  10
-6.09669116013138
  20
42.49424132336421
  30
930.159
  0
VERTEX
  8
Unknown Area Type
  70
32
  10
-6.0839526751038
  20
42.461348598732
  30
865.854
  0
VERTEX
  8
Unknown Area Type
  70
32
  10
-6.08395179159744
  20
42.46133061298774
  30
866.587
  0
SEQEND
  8
Unknown Area Type
  0
TEXT
  8
Unknown Area Type
 62
7
  1
PNOA-H_AMS_1956-57_33k_ES_PAN_2
 40
0.00045
  10
-6.0959006267737
  20
42.47434900009408
  0
POLYLINE
  8
Unknown Area Type
  70
9
  66
1
  0
VERTEX
  8
Unknown Area Type
  70
32
  10
-6.08395179159744
  20
42.46133061298774
  30
866.587
  0
VERTEX
  8
Unknown Area Type
  70
32
  10
-6.08198855473693
  20
42.45626875760802
  30
858.307
  0
VERTEX
  8
Unknown Area Type
  70
32
  10
-6.08421560052806
  20
42.45556045369386
  30
859.328
  0
VERTEX
  8
Unknown Area Type
  70
32
  10
-6.10981176238147
  20
42.45762365427046
  30
884.445
  0
VERTEX
  8
Unknown Area Type
  70
32
  10
-6.10706692236902
  20
42.493068767291
  30
911.024
  0
VERTEX
  8
Unknown Area Type
  70
32
  10
-6.10706173787999
  20
42.4930869174112
  30
911.101
  0
VERTEX
  8
Unknown Area Type
  70
32
  10
-6.10703810380679
  20
42.49310106582259
  30
911.107
  0
VERTEX
  8
Unknown Area Type
  70
32
  10
-6.1024584222049
  20
42.49521979351871
  30
944.102
  0
VERTEX
  8
Unknown Area Type
  70
32
  10
-6.09669116013138
  20
42.49424132336421
  30
930.159
  0
VERTEX
  8
Unknown Area Type
  70
32
  10
-6.0839526751038
  20
42.461348598732
  30
865.854
  0
VERTEX
  8
Unknown Area Type
  70
32
  10
-6.08395179159744
  20
42.46133061298774
  30
866.587
  0
SEQEND
  8
Unknown Area Type
  0
TEXT
  8
Unknown Area Type
 62
7
  1
PNOA-H_AMS_1956-57_33k_ES_PAN_2
 40
0.00045
  10
-6.0959006267737
  20
42.47434900009408
  0
POLYLINE
  8
Unknown Area Type
  70
9
  66
1
  0
VERTEX
  8
Unknown Area Type
  70
32
  10
-6.11595493083471
  20
42.41844348646164
  30
874.856
  0
VERTEX
  8
Unknown Area Type
  70
32
  10
-6.10847505011566
  20
42.41586877340347
  30
890.031
  0
VERTEX
  8
Unknown Area Type
  70
32
  10
-6.10762343205482
  20
42.38252002033613
  30
931.709
  0
VERTEX
  8
Unknown Area Type
  70
32
  10
-6.13595918335793
  20
42.3781097538558
  30
1017.201
  0
VERTEX
  8
Unknown Area Type
  70
32
  10
-6.13912538593637
  20
42.37852278808068
  30
1031.475
  0
VERTEX
  8
Unknown Area Type
  70
32
  10
-6.14005242764837
  20
42.41597084062108
  30
907.967
  0
VERTEX
  8
Unknown Area Type
  70
32
  10
-6.11601539137331
  20
42.41843733904101
  30
874.776
  0
VERTEX
  8
Unknown Area Type
  70
32
  10
-6.11595493083471
  20
42.41844348646164
  30
874.856
  0
SEQEND
  8
Unknown Area Type
  0
TEXT
  8
Unknown Area Type
 62
7
  1
PNOA-H_AMS_1956-57_33k_ES_PAN_2
 40
0.00045
  10
-6.12383810697882
  20
42.39881404001795
  0
POLYLINE
  8
Unknown Area Type
  70
9
  66
1
  0
VERTEX
  8
Unknown Area Type
  70
32
  10
-6.11595493083471
  20
42.41844348646164
  30
874.856
  0
VERTEX
  8
Unknown Area Type
  70
32
  10
-6.10847505011566
  20
42.41586877340347
  30
890.031
  0
VERTEX
  8
Unknown Area Type
  70
32
  10
-6.10762343205482
  20
42.38252002033613
  30
931.709
  0
VERTEX
  8
Unknown Area Type
  70
32
  10
-6.13595918335793
  20
42.3781097538558
  30
1017.201
  0
VERTEX
  8
Unknown Area Type
  70
32
  10
-6.13912538593637
  20
42.37852278808068
  30
1031.475
  0
VERTEX
  8
Unknown Area Type
  70
32
  10
-6.14005242764837
  20
42.41597084062108
  30
907.967
  0
VERTEX
  8
Unknown Area Type
  70
32
  10
-6.11601539137331
  20
42.41843733904101
  30
874.776
  0
VERTEX
  8
Unknown Area Type
  70
32
  10
-6.11595493083471
  20
42.41844348646164
  30
874.856
  0
SEQEND
  8
Unknown Area Type
  0
TEXT
  8
Unknown Area Type
 62
7
  1
PNOA-H_AMS_1956-57_33k_ES_PAN_2
 40
0.00045
  10
-6.12383810697882
  20
42.39881404001795
  0
POLYLINE
  8
Unknown Area Type
  70
9
  66
1
  0
VERTEX
  8
Unknown Area Type
  70
32
  10
-6.14742381382623
  20
42.41853745652998
  30
912.187
  0
VERTEX
  8
Unknown Area Type
  70
32
  10
-6.14739954116956
  20
42.41853812362034
  30
912.172
  0
VERTEX
  8
Unknown Area Type
  70
32
  10
-6.14728828856584
  20
42.4185006596756
  30
912.425
  0
VERTEX
  8
Unknown Area Type
  70
32
  10
-6.14005265218229
  20
42.41597533685298
  30
907.946
  0
VERTEX
  8
Unknown Area Type
  70
32
  10
-6.13911999409826
  20
42.37853644308458
  30
1031.317
  0
VERTEX
  8
Unknown Area Type
  70
32
  10
-6.13913729047807
  20
42.37851795939883
  30
1031.563
  0
VERTEX
  8
Unknown Area Type
  70
32
  10
-6.13926307269346
  20
42.37848299509495
  30
1032.907
  0
VERTEX
  8
Unknown Area Type
  70
32
  10
-6.1492917131383
  20
42.37574486865327
  30
1074.248
  0
VERTEX
  8
Unknown Area Type
  70
32
  10
-6.14940760438711
  20
42.37575518926354
  30
1075.822
  0
VERTEX
  8
Unknown Area Type
  70
32
  10
-6.17009360998117
  20
42.37884046059143
  30
1047.804
  0
VERTEX
  8
Unknown Area Type
  70
32
  10
-6.1721944226865
  20
42.41618361337765
  30
942.93
  0
VERTEX
  8
Unknown Area Type
  70
32
  10
-6.14749033854244
  20
42.41853112580726
  30
912.13
  0
VERTEX
  8
Unknown Area Type
  70
32
  10
-6.14742381382623
  20
42.41853745652998
  30
912.187
  0
SEQEND
  8
Unknown Area Type
  0
TEXT
  8
Unknown Area Type
 62
7
  1
PNOA-H_AMS_1956-57_33k_ES_PAN_2
 40
0.00045
  10
-6.15565719749091
  20
42.39722026134186
  0
POLYLINE
  8
Unknown Area Type
  70
9
  66
1
  0
VERTEX
  8
Unknown Area Type
  70
32
  10
-6.14742381382623
  20
42.41853745652998
  30
912.187
  0
VERTEX
  8
Unknown Area Type
  70
32
  10
-6.14739954116956
  20
42.41853812362034
  30
912.172
  0
VERTEX
  8
Unknown Area Type
  70
32
  10
-6.14728828856584
  20
42.4185006596756
  30
912.425
  0
VERTEX
  8
Unknown Area Type
  70
32
  10
-6.14005265218229
  20
42.41597533685298
  30
907.946
  0
VERTEX
  8
Unknown Area Type
  70
32
  10
-6.13911999409826
  20
42.37853644308458
  30
1031.317
  0
VERTEX
  8
Unknown Area Type
  70
32
  10
-6.13913729047807
  20
42.37851795939883
  30
1031.563
  0
VERTEX
  8
Unknown Area Type
  70
32
  10
-6.13926307269346
  20
42.37848299509495
  30
1032.907
  0
VERTEX
  8
Unknown Area Type
  70
32
  10
-6.1492917131383
  20
42.37574486865327
  30
1074.248
  0
VERTEX
  8
Unknown Area Type
  70
32
  10
-6.14940760438711
  20
42.37575518926354
  30
1075.822
  0
VERTEX
  8
Unknown Area Type
  70
32
  10
-6.17009360998117
  20
42.37884046059143
  30
1047.804
  0
VERTEX
  8
Unknown Area Type
  70
32
  10
-6.1721944226865
  20
42.41618361337765
  30
942.93
  0
VERTEX
  8
Unknown Area Type
  70
32
  10
-6.14749033854244
  20
42.41853112580726
  30
912.13
  0
VERTEX
  8
Unknown Area Type
  70
32
  10
-6.14742381382623
  20
42.41853745652998
  30
912.187
  0
SEQEND
  8
Unknown Area Type
  0
TEXT
  8
Unknown Area Type
 62
7
  1
PNOA-H_AMS_1956-57_33k_ES_PAN_2
 40
0.00045
  10
-6.15565719749091
  20
42.39722026134186
  0
POLYLINE
  8
Unknown Area Type
  70
9
  66
1
  0
VERTEX
  8
Unknown Area Type
  70
32
  10
-6.1367093327406
  20
42.49421005557453
  30
984.052
  0
VERTEX
  8
Unknown Area Type
  70
32
  10
-6.13221820790912
  20
42.49369817402609
  30
972.669
  0
VERTEX
  8
Unknown Area Type
  70
32
  10
-6.11417920183262
  20
42.45643339704164
  30
892.702
  0
VERTEX
  8
Unknown Area Type
  70
32
  10
-6.11419067685599
  20
42.45641957784394
  30
892.723
  0
VERTEX
  8
Unknown Area Type
  70
32
  10
-6.11571449651329
  20
42.45588286513111
  30
895.711
  0
VERTEX
  8
Unknown Area Type
  70
32
  10
-6.14282375942124
  20
42.45729866931485
  30
938.431
  0
VERTEX
  8
Unknown Area Type
  70
32
  10
-6.1393474509645
  20
42.49355694929382
  30
1011.054
  0
VERTEX
  8
Unknown Area Type
  70
32
  10
-6.13776782438679
  20
42.49432962990541
  30
989.379
  0
VERTEX
  8
Unknown Area Type
  70
32
  10
-6.1367275593511
  20
42.49420955624122
  30
984.221
  0
VERTEX
  8
Unknown Area Type
  70
32
  10
-6.1367093327406
  20
42.49421005557453
  30
984.052
  0
SEQEND
  8
Unknown Area Type
  0
TEXT
  8
Unknown Area Type
 62
7
  1
PNOA-H_AMS_1956-57_33k_ES_PAN_2
 40
0.00045
  10
-6.12850197256293
  20
42.47128383329976
  0
POLYLINE
  8
Unknown Area Type
  70
9
  66
1
  0
VERTEX
  8
Unknown Area Type
  70
32
  10
-6.1367093327406
  20
42.49421005557453
  30
984.052
  0
VERTEX
  8
Unknown Area Type
  70
32
  10
-6.13221820790912
  20
42.49369817402609
  30
972.669
  0
VERTEX
  8
Unknown Area Type
  70
32
  10
-6.11417920183262
  20
42.45643339704164
  30
892.702
  0
VERTEX
  8
Unknown Area Type
  70
32
  10
-6.11419067685599
  20
42.45641957784394
  30
892.723
  0
VERTEX
  8
Unknown Area Type
  70
32
  10
-6.11571449651329
  20
42.45588286513111
  30
895.711
  0
VERTEX
  8
Unknown Area Type
  70
32
  10
-6.14282375942124
  20
42.45729866931485
  30
938.431
  0
VERTEX
  8
Unknown Area Type
  70
32
  10
-6.1393474509645
  20
42.49355694929382
  30
1011.054
  0
VERTEX
  8
Unknown Area Type
  70
32
  10
-6.13776782438679
  20
42.49432962990541
  30
989.379
  0
VERTEX
  8
Unknown Area Type
  70
32
  10
-6.1367275593511
  20
42.49420955624122
  30
984.221
  0
VERTEX
  8
Unknown Area Type
  70
32
  10
-6.1367093327406
  20
42.49421005557453
  30
984.052
  0
SEQEND
  8
Unknown Area Type
  0
TEXT
  8
Unknown Area Type
 62
7
  1
PNOA-H_AMS_1956-57_33k_ES_PAN_2
 40
0.00045
  10
-6.12850197256293
  20
42.47128383329976
  0
POLYLINE
  8
Unknown Area Type
  70
9
  66
1
  0
VERTEX
  8
Unknown Area Type
  70
32
  10
-6.02227614769344
  20
42.41901787203559
  30
848.188
  0
VERTEX
  8
Unknown Area Type
  70
32
  10
-6.00968854797084
  20
42.41451372871378
  30
828.667
  0
VERTEX
  8
Unknown Area Type
  70
32
  10
-6.01140395047992
  20
42.3833297129999
  30
821.684
  0
VERTEX
  8
Unknown Area Type
  70
32
  10
-6.03113046505511
  20
42.37943705668815
  30
835.64
  0
VERTEX
  8
Unknown Area Type
  70
32
  10
-6.04309585042199
  20
42.38299639949362
  30
855.524
  0
VERTEX
  8
Unknown Area Type
  70
32
  10
-6.04421941199921
  20
42.41476273857637
  30
881.289
  0
VERTEX
  8
Unknown Area Type
  70
32
  10
-6.02230627617841
  20
42.41901257455515
  30
848.32
  0
VERTEX
  8
Unknown Area Type
  70
32
  10
-6.02227614769344
  20
42.41901787203559
  30
848.188
  0
SEQEND
  8
Unknown Area Type
  0
TEXT
  8
Unknown Area Type
 62
7
  1
PNOA-H_AMS_1956-57_33k_ES_PAN_2
 40
0.00045
  10
-6.02695436820533
  20
42.39918460031772
  0
POLYLINE
  8
Unknown Area Type
  70
9
  66
1
  0
VERTEX
  8
Unknown Area Type
  70
32
  10
-6.02227614769344
  20
42.41901787203559
  30
848.188
  0
VERTEX
  8
Unknown Area Type
  70
32
  10
-6.00968854797084
  20
42.41451372871378
  30
828.667
  0
VERTEX
  8
Unknown Area Type
  70
32
  10
-6.01140395047992
  20
42.3833297129999
  30
821.684
  0
VERTEX
  8
Unknown Area Type
  70
32
  10
-6.03113046505511
  20
42.37943705668815
  30
835.64
  0
VERTEX
  8
Unknown Area Type
  70
32
  10
-6.04309585042199
  20
42.38299639949362
  30
855.524
  0
VERTEX
  8
Unknown Area Type
  70
32
  10
-6.04421941199921
  20
42.41476273857637
  30
881.289
  0
VERTEX
  8
Unknown Area Type
  70
32
  10
-6.02230627617841
  20
42.41901257455515
  30
848.32
  0
VERTEX
  8
Unknown Area Type
  70
32
  10
-6.02227614769344
  20
42.41901787203559
  30
848.188
  0
SEQEND
  8
Unknown Area Type
  0
TEXT
  8
Unknown Area Type
 62
7
  1
PNOA-H_AMS_1956-57_33k_ES_PAN_2
 40
0.00045
  10
-6.02695436820533
  20
42.39918460031772
  0
POLYLINE
  8
Unknown Area Type
  70
9
  66
1
  0
VERTEX
  8
Unknown Area Type
  70
32
  10
-5.92846715981411
  20
42.41710998918948
  30
810.242
  0
VERTEX
  8
Unknown Area Type
  70
32
  10
-5.91040226258205
  20
42.41291938501411
  30
804.132
  0
VERTEX
  8
Unknown Area Type
  70
32
  10
-5.91004664596642
  20
42.38237455287446
  30
794.222
  0
VERTEX
  8
Unknown Area Type
  70
32
  10
-5.92989074520551
  20
42.37787500473635
  30
794.862
  0
VERTEX
  8
Unknown Area Type
  70
32
  10
-5.94354025306036
  20
42.38199153841177
  30
798.826
  0
VERTEX
  8
Unknown Area Type
  70
32
  10
-5.94257175881557
  20
42.41336714583024
  30
860.792
  0
VERTEX
  8
Unknown Area Type
  70
32
  10
-5.94255418356461
  20
42.41338110474591
  30
860.477
  0
VERTEX
  8
Unknown Area Type
  70
32
  10
-5.94242821103493
  20
42.41341585825205
  30
860.451
  0
VERTEX
  8
Unknown Area Type
  70
32
  10
-5.92848515816558
  20
42.41710502654245
  30
810.239
  0
VERTEX
  8
Unknown Area Type
  70
32
  10
-5.92846715981411
  20
42.41710998918948
  30
810.242
  0
SEQEND
  8
Unknown Area Type
  0
TEXT
  8
Unknown Area Type
 62
7
  1
PNOA-H_AMS_1956-57_33k_ES_PAN_2
 40
0.00045
  10
-5.92679322821451
  20
42.39764862020716
  0
POLYLINE
  8
Unknown Area Type
  70
9
  66
1
  0
VERTEX
  8
Unknown Area Type
  70
32
  10
-5.92846715981411
  20
42.41710998918948
  30
810.242
  0
VERTEX
  8
Unknown Area Type
  70
32
  10
-5.91040226258205
  20
42.41291938501411
  30
804.132
  0
VERTEX
  8
Unknown Area Type
  70
32
  10
-5.91004664596642
  20
42.38237455287446
  30
794.222
  0
VERTEX
  8
Unknown Area Type
  70
32
  10
-5.92989074520551
  20
42.37787500473635
  30
794.862
  0
VERTEX
  8
Unknown Area Type
  70
32
  10
-5.94354025306036
  20
42.38199153841177
  30
798.826
  0
VERTEX
  8
Unknown Area Type
  70
32
  10
-5.94257175881557
  20
42.41336714583024
  30
860.792
  0
VERTEX
  8
Unknown Area Type
  70
32
  10
-5.94255418356461
  20
42.41338110474591
  30
860.477
  0
VERTEX
  8
Unknown Area Type
  70
32
  10
-5.94242821103493
  20
42.41341585825205
  30
860.451
  0
VERTEX
  8
Unknown Area Type
  70
32
  10
-5.92848515816558
  20
42.41710502654245
  30
810.239
  0
VERTEX
  8
Unknown Area Type
  70
32
  10
-5.92846715981411
  20
42.41710998918948
  30
810.242
  0
SEQEND
  8
Unknown Area Type
  0
TEXT
  8
Unknown Area Type
 62
7
  1
PNOA-H_AMS_1956-57_33k_ES_PAN_2
 40
0.00045
  10
-5.92679322821451
  20
42.39764862020716
  0
POLYLINE
  8
Unknown Area Type
  70
9
  66
1
  0
VERTEX
  8
Unknown Area Type
  70
32
  10
-5.95858296770599
  20
42.41777231284487
  30
861.729
  0
VERTEX
  8
Unknown Area Type
  70
32
  10
-5.95850950305945
  20
42.41776070313601
  30
863.049
  0
VERTEX
  8
Unknown Area Type
  70
32
  10
-5.94256611080543
  20
42.41337629586148
  30
860.619
  0
VERTEX
  8
Unknown Area Type
  70
32
  10
-5.94353298839328
  20
42.3822258541744
  30
797.99
  0
VERTEX
  8
Unknown Area Type
  70
32
  10
-5.94354046330496
  20
42.38199603549159
  30
798.808
  0
VERTEX
  8
Unknown Area Type
  70
32
  10
-5.94355238464869
  20
42.38199122666739
  30
798.839
  0
VERTEX
  8
Unknown Area Type
  70
32
  10
-5.96225421133658
  20
42.3786950695614
  30
798.744
  0
VERTEX
  8
Unknown Area Type
  70
32
  10
-5.97660258988849
  20
42.38315877035679
  30
803.999
  0
VERTEX
  8
Unknown Area Type
  70
32
  10
-5.97670894889331
  20
42.41352960589686
  30
810.782
  0
VERTEX
  8
Unknown Area Type
  70
32
  10
-5.95860703275788
  20
42.41776718875597
  30
861.281
  0
VERTEX
  8
Unknown Area Type
  70
32
  10
-5.95858296770599
  20
42.41777231284487
  30
861.729
  0
SEQEND
  8
Unknown Area Type
  0
TEXT
  8
Unknown Area Type
 62
7
  1
PNOA-H_AMS_1956-57_33k_ES_PAN_2
 40
0.00045
  10
-5.95963794691142
  20
42.3983395896017
  0
POLYLINE
  8
Unknown Area Type
  70
9
  66
1
  0
VERTEX
  8
Unknown Area Type
  70
32
  10
-5.95858296770599
  20
42.41777231284487
  30
861.729
  0
VERTEX
  8
Unknown Area Type
  70
32
  10
-5.95850950305945
  20
42.41776070313601
  30
863.049
  0
VERTEX
  8
Unknown Area Type
  70
32
  10
-5.94256611080543
  20
42.41337629586148
  30
860.619
  0
VERTEX
  8
Unknown Area Type
  70
32
  10
-5.94353298839328
  20
42.3822258541744
  30
797.99
  0
VERTEX
  8
Unknown Area Type
  70
32
  10
-5.94354046330496
  20
42.38199603549159
  30
798.808
  0
VERTEX
  8
Unknown Area Type
  70
32
  10
-5.94355238464869
  20
42.38199122666739
  30
798.839
  0
VERTEX
  8
Unknown Area Type
  70
32
  10
-5.96225421133658
  20
42.3786950695614
  30
798.744
  0
VERTEX
  8
Unknown Area Type
  70
32
  10
-5.97660258988849
  20
42.38315877035679
  30
803.999
  0
VERTEX
  8
Unknown Area Type
  70
32
  10
-5.97670894889331
  20
42.41352960589686
  30
810.782
  0
VERTEX
  8
Unknown Area Type
  70
32
  10
-5.95860703275788
  20
42.41776718875597
  30
861.281
  0
VERTEX
  8
Unknown Area Type
  70
32
  10
-5.95858296770599
  20
42.41777231284487
  30
861.729
  0
SEQEND
  8
Unknown Area Type
  0
TEXT
  8
Unknown Area Type
 62
7
  1
PNOA-H_AMS_1956-57_33k_ES_PAN_2
 40
0.00045
  10
-5.95963794691142
  20
42.3983395896017
  0
POLYLINE
  8
Unknown Area Type
  70
9
  66
1
  0
VERTEX
  8
Unknown Area Type
  70
32
  10
-6.05562675103995
  20
42.41868673434369
  30
879.605
  0
VERTEX
  8
Unknown Area Type
  70
32
  10
-6.04421941199921
  20
42.41476273857637
  30
881.289
  0
VERTEX
  8
Unknown Area Type
  70
32
  10
-6.04309606777853
  20
42.38300089616325
  30
855.566
  0
VERTEX
  8
Unknown Area Type
  70
32
  10
-6.06376609866073
  20
42.37907304514557
  30
876.985
  0
VERTEX
  8
Unknown Area Type
  70
32
  10
-6.06383346836262
  20
42.3790847504259
  30
877.165
  0
VERTEX
  8
Unknown Area Type
  70
32
  10
-6.07564054519532
  20
42.38259988686223
  30
878.334
  0
VERTEX
  8
Unknown Area Type
  70
32
  10
-6.07669726551969
  20
42.41552023307906
  30
884.857
  0
VERTEX
  8
Unknown Area Type
  70
32
  10
-6.05566294475095
  20
42.41868126626338
  30
879.772
  0
VERTEX
  8
Unknown Area Type
  70
32
  10
-6.05562675103995
  20
42.41868673434369
  30
879.605
  0
SEQEND
  8
Unknown Area Type
  0
TEXT
  8
Unknown Area Type
 62
7
  1
PNOA-H_AMS_1956-57_33k_ES_PAN_2
 40
0.00045
  10
-6.05989670855196
  20
42.39892559842983
  0
POLYLINE
  8
Unknown Area Type
  70
9
  66
1
  0
VERTEX
  8
Unknown Area Type
  70
32
  10
-6.05562675103995
  20
42.41868673434369
  30
879.605
  0
VERTEX
  8
Unknown Area Type
  70
32
  10
-6.04421941199921
  20
42.41476273857637
  30
881.289
  0
VERTEX
  8
Unknown Area Type
  70
32
  10
-6.04309606777853
  20
42.38300089616325
  30
855.566
  0
VERTEX
  8
Unknown Area Type
  70
32
  10
-6.06376609866073
  20
42.37907304514557
  30
876.985
  0
VERTEX
  8
Unknown Area Type
  70
32
  10
-6.06383346836262
  20
42.3790847504259
  30
877.165
  0
VERTEX
  8
Unknown Area Type
  70
32
  10
-6.07564054519532
  20
42.38259988686223
  30
878.334
  0
VERTEX
  8
Unknown Area Type
  70
32
  10
-6.07669726551969
  20
42.41552023307906
  30
884.857
  0
VERTEX
  8
Unknown Area Type
  70
32
  10
-6.05566294475095
  20
42.41868126626338
  30
879.772
  0
VERTEX
  8
Unknown Area Type
  70
32
  10
-6.05562675103995
  20
42.41868673434369
  30
879.605
  0
SEQEND
  8
Unknown Area Type
  0
TEXT
  8
Unknown Area Type
 62
7
  1
PNOA-H_AMS_1956-57_33k_ES_PAN_2
 40
0.00045
  10
-6.05989670855196
  20
42.39892559842983
  0
POLYLINE
  8
Unknown Area Type
  70
9
  66
1
  0
VERTEX
  8
Unknown Area Type
  70
32
  10
-5.87698640340016
  20
42.41284507505475
  30
798.693
  0
VERTEX
  8
Unknown Area Type
  70
32
  10
-5.87696294975886
  20
42.41286367409759
  30
798.544
  0
VERTEX
  8
Unknown Area Type
  70
32
  10
-5.86448144427467
  20
42.41670644501774
  30
812.389
  0
VERTEX
  8
Unknown Area Type
  70
32
  10
-5.86445109645208
  20
42.4167072039571
  30
812.407
  0
VERTEX
  8
Unknown Area Type
  70
32
  10
-5.85903317696559
  20
42.41555485339106
  30
813.43
  0
VERTEX
  8
Unknown Area Type
  70
32
  10
-5.85900869458431
  20
42.41555096198577
  30
813.179
  0
VERTEX
  8
Unknown Area Type
  70
32
  10
-5.85416666666668
  20
42.41452600445135
  30
813.046
  0
VERTEX
  8
Unknown Area Type
  70
32
  10
-5.85416666666668
  20
42.39583333333334
  30
806.546
  0
VERTEX
  8
Unknown Area Type
  70
32
  10
-5.85416666666668
  20
42.37974355205989
  30
801.952
  0
VERTEX
  8
Unknown Area Type
  70
32
  10
-5.86333860315105
  20
42.37771182766706
  30
802.497
  0
VERTEX
  8
Unknown Area Type
  70
32
  10
-5.87820427624396
  20
42.38155814140026
  30
792.25
  0
SEQEND
  8
Unknown Area Type
  0
TEXT
  8
Unknown Area Type
 62
7
  1
PNOA-H_AMS_1956-57_33k_ES_PAN_2
 40
0.00045
  10
-5.86143177403339
  20
42.39709752605913
  0
POLYLINE
  8
Unknown Area Type
  70
9
  66
1
  0
VERTEX
  8
Unknown Area Type
  70
32
  10
-5.87698640340016
  20
42.41284507505475
  30
798.693
  0
VERTEX
  8
Unknown Area Type
  70
32
  10
-5.87696294975886
  20
42.41286367409759
  30
798.544
  0
VERTEX
  8
Unknown Area Type
  70
32
  10
-5.86448144427467
  20
42.41670644501774
  30
812.389
  0
VERTEX
  8
Unknown Area Type
  70
32
  10
-5.86445109645208
  20
42.4167072039571
  30
812.407
  0
VERTEX
  8
Unknown Area Type
  70
32
  10
-5.85903317696559
  20
42.41555485339106
  30
813.43
  0
VERTEX
  8
Unknown Area Type
  70
32
  10
-5.85900869458431
  20
42.41555096198577
  30
813.179
  0
VERTEX
  8
Unknown Area Type
  70
32
  10
-5.85416666666668
  20
42.41452600445135
  30
813.046
  0
VERTEX
  8
Unknown Area Type
  70
32
  10
-5.85416666666668
  20
42.39583333333334
  30
806.546
  0
VERTEX
  8
Unknown Area Type
  70
32
  10
-5.85416666666668
  20
42.37974355205989
  30
801.952
  0
VERTEX
  8
Unknown Area Type
  70
32
  10
-5.86333860315105
  20
42.37771182766706
  30
802.497
  0
VERTEX
  8
Unknown Area Type
  70
32
  10
-5.87820427624396
  20
42.38155814140026
  30
792.25
  0
SEQEND
  8
Unknown Area Type
  0
TEXT
  8
Unknown Area Type
 62
7
  1
PNOA-H_AMS_1956-57_33k_ES_PAN_2
 40
0.00045
  10
-5.86143177403339
  20
42.39709752605913
  0
POLYLINE
  8
Unknown Area Type
  70
9
  66
1
  0
VERTEX
  8
Unknown Area Type
  70
32
  10
-5.85416666666668
  20
42.39583333333334
  30
806.546
  0
VERTEX
  8
Unknown Area Type
  70
32
  10
-5.85416666666668
  20
42.41452600445135
  30
813.046
  0
VERTEX
  8
Unknown Area Type
  70
32
  10
-5.85416633333334
  20
42.41452593389154
  30
813.046
  0
VERTEX
  8
Unknown Area Type
  70
32
  10
-5.85416633333334
  20
42.37974362589834
  30
801.952
  0
VERTEX
  8
Unknown Area Type
  70
32
  10
-5.85416666666668
  20
42.37974355205989
  30
801.952
  0
SEQEND
  8
Unknown Area Type
  0
TEXT
  8
Unknown Area Type
 62
7
  1
PNOA-H_AMS_1956-57_33k_ES_PAN_2
 40
0.00045
  10
-5.85416650000001
  20
42.39713477825562
  0
POLYLINE
  8
Unknown Area Type
  70
9
  66
1
  0
VERTEX
  8
Unknown Area Type
  70
32
  10
-6.03294479825231
  20
42.49740187424657
  30
900.993
  0
VERTEX
  8
Unknown Area Type
  70
32
  10
-6.03284670522866
  20
42.49738646296002
  30
901.361
  0
VERTEX
  8
Unknown Area Type
  70
32
  10
-6.02360882646698
  20
42.49519948567046
  30
940.227
  0
VERTEX
  8
Unknown Area Type
  70
32
  10
-6.02256528908219
  20
42.45548435608712
  30
838.33
  0
VERTEX
  8
Unknown Area Type
  70
32
  10
-6.03979284769115
  20
42.45754519943791
  30
842.828
  0
VERTEX
  8
Unknown Area Type
  70
32
  10
-6.040884679077
  20
42.49426473911845
  30
891.543
  0
VERTEX
  8
Unknown Area Type
  70
32
  10
-6.03295673363053
  20
42.49739705571842
  30
900.927
  0
VERTEX
  8
Unknown Area Type
  70
32
  10
-6.03294479825231
  20
42.49740187424657
  30
900.993
  0
SEQEND
  8
Unknown Area Type
  0
TEXT
  8
Unknown Area Type
 62
7
  1
PNOA-H_AMS_1956-57_33k_ES_PAN_2
 40
0.00045
  10
-6.03172542589379
  20
42.47684877376012
  0
POLYLINE
  8
Unknown Area Type
  70
9
  66
1
  0
VERTEX
  8
Unknown Area Type
  70
32
  10
-6.03294479825231
  20
42.49740187424657
  30
900.993
  0
VERTEX
  8
Unknown Area Type
  70
32
  10
-6.03284670522866
  20
42.49738646296002
  30
901.361
  0
VERTEX
  8
Unknown Area Type
  70
32
  10
-6.02360882646698
  20
42.49519948567046
  30
940.227
  0
VERTEX
  8
Unknown Area Type
  70
32
  10
-6.02256528908219
  20
42.45548435608712
  30
838.33
  0
VERTEX
  8
Unknown Area Type
  70
32
  10
-6.03979284769115
  20
42.45754519943791
  30
842.828
  0
VERTEX
  8
Unknown Area Type
  70
32
  10
-6.040884679077
  20
42.49426473911845
  30
891.543
  0
VERTEX
  8
Unknown Area Type
  70
32
  10
-6.03295673363053
  20
42.49739705571842
  30
900.927
  0
VERTEX
  8
Unknown Area Type
  70
32
  10
-6.03294479825231
  20
42.49740187424657
  30
900.993
  0
SEQEND
  8
Unknown Area Type
  0
TEXT
  8
Unknown Area Type
 62
7
  1
PNOA-H_AMS_1956-57_33k_ES_PAN_2
 40
0.00045
  10
-6.03172542589379
  20
42.47684877376012
  0
POLYLINE
  8
Unknown Area Type
  70
9
  66
1
  0
VERTEX
  8
Unknown Area Type
  70
32
  10
-6.10795585740645
  20
42.41593689312506
  30
887.89
  0
VERTEX
  8
Unknown Area Type
  70
32
  10
-6.08623590187072
  20
42.41871693407179
  30
865.345
  0
VERTEX
  8
Unknown Area Type
  70
32
  10
-6.07669748552421
  20
42.41552472958185
  30
884.834
  0
VERTEX
  8
Unknown Area Type
  70
32
  10
-6.07564054519532
  20
42.38259988686223
  30
878.334
  0
VERTEX
  8
Unknown Area Type
  70
32
  10
-6.09678047845691
  20
42.37888758388234
  30
920.402
  0
VERTEX
  8
Unknown Area Type
  70
32
  10
-6.09681686628347
  20
42.37888660006123
  30
920.45
  0
VERTEX
  8
Unknown Area Type
  70
32
  10
-6.09689703355133
  20
42.37891144708495
  30
920.496
  0
VERTEX
  8
Unknown Area Type
  70
32
  10
-6.10762343205482
  20
42.38252002033613
  30
931.709
  0
VERTEX
  8
Unknown Area Type
  70
32
  10
-6.10847356083381
  20
42.41571573220279
  30
891.872
  0
VERTEX
  8
Unknown Area Type
  70
32
  10
-6.10847505011566
  20
42.41586877340347
  30
890.031
  0
VERTEX
  8
Unknown Area Type
  70
32
  10
-6.1079981121568
  20
42.41593124401654
  30
888.09
  0
VERTEX
  8
Unknown Area Type
  70
32
  10
-6.10795585740645
  20
42.41593689312506
  30
887.89
  0
SEQEND
  8
Unknown Area Type
  0
TEXT
  8
Unknown Area Type
 62
7
  1
PNOA-H_AMS_1956-57_33k_ES_PAN_2
 40
0.00045
  10
-6.09205791334816
  20
42.39884289627824
  0
POLYLINE
  8
Unknown Area Type
  70
9
  66
1
  0
VERTEX
  8
Unknown Area Type
  70
32
  10
-6.10795585740645
  20
42.41593689312506
  30
887.89
  0
VERTEX
  8
Unknown Area Type
  70
32
  10
-6.08623590187072
  20
42.41871693407179
  30
865.345
  0
VERTEX
  8
Unknown Area Type
  70
32
  10
-6.07669748552421
  20
42.41552472958185
  30
884.834
  0
VERTEX
  8
Unknown Area Type
  70
32
  10
-6.07564054519532
  20
42.38259988686223
  30
878.334
  0
VERTEX
  8
Unknown Area Type
  70
32
  10
-6.09678047845691
  20
42.37888758388234
  30
920.402
  0
VERTEX
  8
Unknown Area Type
  70
32
  10
-6.09681686628347
  20
42.37888660006123
  30
920.45
  0
VERTEX
  8
Unknown Area Type
  70
32
  10
-6.09689703355133
  20
42.37891144708495
  30
920.496
  0
VERTEX
  8
Unknown Area Type
  70
32
  10
-6.10762343205482
  20
42.38252002033613
  30
931.709
  0
VERTEX
  8
Unknown Area Type
  70
32
  10
-6.10847356083381
  20
42.41571573220279
  30
891.872
  0
VERTEX
  8
Unknown Area Type
  70
32
  10
-6.10847505011566
  20
42.41586877340347
  30
890.031
  0
VERTEX
  8
Unknown Area Type
  70
32
  10
-6.1079981121568
  20
42.41593124401654
  30
888.09
  0
VERTEX
  8
Unknown Area Type
  70
32
  10
-6.10795585740645
  20
42.41593689312506
  30
887.89
  0
SEQEND
  8
Unknown Area Type
  0
TEXT
  8
Unknown Area Type
 62
7
  1
PNOA-H_AMS_1956-57_33k_ES_PAN_2
 40
0.00045
  10
-6.09205791334816
  20
42.39884289627824
  0
POLYLINE
  8
Unknown Area Type
  70
9
  66
1
  0
VERTEX
  8
Unknown Area Type
  70
32
  10
-6.08411119467194
  20
42.45888152474245
  30
885.122
  0
VERTEX
  8
Unknown Area Type
  70
32
  10
-6.08405002870065
  20
42.45887416731588
  30
889.22
  0
VERTEX
  8
Unknown Area Type
  70
32
  10
-6.08395562947612
  20
42.45880917385769
  30
860.748
  0
VERTEX
  8
Unknown Area Type
  70
32
  10
-6.08394171779062
  20
42.45877352942816
  30
860.787
  0
VERTEX
  8
Unknown Area Type
  70
32
  10
-6.08405775624982
  20
42.45878391147714
  30
862.216
  0
VERTEX
  8
Unknown Area Type
  70
32
  10
-6.08406669991161
  20
42.45884220162212
  30
883.815
  0
VERTEX
  8
Unknown Area Type
  70
32
  10
-6.08411682535717
  20
42.4588723683212
  30
885.141
  0
VERTEX
  8
Unknown Area Type
  70
32
  10
-6.08411119467194
  20
42.45888152474245
  30
885.122
  0
SEQEND
  8
Unknown Area Type
  0
TEXT
  8
Unknown Area Type
 62
7
  1
PNOA-H_AMS_1956-57_33k_ES_PAN_2
 40
0.00045
  10
-6.08402370120528
  20
42.45882533303107
  0
POLYLINE
  8
Unknown Area Type
  70
9
  66
1
  0
VERTEX
  8
Unknown Area Type
  70
32
  10
-6.08411119467194
  20
42.45888152474245
  30
885.122
  0
VERTEX
  8
Unknown Area Type
  70
32
  10
-6.08405002870065
  20
42.45887416731588
  30
889.22
  0
VERTEX
  8
Unknown Area Type
  70
32
  10
-6.08395562947612
  20
42.45880917385769
  30
860.748
  0
VERTEX
  8
Unknown Area Type
  70
32
  10
-6.08394171779062
  20
42.45877352942816
  30
860.787
  0
VERTEX
  8
Unknown Area Type
  70
32
  10
-6.08405775624982
  20
42.45878391147714
  30
862.216
  0
VERTEX
  8
Unknown Area Type
  70
32
  10
-6.08406669991161
  20
42.45884220162212
  30
883.815
  0
VERTEX
  8
Unknown Area Type
  70
32
  10
-6.08411682535717
  20
42.4588723683212
  30
885.141
  0
VERTEX
  8
Unknown Area Type
  70
32
  10
-6.08411119467194
  20
42.45888152474245
  30
885.122
  0
SEQEND
  8
Unknown Area Type
  0
TEXT
  8
Unknown Area Type
 62
7
  1
PNOA-H_AMS_1956-57_33k_ES_PAN_2
 40
0.00045
  10
-6.08402370120528
  20
42.45882533303107
  0
POLYLINE
  8
Unknown Area Type
  70
9
  66
1
  0
VERTEX
  8
Unknown Area Type
  70
32
  10
-6.06201480580992
  20
42.49552509003313
  30
903.969
  0
VERTEX
  8
Unknown Area Type
  70
32
  10
-6.05890498119297
  20
42.49488332899845
  30
883.229
  0
VERTEX
  8
Unknown Area Type
  70
32
  10
-6.05412767623317
  20
42.45574102783323
  30
866.894
  0
VERTEX
  8
Unknown Area Type
  70
32
  10
-6.07443916446474
  20
42.45780439922049
  30
856.215
  0
VERTEX
  8
Unknown Area Type
  70
32
  10
-6.07445152938447
  20
42.45780856963739
  30
856.237
  0
VERTEX
  8
Unknown Area Type
  70
32
  10
-6.07445483193394
  20
42.45787601682237
  30
856.6
  0
VERTEX
  8
Unknown Area Type
  70
32
  10
-6.07400071380787
  20
42.49354705975209
  30
899.752
  0
VERTEX
  8
Unknown Area Type
  70
32
  10
-6.06689528823878
  20
42.49654257563505
  30
929.428
  0
VERTEX
  8
Unknown Area Type
  70
32
  10
-6.06203325366217
  20
42.49552909906863
  30
904.231
  0
VERTEX
  8
Unknown Area Type
  70
32
  10
-6.06201480580992
  20
42.49552509003313
  30
903.969
  0
SEQEND
  8
Unknown Area Type
  0
TEXT
  8
Unknown Area Type
 62
7
  1
PNOA-H_AMS_1956-57_33k_ES_PAN_2
 40
0.00045
  10
-6.06429172378124
  20
42.47638562441738
  0
POLYLINE
  8
Unknown Area Type
  70
9
  66
1
  0
VERTEX
  8
Unknown Area Type
  70
32
  10
-6.06201480580992
  20
42.49552509003313
  30
903.969
  0
VERTEX
  8
Unknown Area Type
  70
32
  10
-6.05890498119297
  20
42.49488332899845
  30
883.229
  0
VERTEX
  8
Unknown Area Type
  70
32
  10
-6.05412767623317
  20
42.45574102783323
  30
866.894
  0
VERTEX
  8
Unknown Area Type
  70
32
  10
-6.07443916446474
  20
42.45780439922049
  30
856.215
  0
VERTEX
  8
Unknown Area Type
  70
32
  10
-6.07445152938447
  20
42.45780856963739
  30
856.237
  0
VERTEX
  8
Unknown Area Type
  70
32
  10
-6.07445483193394
  20
42.45787601682237
  30
856.6
  0
VERTEX
  8
Unknown Area Type
  70
32
  10
-6.07400071380787
  20
42.49354705975209
  30
899.752
  0
VERTEX
  8
Unknown Area Type
  70
32
  10
-6.06689528823878
  20
42.49654257563505
  30
929.428
  0
VERTEX
  8
Unknown Area Type
  70
32
  10
-6.06203325366217
  20
42.49552909906863
  30
904.231
  0
VERTEX
  8
Unknown Area Type
  70
32
  10
-6.06201480580992
  20
42.49552509003313
  30
903.969
  0
SEQEND
  8
Unknown Area Type
  0
TEXT
  8
Unknown Area Type
 62
7
  1
PNOA-H_AMS_1956-57_33k_ES_PAN_2
 40
0.00045
  10
-6.06429172378124
  20
42.47638562441738
  0
POLYLINE
  8
Unknown Area Type
  70
9
  66
1
  0
VERTEX
  8
Unknown Area Type
  70
32
  10
-5.9086959031608
  20
42.41346700740199
  30
804.453
  0
VERTEX
  8
Unknown Area Type
  70
32
  10
-5.8964208456694
  20
42.41739806270254
  30
803.755
  0
VERTEX
  8
Unknown Area Type
  70
32
  10
-5.87698074570769
  20
42.41285422213755
  30
798.673
  0
VERTEX
  8
Unknown Area Type
  70
32
  10
-5.87819388990569
  20
42.38172949761462
  30
791.44
  0
VERTEX
  8
Unknown Area Type
  70
32
  10
-5.87821013676971
  20
42.38155349164492
  30
792.267
  0
VERTEX
  8
Unknown Area Type
  70
32
  10
-5.89408703058236
  20
42.37815931065444
  30
792.968
  0
VERTEX
  8
Unknown Area Type
  70
32
  10
-5.91004057995366
  20
42.38237470697518
  30
794.219
  0
VERTEX
  8
Unknown Area Type
  70
32
  10
-5.91040226258205
  20
42.41291938501411
  30
804.132
  0
VERTEX
  8
Unknown Area Type
  70
32
  10
-5.90870783320379
  20
42.41346220196594
  30
804.441
  0
VERTEX
  8
Unknown Area Type
  70
32
  10
-5.9086959031608
  20
42.41346700740199
  30
804.453
  0
SEQEND
  8
Unknown Area Type
  0
TEXT
  8
Unknown Area Type
 62
7
  1
PNOA-H_AMS_1956-57_33k_ES_PAN_2
 40
0.00045
  10
-5.89369195994545
  20
42.39750015463164
  0
POLYLINE
  8
Unknown Area Type
  70
9
  66
1
  0
VERTEX
  8
Unknown Area Type
  70
32
  10
-5.9086959031608
  20
42.41346700740199
  30
804.453
  0
VERTEX
  8
Unknown Area Type
  70
32
  10
-5.8964208456694
  20
42.41739806270254
  30
803.755
  0
VERTEX
  8
Unknown Area Type
  70
32
  10
-5.87698074570769
  20
42.41285422213755
  30
798.673
  0
VERTEX
  8
Unknown Area Type
  70
32
  10
-5.87819388990569
  20
42.38172949761462
  30
791.44
  0
VERTEX
  8
Unknown Area Type
  70
32
  10
-5.87821013676971
  20
42.38155349164492
  30
792.267
  0
VERTEX
  8
Unknown Area Type
  70
32
  10
-5.89408703058236
  20
42.37815931065444
  30
792.968
  0
VERTEX
  8
Unknown Area Type
  70
32
  10
-5.91004057995366
  20
42.38237470697518
  30
794.219
  0
VERTEX
  8
Unknown Area Type
  70
32
  10
-5.91040226258205
  20
42.41291938501411
  30
804.132
  0
VERTEX
  8
Unknown Area Type
  70
32
  10
-5.90870783320379
  20
42.41346220196594
  30
804.441
  0
VERTEX
  8
Unknown Area Type
  70
32
  10
-5.9086959031608
  20
42.41346700740199
  30
804.453
  0
SEQEND
  8
Unknown Area Type
  0
TEXT
  8
Unknown Area Type
 62
7
  1
PNOA-H_AMS_1956-57_33k_ES_PAN_2
 40
0.00045
  10
-5.89369195994545
  20
42.39750015463164
  0
POLYLINE
  8
Unknown Area Type
  70
9
  66
1
  0
VERTEX
  8
Unknown Area Type
  70
32
  10
-6.00830917129779
  20
42.41476608475377
  30
824.783
  0
VERTEX
  8
Unknown Area Type
  70
32
  10
-5.99018783223735
  20
42.41804564650634
  30
814.449
  0
VERTEX
  8
Unknown Area Type
  70
32
  10
-5.97670894889331
  20
42.41352960589686
  30
810.782
  0
VERTEX
  8
Unknown Area Type
  70
32
  10
-5.97660237727585
  20
42.38315427341235
  30
804.004
  0
VERTEX
  8
Unknown Area Type
  70
32
  10
-5.99663674031022
  20
42.37892187387202
  30
820.067
  0
VERTEX
  8
Unknown Area Type
  70
32
  10
-5.99671623004016
  20
42.37893330170764
  30
819.756
  0
VERTEX
  8
Unknown Area Type
  70
32
  10
-6.01140395047992
  20
42.3833297129999
  30
821.684
  0
VERTEX
  8
Unknown Area Type
  70
32
  10
-6.00969311006282
  20
42.41448209175783
  30
828.524
  0
VERTEX
  8
Unknown Area Type
  70
32
  10
-6.00968854797084
  20
42.41451372871378
  30
828.667
  0
VERTEX
  8
Unknown Area Type
  70
32
  10
-6.00967662605517
  20
42.41451854443633
  30
828.671
  0
VERTEX
  8
Unknown Area Type
  70
32
  10
-6.0083392991533
  20
42.41476079097342
  30
824.884
  0
VERTEX
  8
Unknown Area Type
  70
32
  10
-6.00830917129779
  20
42.41476608475377
  30
824.783
  0
SEQEND
  8
Unknown Area Type
  0
TEXT
  8
Unknown Area Type
 62
7
  1
PNOA-H_AMS_1956-57_33k_ES_PAN_2
 40
0.00045
  10
-5.99400312634703
  20
42.39841479297385
  0
POLYLINE
  8
Unknown Area Type
  70
9
  66
1
  0
VERTEX
  8
Unknown Area Type
  70
32
  10
-6.00830917129779
  20
42.41476608475377
  30
824.783
  0
VERTEX
  8
Unknown Area Type
  70
32
  10
-5.99018783223735
  20
42.41804564650634
  30
814.449
  0
VERTEX
  8
Unknown Area Type
  70
32
  10
-5.97670894889331
  20
42.41352960589686
  30
810.782
  0
VERTEX
  8
Unknown Area Type
  70
32
  10
-5.97660237727585
  20
42.38315427341235
  30
804.004
  0
VERTEX
  8
Unknown Area Type
  70
32
  10
-5.99663674031022
  20
42.37892187387202
  30
820.067
  0
VERTEX
  8
Unknown Area Type
  70
32
  10
-5.99671623004016
  20
42.37893330170764
  30
819.756
  0
VERTEX
  8
Unknown Area Type
  70
32
  10
-6.01140395047992
  20
42.3833297129999
  30
821.684
  0
VERTEX
  8
Unknown Area Type
  70
32
  10
-6.00969311006282
  20
42.41448209175783
  30
828.524
  0
VERTEX
  8
Unknown Area Type
  70
32
  10
-6.00968854797084
  20
42.41451372871378
  30
828.667
  0
VERTEX
  8
Unknown Area Type
  70
32
  10
-6.00967662605517
  20
42.41451854443633
  30
828.671
  0
VERTEX
  8
Unknown Area Type
  70
32
  10
-6.0083392991533
  20
42.41476079097342
  30
824.884
  0
VERTEX
  8
Unknown Area Type
  70
32
  10
-6.00830917129779
  20
42.41476608475377
  30
824.783
  0
SEQEND
  8
Unknown Area Type
  0
TEXT
  8
Unknown Area Type
 62
7
  1
PNOA-H_AMS_1956-57_33k_ES_PAN_2
 40
0.00045
  10
-5.99400312634703
  20
42.39841479297385
  0
POLYLINE
  8
Unknown Area Type
  70
9
  66
1
  0
VERTEX
  8
Unknown Area Type
  70
32
  10
-5.91296972354502
  20
42.45875672106845
  30
821.739
  0
VERTEX
  8
Unknown Area Type
  70
32
  10
-5.91291121449612
  20
42.45919944923109
  30
821.948
  0
VERTEX
  8
Unknown Area Type
  70
32
  10
-5.91135202558308
  20
42.47081488448855
  30
826.916
  0
VERTEX
  8
Unknown Area Type
  70
32
  10
-5.91135348574763
  20
42.47084636446427
  30
826.956
  0
VERTEX
  8
Unknown Area Type
  70
32
  10
-5.9078575636778
  20
42.49698627912449
  30
914.237
  0
VERTEX
  8
Unknown Area Type
  70
32
  10
-5.8935608728599
  20
42.5
  30
836.988
  0
VERTEX
  8
Unknown Area Type
  70
32
  10
-5.89226105191506
  20
42.5
  30
831.941
  0
VERTEX
  8
Unknown Area Type
  70
32
  10
-5.88643458150142
  20
42.49697898174965
  30
831.105
  0
VERTEX
  8
Unknown Area Type
  70
32
  10
-5.8850349639576
  20
42.45900459119429
  30
817.974
  0
VERTEX
  8
Unknown Area Type
  70
32
  10
-5.89588545256662
  20
42.45669112809316
  30
818.95
  0
VERTEX
  8
Unknown Area Type
  70
32
  10
-5.89627082228218
  20
42.45660934374607
  30
819.168
  0
VERTEX
  8
Unknown Area Type
  70
32
  10
-5.89631333500619
  20
42.45660826862468
  30
819.159
  0
VERTEX
  8
Unknown Area Type
  70
32
  10
-5.91296260707105
  20
42.45873438983472
  30
821.719
  0
SEQEND
  8
Unknown Area Type
  0
TEXT
  8
Unknown Area Type
 62
7
  1
PNOA-H_AMS_1956-57_33k_ES_PAN_2
 40
0.00045
  10
-5.89900286445394
  20
42.47790057869173
  0
POLYLINE
  8
Unknown Area Type
  70
9
  66
1
  0
VERTEX
  8
Unknown Area Type
  70
32
  10
-5.89356008221543
  20
42.50000016666667
  30
836.984
  0
VERTEX
  8
Unknown Area Type
  70
32
  10
-5.89226137335582
  20
42.50000016666667
  30
831.941
  0
VERTEX
  8
Unknown Area Type
  70
32
  10
-5.89226105191506
  20
42.5
  30
831.941
  0
VERTEX
  8
Unknown Area Type
  70
32
  10
-5.8935608728599
  20
42.5
  30
836.988
  0
SEQEND
  8
Unknown Area Type
  0
TEXT
  8
Unknown Area Type
 62
7
  1
PNOA-H_AMS_1956-57_33k_ES_PAN_2
 40
0.00045
  10
-5.89291096238748
  20
42.50000008333333
  0
POLYLINE
  8
Unknown Area Type
  70
9
  66
1
  0
VERTEX
  8
Unknown Area Type
  70
32
  10
-5.91296972354502
  20
42.45875672106845
  30
821.739
  0
VERTEX
  8
Unknown Area Type
  70
32
  10
-5.91291121449612
  20
42.45919944923109
  30
821.948
  0
VERTEX
  8
Unknown Area Type
  70
32
  10
-5.91135202558308
  20
42.47081488448855
  30
826.916
  0
VERTEX
  8
Unknown Area Type
  70
32
  10
-5.91135348574763
  20
42.47084636446427
  30
826.956
  0
VERTEX
  8
Unknown Area Type
  70
32
  10
-5.9078575636778
  20
42.49698627912449
  30
914.237
  0
VERTEX
  8
Unknown Area Type
  70
32
  10
-5.8935608728599
  20
42.5
  30
836.988
  0
VERTEX
  8
Unknown Area Type
  70
32
  10
-5.89226105191506
  20
42.5
  30
831.941
  0
VERTEX
  8
Unknown Area Type
  70
32
  10
-5.88643458150142
  20
42.49697898174965
  30
831.105
  0
VERTEX
  8
Unknown Area Type
  70
32
  10
-5.8850349639576
  20
42.45900459119429
  30
817.974
  0
VERTEX
  8
Unknown Area Type
  70
32
  10
-5.89588545256662
  20
42.45669112809316
  30
818.95
  0
VERTEX
  8
Unknown Area Type
  70
32
  10
-5.89627082228218
  20
42.45660934374607
  30
819.168
  0
VERTEX
  8
Unknown Area Type
  70
32
  10
-5.89631333500619
  20
42.45660826862468
  30
819.159
  0
VERTEX
  8
Unknown Area Type
  70
32
  10
-5.91296260707105
  20
42.45873438983472
  30
821.719
  0
SEQEND
  8
Unknown Area Type
  0
TEXT
  8
Unknown Area Type
 62
7
  1
PNOA-H_AMS_1956-57_33k_ES_PAN_2
 40
0.00045
  10
-5.89900286445394
  20
42.47790057869173
  0
POLYLINE
  8
Unknown Area Type
  70
9
  66
1
  0
VERTEX
  8
Unknown Area Type
  70
32
  10
-5.88643458150142
  20
42.49697898174965
  30
831.105
  0
VERTEX
  8
Unknown Area Type
  70
32
  10
-5.85762608483798
  20
42.49925935132678
  30
841.011
  0
VERTEX
  8
Unknown Area Type
  70
32
  10
-5.85754728125963
  20
42.4992658202378
  30
840.877
  0
VERTEX
  8
Unknown Area Type
  70
32
  10
-5.85416666666668
  20
42.49694774996316
  30
839.827
  0
VERTEX
  8
Unknown Area Type
  70
32
  10
-5.85416666666668
  20
42.47951272245047
  30
833.535
  0
VERTEX
  8
Unknown Area Type
  70
32
  10
-5.85529019679405
  20
42.45916920842635
  30
826.265
  0
VERTEX
  8
Unknown Area Type
  70
32
  10
-5.86386983569485
  20
42.45716750855682
  30
825.517
  0
VERTEX
  8
Unknown Area Type
  70
32
  10
-5.8850349639576
  20
42.45900459119429
  30
817.974
  0
SEQEND
  8
Unknown Area Type
  0
TEXT
  8
Unknown Area Type
 62
7
  1
PNOA-H_AMS_1956-57_33k_ES_PAN_2
 40
0.00045
  10
-5.86983718623719
  20
42.47798765626909
  0
POLYLINE
  8
Unknown Area Type
  70
9
  66
1
  0
VERTEX
  8
Unknown Area Type
  70
32
  10
-5.88643458150142
  20
42.49697898174965
  30
831.105
  0
VERTEX
  8
Unknown Area Type
  70
32
  10
-5.85762608483798
  20
42.49925935132678
  30
841.011
  0
VERTEX
  8
Unknown Area Type
  70
32
  10
-5.85754728125963
  20
42.4992658202378
  30
840.877
  0
VERTEX
  8
Unknown Area Type
  70
32
  10
-5.85416666666668
  20
42.49694774996316
  30
839.827
  0
VERTEX
  8
Unknown Area Type
  70
32
  10
-5.85416666666668
  20
42.47951272245047
  30
833.535
  0
VERTEX
  8
Unknown Area Type
  70
32
  10
-5.85529019679405
  20
42.45916920842635
  30
826.265
  0
VERTEX
  8
Unknown Area Type
  70
32
  10
-5.86386983569485
  20
42.45716750855682
  30
825.517
  0
VERTEX
  8
Unknown Area Type
  70
32
  10
-5.8850349639576
  20
42.45900459119429
  30
817.974
  0
SEQEND
  8
Unknown Area Type
  0
TEXT
  8
Unknown Area Type
 62
7
  1
PNOA-H_AMS_1956-57_33k_ES_PAN_2
 40
0.00045
  10
-5.86983718623719
  20
42.47798765626909
  0
POLYLINE
  8
Unknown Area Type
  70
9
  66
1
  0
VERTEX
  8
Unknown Area Type
  70
32
  10
-5.85416666666668
  20
42.49694774996316
  30
839.827
  0
VERTEX
  8
Unknown Area Type
  70
32
  10
-5.85416633333334
  20
42.49694752139818
  30
839.827
  0
VERTEX
  8
Unknown Area Type
  70
32
  10
-5.85416633333334
  20
42.47951875804415
  30
833.538
  0
VERTEX
  8
Unknown Area Type
  70
32
  10
-5.85416666666668
  20
42.47951272245047
  30
833.535
  0
SEQEND
  8
Unknown Area Type
  0
TEXT
  8
Unknown Area Type
 62
7
  1
PNOA-H_AMS_1956-57_33k_ES_PAN_2
 40
0.00045
  10
-5.85416650000001
  20
42.48823023620681
  0
POLYLINE
  8
Unknown Area Type
  70
9
  66
1
  0
VERTEX
  8
Unknown Area Type
  70
32
  10
-5.85529019679405
  20
42.45916920842635
  30
826.265
  0
VERTEX
  8
Unknown Area Type
  70
32
  10
-5.85416666666668
  20
42.47951272245047
  30
833.535
  0
VERTEX
  8
Unknown Area Type
  70
32
  10
-5.85416666666668
  20
42.47916666666669
  30
833.412
  0
VERTEX
  8
Unknown Area Type
  70
32
  10
-5.85416666666668
  20
42.45902612134026
  30
826.567
  0
SEQEND
  8
Unknown Area Type
  0
TEXT
  8
Unknown Area Type
 62
7
  1
PNOA-H_AMS_1956-57_33k_ES_PAN_2
 40
0.00045
  10
-5.85472843173036
  20
42.46926942189536
  0
POLYLINE
  8
Unknown Area Type
  70
9
  66
1
  0
VERTEX
  8
Unknown Area Type
  70
32
  10
-5.85529019679405
  20
42.45916920842635
  30
826.265
  0
VERTEX
  8
Unknown Area Type
  70
32
  10
-5.85416666666668
  20
42.47951272245047
  30
833.535
  0
VERTEX
  8
Unknown Area Type
  70
32
  10
-5.85416666666668
  20
42.47916666666669
  30
833.412
  0
VERTEX
  8
Unknown Area Type
  70
32
  10
-5.85416666666668
  20
42.45902612134026
  30
826.567
  0
SEQEND
  8
Unknown Area Type
  0
TEXT
  8
Unknown Area Type
 62
7
  1
PNOA-H_AMS_1956-57_33k_ES_PAN_2
 40
0.00045
  10
-5.85472843173036
  20
42.46926942189536
  0
POLYLINE
  8
Unknown Area Type
  70
9
  66
1
  0
VERTEX
  8
Unknown Area Type
  70
32
  10
-5.85416666666668
  20
42.47916666666669
  30
833.412
  0
VERTEX
  8
Unknown Area Type
  70
32
  10
-5.85416666666668
  20
42.47951272245047
  30
833.535
  0
VERTEX
  8
Unknown Area Type
  70
32
  10
-5.85416633333334
  20
42.47951875804415
  30
833.538
  0
VERTEX
  8
Unknown Area Type
  70
32
  10
-5.85416633333334
  20
42.45902607888861
  30
826.567
  0
VERTEX
  8
Unknown Area Type
  70
32
  10
-5.85416666666668
  20
42.45902612134026
  30
826.567
  0
SEQEND
  8
Unknown Area Type
  0
TEXT
  8
Unknown Area Type
 62
7
  1
PNOA-H_AMS_1956-57_33k_ES_PAN_2
 40
0.00045
  10
-5.85416650000001
  20
42.46927241846638
  0
POLYLINE
  8
Unknown Area Type
  70
9
  66
1
  0
VERTEX
  8
Unknown Area Type
  70
32
  10
-5.89424327934678
  20
42.34137883141494
  30
780.295
  0
VERTEX
  8
Unknown Area Type
  70
32
  10
-5.89365545643437
  20
42.34139818234703
  30
779.788
  0
VERTEX
  8
Unknown Area Type
  70
32
  10
-5.88068551077913
  20
42.34166199921859
  30
781.365
  0
VERTEX
  8
Unknown Area Type
  70
32
  10
-5.88051576761571
  20
42.34166626712351
  30
780.311
  0
VERTEX
  8
Unknown Area Type
  70
32
  10
-5.86196136878132
  20
42.34205022204916
  30
789.443
  0
VERTEX
  8
Unknown Area Type
  70
32
  10
-5.85863571674327
  20
42.34058437680014
  30
789.274
  0
VERTEX
  8
Unknown Area Type
  70
32
  10
-5.85890512381412
  20
42.33333333333331
  30
786.812
  0
VERTEX
  8
Unknown Area Type
  70
32
  10
-5.89441913468646
  20
42.33333333333331
  30
778.467
  0
SEQEND
  8
Unknown Area Type
  0
TEXT
  8
Unknown Area Type
 62
7
  1
PNOA-H_AMS_1956-57_33k_ES_PAN_2
 40
0.00045
  10
-5.87652742571487
  20
42.33769177769123
  0
POLYLINE
  8
Unknown Area Type
  70
9
  66
1
  0
VERTEX
  8
Unknown Area Type
  70
32
  10
-5.89424327934678
  20
42.34137883141494
  30
780.295
  0
VERTEX
  8
Unknown Area Type
  70
32
  10
-5.89365545643437
  20
42.34139818234703
  30
779.788
  0
VERTEX
  8
Unknown Area Type
  70
32
  10
-5.88068551077913
  20
42.34166199921859
  30
781.365
  0
VERTEX
  8
Unknown Area Type
  70
32
  10
-5.88051576761571
  20
42.34166626712351
  30
780.311
  0
VERTEX
  8
Unknown Area Type
  70
32
  10
-5.86196136878132
  20
42.34205022204916
  30
789.443
  0
VERTEX
  8
Unknown Area Type
  70
32
  10
-5.85863571674327
  20
42.34058437680014
  30
789.274
  0
VERTEX
  8
Unknown Area Type
  70
32
  10
-5.85890512381412
  20
42.33333333333331
  30
786.812
  0
VERTEX
  8
Unknown Area Type
  70
32
  10
-5.89441913468646
  20
42.33333333333331
  30
778.467
  0
SEQEND
  8
Unknown Area Type
  0
TEXT
  8
Unknown Area Type
 62
7
  1
PNOA-H_AMS_1956-57_33k_ES_PAN_2
 40
0.00045
  10
-5.87652742571487
  20
42.33769177769123
  0
POLYLINE
  8
Unknown Area Type
  70
9
  66
1
  0
VERTEX
  8
Unknown Area Type
  70
32
  10
-5.89441913468646
  20
42.33333333333331
  30
778.467
  0
VERTEX
  8
Unknown Area Type
  70
32
  10
-5.85890512381412
  20
42.33333333333331
  30
786.812
  0
VERTEX
  8
Unknown Area Type
  70
32
  10
-5.8589051300065
  20
42.33333316666665
  30
786.812
  0
VERTEX
  8
Unknown Area Type
  70
32
  10
-5.8944191383294
  20
42.33333316666665
  30
778.467
  0
SEQEND
  8
Unknown Area Type
  0
TEXT
  8
Unknown Area Type
 62
7
  1
PNOA-H_AMS_1956-57_33k_ES_PAN_2
 40
0.00045
  10
-5.87666213107176
  20
42.33333324999998
  0
POLYLINE
  8
Unknown Area Type
  70
9
  66
1
  0
VERTEX
  8
Unknown Area Type
  70
32
  10
-5.92924081493702
  20
42.33895399347081
  30
782.347
  0
VERTEX
  8
Unknown Area Type
  70
32
  10
-5.92272649215347
  20
42.34256929456067
  30
783.855
  0
VERTEX
  8
Unknown Area Type
  70
32
  10
-5.92241732415397
  20
42.34257718154878
  30
782.748
  0
VERTEX
  8
Unknown Area Type
  70
32
  10
-5.89652138928825
  20
42.34248290883605
  30
780.902
  0
VERTEX
  8
Unknown Area Type
  70
32
  10
-5.89423742362376
  20
42.34138348186988
  30
780.321
  0
VERTEX
  8
Unknown Area Type
  70
32
  10
-5.89441570483777
  20
42.33333333333331
  30
777.787
  0
VERTEX
  8
Unknown Area Type
  70
32
  10
-5.89583333333331
  20
42.33333333333331
  30
777.777
  0
VERTEX
  8
Unknown Area Type
  70
32
  10
-5.9291621609986
  20
42.33333333333331
  30
783.828
  0
SEQEND
  8
Unknown Area Type
  0
TEXT
  8
Unknown Area Type
 62
7
  1
PNOA-H_AMS_1956-57_33k_ES_PAN_2
 40
0.00045
  10
-5.91173911928039
  20
42.33795525744105
  0
POLYLINE
  8
Unknown Area Type
  70
9
  66
1
  0
VERTEX
  8
Unknown Area Type
  70
32
  10
-5.92924081493702
  20
42.33895399347081
  30
782.347
  0
VERTEX
  8
Unknown Area Type
  70
32
  10
-5.92272649215347
  20
42.34256929456067
  30
783.855
  0
VERTEX
  8
Unknown Area Type
  70
32
  10
-5.92241732415397
  20
42.34257718154878
  30
782.748
  0
VERTEX
  8
Unknown Area Type
  70
32
  10
-5.89652138928825
  20
42.34248290883605
  30
780.902
  0
VERTEX
  8
Unknown Area Type
  70
32
  10
-5.89423742362376
  20
42.34138348186988
  30
780.321
  0
VERTEX
  8
Unknown Area Type
  70
32
  10
-5.89441570483777
  20
42.33333333333331
  30
777.787
  0
VERTEX
  8
Unknown Area Type
  70
32
  10
-5.89583333333331
  20
42.33333333333331
  30
777.777
  0
VERTEX
  8
Unknown Area Type
  70
32
  10
-5.9291621609986
  20
42.33333333333331
  30
783.828
  0
SEQEND
  8
Unknown Area Type
  0
TEXT
  8
Unknown Area Type
 62
7
  1
PNOA-H_AMS_1956-57_33k_ES_PAN_2
 40
0.00045
  10
-5.91173911928039
  20
42.33795525744105
  0
POLYLINE
  8
Unknown Area Type
  70
9
  66
1
  0
VERTEX
  8
Unknown Area Type
  70
32
  10
-5.9291621609986
  20
42.33333333333331
  30
783.828
  0
VERTEX
  8
Unknown Area Type
  70
32
  10
-5.89583333333331
  20
42.33333333333331
  30
777.777
  0
VERTEX
  8
Unknown Area Type
  70
32
  10
-5.89441570483777
  20
42.33333333333331
  30
777.787
  0
VERTEX
  8
Unknown Area Type
  70
32
  10
-5.89441570852883
  20
42.33333316666665
  30
777.787
  0
VERTEX
  8
Unknown Area Type
  70
32
  10
-5.92916215866631
  20
42.33333316666665
  30
783.828
  0
SEQEND
  8
Unknown Area Type
  0
TEXT
  8
Unknown Area Type
 62
7
  1
PNOA-H_AMS_1956-57_33k_ES_PAN_2
 40
0.00045
  10
-5.91178893291819
  20
42.33333324999998
  0
POLYLINE
  8
Unknown Area Type
  70
9
  66
1
  0
VERTEX
  8
Unknown Area Type
  70
32
  10
-5.99844064391341
  20
42.33708268902095
  30
842.484
  0
VERTEX
  8
Unknown Area Type
  70
32
  10
-5.99142965127958
  20
42.34024662327629
  30
830.434
  0
VERTEX
  8
Unknown Area Type
  70
32
  10
-5.97984127296366
  20
42.33903579776923
  30
813.026
  0
VERTEX
  8
Unknown Area Type
  70
32
  10
-5.97982915003384
  20
42.33903611309646
  30
813.017
  0
VERTEX
  8
Unknown Area Type
  70
32
  10
-5.96367930307463
  20
42.3373478726856
  30
804.173
  0
VERTEX
  8
Unknown Area Type
  70
32
  10
-5.96364584748808
  20
42.33333333333331
  30
804.459
  0
VERTEX
  8
Unknown Area Type
  70
32
  10
-5.97916666666665
  20
42.33333333333331
  30
812.335
  0
VERTEX
  8
Unknown Area Type
  70
32
  10
-5.99844165383753
  20
42.33333333333331
  30
839.751
  0
SEQEND
  8
Unknown Area Type
  0
TEXT
  8
Unknown Area Type
 62
7
  1
PNOA-H_AMS_1956-57_33k_ES_PAN_2
 40
0.00045
  10
-5.98104375066281
  20
42.33678997830481
  0
POLYLINE
  8
Unknown Area Type
  70
9
  66
1
  0
VERTEX
  8
Unknown Area Type
  70
32
  10
-5.99844064391341
  20
42.33708268902095
  30
842.484
  0
VERTEX
  8
Unknown Area Type
  70
32
  10
-5.99142965127958
  20
42.34024662327629
  30
830.434
  0
VERTEX
  8
Unknown Area Type
  70
32
  10
-5.97984127296366
  20
42.33903579776923
  30
813.026
  0
VERTEX
  8
Unknown Area Type
  70
32
  10
-5.97982915003384
  20
42.33903611309646
  30
813.017
  0
VERTEX
  8
Unknown Area Type
  70
32
  10
-5.96367930307463
  20
42.3373478726856
  30
804.173
  0
VERTEX
  8
Unknown Area Type
  70
32
  10
-5.96364584748808
  20
42.33333333333331
  30
804.459
  0
VERTEX
  8
Unknown Area Type
  70
32
  10
-5.97916666666665
  20
42.33333333333331
  30
812.335
  0
VERTEX
  8
Unknown Area Type
  70
32
  10
-5.99844165383753
  20
42.33333333333331
  30
839.751
  0
SEQEND
  8
Unknown Area Type
  0
TEXT
  8
Unknown Area Type
 62
7
  1
PNOA-H_AMS_1956-57_33k_ES_PAN_2
 40
0.00045
  10
-5.98104375066281
  20
42.33678997830481
  0
POLYLINE
  8
Unknown Area Type
  70
9
  66
1
  0
VERTEX
  8
Unknown Area Type
  70
32
  10
-5.99844165383753
  20
42.33333333333331
  30
839.751
  0
VERTEX
  8
Unknown Area Type
  70
32
  10
-5.97916666666665
  20
42.33333333333331
  30
812.335
  0
VERTEX
  8
Unknown Area Type
  70
32
  10
-5.96364584748808
  20
42.33333333333331
  30
804.459
  0
VERTEX
  8
Unknown Area Type
  70
32
  10
-5.96364584609915
  20
42.33333316666665
  30
804.459
  0
VERTEX
  8
Unknown Area Type
  70
32
  10
-5.99844165388243
  20
42.33333316666665
  30
839.751
  0
SEQEND
  8
Unknown Area Type
  0
TEXT
  8
Unknown Area Type
 62
7
  1
PNOA-H_AMS_1956-57_33k_ES_PAN_2
 40
0.00045
  10
-5.98104374999079
  20
42.33333324999998
  0
POLYLINE
  8
Unknown Area Type
  70
9
  66
1
  0
VERTEX
  8
Unknown Area Type
  70
32
  10
-6.067203753398
  20
42.33630682832841
  30
853.331
  0
VERTEX
  8
Unknown Area Type
  70
32
  10
-6.05531412960128
  20
42.34028955727673
  30
852.289
  0
VERTEX
  8
Unknown Area Type
  70
32
  10
-6.05529010284749
  20
42.3402947005557
  30
852.983
  0
VERTEX
  8
Unknown Area Type
  70
32
  10
-6.05448802970444
  20
42.34014949850528
  30
852.84
  0
VERTEX
  8
Unknown Area Type
  70
32
  10
-6.0544575060896
  20
42.34014580991182
  30
852.922
  0
VERTEX
  8
Unknown Area Type
  70
32
  10
-6.03371562036569
  20
42.33652769034089
  30
833.944
  0
VERTEX
  8
Unknown Area Type
  70
32
  10
-6.03354690034938
  20
42.33333333333331
  30
834.379
  0
VERTEX
  8
Unknown Area Type
  70
32
  10
-6.0625
  20
42.33333333333331
  30
853.039
  0
VERTEX
  8
Unknown Area Type
  70
32
  10
-6.06712758557611
  20
42.33333333333331
  30
853.755
  0
SEQEND
  8
Unknown Area Type
  0
TEXT
  8
Unknown Area Type
 62
7
  1
PNOA-H_AMS_1956-57_33k_ES_PAN_2
 40
0.00045
  10
-6.05037532687369
  20
42.3368140169445
  0
POLYLINE
  8
Unknown Area Type
  70
9
  66
1
  0
VERTEX
  8
Unknown Area Type
  70
32
  10
-6.067203753398
  20
42.33630682832841
  30
853.331
  0
VERTEX
  8
Unknown Area Type
  70
32
  10
-6.05531412960128
  20
42.34028955727673
  30
852.289
  0
VERTEX
  8
Unknown Area Type
  70
32
  10
-6.05529010284749
  20
42.3402947005557
  30
852.983
  0
VERTEX
  8
Unknown Area Type
  70
32
  10
-6.05448802970444
  20
42.34014949850528
  30
852.84
  0
VERTEX
  8
Unknown Area Type
  70
32
  10
-6.0544575060896
  20
42.34014580991182
  30
852.922
  0
VERTEX
  8
Unknown Area Type
  70
32
  10
-6.03371562036569
  20
42.33652769034089
  30
833.944
  0
VERTEX
  8
Unknown Area Type
  70
32
  10
-6.03354690034938
  20
42.33333333333331
  30
834.379
  0
VERTEX
  8
Unknown Area Type
  70
32
  10
-6.0625
  20
42.33333333333331
  30
853.039
  0
VERTEX
  8
Unknown Area Type
  70
32
  10
-6.06712758557611
  20
42.33333333333331
  30
853.755
  0
SEQEND
  8
Unknown Area Type
  0
TEXT
  8
Unknown Area Type
 62
7
  1
PNOA-H_AMS_1956-57_33k_ES_PAN_2
 40
0.00045
  10
-6.05037532687369
  20
42.3368140169445
  0
POLYLINE
  8
Unknown Area Type
  70
9
  66
1
  0
VERTEX
  8
Unknown Area Type
  70
32
  10
-6.06712758557611
  20
42.33333333333331
  30
853.755
  0
VERTEX
  8
Unknown Area Type
  70
32
  10
-6.0625
  20
42.33333333333331
  30
853.039
  0
VERTEX
  8
Unknown Area Type
  70
32
  10
-6.03354690034938
  20
42.33333333333331
  30
834.379
  0
VERTEX
  8
Unknown Area Type
  70
32
  10
-6.03354689154636
  20
42.33333316666665
  30
834.379
  0
VERTEX
  8
Unknown Area Type
  70
32
  10
-6.06712758130684
  20
42.33333316666665
  30
853.755
  0
SEQEND
  8
Unknown Area Type
  0
TEXT
  8
Unknown Area Type
 62
7
  1
PNOA-H_AMS_1956-57_33k_ES_PAN_2
 40
0.00045
  10
-6.05033723856123
  20
42.33333324999998
  0
POLYLINE
  8
Unknown Area Type
  70
9
  66
1
  0
VERTEX
  8
Unknown Area Type
  70
32
  10
-6.10087089708459
  20
42.33603078905124
  30
874.049
  0
VERTEX
  8
Unknown Area Type
  70
32
  10
-6.10067939334297
  20
42.33608549965625
  30
873.796
  0
VERTEX
  8
Unknown Area Type
  70
32
  10
-6.08585784563725
  20
42.34025877591411
  30
867.782
  0
VERTEX
  8
Unknown Area Type
  70
32
  10
-6.079277734633
  20
42.33886448596591
  30
872.748
  0
VERTEX
  8
Unknown Area Type
  70
32
  10
-6.07925327147308
  20
42.33886064108971
  30
872.649
  0
VERTEX
  8
Unknown Area Type
  70
32
  10
-6.067203753398
  20
42.33630682832841
  30
853.331
  0
VERTEX
  8
Unknown Area Type
  70
32
  10
-6.06712724734114
  20
42.33333333333331
  30
853.756
  0
VERTEX
  8
Unknown Area Type
  70
32
  10
-6.10085447845351
  20
42.33333333333331
  30
874.698
  0
VERTEX
  8
Unknown Area Type
  70
32
  10
-6.10088235472559
  20
42.33601697155818
  30
874.139
  0
SEQEND
  8
Unknown Area Type
  0
TEXT
  8
Unknown Area Type
 62
7
  1
PNOA-H_AMS_1956-57_33k_ES_PAN_2
 40
0.00045
  10
-6.08400480103336
  20
42.33679605462371
  0
POLYLINE
  8
Unknown Area Type
  70
9
  66
1
  0
VERTEX
  8
Unknown Area Type
  70
32
  10
-6.10087089708459
  20
42.33603078905124
  30
874.049
  0
VERTEX
  8
Unknown Area Type
  70
32
  10
-6.10067939334297
  20
42.33608549965625
  30
873.796
  0
VERTEX
  8
Unknown Area Type
  70
32
  10
-6.08585784563725
  20
42.34025877591411
  30
867.782
  0
VERTEX
  8
Unknown Area Type
  70
32
  10
-6.079277734633
  20
42.33886448596591
  30
872.748
  0
VERTEX
  8
Unknown Area Type
  70
32
  10
-6.07925327147308
  20
42.33886064108971
  30
872.649
  0
VERTEX
  8
Unknown Area Type
  70
32
  10
-6.067203753398
  20
42.33630682832841
  30
853.331
  0
VERTEX
  8
Unknown Area Type
  70
32
  10
-6.06712724734114
  20
42.33333333333331
  30
853.756
  0
VERTEX
  8
Unknown Area Type
  70
32
  10
-6.10085447845351
  20
42.33333333333331
  30
874.698
  0
VERTEX
  8
Unknown Area Type
  70
32
  10
-6.10088235472559
  20
42.33601697155818
  30
874.139
  0
SEQEND
  8
Unknown Area Type
  0
TEXT
  8
Unknown Area Type
 62
7
  1
PNOA-H_AMS_1956-57_33k_ES_PAN_2
 40
0.00045
  10
-6.08400480103336
  20
42.33679605462371
  0
POLYLINE
  8
Unknown Area Type
  70
9
  66
1
  0
VERTEX
  8
Unknown Area Type
  70
32
  10
-6.10085447845351
  20
42.33333333333331
  30
874.698
  0
VERTEX
  8
Unknown Area Type
  70
32
  10
-6.06712724734114
  20
42.33333333333331
  30
853.756
  0
VERTEX
  8
Unknown Area Type
  70
32
  10
-6.06712724305291
  20
42.33333316666665
  30
853.757
  0
VERTEX
  8
Unknown Area Type
  70
32
  10
-6.10085447672226
  20
42.33333316666665
  30
874.698
  0
SEQEND
  8
Unknown Area Type
  0
TEXT
  8
Unknown Area Type
 62
7
  1
PNOA-H_AMS_1956-57_33k_ES_PAN_2
 40
0.00045
  10
-6.08399086075321
  20
42.33333324999998
  0
POLYLINE
  8
Unknown Area Type
  70
9
  66
1
  0
VERTEX
  8
Unknown Area Type
  70
32
  10
-5.96368515311461
  20
42.33734321884773
  30
804.205
  0
VERTEX
  8
Unknown Area Type
  70
32
  10
-5.95894506353042
  20
42.33966296502369
  30
801.165
  0
VERTEX
  8
Unknown Area Type
  70
32
  10
-5.95893315128055
  20
42.33966777519608
  30
801.144
  0
VERTEX
  8
Unknown Area Type
  70
32
  10
-5.92924081493702
  20
42.33895399347081
  30
782.347
  0
VERTEX
  8
Unknown Area Type
  70
32
  10
-5.92916218391364
  20
42.33333333333331
  30
783.835
  0
VERTEX
  8
Unknown Area Type
  70
32
  10
-5.93750000000002
  20
42.33333333333331
  30
787.487
  0
VERTEX
  8
Unknown Area Type
  70
32
  10
-5.96365105274688
  20
42.33333333333331
  30
804.487
  0
SEQEND
  8
Unknown Area Type
  0
TEXT
  8
Unknown Area Type
 62
7
  1
PNOA-H_AMS_1956-57_33k_ES_PAN_2
 40
0.00045
  10
-5.94642366851412
  20
42.3365005542647
  0
POLYLINE
  8
Unknown Area Type
  70
9
  66
1
  0
VERTEX
  8
Unknown Area Type
  70
32
  10
-5.96368515311461
  20
42.33734321884773
  30
804.205
  0
VERTEX
  8
Unknown Area Type
  70
32
  10
-5.95894506353042
  20
42.33966296502369
  30
801.165
  0
VERTEX
  8
Unknown Area Type
  70
32
  10
-5.95893315128055
  20
42.33966777519608
  30
801.144
  0
VERTEX
  8
Unknown Area Type
  70
32
  10
-5.92924081493702
  20
42.33895399347081
  30
782.347
  0
VERTEX
  8
Unknown Area Type
  70
32
  10
-5.92916218391364
  20
42.33333333333331
  30
783.835
  0
VERTEX
  8
Unknown Area Type
  70
32
  10
-5.93750000000002
  20
42.33333333333331
  30
787.487
  0
VERTEX
  8
Unknown Area Type
  70
32
  10
-5.96365105274688
  20
42.33333333333331
  30
804.487
  0
SEQEND
  8
Unknown Area Type
  0
TEXT
  8
Unknown Area Type
 62
7
  1
PNOA-H_AMS_1956-57_33k_ES_PAN_2
 40
0.00045
  10
-5.94642366851412
  20
42.3365005542647
  0
POLYLINE
  8
Unknown Area Type
  70
9
  66
1
  0
VERTEX
  8
Unknown Area Type
  70
32
  10
-5.96365105274688
  20
42.33333333333331
  30
804.487
  0
VERTEX
  8
Unknown Area Type
  70
32
  10
-5.93750000000002
  20
42.33333333333331
  30
787.487
  0
VERTEX
  8
Unknown Area Type
  70
32
  10
-5.92916218391364
  20
42.33333333333331
  30
783.835
  0
VERTEX
  8
Unknown Area Type
  70
32
  10
-5.92916218158203
  20
42.33333316666665
  30
783.835
  0
VERTEX
  8
Unknown Area Type
  70
32
  10
-5.96365105132953
  20
42.33333316666665
  30
804.487
  0
SEQEND
  8
Unknown Area Type
  0
TEXT
  8
Unknown Area Type
 62
7
  1
PNOA-H_AMS_1956-57_33k_ES_PAN_2
 40
0.00045
  10
-5.94640661716445
  20
42.33333324999998
  0
POLYLINE
  8
Unknown Area Type
  70
9
  66
1
  0
VERTEX
  8
Unknown Area Type
  70
32
  10
-6.03371540403067
  20
42.33652319359557
  30
833.944
  0
VERTEX
  8
Unknown Area Type
  70
32
  10
-6.0295228194393
  20
42.3381829954604
  30
832.02
  0
VERTEX
  8
Unknown Area Type
  70
32
  10
-6.02951091327413
  20
42.33818781279648
  30
831.809
  0
VERTEX
  8
Unknown Area Type
  70
32
  10
-6.0233523722295
  20
42.3406197588292
  30
833.56
  0
VERTEX
  8
Unknown Area Type
  70
32
  10
-6.02330994260226
  20
42.34062087860309
  30
833.532
  0
VERTEX
  8
Unknown Area Type
  70
32
  10
-5.99844043008741
  20
42.3370781921299
  30
842.516
  0
VERTEX
  8
Unknown Area Type
  70
32
  10
-5.9984414855982
  20
42.33333333333331
  30
839.784
  0
VERTEX
  8
Unknown Area Type
  70
32
  10
-6.02083333333337
  20
42.33333333333331
  30
834.776
  0
VERTEX
  8
Unknown Area Type
  70
32
  10
-6.03354691956422
  20
42.33333333333331
  30
834.378
  0
SEQEND
  8
Unknown Area Type
  0
TEXT
  8
Unknown Area Type
 62
7
  1
PNOA-H_AMS_1956-57_33k_ES_PAN_2
 40
0.00045
  10
-6.01607791705904
  20
42.3369771059682
  0
POLYLINE
  8
Unknown Area Type
  70
9
  66
1
  0
VERTEX
  8
Unknown Area Type
  70
32
  10
-6.03371540403067
  20
42.33652319359557
  30
833.944
  0
VERTEX
  8
Unknown Area Type
  70
32
  10
-6.0295228194393
  20
42.3381829954604
  30
832.02
  0
VERTEX
  8
Unknown Area Type
  70
32
  10
-6.02951091327413
  20
42.33818781279648
  30
831.809
  0
VERTEX
  8
Unknown Area Type
  70
32
  10
-6.0233523722295
  20
42.3406197588292
  30
833.56
  0
VERTEX
  8
Unknown Area Type
  70
32
  10
-6.02330994260226
  20
42.34062087860309
  30
833.532
  0
VERTEX
  8
Unknown Area Type
  70
32
  10
-5.99844043008741
  20
42.3370781921299
  30
842.516
  0
VERTEX
  8
Unknown Area Type
  70
32
  10
-5.9984414855982
  20
42.33333333333331
  30
839.784
  0
VERTEX
  8
Unknown Area Type
  70
32
  10
-6.02083333333337
  20
42.33333333333331
  30
834.776
  0
VERTEX
  8
Unknown Area Type
  70
32
  10
-6.03354691956422
  20
42.33333333333331
  30
834.378
  0
SEQEND
  8
Unknown Area Type
  0
TEXT
  8
Unknown Area Type
 62
7
  1
PNOA-H_AMS_1956-57_33k_ES_PAN_2
 40
0.00045
  10
-6.01607791705904
  20
42.3369771059682
  0
POLYLINE
  8
Unknown Area Type
  70
9
  66
1
  0
VERTEX
  8
Unknown Area Type
  70
32
  10
-6.03354691956422
  20
42.33333333333331
  30
834.378
  0
VERTEX
  8
Unknown Area Type
  70
32
  10
-6.02083333333337
  20
42.33333333333331
  30
834.776
  0
VERTEX
  8
Unknown Area Type
  70
32
  10
-5.9984414855982
  20
42.33333333333331
  30
839.784
  0
VERTEX
  8
Unknown Area Type
  70
32
  10
-5.99844148564517
  20
42.33333316666665
  30
839.784
  0
VERTEX
  8
Unknown Area Type
  70
32
  10
-6.0335469107611
  20
42.33333316666665
  30
834.378
  0
SEQEND
  8
Unknown Area Type
  0
TEXT
  8
Unknown Area Type
 62
7
  1
PNOA-H_AMS_1956-57_33k_ES_PAN_2
 40
0.00045
  10
-6.01599420258121
  20
42.33333324999998
  0
POLYLINE
  8
Unknown Area Type
  70
9
  66
1
  0
VERTEX
  8
Unknown Area Type
  70
32
  10
-6.16835413979006
  20
42.33653443021396
  30
999.354
  0
VERTEX
  8
Unknown Area Type
  70
32
  10
-6.15111210008691
  20
42.34051742573767
  30
931.594
  0
VERTEX
  8
Unknown Area Type
  70
32
  10
-6.15108808227479
  20
42.3405225888657
  30
931.252
  0
VERTEX
  8
Unknown Area Type
  70
32
  10
-6.15104543309943
  20
42.3405192596577
  30
931.02
  0
VERTEX
  8
Unknown Area Type
  70
32
  10
-6.13474759839218
  20
42.3361938460174
  30
910.753
  0
VERTEX
  8
Unknown Area Type
  70
32
  10
-6.13469233728319
  20
42.33333333333331
  30
910.6
  0
VERTEX
  8
Unknown Area Type
  70
32
  10
-6.14583333333334
  20
42.33333333333331
  30
922.749
  0
VERTEX
  8
Unknown Area Type
  70
32
  10
-6.16830713468454
  20
42.33333333333331
  30
992.962
  0
SEQEND
  8
Unknown Area Type
  0
TEXT
  8
Unknown Area Type
 62
7
  1
PNOA-H_AMS_1956-57_33k_ES_PAN_2
 40
0.00045
  10
-6.15152323853663
  20
42.33692796109951
  0
POLYLINE
  8
Unknown Area Type
  70
9
  66
1
  0
VERTEX
  8
Unknown Area Type
  70
32
  10
-6.16835413979006
  20
42.33653443021396
  30
999.354
  0
VERTEX
  8
Unknown Area Type
  70
32
  10
-6.15111210008691
  20
42.34051742573767
  30
931.594
  0
VERTEX
  8
Unknown Area Type
  70
32
  10
-6.15108808227479
  20
42.3405225888657
  30
931.252
  0
VERTEX
  8
Unknown Area Type
  70
32
  10
-6.15104543309943
  20
42.3405192596577
  30
931.02
  0
VERTEX
  8
Unknown Area Type
  70
32
  10
-6.13474759839218
  20
42.3361938460174
  30
910.753
  0
VERTEX
  8
Unknown Area Type
  70
32
  10
-6.13469233728319
  20
42.33333333333331
  30
910.6
  0
VERTEX
  8
Unknown Area Type
  70
32
  10
-6.14583333333334
  20
42.33333333333331
  30
922.749
  0
VERTEX
  8
Unknown Area Type
  70
32
  10
-6.16830713468454
  20
42.33333333333331
  30
992.962
  0
SEQEND
  8
Unknown Area Type
  0
TEXT
  8
Unknown Area Type
 62
7
  1
PNOA-H_AMS_1956-57_33k_ES_PAN_2
 40
0.00045
  10
-6.15152323853663
  20
42.33692796109951
  0
POLYLINE
  8
Unknown Area Type
  70
9
  66
1
  0
VERTEX
  8
Unknown Area Type
  70
32
  10
-6.16830713468454
  20
42.33333333333331
  30
992.962
  0
VERTEX
  8
Unknown Area Type
  70
32
  10
-6.14583333333334
  20
42.33333333333331
  30
922.749
  0
VERTEX
  8
Unknown Area Type
  70
32
  10
-6.13469233728319
  20
42.33333333333331
  30
910.6
  0
VERTEX
  8
Unknown Area Type
  70
32
  10
-6.13469233406342
  20
42.33333316666665
  30
910.6
  0
VERTEX
  8
Unknown Area Type
  70
32
  10
-6.16830713223719
  20
42.33333316666665
  30
992.961
  0
SEQEND
  8
Unknown Area Type
  0
TEXT
  8
Unknown Area Type
 62
7
  1
PNOA-H_AMS_1956-57_33k_ES_PAN_2
 40
0.00045
  10
-6.15149973437398
  20
42.33333324999998
  0
POLYLINE
  8
Unknown Area Type
  70
9
  66
1
  0
VERTEX
  8
Unknown Area Type
  70
32
  10
-6.18749999999997
  20
42.33990451403953
  30
990.976
  0
VERTEX
  8
Unknown Area Type
  70
32
  10
-6.18325267884241
  20
42.34074535310769
  30
1002.556
  0
VERTEX
  8
Unknown Area Type
  70
32
  10
-6.16835413979006
  20
42.33653443021396
  30
999.354
  0
VERTEX
  8
Unknown Area Type
  70
32
  10
-6.16830711972656
  20
42.33333333333331
  30
992.963
  0
VERTEX
  8
Unknown Area Type
  70
32
  10
-6.18749999999997
  20
42.33333333333331
  30
987.563
  0
SEQEND
  8
Unknown Area Type
  0
TEXT
  8
Unknown Area Type
 62
7
  1
PNOA-H_AMS_1956-57_33k_ES_PAN_2
 40
0.00045
  10
-6.17790355986327
  20
42.3370393432205
  0
POLYLINE
  8
Unknown Area Type
  70
9
  66
1
  0
VERTEX
  8
Unknown Area Type
  70
32
  10
-6.18749999999997
  20
42.33990451403953
  30
990.976
  0
VERTEX
  8
Unknown Area Type
  70
32
  10
-6.18325267884241
  20
42.34074535310769
  30
1002.556
  0
VERTEX
  8
Unknown Area Type
  70
32
  10
-6.16835413979006
  20
42.33653443021396
  30
999.354
  0
VERTEX
  8
Unknown Area Type
  70
32
  10
-6.16830711972656
  20
42.33333333333331
  30
992.963
  0
VERTEX
  8
Unknown Area Type
  70
32
  10
-6.18749999999997
  20
42.33333333333331
  30
987.563
  0
SEQEND
  8
Unknown Area Type
  0
TEXT
  8
Unknown Area Type
 62
7
  1
PNOA-H_AMS_1956-57_33k_ES_PAN_2
 40
0.00045
  10
-6.17790355986327
  20
42.3370393432205
  0
POLYLINE
  8
Unknown Area Type
  70
9
  66
1
  0
VERTEX
  8
Unknown Area Type
  70
32
  10
-6.18749999999997
  20
42.33333333333331
  30
987.563
  0
VERTEX
  8
Unknown Area Type
  70
32
  10
-6.16830711972656
  20
42.33333333333331
  30
992.963
  0
VERTEX
  8
Unknown Area Type
  70
32
  10
-6.16830711727844
  20
42.33333316666665
  30
992.962
  0
VERTEX
  8
Unknown Area Type
  70
32
  10
-6.18749999999997
  20
42.33333316666665
  30
987.563
  0
SEQEND
  8
Unknown Area Type
  0
TEXT
  8
Unknown Area Type
 62
7
  1
PNOA-H_AMS_1956-57_33k_ES_PAN_2
 40
0.00045
  10
-6.17790355863921
  20
42.33333324999998
  0
POLYLINE
  8
Unknown Area Type
  70
9
  66
1
  0
VERTEX
  8
Unknown Area Type
  70
32
  10
-6.13474759839218
  20
42.3361938460174
  30
910.753
  0
VERTEX
  8
Unknown Area Type
  70
32
  10
-6.12894812584716
  20
42.33770313498026
  30
906.935
  0
VERTEX
  8
Unknown Area Type
  70
32
  10
-6.12893016749366
  20
42.33770812794438
  30
906.86
  0
VERTEX
  8
Unknown Area Type
  70
32
  10
-6.1180671525394
  20
42.34053020033475
  30
884.712
  0
VERTEX
  8
Unknown Area Type
  70
32
  10
-6.10087673646362
  20
42.3360261285362
  30
874.082
  0
VERTEX
  8
Unknown Area Type
  70
32
  10
-6.10084921995231
  20
42.33333333333331
  30
874.647
  0
VERTEX
  8
Unknown Area Type
  70
32
  10
-6.10416666666663
  20
42.33333333333331
  30
874.64
  0
VERTEX
  8
Unknown Area Type
  70
32
  10
-6.13469276681288
  20
42.33333333333331
  30
910.601
  0
SEQEND
  8
Unknown Area Type
  0
TEXT
  8
Unknown Area Type
 62
7
  1
PNOA-H_AMS_1956-57_33k_ES_PAN_2
 40
0.00045
  10
-6.11779840917225
  20
42.33693176683403
  0
POLYLINE
  8
Unknown Area Type
  70
9
  66
1
  0
VERTEX
  8
Unknown Area Type
  70
32
  10
-6.13474759839218
  20
42.3361938460174
  30
910.753
  0
VERTEX
  8
Unknown Area Type
  70
32
  10
-6.12894812584716
  20
42.33770313498026
  30
906.935
  0
VERTEX
  8
Unknown Area Type
  70
32
  10
-6.12893016749366
  20
42.33770812794438
  30
906.86
  0
VERTEX
  8
Unknown Area Type
  70
32
  10
-6.1180671525394
  20
42.34053020033475
  30
884.712
  0
VERTEX
  8
Unknown Area Type
  70
32
  10
-6.10087673646362
  20
42.3360261285362
  30
874.082
  0
VERTEX
  8
Unknown Area Type
  70
32
  10
-6.10084921995231
  20
42.33333333333331
  30
874.647
  0
VERTEX
  8
Unknown Area Type
  70
32
  10
-6.10416666666663
  20
42.33333333333331
  30
874.64
  0
VERTEX
  8
Unknown Area Type
  70
32
  10
-6.13469276681288
  20
42.33333333333331
  30
910.601
  0
SEQEND
  8
Unknown Area Type
  0
TEXT
  8
Unknown Area Type
 62
7
  1
PNOA-H_AMS_1956-57_33k_ES_PAN_2
 40
0.00045
  10
-6.11779840917225
  20
42.33693176683403
  0
POLYLINE
  8
Unknown Area Type
  70
9
  66
1
  0
VERTEX
  8
Unknown Area Type
  70
32
  10
-6.13469276681288
  20
42.33333333333331
  30
910.601
  0
VERTEX
  8
Unknown Area Type
  70
32
  10
-6.10416666666663
  20
42.33333333333331
  30
874.64
  0
VERTEX
  8
Unknown Area Type
  70
32
  10
-6.10084921995231
  20
42.33333333333331
  30
874.647
  0
VERTEX
  8
Unknown Area Type
  70
32
  10
-6.10084921824922
  20
42.33333316666665
  30
874.647
  0
VERTEX
  8
Unknown Area Type
  70
32
  10
-6.13469276361814
  20
42.33333316666665
  30
910.601
  0
SEQEND
  8
Unknown Area Type
  0
TEXT
  8
Unknown Area Type
 62
7
  1
PNOA-H_AMS_1956-57_33k_ES_PAN_2
 40
0.00045
  10
-6.11777099253105
  20
42.33333324999998
  0
POLYLINE
  8
Unknown Area Type
  70
9
  66
1
  0
VERTEX
  8
Unknown Area Type
  70
32
  10
-5.85864075956245
  20
42.3405617382853
  30
789.382
  0
VERTEX
  8
Unknown Area Type
  70
32
  10
-5.85863571674327
  20
42.34058437680014
  30
789.274
  0
VERTEX
  8
Unknown Area Type
  70
32
  10
-5.8585631733983
  20
42.3405906893575
  30
789.234
  0
VERTEX
  8
Unknown Area Type
  70
32
  10
-5.8557384025081
  20
42.34080071277923
  30
789.094
  0
VERTEX
  8
Unknown Area Type
  70
32
  10
-5.85564767160682
  20
42.34080747682883
  30
789.209
  0
VERTEX
  8
Unknown Area Type
  70
32
  10
-5.85416666666668
  20
42.34091745471314
  30
789.383
  0
VERTEX
  8
Unknown Area Type
  70
32
  10
-5.85416666666668
  20
42.33333333333331
  30
786.965
  0
VERTEX
  8
Unknown Area Type
  70
32
  10
-5.8589084876212
  20
42.33333333333331
  30
786.905
  0
SEQEND
  8
Unknown Area Type
  0
TEXT
  8
Unknown Area Type
 62
7
  1
PNOA-H_AMS_1956-57_33k_ES_PAN_2
 40
0.00045
  10
-5.85653757714394
  20
42.33712539402323
  0
POLYLINE
  8
Unknown Area Type
  70
9
  66
1
  0
VERTEX
  8
Unknown Area Type
  70
32
  10
-5.85864075956245
  20
42.3405617382853
  30
789.382
  0
VERTEX
  8
Unknown Area Type
  70
32
  10
-5.85863571674327
  20
42.34058437680014
  30
789.274
  0
VERTEX
  8
Unknown Area Type
  70
32
  10
-5.8585631733983
  20
42.3405906893575
  30
789.234
  0
VERTEX
  8
Unknown Area Type
  70
32
  10
-5.8557384025081
  20
42.34080071277923
  30
789.094
  0
VERTEX
  8
Unknown Area Type
  70
32
  10
-5.85564767160682
  20
42.34080747682883
  30
789.209
  0
VERTEX
  8
Unknown Area Type
  70
32
  10
-5.85416666666668
  20
42.34091745471314
  30
789.383
  0
VERTEX
  8
Unknown Area Type
  70
32
  10
-5.85416666666668
  20
42.33333333333331
  30
786.965
  0
VERTEX
  8
Unknown Area Type
  70
32
  10
-5.8589084876212
  20
42.33333333333331
  30
786.905
  0
SEQEND
  8
Unknown Area Type
  0
TEXT
  8
Unknown Area Type
 62
7
  1
PNOA-H_AMS_1956-57_33k_ES_PAN_2
 40
0.00045
  10
-5.85653757714394
  20
42.33712539402323
  0
POLYLINE
  8
Unknown Area Type
  70
9
  66
1
  0
VERTEX
  8
Unknown Area Type
  70
32
  10
-5.85416666666668
  20
42.34091745471314
  30
789.383
  0
VERTEX
  8
Unknown Area Type
  70
32
  10
-5.85416633333334
  20
42.34091747946611
  30
789.383
  0
VERTEX
  8
Unknown Area Type
  70
32
  10
-5.85416633333334
  20
42.33333333333331
  30
786.965
  0
VERTEX
  8
Unknown Area Type
  70
32
  10
-5.85416666666668
  20
42.33333333333331
  30
786.965
  0
SEQEND
  8
Unknown Area Type
  0
TEXT
  8
Unknown Area Type
 62
7
  1
PNOA-H_AMS_1956-57_33k_ES_PAN_2
 40
0.00045
  10
-5.85416650000001
  20
42.33712540639971
  0
POLYLINE
  8
Unknown Area Type
  70
9
  66
1
  0
VERTEX
  8
Unknown Area Type
  70
32
  10
-5.8589084876212
  20
42.33333333333331
  30
786.905
  0
VERTEX
  8
Unknown Area Type
  70
32
  10
-5.85416666666668
  20
42.33333333333331
  30
786.965
  0
VERTEX
  8
Unknown Area Type
  70
32
  10
-5.85416666666668
  20
42.33333316666665
  30
786.965
  0
VERTEX
  8
Unknown Area Type
  70
32
  10
-5.85890849379425
  20
42.33333316666665
  30
786.905
  0
SEQEND
  8
Unknown Area Type
  0
TEXT
  8
Unknown Area Type
 62
7
  1
PNOA-H_AMS_1956-57_33k_ES_PAN_2
 40
0.00045
  10
-5.85653758023046
  20
42.33333324999998
  0
POLYLINE
  8
Unknown Area Type
  70
9
  66
1
  0
VERTEX
  8
Unknown Area Type
  70
32
  10
-5.85416666666668
  20
42.33333333333331
  30
786.965
  0
VERTEX
  8
Unknown Area Type
  70
32
  10
-5.85416633333334
  20
42.33333333333331
  30
786.965
  0
VERTEX
  8
Unknown Area Type
  70
32
  10
-5.85416633333334
  20
42.33333316666665
  30
786.965
  0
VERTEX
  8
Unknown Area Type
  70
32
  10
-5.85416666666668
  20
42.33333316666665
  30
786.965
  0
SEQEND
  8
Unknown Area Type
  0
TEXT
  8
Unknown Area Type
 62
7
  1
PNOA-H_AMS_1956-57_33k_ES_PAN_2
 40
0.00045
  10
-5.85416650000001
  20
42.33333324999998
  0
POLYLINE
  8
Unknown Area Type
  70
9
  66
1
  0
VERTEX
  8
Unknown Area Type
  70
32
  10
-5.93557350635084
  20
42.49573431952801
  30
924.047
  0
VERTEX
  8
Unknown Area Type
  70
32
  10
-5.92838700882694
  20
42.5
  30
924.354
  0
VERTEX
  8
Unknown Area Type
  70
32
  10
-5.92540033028686
  20
42.5
  30
923.185
  0
VERTEX
  8
Unknown Area Type
  70
32
  10
-5.9078516951232
  20
42.49699093057632
  30
914.119
  0
VERTEX
  8
Unknown Area Type
  70
32
  10
-5.91202176937959
  20
42.4658496706875
  30
824.345
  0
VERTEX
  8
Unknown Area Type
  70
32
  10
-5.91202093495408
  20
42.46583168212494
  30
824.333
  0
VERTEX
  8
Unknown Area Type
  70
32
  10
-5.91296888905521
  20
42.45873873249874
  30
821.728
  0
VERTEX
  8
Unknown Area Type
  70
32
  10
-5.9267171660956
  20
42.45796048044944
  30
838.487
  0
VERTEX
  8
Unknown Area Type
  70
32
  10
-5.93101167282255
  20
42.45903929581441
  30
850.387
  0
VERTEX
  8
Unknown Area Type
  70
32
  10
-5.93556992765141
  20
42.49565787014458
  30
922.706
  0
SEQEND
  8
Unknown Area Type
  0
TEXT
  8
Unknown Area Type
 62
7
  1
PNOA-H_AMS_1956-57_33k_ES_PAN_2
 40
0.00045
  10
-5.92171298296708
  20
42.47880473571524
  0
POLYLINE
  8
Unknown Area Type
  70
9
  66
1
  0
VERTEX
  8
Unknown Area Type
  70
32
  10
-5.92838672803949
  20
42.50000016666667
  30
924.354
  0
VERTEX
  8
Unknown Area Type
  70
32
  10
-5.92540130227258
  20
42.50000016666667
  30
923.186
  0
VERTEX
  8
Unknown Area Type
  70
32
  10
-5.92540033028686
  20
42.5
  30
923.185
  0
VERTEX
  8
Unknown Area Type
  70
32
  10
-5.92838700882694
  20
42.5
  30
924.354
  0
SEQEND
  8
Unknown Area Type
  0
TEXT
  8
Unknown Area Type
 62
7
  1
PNOA-H_AMS_1956-57_33k_ES_PAN_2
 40
0.00045
  10
-5.9268936695569
  20
42.50000008333333
  0
POLYLINE
  8
Unknown Area Type
  70
9
  66
1
  0
VERTEX
  8
Unknown Area Type
  70
32
  10
-5.93557350635084
  20
42.49573431952801
  30
924.047
  0
VERTEX
  8
Unknown Area Type
  70
32
  10
-5.92838700882694
  20
42.5
  30
924.354
  0
VERTEX
  8
Unknown Area Type
  70
32
  10
-5.92540033028686
  20
42.5
  30
923.185
  0
VERTEX
  8
Unknown Area Type
  70
32
  10
-5.9078516951232
  20
42.49699093057632
  30
914.119
  0
VERTEX
  8
Unknown Area Type
  70
32
  10
-5.91202176937959
  20
42.4658496706875
  30
824.345
  0
VERTEX
  8
Unknown Area Type
  70
32
  10
-5.91202093495408
  20
42.46583168212494
  30
824.333
  0
VERTEX
  8
Unknown Area Type
  70
32
  10
-5.91296888905521
  20
42.45873873249874
  30
821.728
  0
VERTEX
  8
Unknown Area Type
  70
32
  10
-5.9267171660956
  20
42.45796048044944
  30
838.487
  0
VERTEX
  8
Unknown Area Type
  70
32
  10
-5.93101167282255
  20
42.45903929581441
  30
850.387
  0
VERTEX
  8
Unknown Area Type
  70
32
  10
-5.93556992765141
  20
42.49565787014458
  30
922.706
  0
SEQEND
  8
Unknown Area Type
  0
TEXT
  8
Unknown Area Type
 62
7
  1
PNOA-H_AMS_1956-57_33k_ES_PAN_2
 40
0.00045
  10
-5.92171298296708
  20
42.47880473571524
  0
POLYLINE
  8
Unknown Area Type
  70
9
  66
1
  0
VERTEX
  8
Unknown Area Type
  70
32
  10
-6.11173960857179
  20
42.49319850686105
  30
916.867
  0
VERTEX
  8
Unknown Area Type
  70
32
  10
-6.10711056545929
  20
42.4930900947631
  30
911.065
  0
VERTEX
  8
Unknown Area Type
  70
32
  10
-6.10706173787999
  20
42.4930869174112
  30
911.101
  0
VERTEX
  8
Unknown Area Type
  70
32
  10
-6.10706084677078
  20
42.49306893215986
  30
911.019
  0
VERTEX
  8
Unknown Area Type
  70
32
  10
-6.10981176238147
  20
42.45762365427046
  30
884.445
  0
VERTEX
  8
Unknown Area Type
  70
32
  10
-6.11417897883156
  20
42.4564289007304
  30
892.699
  0
VERTEX
  8
Unknown Area Type
  70
32
  10
-6.13221820790912
  20
42.49369817402609
  30
972.669
  0
VERTEX
  8
Unknown Area Type
  70
32
  10
-6.11183096544302
  20
42.49320052636031
  30
917.042
  0
VERTEX
  8
Unknown Area Type
  70
32
  10
-6.11173960857179
  20
42.49319850686105
  30
916.867
  0
SEQEND
  8
Unknown Area Type
  0
TEXT
  8
Unknown Area Type
 62
7
  1
PNOA-H_AMS_1956-57_33k_ES_PAN_2
 40
0.00045
  10
-6.11964004816269
  20
42.48054937701427
  0
POLYLINE
  8
Unknown Area Type
  70
9
  66
1
  0
VERTEX
  8
Unknown Area Type
  70
32
  10
-6.11173960857179
  20
42.49319850686105
  30
916.867
  0
VERTEX
  8
Unknown Area Type
  70
32
  10
-6.10711056545929
  20
42.4930900947631
  30
911.065
  0
VERTEX
  8
Unknown Area Type
  70
32
  10
-6.10706173787999
  20
42.4930869174112
  30
911.101
  0
VERTEX
  8
Unknown Area Type
  70
32
  10
-6.10706084677078
  20
42.49306893215986
  30
911.019
  0
VERTEX
  8
Unknown Area Type
  70
32
  10
-6.10981176238147
  20
42.45762365427046
  30
884.445
  0
VERTEX
  8
Unknown Area Type
  70
32
  10
-6.11417897883156
  20
42.4564289007304
  30
892.699
  0
VERTEX
  8
Unknown Area Type
  70
32
  10
-6.13221820790912
  20
42.49369817402609
  30
972.669
  0
VERTEX
  8
Unknown Area Type
  70
32
  10
-6.11183096544302
  20
42.49320052636031
  30
917.042
  0
VERTEX
  8
Unknown Area Type
  70
32
  10
-6.11173960857179
  20
42.49319850686105
  30
916.867
  0
SEQEND
  8
Unknown Area Type
  0
TEXT
  8
Unknown Area Type
 62
7
  1
PNOA-H_AMS_1956-57_33k_ES_PAN_2
 40
0.00045
  10
-6.11964004816269
  20
42.48054937701427
  0
POLYLINE
  8
Unknown Area Type
  70
9
  66
1
  0
VERTEX
  8
Unknown Area Type
  70
32
  10
-6.08006976971696
  20
42.35544822902892
  30
946.723
  0
VERTEX
  8
Unknown Area Type
  70
32
  10
-6.06388141613595
  20
42.36808850551657
  30
920.163
  0
VERTEX
  8
Unknown Area Type
  70
32
  10
-6.0550016495353
  20
42.35150001312763
  30
897.267
  0
VERTEX
  8
Unknown Area Type
  70
32
  10
-6.05529594611042
  20
42.34029004224735
  30
852.617
  0
VERTEX
  8
Unknown Area Type
  70
32
  10
-6.06720981411166
  20
42.33630666605467
  30
853.327
  0
VERTEX
  8
Unknown Area Type
  70
32
  10
-6.0858517846503
  20
42.34025893918574
  30
867.772
  0
VERTEX
  8
Unknown Area Type
  70
32
  10
-6.08588744945186
  20
42.35090626965672
  30
934.697
  0
VERTEX
  8
Unknown Area Type
  70
32
  10
-6.08007539262966
  20
42.35543907294444
  30
946.742
  0
VERTEX
  8
Unknown Area Type
  70
32
  10
-6.08006976971696
  20
42.35544822902892
  30
946.723
  0
SEQEND
  8
Unknown Area Type
  0
TEXT
  8
Unknown Area Type
 62
7
  1
PNOA-H_AMS_1956-57_33k_ES_PAN_2
 40
0.00045
  10
-6.06980323797664
  20
42.35219614677217
  0
POLYLINE
  8
Unknown Area Type
  70
9
  66
1
  0
VERTEX
  8
Unknown Area Type
  70
32
  10
-6.08006976971696
  20
42.35544822902892
  30
946.723
  0
VERTEX
  8
Unknown Area Type
  70
32
  10
-6.06388141613595
  20
42.36808850551657
  30
920.163
  0
VERTEX
  8
Unknown Area Type
  70
32
  10
-6.0550016495353
  20
42.35150001312763
  30
897.267
  0
VERTEX
  8
Unknown Area Type
  70
32
  10
-6.05529594611042
  20
42.34029004224735
  30
852.617
  0
VERTEX
  8
Unknown Area Type
  70
32
  10
-6.06720981411166
  20
42.33630666605467
  30
853.327
  0
VERTEX
  8
Unknown Area Type
  70
32
  10
-6.0858517846503
  20
42.34025893918574
  30
867.772
  0
VERTEX
  8
Unknown Area Type
  70
32
  10
-6.08588744945186
  20
42.35090626965672
  30
934.697
  0
VERTEX
  8
Unknown Area Type
  70
32
  10
-6.08007539262966
  20
42.35543907294444
  30
946.742
  0
VERTEX
  8
Unknown Area Type
  70
32
  10
-6.08006976971696
  20
42.35544822902892
  30
946.723
  0
SEQEND
  8
Unknown Area Type
  0
TEXT
  8
Unknown Area Type
 62
7
  1
PNOA-H_AMS_1956-57_33k_ES_PAN_2
 40
0.00045
  10
-6.06980323797664
  20
42.35219614677217
  0
POLYLINE
  8
Unknown Area Type
  70
9
  66
1
  0
VERTEX
  8
Unknown Area Type
  70
32
  10
-5.9988753323827
  20
42.45863302901677
  30
878.37
  0
VERTEX
  8
Unknown Area Type
  70
32
  10
-5.98827014696012
  20
42.45606022077987
  30
916.359
  0
VERTEX
  8
Unknown Area Type
  70
32
  10
-5.99019390124859
  20
42.41804548805821
  30
814.455
  0
VERTEX
  8
Unknown Area Type
  70
32
  10
-6.00967641084623
  20
42.41451404765255
  30
828.68
  0
VERTEX
  8
Unknown Area Type
  70
32
  10
-6.00995423113814
  20
42.41460580043749
  30
828.206
  0
VERTEX
  8
Unknown Area Type
  70
32
  10
-6.02227007876725
  20
42.41901803218513
  30
848.162
  0
VERTEX
  8
Unknown Area Type
  70
32
  10
-6.02184529168312
  20
42.45530525127149
  30
838.399
  0
VERTEX
  8
Unknown Area Type
  70
32
  10
-5.99891155489613
  20
42.45862757803788
  30
878.248
  0
VERTEX
  8
Unknown Area Type
  70
32
  10
-5.9988753323827
  20
42.45863302901677
  30
878.37
  0
SEQEND
  8
Unknown Area Type
  0
TEXT
  8
Unknown Area Type
 62
7
  1
PNOA-H_AMS_1956-57_33k_ES_PAN_2
 40
0.00045
  10
-6.005270464848
  20
42.43650810279768
  0
POLYLINE
  8
Unknown Area Type
  70
9
  66
1
  0
VERTEX
  8
Unknown Area Type
  70
32
  10
-5.9988753323827
  20
42.45863302901677
  30
878.37
  0
VERTEX
  8
Unknown Area Type
  70
32
  10
-5.98827014696012
  20
42.45606022077987
  30
916.359
  0
VERTEX
  8
Unknown Area Type
  70
32
  10
-5.99019390124859
  20
42.41804548805821
  30
814.455
  0
VERTEX
  8
Unknown Area Type
  70
32
  10
-6.00967641084623
  20
42.41451404765255
  30
828.68
  0
VERTEX
  8
Unknown Area Type
  70
32
  10
-6.00995423113814
  20
42.41460580043749
  30
828.206
  0
VERTEX
  8
Unknown Area Type
  70
32
  10
-6.02227007876725
  20
42.41901803218513
  30
848.162
  0
VERTEX
  8
Unknown Area Type
  70
32
  10
-6.02184529168312
  20
42.45530525127149
  30
838.399
  0
VERTEX
  8
Unknown Area Type
  70
32
  10
-5.99891155489613
  20
42.45862757803788
  30
878.248
  0
VERTEX
  8
Unknown Area Type
  70
32
  10
-5.9988753323827
  20
42.45863302901677
  30
878.37
  0
SEQEND
  8
Unknown Area Type
  0
TEXT
  8
Unknown Area Type
 62
7
  1
PNOA-H_AMS_1956-57_33k_ES_PAN_2
 40
0.00045
  10
-6.005270464848
  20
42.43650810279768
  0
POLYLINE
  8
Unknown Area Type
  70
9
  66
1
  0
VERTEX
  8
Unknown Area Type
  70
32
  10
-5.88505318457192
  20
42.45900413219512
  30
817.98
  0
VERTEX
  8
Unknown Area Type
  70
32
  10
-5.86387590916834
  20
42.45716735668419
  30
825.52
  0
VERTEX
  8
Unknown Area Type
  70
32
  10
-5.86446930514577
  20
42.41670674859445
  30
812.396
  0
VERTEX
  8
Unknown Area Type
  70
32
  10
-5.87697467658124
  20
42.41285437457674
  30
798.622
  0
VERTEX
  8
Unknown Area Type
  70
32
  10
-5.89642691512989
  20
42.41739790922065
  30
803.757
  0
VERTEX
  8
Unknown Area Type
  70
32
  10
-5.89628904202132
  20
42.45660888298168
  30
819.166
  0
VERTEX
  8
Unknown Area Type
  70
32
  10
-5.88507727209528
  20
42.45899902293841
  30
817.99
  0
VERTEX
  8
Unknown Area Type
  70
32
  10
-5.88505318457192
  20
42.45900413219512
  30
817.98
  0
SEQEND
  8
Unknown Area Type
  0
TEXT
  8
Unknown Area Type
 62
7
  1
PNOA-H_AMS_1956-57_33k_ES_PAN_2
 40
0.00045
  10
-5.88015175238297
  20
42.43608676345079
  0
POLYLINE
  8
Unknown Area Type
  70
9
  66
1
  0
VERTEX
  8
Unknown Area Type
  70
32
  10
-5.88505318457192
  20
42.45900413219512
  30
817.98
  0
VERTEX
  8
Unknown Area Type
  70
32
  10
-5.86387590916834
  20
42.45716735668419
  30
825.52
  0
VERTEX
  8
Unknown Area Type
  70
32
  10
-5.86446930514577
  20
42.41670674859445
  30
812.396
  0
VERTEX
  8
Unknown Area Type
  70
32
  10
-5.87697467658124
  20
42.41285437457674
  30
798.622
  0
VERTEX
  8
Unknown Area Type
  70
32
  10
-5.89642691512989
  20
42.41739790922065
  30
803.757
  0
VERTEX
  8
Unknown Area Type
  70
32
  10
-5.89628904202132
  20
42.45660888298168
  30
819.166
  0
VERTEX
  8
Unknown Area Type
  70
32
  10
-5.88507727209528
  20
42.45899902293841
  30
817.99
  0
VERTEX
  8
Unknown Area Type
  70
32
  10
-5.88505318457192
  20
42.45900413219512
  30
817.98
  0
SEQEND
  8
Unknown Area Type
  0
TEXT
  8
Unknown Area Type
 62
7
  1
PNOA-H_AMS_1956-57_33k_ES_PAN_2
 40
0.00045
  10
-5.88015175238297
  20
42.43608676345079
  0
POLYLINE
  8
Unknown Area Type
  70
9
  66
1
  0
VERTEX
  8
Unknown Area Type
  70
32
  10
-6.13049031647347
  20
42.36948865340833
  30
1059.456
  0
VERTEX
  8
Unknown Area Type
  70
32
  10
-6.11788064353465
  20
42.34964370560119
  30
936.913
  0
VERTEX
  8
Unknown Area Type
  70
32
  10
-6.11807927419525
  20
42.3405298703838
  30
884.695
  0
VERTEX
  8
Unknown Area Type
  70
32
  10
-6.13468744229111
  20
42.33620449706878
  30
909.477
  0
VERTEX
  8
Unknown Area Type
  70
32
  10
-6.13475971902209
  20
42.33619351433038
  30
910.997
  0
VERTEX
  8
Unknown Area Type
  70
32
  10
-6.15106990036783
  20
42.34052308902578
  30
931.03
  0
VERTEX
  8
Unknown Area Type
  70
32
  10
-6.1493099052331
  20
42.3757443684411
  30
1074.384
  0
VERTEX
  8
Unknown Area Type
  70
32
  10
-6.13913751465263
  20
42.37852245566413
  30
1031.514
  0
VERTEX
  8
Unknown Area Type
  70
32
  10
-6.1359654716398
  20
42.37811408409575
  30
1017.24
  0
VERTEX
  8
Unknown Area Type
  70
32
  10
-6.13049098693472
  20
42.36950214233723
  30
1058.961
  0
VERTEX
  8
Unknown Area Type
  70
32
  10
-6.13049031647347
  20
42.36948865340833
  30
1059.456
  0
SEQEND
  8
Unknown Area Type
  0
TEXT
  8
Unknown Area Type
 62
7
  1
PNOA-H_AMS_1956-57_33k_ES_PAN_2
 40
0.00045
  10
-6.13447563660261
  20
42.35601363421053
  0
POLYLINE
  8
Unknown Area Type
  70
9
  66
1
  0
VERTEX
  8
Unknown Area Type
  70
32
  10
-6.13049031647347
  20
42.36948865340833
  30
1059.456
  0
VERTEX
  8
Unknown Area Type
  70
32
  10
-6.11788064353465
  20
42.34964370560119
  30
936.913
  0
VERTEX
  8
Unknown Area Type
  70
32
  10
-6.11807927419525
  20
42.3405298703838
  30
884.695
  0
VERTEX
  8
Unknown Area Type
  70
32
  10
-6.13468744229111
  20
42.33620449706878
  30
909.477
  0
VERTEX
  8
Unknown Area Type
  70
32
  10
-6.13475971902209
  20
42.33619351433038
  30
910.997
  0
VERTEX
  8
Unknown Area Type
  70
32
  10
-6.15106990036783
  20
42.34052308902578
  30
931.03
  0
VERTEX
  8
Unknown Area Type
  70
32
  10
-6.1493099052331
  20
42.3757443684411
  30
1074.384
  0
VERTEX
  8
Unknown Area Type
  70
32
  10
-6.13913751465263
  20
42.37852245566413
  30
1031.514
  0
VERTEX
  8
Unknown Area Type
  70
32
  10
-6.1359654716398
  20
42.37811408409575
  30
1017.24
  0
VERTEX
  8
Unknown Area Type
  70
32
  10
-6.13049098693472
  20
42.36950214233723
  30
1058.961
  0
VERTEX
  8
Unknown Area Type
  70
32
  10
-6.13049031647347
  20
42.36948865340833
  30
1059.456
  0
SEQEND
  8
Unknown Area Type
  0
TEXT
  8
Unknown Area Type
 62
7
  1
PNOA-H_AMS_1956-57_33k_ES_PAN_2
 40
0.00045
  10
-6.13447563660261
  20
42.35601363421053
  0
POLYLINE
  8
Unknown Area Type
  70
9
  66
1
  0
VERTEX
  8
Unknown Area Type
  70
32
  10
-5.86388136734654
  20
42.45715371279585
  30
825.518
  0
VERTEX
  8
Unknown Area Type
  70
32
  10
-5.86387004079249
  20
42.45717200589533
  30
825.519
  0
VERTEX
  8
Unknown Area Type
  70
32
  10
-5.86097007640478
  20
42.4578478159611
  30
825.297
  0
VERTEX
  8
Unknown Area Type
  70
32
  10
-5.86095206063431
  20
42.4578527684714
  30
825.298
  0
VERTEX
  8
Unknown Area Type
  70
32
  10
-5.85535659862304
  20
42.45915854800664
  30
825.636
  0
VERTEX
  8
Unknown Area Type
  70
32
  10
-5.85526590194376
  20
42.45916981411814
  30
826.178
  0
VERTEX
  8
Unknown Area Type
  70
32
  10
-5.85416666666668
  20
42.45902981676336
  30
826.487
  0
VERTEX
  8
Unknown Area Type
  70
32
  10
-5.85416666666668
  20
42.45833333333337
  30
826.512
  0
VERTEX
  8
Unknown Area Type
  70
32
  10
-5.85416666666668
  20
42.43750000000006
  30
819.189
  0
VERTEX
  8
Unknown Area Type
  70
32
  10
-5.85416666666668
  20
42.41666666666666
  30
812.532
  0
VERTEX
  8
Unknown Area Type
  70
32
  10
-5.85416666666668
  20
42.41452340941025
  30
812.538
  0
VERTEX
  8
Unknown Area Type
  70
32
  10
-5.86446930514577
  20
42.41670674859445
  30
812.396
  0
SEQEND
  8
Unknown Area Type
  0
TEXT
  8
Unknown Area Type
 62
7
  1
PNOA-H_AMS_1956-57_33k_ES_PAN_2
 40
0.00045
  10
-5.85931798590622
  20
42.4368466117642
  0
POLYLINE
  8
Unknown Area Type
  70
9
  66
1
  0
VERTEX
  8
Unknown Area Type
  70
32
  10
-5.86388136734654
  20
42.45715371279585
  30
825.518
  0
VERTEX
  8
Unknown Area Type
  70
32
  10
-5.86387004079249
  20
42.45717200589533
  30
825.519
  0
VERTEX
  8
Unknown Area Type
  70
32
  10
-5.86097007640478
  20
42.4578478159611
  30
825.297
  0
VERTEX
  8
Unknown Area Type
  70
32
  10
-5.86095206063431
  20
42.4578527684714
  30
825.298
  0
VERTEX
  8
Unknown Area Type
  70
32
  10
-5.85535659862304
  20
42.45915854800664
  30
825.636
  0
VERTEX
  8
Unknown Area Type
  70
32
  10
-5.85526590194376
  20
42.45916981411814
  30
826.178
  0
VERTEX
  8
Unknown Area Type
  70
32
  10
-5.85416666666668
  20
42.45902981676336
  30
826.487
  0
VERTEX
  8
Unknown Area Type
  70
32
  10
-5.85416666666668
  20
42.45833333333337
  30
826.512
  0
VERTEX
  8
Unknown Area Type
  70
32
  10
-5.85416666666668
  20
42.43750000000006
  30
819.189
  0
VERTEX
  8
Unknown Area Type
  70
32
  10
-5.85416666666668
  20
42.41666666666666
  30
812.532
  0
VERTEX
  8
Unknown Area Type
  70
32
  10
-5.85416666666668
  20
42.41452340941025
  30
812.538
  0
VERTEX
  8
Unknown Area Type
  70
32
  10
-5.86446930514577
  20
42.41670674859445
  30
812.396
  0
SEQEND
  8
Unknown Area Type
  0
TEXT
  8
Unknown Area Type
 62
7
  1
PNOA-H_AMS_1956-57_33k_ES_PAN_2
 40
0.00045
  10
-5.85931798590622
  20
42.4368466117642
  0
POLYLINE
  8
Unknown Area Type
  70
9
  66
1
  0
VERTEX
  8
Unknown Area Type
  70
32
  10
-5.85416666666668
  20
42.41666666666666
  30
812.532
  0
VERTEX
  8
Unknown Area Type
  70
32
  10
-5.85416666666668
  20
42.43750000000006
  30
819.189
  0
VERTEX
  8
Unknown Area Type
  70
32
  10
-5.85416666666668
  20
42.45833333333337
  30
826.512
  0
VERTEX
  8
Unknown Area Type
  70
32
  10
-5.85416666666668
  20
42.45902981676336
  30
826.487
  0
VERTEX
  8
Unknown Area Type
  70
32
  10
-5.85416633333334
  20
42.45902977431041
  30
826.487
  0
VERTEX
  8
Unknown Area Type
  70
32
  10
-5.85416633333334
  20
42.41452333877012
  30
812.538
  0
VERTEX
  8
Unknown Area Type
  70
32
  10
-5.85416666666668
  20
42.41452340941025
  30
812.538
  0
SEQEND
  8
Unknown Area Type
  0
TEXT
  8
Unknown Area Type
 62
7
  1
PNOA-H_AMS_1956-57_33k_ES_PAN_2
 40
0.00045
  10
-5.85416650000001
  20
42.43677657776674
  0
POLYLINE
  8
Unknown Area Type
  70
9
  66
1
  0
VERTEX
  8
Unknown Area Type
  70
32
  10
-5.98188205982128
  20
42.38204442012466
  30
816.6
  0
VERTEX
  8
Unknown Area Type
  70
32
  10
-5.97659652416325
  20
42.38315892798121
  30
803.984
  0
VERTEX
  8
Unknown Area Type
  70
32
  10
-5.96224814596202
  20
42.37869522641341
  30
798.743
  0
VERTEX
  8
Unknown Area Type
  70
32
  10
-5.96342142654446
  20
42.36400930283369
  30
807.484
  0
VERTEX
  8
Unknown Area Type
  70
32
  10
-5.99118453707436
  20
42.35375597508852
  30
833.531
  0
VERTEX
  8
Unknown Area Type
  70
32
  10
-5.99680678495621
  20
42.36513987253891
  30
838.039
  0
VERTEX
  8
Unknown Area Type
  70
32
  10
-5.99666100113601
  20
42.37892123918236
  30
819.893
  0
VERTEX
  8
Unknown Area Type
  70
32
  10
-5.98190610919328
  20
42.38203929159624
  30
816.597
  0
VERTEX
  8
Unknown Area Type
  70
32
  10
-5.98188205982128
  20
42.38204442012466
  30
816.6
  0
SEQEND
  8
Unknown Area Type
  0
TEXT
  8
Unknown Area Type
 62
7
  1
PNOA-H_AMS_1956-57_33k_ES_PAN_2
 40
0.00045
  10
-5.97991920863092
  20
42.36845575229826
  0
POLYLINE
  8
Unknown Area Type
  70
9
  66
1
  0
VERTEX
  8
Unknown Area Type
  70
32
  10
-5.98188205982128
  20
42.38204442012466
  30
816.6
  0
VERTEX
  8
Unknown Area Type
  70
32
  10
-5.97659652416325
  20
42.38315892798121
  30
803.984
  0
VERTEX
  8
Unknown Area Type
  70
32
  10
-5.96224814596202
  20
42.37869522641341
  30
798.743
  0
VERTEX
  8
Unknown Area Type
  70
32
  10
-5.96342142654446
  20
42.36400930283369
  30
807.484
  0
VERTEX
  8
Unknown Area Type
  70
32
  10
-5.99118453707436
  20
42.35375597508852
  30
833.531
  0
VERTEX
  8
Unknown Area Type
  70
32
  10
-5.99680678495621
  20
42.36513987253891
  30
838.039
  0
VERTEX
  8
Unknown Area Type
  70
32
  10
-5.99666100113601
  20
42.37892123918236
  30
819.893
  0
VERTEX
  8
Unknown Area Type
  70
32
  10
-5.98190610919328
  20
42.38203929159624
  30
816.597
  0
VERTEX
  8
Unknown Area Type
  70
32
  10
-5.98188205982128
  20
42.38204442012466
  30
816.6
  0
SEQEND
  8
Unknown Area Type
  0
TEXT
  8
Unknown Area Type
 62
7
  1
PNOA-H_AMS_1956-57_33k_ES_PAN_2
 40
0.00045
  10
-5.97991920863092
  20
42.36845575229826
  0
POLYLINE
  8
Unknown Area Type
  70
9
  66
1
  0
VERTEX
  8
Unknown Area Type
  70
32
  10
-5.93194801849616
  20
42.37849774035887
  30
795.317
  0
VERTEX
  8
Unknown Area Type
  70
32
  10
-5.9298846797332
  20
42.3778751598738
  30
794.862
  0
VERTEX
  8
Unknown Area Type
  70
32
  10
-5.92939121741896
  20
42.36256579121535
  30
790.283
  0
VERTEX
  8
Unknown Area Type
  70
32
  10
-5.9597633606231
  20
42.35528349937566
  30
794.675
  0
VERTEX
  8
Unknown Area Type
  70
32
  10
-5.96342100348416
  20
42.36400030880711
  30
807.513
  0
VERTEX
  8
Unknown Area Type
  70
32
  10
-5.96224814596202
  20
42.37869522641341
  30
798.743
  0
VERTEX
  8
Unknown Area Type
  70
32
  10
-5.94354046330496
  20
42.38199603549159
  30
798.808
  0
VERTEX
  8
Unknown Area Type
  70
32
  10
-5.9319664244521
  20
42.37850177174192
  30
795.319
  0
VERTEX
  8
Unknown Area Type
  70
32
  10
-5.93194801849616
  20
42.37849774035887
  30
795.317
  0
SEQEND
  8
Unknown Area Type
  0
TEXT
  8
Unknown Area Type
 62
7
  1
PNOA-H_AMS_1956-57_33k_ES_PAN_2
 40
0.00045
  10
-5.94631925509443
  20
42.3686380653679
  0
POLYLINE
  8
Unknown Area Type
  70
9
  66
1
  0
VERTEX
  8
Unknown Area Type
  70
32
  10
-5.93194801849616
  20
42.37849774035887
  30
795.317
  0
VERTEX
  8
Unknown Area Type
  70
32
  10
-5.9298846797332
  20
42.3778751598738
  30
794.862
  0
VERTEX
  8
Unknown Area Type
  70
32
  10
-5.92939121741896
  20
42.36256579121535
  30
790.283
  0
VERTEX
  8
Unknown Area Type
  70
32
  10
-5.9597633606231
  20
42.35528349937566
  30
794.675
  0
VERTEX
  8
Unknown Area Type
  70
32
  10
-5.96342100348416
  20
42.36400030880711
  30
807.513
  0
VERTEX
  8
Unknown Area Type
  70
32
  10
-5.96224814596202
  20
42.37869522641341
  30
798.743
  0
VERTEX
  8
Unknown Area Type
  70
32
  10
-5.94354046330496
  20
42.38199603549159
  30
798.808
  0
VERTEX
  8
Unknown Area Type
  70
32
  10
-5.9319664244521
  20
42.37850177174192
  30
795.319
  0
VERTEX
  8
Unknown Area Type
  70
32
  10
-5.93194801849616
  20
42.37849774035887
  30
795.317
  0
SEQEND
  8
Unknown Area Type
  0
TEXT
  8
Unknown Area Type
 62
7
  1
PNOA-H_AMS_1956-57_33k_ES_PAN_2
 40
0.00045
  10
-5.94631925509443
  20
42.3686380653679
  0
POLYLINE
  8
Unknown Area Type
  70
9
  66
1
  0
VERTEX
  8
Unknown Area Type
  70
32
  10
-6.01142821267389
  20
42.38332907513212
  30
821.693
  0
VERTEX
  8
Unknown Area Type
  70
32
  10
-6.01136106144977
  20
42.38332183565346
  30
821.678
  0
VERTEX
  8
Unknown Area Type
  70
32
  10
-5.99666100113601
  20
42.37892123918236
  30
819.893
  0
VERTEX
  8
Unknown Area Type
  70
32
  10
-5.9968069988758
  20
42.36514436941463
  30
838.064
  0
VERTEX
  8
Unknown Area Type
  70
32
  10
-6.02341972867716
  20
42.3535400765451
  30
856.302
  0
VERTEX
  8
Unknown Area Type
  70
32
  10
-6.02343185390934
  20
42.35353975652126
  30
856.325
  0
VERTEX
  8
Unknown Area Type
  70
32
  10
-6.02347146561089
  20
42.35360624806028
  30
856.202
  0
VERTEX
  8
Unknown Area Type
  70
32
  10
-6.03072290954137
  20
42.36667887956116
  30
847.816
  0
VERTEX
  8
Unknown Area Type
  70
32
  10
-6.03113068153084
  20
42.37944155341049
  30
835.633
  0
VERTEX
  8
Unknown Area Type
  70
32
  10
-6.0114583253139
  20
42.38332378098924
  30
821.704
  0
VERTEX
  8
Unknown Area Type
  70
32
  10
-6.01142821267389
  20
42.38332907513212
  30
821.693
  0
SEQEND
  8
Unknown Area Type
  0
TEXT
  8
Unknown Area Type
 62
7
  1
PNOA-H_AMS_1956-57_33k_ES_PAN_2
 40
0.00045
  10
-6.01377579027555
  20
42.36843338567127
  0
POLYLINE
  8
Unknown Area Type
  70
9
  66
1
  0
VERTEX
  8
Unknown Area Type
  70
32
  10
-6.01142821267389
  20
42.38332907513212
  30
821.693
  0
VERTEX
  8
Unknown Area Type
  70
32
  10
-6.01136106144977
  20
42.38332183565346
  30
821.678
  0
VERTEX
  8
Unknown Area Type
  70
32
  10
-5.99666100113601
  20
42.37892123918236
  30
819.893
  0
VERTEX
  8
Unknown Area Type
  70
32
  10
-5.9968069988758
  20
42.36514436941463
  30
838.064
  0
VERTEX
  8
Unknown Area Type
  70
32
  10
-6.02341972867716
  20
42.3535400765451
  30
856.302
  0
VERTEX
  8
Unknown Area Type
  70
32
  10
-6.02343185390934
  20
42.35353975652126
  30
856.325
  0
VERTEX
  8
Unknown Area Type
  70
32
  10
-6.02347146561089
  20
42.35360624806028
  30
856.202
  0
VERTEX
  8
Unknown Area Type
  70
32
  10
-6.03072290954137
  20
42.36667887956116
  30
847.816
  0
VERTEX
  8
Unknown Area Type
  70
32
  10
-6.03113068153084
  20
42.37944155341049
  30
835.633
  0
VERTEX
  8
Unknown Area Type
  70
32
  10
-6.0114583253139
  20
42.38332378098924
  30
821.704
  0
VERTEX
  8
Unknown Area Type
  70
32
  10
-6.01142821267389
  20
42.38332907513212
  30
821.693
  0
SEQEND
  8
Unknown Area Type
  0
TEXT
  8
Unknown Area Type
 62
7
  1
PNOA-H_AMS_1956-57_33k_ES_PAN_2
 40
0.00045
  10
-6.01377579027555
  20
42.36843338567127
  0
POLYLINE
  8
Unknown Area Type
  70
9
  66
1
  0
VERTEX
  8
Unknown Area Type
  70
32
  10
-5.90721868967067
  20
42.38163140752699
  30
791.132
  0
VERTEX
  8
Unknown Area Type
  70
32
  10
-5.89407489919659
  20
42.37815961714225
  30
793.005
  0
VERTEX
  8
Unknown Area Type
  70
32
  10
-5.89652138928825
  20
42.34248290883605
  30
780.902
  0
VERTEX
  8
Unknown Area Type
  70
32
  10
-5.92270851427413
  20
42.34257425571897
  30
783.853
  0
VERTEX
  8
Unknown Area Type
  70
32
  10
-5.92939100832632
  20
42.36256129406316
  30
790.295
  0
VERTEX
  8
Unknown Area Type
  70
32
  10
-5.92988488897315
  20
42.37787965701195
  30
794.862
  0
VERTEX
  8
Unknown Area Type
  70
32
  10
-5.91004685382355
  20
42.38237905008864
  30
794.22
  0
VERTEX
  8
Unknown Area Type
  70
32
  10
-5.90724316114771
  20
42.38163528895401
  30
791.127
  0
VERTEX
  8
Unknown Area Type
  70
32
  10
-5.90721868967067
  20
42.38163140752699
  30
791.132
  0
SEQEND
  8
Unknown Area Type
  0
TEXT
  8
Unknown Area Type
 62
7
  1
PNOA-H_AMS_1956-57_33k_ES_PAN_2
 40
0.00045
  10
-5.9119799828343
  20
42.36223735737097
  0
POLYLINE
  8
Unknown Area Type
  70
9
  66
1
  0
VERTEX
  8
Unknown Area Type
  70
32
  10
-5.90721868967067
  20
42.38163140752699
  30
791.132
  0
VERTEX
  8
Unknown Area Type
  70
32
  10
-5.89407489919659
  20
42.37815961714225
  30
793.005
  0
VERTEX
  8
Unknown Area Type
  70
32
  10
-5.89652138928825
  20
42.34248290883605
  30
780.902
  0
VERTEX
  8
Unknown Area Type
  70
32
  10
-5.92270851427413
  20
42.34257425571897
  30
783.853
  0
VERTEX
  8
Unknown Area Type
  70
32
  10
-5.92939100832632
  20
42.36256129406316
  30
790.295
  0
VERTEX
  8
Unknown Area Type
  70
32
  10
-5.92988488897315
  20
42.37787965701195
  30
794.862
  0
VERTEX
  8
Unknown Area Type
  70
32
  10
-5.91004685382355
  20
42.38237905008864
  30
794.22
  0
VERTEX
  8
Unknown Area Type
  70
32
  10
-5.90724316114771
  20
42.38163528895401
  30
791.127
  0
VERTEX
  8
Unknown Area Type
  70
32
  10
-5.90721868967067
  20
42.38163140752699
  30
791.132
  0
SEQEND
  8
Unknown Area Type
  0
TEXT
  8
Unknown Area Type
 62
7
  1
PNOA-H_AMS_1956-57_33k_ES_PAN_2
 40
0.00045
  10
-5.9119799828343
  20
42.36223735737097
  0
POLYLINE
  8
Unknown Area Type
  70
9
  66
1
  0
VERTEX
  8
Unknown Area Type
  70
32
  10
-6.10624003946856
  20
42.38205327523931
  30
931.134
  0
VERTEX
  8
Unknown Area Type
  70
32
  10
-6.09681080164584
  20
42.37888676403222
  30
920.441
  0
VERTEX
  8
Unknown Area Type
  70
32
  10
-6.09703452465824
  20
42.3692365133149
  30
961.841
  0
VERTEX
  8
Unknown Area Type
  70
32
  10
-6.1178280900576
  20
42.34968565794886
  30
937.351
  0
VERTEX
  8
Unknown Area Type
  70
32
  10
-6.11788670523912
  20
42.3496435406072
  30
936.776
  0
VERTEX
  8
Unknown Area Type
  70
32
  10
-6.13594526313589
  20
42.37807411569833
  30
1017.201
  0
VERTEX
  8
Unknown Area Type
  70
32
  10
-6.13595940730256
  20
42.37811425013511
  30
1017.181
  0
VERTEX
  8
Unknown Area Type
  70
32
  10
-6.10764769175505
  20
42.38251936211714
  30
931.711
  0
VERTEX
  8
Unknown Area Type
  70
32
  10
-6.1076113022044
  20
42.3825203494437
  30
931.702
  0
VERTEX
  8
Unknown Area Type
  70
32
  10
-6.10625239110074
  20
42.38205744268333
  30
931.108
  0
VERTEX
  8
Unknown Area Type
  70
32
  10
-6.10624003946856
  20
42.38205327523931
  30
931.134
  0
SEQEND
  8
Unknown Area Type
  0
TEXT
  8
Unknown Area Type
 62
7
  1
PNOA-H_AMS_1956-57_33k_ES_PAN_2
 40
0.00045
  10
-6.11638492908678
  20
42.36609984028097
  0
POLYLINE
  8
Unknown Area Type
  70
9
  66
1
  0
VERTEX
  8
Unknown Area Type
  70
32
  10
-6.10624003946856
  20
42.38205327523931
  30
931.134
  0
VERTEX
  8
Unknown Area Type
  70
32
  10
-6.09681080164584
  20
42.37888676403222
  30
920.441
  0
VERTEX
  8
Unknown Area Type
  70
32
  10
-6.09703452465824
  20
42.3692365133149
  30
961.841
  0
VERTEX
  8
Unknown Area Type
  70
32
  10
-6.1178280900576
  20
42.34968565794886
  30
937.351
  0
VERTEX
  8
Unknown Area Type
  70
32
  10
-6.11788670523912
  20
42.3496435406072
  30
936.776
  0
VERTEX
  8
Unknown Area Type
  70
32
  10
-6.13594526313589
  20
42.37807411569833
  30
1017.201
  0
VERTEX
  8
Unknown Area Type
  70
32
  10
-6.13595940730256
  20
42.37811425013511
  30
1017.181
  0
VERTEX
  8
Unknown Area Type
  70
32
  10
-6.10764769175505
  20
42.38251936211714
  30
931.711
  0
VERTEX
  8
Unknown Area Type
  70
32
  10
-6.1076113022044
  20
42.3825203494437
  30
931.702
  0
VERTEX
  8
Unknown Area Type
  70
32
  10
-6.10625239110074
  20
42.38205744268333
  30
931.108
  0
VERTEX
  8
Unknown Area Type
  70
32
  10
-6.10624003946856
  20
42.38205327523931
  30
931.134
  0
SEQEND
  8
Unknown Area Type
  0
TEXT
  8
Unknown Area Type
 62
7
  1
PNOA-H_AMS_1956-57_33k_ES_PAN_2
 40
0.00045
  10
-6.11638492908678
  20
42.36609984028097
  0
POLYLINE
  8
Unknown Area Type
  70
9
  66
1
  0
VERTEX
  8
Unknown Area Type
  70
32
  10
-6.08135494255431
  20
42.38159984240381
  30
907.125
  0
VERTEX
  8
Unknown Area Type
  70
32
  10
-6.07562841496308
  20
42.38260021258645
  30
878.272
  0
VERTEX
  8
Unknown Area Type
  70
32
  10
-6.06378429319306
  20
42.37907255847391
  30
877.034
  0
VERTEX
  8
Unknown Area Type
  70
32
  10
-6.06388207231301
  20
42.36810199529901
  30
920.141
  0
VERTEX
  8
Unknown Area Type
  70
32
  10
-6.06391064143094
  20
42.36806521156372
  30
920.056
  0
VERTEX
  8
Unknown Area Type
  70
32
  10
-6.08587532543254
  20
42.35090659626876
  30
934.653
  0
VERTEX
  8
Unknown Area Type
  70
32
  10
-6.08589373162455
  20
42.35091060286489
  30
934.82
  0
VERTEX
  8
Unknown Area Type
  70
32
  10
-6.08597936300507
  20
42.35104787179345
  30
938.233
  0
VERTEX
  8
Unknown Area Type
  70
32
  10
-6.09703386136158
  20
42.36922302395604
  30
961.906
  0
VERTEX
  8
Unknown Area Type
  70
32
  10
-6.09681080164584
  20
42.37888676403222
  30
920.441
  0
VERTEX
  8
Unknown Area Type
  70
32
  10
-6.08138504741179
  20
42.38159453008195
  30
907.129
  0
VERTEX
  8
Unknown Area Type
  70
32
  10
-6.08135494255431
  20
42.38159984240381
  30
907.125
  0
SEQEND
  8
Unknown Area Type
  0
TEXT
  8
Unknown Area Type
 62
7
  1
PNOA-H_AMS_1956-57_33k_ES_PAN_2
 40
0.00045
  10
-6.08056135528602
  20
42.36675140166489
  0
POLYLINE
  8
Unknown Area Type
  70
9
  66
1
  0
VERTEX
  8
Unknown Area Type
  70
32
  10
-6.08135494255431
  20
42.38159984240381
  30
907.125
  0
VERTEX
  8
Unknown Area Type
  70
32
  10
-6.07562841496308
  20
42.38260021258645
  30
878.272
  0
VERTEX
  8
Unknown Area Type
  70
32
  10
-6.06378429319306
  20
42.37907255847391
  30
877.034
  0
VERTEX
  8
Unknown Area Type
  70
32
  10
-6.06388207231301
  20
42.36810199529901
  30
920.141
  0
VERTEX
  8
Unknown Area Type
  70
32
  10
-6.06391064143094
  20
42.36806521156372
  30
920.056
  0
VERTEX
  8
Unknown Area Type
  70
32
  10
-6.08587532543254
  20
42.35090659626876
  30
934.653
  0
VERTEX
  8
Unknown Area Type
  70
32
  10
-6.08589373162455
  20
42.35091060286489
  30
934.82
  0
VERTEX
  8
Unknown Area Type
  70
32
  10
-6.08597936300507
  20
42.35104787179345
  30
938.233
  0
VERTEX
  8
Unknown Area Type
  70
32
  10
-6.09703386136158
  20
42.36922302395604
  30
961.906
  0
VERTEX
  8
Unknown Area Type
  70
32
  10
-6.09681080164584
  20
42.37888676403222
  30
920.441
  0
VERTEX
  8
Unknown Area Type
  70
32
  10
-6.08138504741179
  20
42.38159453008195
  30
907.129
  0
VERTEX
  8
Unknown Area Type
  70
32
  10
-6.08135494255431
  20
42.38159984240381
  30
907.125
  0
SEQEND
  8
Unknown Area Type
  0
TEXT
  8
Unknown Area Type
 62
7
  1
PNOA-H_AMS_1956-57_33k_ES_PAN_2
 40
0.00045
  10
-6.08056135528602
  20
42.36675140166489
  0
POLYLINE
  8
Unknown Area Type
  70
9
  66
1
  0
VERTEX
  8
Unknown Area Type
  70
32
  10
-6.03149393276229
  20
42.37954450148387
  30
835.929
  0
VERTEX
  8
Unknown Area Type
  70
32
  10
-6.03113046505511
  20
42.37943705668815
  30
835.64
  0
VERTEX
  8
Unknown Area Type
  70
32
  10
-6.03072334224149
  20
42.36668787302931
  30
847.725
  0
VERTEX
  8
Unknown Area Type
  70
32
  10
-6.05455355917252
  20
42.35177310500656
  30
894.134
  0
VERTEX
  8
Unknown Area Type
  70
32
  10
-6.05498952505059
  20
42.35150033647743
  30
897.191
  0
VERTEX
  8
Unknown Area Type
  70
32
  10
-6.05500771177757
  20
42.35149985145225
  30
897.305
  0
VERTEX
  8
Unknown Area Type
  70
32
  10
-6.06388747992269
  20
42.36808834332068
  30
920.132
  0
VERTEX
  8
Unknown Area Type
  70
32
  10
-6.06378429319306
  20
42.37907255847391
  30
877.034
  0
VERTEX
  8
Unknown Area Type
  70
32
  10
-6.04309606777853
  20
42.38300089616325
  30
855.566
  0
VERTEX
  8
Unknown Area Type
  70
32
  10
-6.03150627940913
  20
42.37954867716862
  30
835.92
  0
VERTEX
  8
Unknown Area Type
  70
32
  10
-6.03149393276229
  20
42.37954450148387
  30
835.929
  0
SEQEND
  8
Unknown Area Type
  0
TEXT
  8
Unknown Area Type
 62
7
  1
PNOA-H_AMS_1956-57_33k_ES_PAN_2
 40
0.00045
  10
-6.04709045478888
  20
42.36724929994415
  0
POLYLINE
  8
Unknown Area Type
  70
9
  66
1
  0
VERTEX
  8
Unknown Area Type
  70
32
  10
-6.03149393276229
  20
42.37954450148387
  30
835.929
  0
VERTEX
  8
Unknown Area Type
  70
32
  10
-6.03113046505511
  20
42.37943705668815
  30
835.64
  0
VERTEX
  8
Unknown Area Type
  70
32
  10
-6.03072334224149
  20
42.36668787302931
  30
847.725
  0
VERTEX
  8
Unknown Area Type
  70
32
  10
-6.05455355917252
  20
42.35177310500656
  30
894.134
  0
VERTEX
  8
Unknown Area Type
  70
32
  10
-6.05498952505059
  20
42.35150033647743
  30
897.191
  0
VERTEX
  8
Unknown Area Type
  70
32
  10
-6.05500771177757
  20
42.35149985145225
  30
897.305
  0
VERTEX
  8
Unknown Area Type
  70
32
  10
-6.06388747992269
  20
42.36808834332068
  30
920.132
  0
VERTEX
  8
Unknown Area Type
  70
32
  10
-6.06378429319306
  20
42.37907255847391
  30
877.034
  0
VERTEX
  8
Unknown Area Type
  70
32
  10
-6.04309606777853
  20
42.38300089616325
  30
855.566
  0
VERTEX
  8
Unknown Area Type
  70
32
  10
-6.03150627940913
  20
42.37954867716862
  30
835.92
  0
VERTEX
  8
Unknown Area Type
  70
32
  10
-6.03149393276229
  20
42.37954450148387
  30
835.929
  0
SEQEND
  8
Unknown Area Type
  0
TEXT
  8
Unknown Area Type
 62
7
  1
PNOA-H_AMS_1956-57_33k_ES_PAN_2
 40
0.00045
  10
-6.04709045478888
  20
42.36724929994415
  0
POLYLINE
  8
Unknown Area Type
  70
9
  66
1
  0
VERTEX
  8
Unknown Area Type
  70
32
  10
-5.87821034234885
  20
42.38155798898635
  30
792.268
  0
VERTEX
  8
Unknown Area Type
  70
32
  10
-5.86333253733724
  20
42.37771197928304
  30
802.509
  0
VERTEX
  8
Unknown Area Type
  70
32
  10
-5.86196136878132
  20
42.34205022204916
  30
789.443
  0
VERTEX
  8
Unknown Area Type
  70
32
  10
-5.8942434857797
  20
42.3413833287244
  30
780.304
  0
VERTEX
  8
Unknown Area Type
  70
32
  10
-5.89652118268504
  20
42.34247841153653
  30
780.847
  0
VERTEX
  8
Unknown Area Type
  70
32
  10
-5.89408075820232
  20
42.37815496661733
  30
792.972
  0
VERTEX
  8
Unknown Area Type
  70
32
  10
-5.87823440118709
  20
42.38155288198617
  30
792.332
  0
VERTEX
  8
Unknown Area Type
  70
32
  10
-5.87821034234885
  20
42.38155798898635
  30
792.268
  0
SEQEND
  8
Unknown Area Type
  0
TEXT
  8
Unknown Area Type
 62
7
  1
PNOA-H_AMS_1956-57_33k_ES_PAN_2
 40
0.00045
  10
-5.87924126794226
  20
42.36151388238027
  0
POLYLINE
  8
Unknown Area Type
  70
9
  66
1
  0
VERTEX
  8
Unknown Area Type
  70
32
  10
-5.87821034234885
  20
42.38155798898635
  30
792.268
  0
VERTEX
  8
Unknown Area Type
  70
32
  10
-5.86333253733724
  20
42.37771197928304
  30
802.509
  0
VERTEX
  8
Unknown Area Type
  70
32
  10
-5.86196136878132
  20
42.34205022204916
  30
789.443
  0
VERTEX
  8
Unknown Area Type
  70
32
  10
-5.8942434857797
  20
42.3413833287244
  30
780.304
  0
VERTEX
  8
Unknown Area Type
  70
32
  10
-5.89652118268504
  20
42.34247841153653
  30
780.847
  0
VERTEX
  8
Unknown Area Type
  70
32
  10
-5.89408075820232
  20
42.37815496661733
  30
792.972
  0
VERTEX
  8
Unknown Area Type
  70
32
  10
-5.87823440118709
  20
42.38155288198617
  30
792.332
  0
VERTEX
  8
Unknown Area Type
  70
32
  10
-5.87821034234885
  20
42.38155798898635
  30
792.268
  0
SEQEND
  8
Unknown Area Type
  0
TEXT
  8
Unknown Area Type
 62
7
  1
PNOA-H_AMS_1956-57_33k_ES_PAN_2
 40
0.00045
  10
-5.87924126794226
  20
42.36151388238027
  0
POLYLINE
  8
Unknown Area Type
  70
9
  66
1
  0
VERTEX
  8
Unknown Area Type
  70
32
  10
-5.86333253733724
  20
42.37771197928304
  30
802.509
  0
VERTEX
  8
Unknown Area Type
  70
32
  10
-5.85739254848857
  20
42.37903095005267
  30
802.006
  0
VERTEX
  8
Unknown Area Type
  70
32
  10
-5.85736848867286
  20
42.379036052697
  30
802.002
  0
VERTEX
  8
Unknown Area Type
  70
32
  10
-5.85416666666668
  20
42.37974587812803
  30
801.847
  0
VERTEX
  8
Unknown Area Type
  70
32
  10
-5.85416666666668
  20
42.37500000000003
  30
801.896
  0
VERTEX
  8
Unknown Area Type
  70
32
  10
-5.85416666666668
  20
42.35416666666671
  30
793.763
  0
VERTEX
  8
Unknown Area Type
  70
32
  10
-5.85416666666668
  20
42.34091631430186
  30
789.792
  0
VERTEX
  8
Unknown Area Type
  70
32
  10
-5.85864784128086
  20
42.34058407427795
  30
789.346
  0
VERTEX
  8
Unknown Area Type
  70
32
  10
-5.86196116464426
  20
42.34204572461259
  30
789.436
  0
SEQEND
  8
Unknown Area Type
  0
TEXT
  8
Unknown Area Type
 62
7
  1
PNOA-H_AMS_1956-57_33k_ES_PAN_2
 40
0.00045
  10
-5.85874960200196
  20
42.360164976203
  0
POLYLINE
  8
Unknown Area Type
  70
9
  66
1
  0
VERTEX
  8
Unknown Area Type
  70
32
  10
-5.86333253733724
  20
42.37771197928304
  30
802.509
  0
VERTEX
  8
Unknown Area Type
  70
32
  10
-5.85739254848857
  20
42.37903095005267
  30
802.006
  0
VERTEX
  8
Unknown Area Type
  70
32
  10
-5.85736848867286
  20
42.379036052697
  30
802.002
  0
VERTEX
  8
Unknown Area Type
  70
32
  10
-5.85416666666668
  20
42.37974587812803
  30
801.847
  0
VERTEX
  8
Unknown Area Type
  70
32
  10
-5.85416666666668
  20
42.37500000000003
  30
801.896
  0
VERTEX
  8
Unknown Area Type
  70
32
  10
-5.85416666666668
  20
42.35416666666671
  30
793.763
  0
VERTEX
  8
Unknown Area Type
  70
32
  10
-5.85416666666668
  20
42.34091631430186
  30
789.792
  0
VERTEX
  8
Unknown Area Type
  70
32
  10
-5.85864784128086
  20
42.34058407427795
  30
789.346
  0
VERTEX
  8
Unknown Area Type
  70
32
  10
-5.86196116464426
  20
42.34204572461259
  30
789.436
  0
SEQEND
  8
Unknown Area Type
  0
TEXT
  8
Unknown Area Type
 62
7
  1
PNOA-H_AMS_1956-57_33k_ES_PAN_2
 40
0.00045
  10
-5.85874960200196
  20
42.360164976203
  0
POLYLINE
  8
Unknown Area Type
  70
9
  66
1
  0
VERTEX
  8
Unknown Area Type
  70
32
  10
-5.85416666666668
  20
42.35416666666671
  30
793.763
  0
VERTEX
  8
Unknown Area Type
  70
32
  10
-5.85416666666668
  20
42.37500000000003
  30
801.896
  0
VERTEX
  8
Unknown Area Type
  70
32
  10
-5.85416666666668
  20
42.37974587812803
  30
801.847
  0
VERTEX
  8
Unknown Area Type
  70
32
  10
-5.85416633333334
  20
42.37974595202611
  30
801.847
  0
VERTEX
  8
Unknown Area Type
  70
32
  10
-5.85416633333334
  20
42.34091633901564
  30
789.792
  0
VERTEX
  8
Unknown Area Type
  70
32
  10
-5.85416666666668
  20
42.34091631430186
  30
789.792
  0
SEQEND
  8
Unknown Area Type
  0
TEXT
  8
Unknown Area Type
 62
7
  1
PNOA-H_AMS_1956-57_33k_ES_PAN_2
 40
0.00045
  10
-5.85416650000001
  20
42.36033113316399
  0
POLYLINE
  8
Unknown Area Type
  70
9
  66
1
  0
VERTEX
  8
Unknown Area Type
  70
32
  10
-6.18749999999997
  20
42.35416666666671
  30
1010.619
  0
VERTEX
  8
Unknown Area Type
  70
32
  10
-6.18749999999997
  20
42.37500000000003
  30
1018.535
  0
VERTEX
  8
Unknown Area Type
  70
32
  10
-6.18749999999997
  20
42.37656967415636
  30
1018.311
  0
VERTEX
  8
Unknown Area Type
  70
32
  10
-6.18146874756383
  20
42.37561650413292
  30
1023.894
  0
VERTEX
  8
Unknown Area Type
  70
32
  10
-6.18325873931072
  20
42.34074518468624
  30
1002.563
  0
VERTEX
  8
Unknown Area Type
  70
32
  10
-6.18749999999997
  20
42.3399057857425
  30
991.006
  0
SEQEND
  8
Unknown Area Type
  0
TEXT
  8
Unknown Area Type
 62
7
  1
PNOA-H_AMS_1956-57_33k_ES_PAN_2
 40
0.00045
  10
-6.1844843737819
  20
42.35823772994943
  0
POLYLINE
  8
Unknown Area Type
  70
9
  66
1
  0
VERTEX
  8
Unknown Area Type
  70
32
  10
-6.18749999999997
  20
42.35416666666671
  30
1010.619
  0
VERTEX
  8
Unknown Area Type
  70
32
  10
-6.18749999999997
  20
42.37500000000003
  30
1018.535
  0
VERTEX
  8
Unknown Area Type
  70
32
  10
-6.18749999999997
  20
42.37656967415636
  30
1018.311
  0
VERTEX
  8
Unknown Area Type
  70
32
  10
-6.18146874756383
  20
42.37561650413292
  30
1023.894
  0
VERTEX
  8
Unknown Area Type
  70
32
  10
-6.18325873931072
  20
42.34074518468624
  30
1002.563
  0
VERTEX
  8
Unknown Area Type
  70
32
  10
-6.18749999999997
  20
42.3399057857425
  30
991.006
  0
SEQEND
  8
Unknown Area Type
  0
TEXT
  8
Unknown Area Type
 62
7
  1
PNOA-H_AMS_1956-57_33k_ES_PAN_2
 40
0.00045
  10
-6.1844843737819
  20
42.35823772994943
  0
POLYLINE
  8
Unknown Area Type
  70
9
  66
1
  0
VERTEX
  8
Unknown Area Type
  70
32
  10
-6.18749999999997
  20
42.43750000000006
  30
968.246
  0
VERTEX
  8
Unknown Area Type
  70
32
  10
-6.18749999999997
  20
42.45774320074254
  30
999.031
  0
VERTEX
  8
Unknown Area Type
  70
32
  10
-6.17689511274012
  20
42.45688973746921
  30
986.166
  0
VERTEX
  8
Unknown Area Type
  70
32
  10
-6.17713973652595
  20
42.42194012702607
  30
953.986
  0
VERTEX
  8
Unknown Area Type
  70
32
  10
-6.17713769145226
  20
42.42189966242927
  30
953.624
  0
VERTEX
  8
Unknown Area Type
  70
32
  10
-6.17716135373458
  20
42.41791890946425
  30
962.545
  0
VERTEX
  8
Unknown Area Type
  70
32
  10
-6.18749999999997
  20
42.41719670413397
  30
983.467
  0
SEQEND
  8
Unknown Area Type
  0
TEXT
  8
Unknown Area Type
 62
7
  1
PNOA-H_AMS_1956-57_33k_ES_PAN_2
 40
0.00045
  10
-6.18219755637005
  20
42.43746995243826
  0
POLYLINE
  8
Unknown Area Type
  70
9
  66
1
  0
VERTEX
  8
Unknown Area Type
  70
32
  10
-6.18749999999997
  20
42.43750000000006
  30
968.246
  0
VERTEX
  8
Unknown Area Type
  70
32
  10
-6.18749999999997
  20
42.45774320074254
  30
999.031
  0
VERTEX
  8
Unknown Area Type
  70
32
  10
-6.17689511274012
  20
42.45688973746921
  30
986.166
  0
VERTEX
  8
Unknown Area Type
  70
32
  10
-6.17713973652595
  20
42.42194012702607
  30
953.986
  0
VERTEX
  8
Unknown Area Type
  70
32
  10
-6.17713769145226
  20
42.42189966242927
  30
953.624
  0
VERTEX
  8
Unknown Area Type
  70
32
  10
-6.17716135373458
  20
42.41791890946425
  30
962.545
  0
VERTEX
  8
Unknown Area Type
  70
32
  10
-6.18749999999997
  20
42.41719670413397
  30
983.467
  0
SEQEND
  8
Unknown Area Type
  0
TEXT
  8
Unknown Area Type
 62
7
  1
PNOA-H_AMS_1956-57_33k_ES_PAN_2
 40
0.00045
  10
-6.18219755637005
  20
42.43746995243826
  0
POLYLINE
  8
Unknown Area Type
  70
9
  66
1
  0
VERTEX
  8
Unknown Area Type
  70
32
  10
-6.18749999999997
  20
42.45833333333337
  30
999.084
  0
VERTEX
  8
Unknown Area Type
  70
32
  10
-6.18749999999997
  20
42.47916666666669
  30
1028.507
  0
VERTEX
  8
Unknown Area Type
  70
32
  10
-6.18749999999997
  20
42.49364271175936
  30
1031.024
  0
VERTEX
  8
Unknown Area Type
  70
32
  10
-6.18706742828415
  20
42.4936522937218
  30
1030.817
  0
VERTEX
  8
Unknown Area Type
  70
32
  10
-6.18652066120896
  20
42.49366751246564
  30
1030.212
  0
VERTEX
  8
Unknown Area Type
  70
32
  10
-6.17123706774031
  20
42.49400631398014
  30
1033.72
  0
VERTEX
  8
Unknown Area Type
  70
32
  10
-6.1702030444744
  20
42.49340912518745
  30
1026.251
  0
VERTEX
  8
Unknown Area Type
  70
32
  10
-6.17047976783076
  20
42.4589225168372
  30
990.811
  0
VERTEX
  8
Unknown Area Type
  70
32
  10
-6.17688904104742
  20
42.45688990592445
  30
986.151
  0
VERTEX
  8
Unknown Area Type
  70
32
  10
-6.18749999999997
  20
42.45774356966318
  30
999.026
  0
SEQEND
  8
Unknown Area Type
  0
TEXT
  8
Unknown Area Type
 62
7
  1
PNOA-H_AMS_1956-57_33k_ES_PAN_2
 40
0.00045
  10
-6.18607385133302
  20
42.47565148118016
  0
POLYLINE
  8
Unknown Area Type
  70
9
  66
1
  0
VERTEX
  8
Unknown Area Type
  70
32
  10
-6.18749999999997
  20
42.45833333333337
  30
999.084
  0
VERTEX
  8
Unknown Area Type
  70
32
  10
-6.18749999999997
  20
42.47916666666669
  30
1028.507
  0
VERTEX
  8
Unknown Area Type
  70
32
  10
-6.18749999999997
  20
42.49364271175936
  30
1031.024
  0
VERTEX
  8
Unknown Area Type
  70
32
  10
-6.18706742828415
  20
42.4936522937218
  30
1030.817
  0
VERTEX
  8
Unknown Area Type
  70
32
  10
-6.18652066120896
  20
42.49366751246564
  30
1030.212
  0
VERTEX
  8
Unknown Area Type
  70
32
  10
-6.17123706774031
  20
42.49400631398014
  30
1033.72
  0
VERTEX
  8
Unknown Area Type
  70
32
  10
-6.1702030444744
  20
42.49340912518745
  30
1026.251
  0
VERTEX
  8
Unknown Area Type
  70
32
  10
-6.17047976783076
  20
42.4589225168372
  30
990.811
  0
VERTEX
  8
Unknown Area Type
  70
32
  10
-6.17688904104742
  20
42.45688990592445
  30
986.151
  0
VERTEX
  8
Unknown Area Type
  70
32
  10
-6.18749999999997
  20
42.45774356966318
  30
999.026
  0
SEQEND
  8
Unknown Area Type
  0
TEXT
  8
Unknown Area Type
 62
7
  1
PNOA-H_AMS_1956-57_33k_ES_PAN_2
 40
0.00045
  10
-6.18607385133302
  20
42.47565148118016
  0
POLYLINE
  8
Unknown Area Type
  70
9
  66
1
  0
VERTEX
  8
Unknown Area Type
  70
32
  10
-6.0399358193657
  20
42.46250755340014
  30
844.11
  0
VERTEX
  8
Unknown Area Type
  70
32
  10
-6.03979284769115
  20
42.45754519943791
  30
842.828
  0
VERTEX
  8
Unknown Area Type
  70
32
  10
-6.0528985700189
  20
42.4554721407976
  30
865.893
  0
VERTEX
  8
Unknown Area Type
  70
32
  10
-6.05413396722456
  20
42.45574536245089
  30
866.902
  0
VERTEX
  8
Unknown Area Type
  70
32
  10
-6.05890147173352
  20
42.49481138475205
  30
885.176
  0
VERTEX
  8
Unknown Area Type
  70
32
  10
-6.05890498119297
  20
42.49488332899845
  30
883.229
  0
VERTEX
  8
Unknown Area Type
  70
32
  10
-6.05881969715981
  20
42.49488110495104
  30
882.966
  0
VERTEX
  8
Unknown Area Type
  70
32
  10
-6.040884679077
  20
42.49426473911845
  30
891.543
  0
VERTEX
  8
Unknown Area Type
  70
32
  10
-6.03995084326394
  20
42.46281782019003
  30
846.166
  0
VERTEX
  8
Unknown Area Type
  70
32
  10
-6.0399358193657
  20
42.46250755340014
  30
844.11
  0
SEQEND
  8
Unknown Area Type
  0
TEXT
  8
Unknown Area Type
 62
7
  1
PNOA-H_AMS_1956-57_33k_ES_PAN_2
 40
0.00045
  10
-6.04934937903745
  20
42.47529306751827
  0
POLYLINE
  8
Unknown Area Type
  70
9
  66
1
  0
VERTEX
  8
Unknown Area Type
  70
32
  10
-6.0399358193657
  20
42.46250755340014
  30
844.11
  0
VERTEX
  8
Unknown Area Type
  70
32
  10
-6.03979284769115
  20
42.45754519943791
  30
842.828
  0
VERTEX
  8
Unknown Area Type
  70
32
  10
-6.0528985700189
  20
42.4554721407976
  30
865.893
  0
VERTEX
  8
Unknown Area Type
  70
32
  10
-6.05413396722456
  20
42.45574536245089
  30
866.902
  0
VERTEX
  8
Unknown Area Type
  70
32
  10
-6.05890147173352
  20
42.49481138475205
  30
885.176
  0
VERTEX
  8
Unknown Area Type
  70
32
  10
-6.05890498119297
  20
42.49488332899845
  30
883.229
  0
VERTEX
  8
Unknown Area Type
  70
32
  10
-6.05881969715981
  20
42.49488110495104
  30
882.966
  0
VERTEX
  8
Unknown Area Type
  70
32
  10
-6.040884679077
  20
42.49426473911845
  30
891.543
  0
VERTEX
  8
Unknown Area Type
  70
32
  10
-6.03995084326394
  20
42.46281782019003
  30
846.166
  0
VERTEX
  8
Unknown Area Type
  70
32
  10
-6.0399358193657
  20
42.46250755340014
  30
844.11
  0
SEQEND
  8
Unknown Area Type
  0
TEXT
  8
Unknown Area Type
 62
7
  1
PNOA-H_AMS_1956-57_33k_ES_PAN_2
 40
0.00045
  10
-6.04934937903745
  20
42.47529306751827
  0
POLYLINE
  8
Unknown Area Type
  70
9
  66
1
  0
VERTEX
  8
Unknown Area Type
  70
32
  10
-6.08407476012728
  20
42.45888250601547
  30
887.32
  0
VERTEX
  8
Unknown Area Type
  70
32
  10
-6.08400189103249
  20
42.45888446852681
  30
874.317
  0
VERTEX
  8
Unknown Area Type
  70
32
  10
-6.08395805890925
  20
42.45885863467586
  30
860.994
  0
VERTEX
  8
Unknown Area Type
  70
32
  10
-6.08394525149323
  20
42.45884547243764
  30
860.854
  0
VERTEX
  8
Unknown Area Type
  70
32
  10
-6.08394867363126
  20
42.45879135164322
  30
860.766
  0
VERTEX
  8
Unknown Area Type
  70
32
  10
-6.08395562947612
  20
42.45880917385769
  30
860.748
  0
VERTEX
  8
Unknown Area Type
  70
32
  10
-6.08406239441317
  20
42.45887833666636
  30
888.247
  0
VERTEX
  8
Unknown Area Type
  70
32
  10
-6.08407476012728
  20
42.45888250601547
  30
887.32
  0
SEQEND
  8
Unknown Area Type
  0
TEXT
  8
Unknown Area Type
 62
7
  1
PNOA-H_AMS_1956-57_33k_ES_PAN_2
 40
0.00045
  10
-6.08397319261487
  20
42.45883571577131
  0
POLYLINE
  8
Unknown Area Type
  70
9
  66
1
  0
VERTEX
  8
Unknown Area Type
  70
32
  10
-6.08407476012728
  20
42.45888250601547
  30
887.32
  0
VERTEX
  8
Unknown Area Type
  70
32
  10
-6.08400189103249
  20
42.45888446852681
  30
874.317
  0
VERTEX
  8
Unknown Area Type
  70
32
  10
-6.08395805890925
  20
42.45885863467586
  30
860.994
  0
VERTEX
  8
Unknown Area Type
  70
32
  10
-6.08394525149323
  20
42.45884547243764
  30
860.854
  0
VERTEX
  8
Unknown Area Type
  70
32
  10
-6.08394867363126
  20
42.45879135164322
  30
860.766
  0
VERTEX
  8
Unknown Area Type
  70
32
  10
-6.08395562947612
  20
42.45880917385769
  30
860.748
  0
VERTEX
  8
Unknown Area Type
  70
32
  10
-6.08406239441317
  20
42.45887833666636
  30
888.247
  0
VERTEX
  8
Unknown Area Type
  70
32
  10
-6.08407476012728
  20
42.45888250601547
  30
887.32
  0
SEQEND
  8
Unknown Area Type
  0
TEXT
  8
Unknown Area Type
 62
7
  1
PNOA-H_AMS_1956-57_33k_ES_PAN_2
 40
0.00045
  10
-6.08397319261487
  20
42.45883571577131
  0
POLYLINE
  8
Unknown Area Type
  70
9
  66
1
  0
VERTEX
  8
Unknown Area Type
  70
32
  10
-6.09669745794678
  20
42.49424565539749
  30
930.231
  0
VERTEX
  8
Unknown Area Type
  70
32
  10
-6.07400071380787
  20
42.49354705975209
  30
899.752
  0
VERTEX
  8
Unknown Area Type
  70
32
  10
-6.07445152938447
  20
42.45780856963739
  30
856.237
  0
VERTEX
  8
Unknown Area Type
  70
32
  10
-6.08198855473693
  20
42.45626875760802
  30
858.307
  0
VERTEX
  8
Unknown Area Type
  70
32
  10
-6.09669027195772
  20
42.49422333793975
  30
930.033
  0
VERTEX
  8
Unknown Area Type
  70
32
  10
-6.09669745794678
  20
42.49424565539749
  30
930.231
  0
SEQEND
  8
Unknown Area Type
  0
TEXT
  8
Unknown Area Type
 62
7
  1
PNOA-H_AMS_1956-57_33k_ES_PAN_2
 40
0.00045
  10
-6.08534951614265
  20
42.47941860663424
  0
POLYLINE
  8
Unknown Area Type
  70
9
  66
1
  0
VERTEX
  8
Unknown Area Type
  70
32
  10
-6.09669745794678
  20
42.49424565539749
  30
930.231
  0
VERTEX
  8
Unknown Area Type
  70
32
  10
-6.07400071380787
  20
42.49354705975209
  30
899.752
  0
VERTEX
  8
Unknown Area Type
  70
32
  10
-6.07445152938447
  20
42.45780856963739
  30
856.237
  0
VERTEX
  8
Unknown Area Type
  70
32
  10
-6.08198855473693
  20
42.45626875760802
  30
858.307
  0
VERTEX
  8
Unknown Area Type
  70
32
  10
-6.09669027195772
  20
42.49422333793975
  30
930.033
  0
VERTEX
  8
Unknown Area Type
  70
32
  10
-6.09669745794678
  20
42.49424565539749
  30
930.231
  0
SEQEND
  8
Unknown Area Type
  0
TEXT
  8
Unknown Area Type
 62
7
  1
PNOA-H_AMS_1956-57_33k_ES_PAN_2
 40
0.00045
  10
-6.08534951614265
  20
42.47941860663424
  0
POLYLINE
  8
Unknown Area Type
  70
9
  66
1
  0
VERTEX
  8
Unknown Area Type
  70
32
  10
-6.16159044523641
  20
42.49344917058656
  30
1015.714
  0
VERTEX
  8
Unknown Area Type
  70
32
  10
-6.13934160059945
  20
42.49356161204938
  30
1011.294
  0
VERTEX
  8
Unknown Area Type
  70
32
  10
-6.14282375942124
  20
42.45729866931485
  30
938.431
  0
VERTEX
  8
Unknown Area Type
  70
32
  10
-6.14539325097679
  20
42.4565212463901
  30
946.62
  0
VERTEX
  8
Unknown Area Type
  70
32
  10
-6.17047976783076
  20
42.4589225168372
  30
990.811
  0
VERTEX
  8
Unknown Area Type
  70
32
  10
-6.17020281717175
  20
42.49340462914711
  30
1026.167
  0
VERTEX
  8
Unknown Area Type
  70
32
  10
-6.16168765031494
  20
42.49344648637754
  30
1016.054
  0
VERTEX
  8
Unknown Area Type
  70
32
  10
-6.16159044523641
  20
42.49344917058656
  30
1015.714
  0
SEQEND
  8
Unknown Area Type
  0
TEXT
  8
Unknown Area Type
 62
7
  1
PNOA-H_AMS_1956-57_33k_ES_PAN_2
 40
0.00045
  10
-6.15491104744441
  20
42.47545610560662
  0
POLYLINE
  8
Unknown Area Type
  70
9
  66
1
  0
VERTEX
  8
Unknown Area Type
  70
32
  10
-6.16159044523641
  20
42.49344917058656
  30
1015.714
  0
VERTEX
  8
Unknown Area Type
  70
32
  10
-6.13934160059945
  20
42.49356161204938
  30
1011.294
  0
VERTEX
  8
Unknown Area Type
  70
32
  10
-6.14282375942124
  20
42.45729866931485
  30
938.431
  0
VERTEX
  8
Unknown Area Type
  70
32
  10
-6.14539325097679
  20
42.4565212463901
  30
946.62
  0
VERTEX
  8
Unknown Area Type
  70
32
  10
-6.17047976783076
  20
42.4589225168372
  30
990.811
  0
VERTEX
  8
Unknown Area Type
  70
32
  10
-6.17020281717175
  20
42.49340462914711
  30
1026.167
  0
VERTEX
  8
Unknown Area Type
  70
32
  10
-6.16168765031494
  20
42.49344648637754
  30
1016.054
  0
VERTEX
  8
Unknown Area Type
  70
32
  10
-6.16159044523641
  20
42.49344917058656
  30
1015.714
  0
SEQEND
  8
Unknown Area Type
  0
TEXT
  8
Unknown Area Type
 62
7
  1
PNOA-H_AMS_1956-57_33k_ES_PAN_2
 40
0.00045
  10
-6.15491104744441
  20
42.47545610560662
  0
POLYLINE
  8
Unknown Area Type
  70
9
  66
1
  0
VERTEX
  8
Unknown Area Type
  70
32
  10
-6.01214121370856
  20
42.49483537191959
  30
902.052
  0
VERTEX
  8
Unknown Area Type
  70
32
  10
-6.00196529519653
  20
42.49450828824265
  30
943.041
  0
VERTEX
  8
Unknown Area Type
  70
32
  10
-5.99886318662079
  20
42.458633347076
  30
878.423
  0
VERTEX
  8
Unknown Area Type
  70
32
  10
-6.02180885709568
  20
42.45530621268669
  30
838.337
  0
VERTEX
  8
Unknown Area Type
  70
32
  10
-6.02187587022702
  20
42.45530894678449
  30
838.514
  0
VERTEX
  8
Unknown Area Type
  70
32
  10
-6.02256550552194
  20
42.45548885278527
  30
838.331
  0
VERTEX
  8
Unknown Area Type
  70
32
  10
-6.02360882646698
  20
42.49519948567046
  30
940.227
  0
VERTEX
  8
Unknown Area Type
  70
32
  10
-6.01218982417373
  20
42.49483409317303
  30
902.191
  0
VERTEX
  8
Unknown Area Type
  70
32
  10
-6.01214121370856
  20
42.49483537191959
  30
902.052
  0
SEQEND
  8
Unknown Area Type
  0
TEXT
  8
Unknown Area Type
 62
7
  1
PNOA-H_AMS_1956-57_33k_ES_PAN_2
 40
0.00045
  10
-6.01123645614035
  20
42.47582143510527
  0
POLYLINE
  8
Unknown Area Type
  70
9
  66
1
  0
VERTEX
  8
Unknown Area Type
  70
32
  10
-6.01214121370856
  20
42.49483537191959
  30
902.052
  0
VERTEX
  8
Unknown Area Type
  70
32
  10
-6.00196529519653
  20
42.49450828824265
  30
943.041
  0
VERTEX
  8
Unknown Area Type
  70
32
  10
-5.99886318662079
  20
42.458633347076
  30
878.423
  0
VERTEX
  8
Unknown Area Type
  70
32
  10
-6.02180885709568
  20
42.45530621268669
  30
838.337
  0
VERTEX
  8
Unknown Area Type
  70
32
  10
-6.02187587022702
  20
42.45530894678449
  30
838.514
  0
VERTEX
  8
Unknown Area Type
  70
32
  10
-6.02256550552194
  20
42.45548885278527
  30
838.331
  0
VERTEX
  8
Unknown Area Type
  70
32
  10
-6.02360882646698
  20
42.49519948567046
  30
940.227
  0
VERTEX
  8
Unknown Area Type
  70
32
  10
-6.01218982417373
  20
42.49483409317303
  30
902.191
  0
VERTEX
  8
Unknown Area Type
  70
32
  10
-6.01214121370856
  20
42.49483537191959
  30
902.052
  0
SEQEND
  8
Unknown Area Type
  0
TEXT
  8
Unknown Area Type
 62
7
  1
PNOA-H_AMS_1956-57_33k_ES_PAN_2
 40
0.00045
  10
-6.01123645614035
  20
42.47582143510527
  0
POLYLINE
  8
Unknown Area Type
  70
9
  66
1
  0
VERTEX
  8
Unknown Area Type
  70
32
  10
-5.98728373088276
  20
42.49614841784938
  30
940.288
  0
VERTEX
  8
Unknown Area Type
  70
32
  10
-5.96822585110745
  20
42.49545538336332
  30
928.03
  0
VERTEX
  8
Unknown Area Type
  70
32
  10
-5.96464419173835
  20
42.45880392350804
  30
888.974
  0
VERTEX
  8
Unknown Area Type
  70
32
  10
-5.9882580015776
  20
42.45606053769992
  30
916.369
  0
VERTEX
  8
Unknown Area Type
  70
32
  10
-5.99886318662079
  20
42.458633347076
  30
878.423
  0
VERTEX
  8
Unknown Area Type
  70
32
  10
-6.00196551045618
  20
42.49451278499534
  30
943.028
  0
VERTEX
  8
Unknown Area Type
  70
32
  10
-5.99866866074483
  20
42.49656221501392
  30
942.976
  0
VERTEX
  8
Unknown Area Type
  70
32
  10
-5.98731411375155
  20
42.49614762520501
  30
940.303
  0
VERTEX
  8
Unknown Area Type
  70
32
  10
-5.98728373088276
  20
42.49614841784938
  30
940.288
  0
SEQEND
  8
Unknown Area Type
  0
TEXT
  8
Unknown Area Type
 62
7
  1
PNOA-H_AMS_1956-57_33k_ES_PAN_2
 40
0.00045
  10
-5.98330526180381
  20
42.47631808244729
  0
POLYLINE
  8
Unknown Area Type
  70
9
  66
1
  0
VERTEX
  8
Unknown Area Type
  70
32
  10
-5.98728373088276
  20
42.49614841784938
  30
940.288
  0
VERTEX
  8
Unknown Area Type
  70
32
  10
-5.96822585110745
  20
42.49545538336332
  30
928.03
  0
VERTEX
  8
Unknown Area Type
  70
32
  10
-5.96464419173835
  20
42.45880392350804
  30
888.974
  0
VERTEX
  8
Unknown Area Type
  70
32
  10
-5.9882580015776
  20
42.45606053769992
  30
916.369
  0
VERTEX
  8
Unknown Area Type
  70
32
  10
-5.99886318662079
  20
42.458633347076
  30
878.423
  0
VERTEX
  8
Unknown Area Type
  70
32
  10
-6.00196551045618
  20
42.49451278499534
  30
943.028
  0
VERTEX
  8
Unknown Area Type
  70
32
  10
-5.99866866074483
  20
42.49656221501392
  30
942.976
  0
VERTEX
  8
Unknown Area Type
  70
32
  10
-5.98731411375155
  20
42.49614762520501
  30
940.303
  0
VERTEX
  8
Unknown Area Type
  70
32
  10
-5.98728373088276
  20
42.49614841784938
  30
940.288
  0
SEQEND
  8
Unknown Area Type
  0
TEXT
  8
Unknown Area Type
 62
7
  1
PNOA-H_AMS_1956-57_33k_ES_PAN_2
 40
0.00045
  10
-5.98330526180381
  20
42.47631808244729
  0
POLYLINE
  8
Unknown Area Type
  70
9
  66
1
  0
VERTEX
  8
Unknown Area Type
  70
32
  10
-6.15979988555464
  20
42.45790303860263
  30
964.047
  0
VERTEX
  8
Unknown Area Type
  70
32
  10
-6.14540539466032
  20
42.45652091281842
  30
946.713
  0
VERTEX
  8
Unknown Area Type
  70
32
  10
-6.14739954116956
  20
42.41853812362034
  30
912.172
  0
VERTEX
  8
Unknown Area Type
  70
32
  10
-6.17218228710236
  20
42.41618394953089
  30
942.995
  0
VERTEX
  8
Unknown Area Type
  70
32
  10
-6.17716135373458
  20
42.41791890946425
  30
962.545
  0
VERTEX
  8
Unknown Area Type
  70
32
  10
-6.17689511274012
  20
42.45688973746921
  30
986.166
  0
VERTEX
  8
Unknown Area Type
  70
32
  10
-6.17049798361103
  20
42.45892201246967
  30
990.843
  0
VERTEX
  8
Unknown Area Type
  70
32
  10
-6.17004009177777
  20
42.45888516404103
  30
990.246
  0
VERTEX
  8
Unknown Area Type
  70
32
  10
-6.15983024500924
  20
42.45790220083339
  30
964.031
  0
VERTEX
  8
Unknown Area Type
  70
32
  10
-6.15979988555464
  20
42.45790303860263
  30
964.047
  0
SEQEND
  8
Unknown Area Type
  0
TEXT
  8
Unknown Area Type
 62
7
  1
PNOA-H_AMS_1956-57_33k_ES_PAN_2
 40
0.00045
  10
-6.16128369611669
  20
42.43762922656123
  0
POLYLINE
  8
Unknown Area Type
  70
9
  66
1
  0
VERTEX
  8
Unknown Area Type
  70
32
  10
-6.15979988555464
  20
42.45790303860263
  30
964.047
  0
VERTEX
  8
Unknown Area Type
  70
32
  10
-6.14540539466032
  20
42.45652091281842
  30
946.713
  0
VERTEX
  8
Unknown Area Type
  70
32
  10
-6.14739954116956
  20
42.41853812362034
  30
912.172
  0
VERTEX
  8
Unknown Area Type
  70
32
  10
-6.17218228710236
  20
42.41618394953089
  30
942.995
  0
VERTEX
  8
Unknown Area Type
  70
32
  10
-6.17716135373458
  20
42.41791890946425
  30
962.545
  0
VERTEX
  8
Unknown Area Type
  70
32
  10
-6.17689511274012
  20
42.45688973746921
  30
986.166
  0
VERTEX
  8
Unknown Area Type
  70
32
  10
-6.17049798361103
  20
42.45892201246967
  30
990.843
  0
VERTEX
  8
Unknown Area Type
  70
32
  10
-6.17004009177777
  20
42.45888516404103
  30
990.246
  0
VERTEX
  8
Unknown Area Type
  70
32
  10
-6.15983024500924
  20
42.45790220083339
  30
964.031
  0
VERTEX
  8
Unknown Area Type
  70
32
  10
-6.15979988555464
  20
42.45790303860263
  30
964.047
  0
SEQEND
  8
Unknown Area Type
  0
TEXT
  8
Unknown Area Type
 62
7
  1
PNOA-H_AMS_1956-57_33k_ES_PAN_2
 40
0.00045
  10
-6.16128369611669
  20
42.43762922656123
  0
POLYLINE
  8
Unknown Area Type
  70
9
  66
1
  0
VERTEX
  8
Unknown Area Type
  70
32
  10
-6.1348439038689
  20
42.45688257418944
  30
928.986
  0
VERTEX
  8
Unknown Area Type
  70
32
  10
-6.11572664041819
  20
42.45588253470777
  30
895.698
  0
VERTEX
  8
Unknown Area Type
  70
32
  10
-6.11594279415917
  20
42.41844381667526
  30
874.821
  0
VERTEX
  8
Unknown Area Type
  70
32
  10
-6.14003422376941
  20
42.41597133974449
  30
907.888
  0
VERTEX
  8
Unknown Area Type
  70
32
  10
-6.14017603225754
  20
42.41601247537161
  30
908.076
  0
VERTEX
  8
Unknown Area Type
  70
32
  10
-6.14739931609063
  20
42.41853362742218
  30
912.192
  0
VERTEX
  8
Unknown Area Type
  70
32
  10
-6.14540539466032
  20
42.45652091281842
  30
946.713
  0
VERTEX
  8
Unknown Area Type
  70
32
  10
-6.14283590328494
  20
42.45729833601049
  30
938.449
  0
VERTEX
  8
Unknown Area Type
  70
32
  10
-6.13487426355912
  20
42.45688174304627
  30
929.005
  0
VERTEX
  8
Unknown Area Type
  70
32
  10
-6.1348439038689
  20
42.45688257418944
  30
928.986
  0
SEQEND
  8
Unknown Area Type
  0
TEXT
  8
Unknown Area Type
 62
7
  1
PNOA-H_AMS_1956-57_33k_ES_PAN_2
 40
0.00045
  10
-6.13156339695967
  20
42.43677415578374
  0
POLYLINE
  8
Unknown Area Type
  70
9
  66
1
  0
VERTEX
  8
Unknown Area Type
  70
32
  10
-6.1348439038689
  20
42.45688257418944
  30
928.986
  0
VERTEX
  8
Unknown Area Type
  70
32
  10
-6.11572664041819
  20
42.45588253470777
  30
895.698
  0
VERTEX
  8
Unknown Area Type
  70
32
  10
-6.11594279415917
  20
42.41844381667526
  30
874.821
  0
VERTEX
  8
Unknown Area Type
  70
32
  10
-6.14003422376941
  20
42.41597133974449
  30
907.888
  0
VERTEX
  8
Unknown Area Type
  70
32
  10
-6.14017603225754
  20
42.41601247537161
  30
908.076
  0
VERTEX
  8
Unknown Area Type
  70
32
  10
-6.14739931609063
  20
42.41853362742218
  30
912.192
  0
VERTEX
  8
Unknown Area Type
  70
32
  10
-6.14540539466032
  20
42.45652091281842
  30
946.713
  0
VERTEX
  8
Unknown Area Type
  70
32
  10
-6.14283590328494
  20
42.45729833601049
  30
938.449
  0
VERTEX
  8
Unknown Area Type
  70
32
  10
-6.13487426355912
  20
42.45688174304627
  30
929.005
  0
VERTEX
  8
Unknown Area Type
  70
32
  10
-6.1348439038689
  20
42.45688257418944
  30
928.986
  0
SEQEND
  8
Unknown Area Type
  0
TEXT
  8
Unknown Area Type
 62
7
  1
PNOA-H_AMS_1956-57_33k_ES_PAN_2
 40
0.00045
  10
-6.13156339695967
  20
42.43677415578374
  0
POLYLINE
  8
Unknown Area Type
  70
9
  66
1
  0
VERTEX
  8
Unknown Area Type
  70
32
  10
-6.03523054464436
  20
42.45699985781761
  30
841.543
  0
VERTEX
  8
Unknown Area Type
  70
32
  10
-6.02257765041143
  20
42.45548853223355
  30
838.33
  0
VERTEX
  8
Unknown Area Type
  70
32
  10
-6.02184529168312
  20
42.45530525127149
  30
838.399
  0
VERTEX
  8
Unknown Area Type
  70
32
  10
-6.02226509055278
  20
42.41904067597473
  30
848.136
  0
VERTEX
  8
Unknown Area Type
  70
32
  10
-6.02227593155037
  20
42.41901337530754
  30
848.188
  0
VERTEX
  8
Unknown Area Type
  70
32
  10
-6.04418907003619
  20
42.41476354506434
  30
881.489
  0
VERTEX
  8
Unknown Area Type
  70
32
  10
-6.04423154878406
  20
42.41476241597893
  30
881.21
  0
VERTEX
  8
Unknown Area Type
  70
32
  10
-6.0443921569515
  20
42.41481667840532
  30
879.785
  0
VERTEX
  8
Unknown Area Type
  70
32
  10
-6.05561439510465
  20
42.41868256158248
  30
879.695
  0
VERTEX
  8
Unknown Area Type
  70
32
  10
-6.05291613100259
  20
42.45545816543433
  30
865.882
  0
VERTEX
  8
Unknown Area Type
  70
32
  10
-6.05291071456328
  20
42.4554718170321
  30
865.883
  0
VERTEX
  8
Unknown Area Type
  70
32
  10
-6.05286864587227
  20
42.45548194334917
  30
865.928
  0
VERTEX
  8
Unknown Area Type
  70
32
  10
-6.03981713787713
  20
42.45754455465751
  30
842.506
  0
VERTEX
  8
Unknown Area Type
  70
32
  10
-6.03921203790654
  20
42.4574795721717
  30
842.262
  0
VERTEX
  8
Unknown Area Type
  70
32
  10
-6.03524268968349
  20
42.45699953591478
  30
841.551
  0
VERTEX
  8
Unknown Area Type
  70
32
  10
-6.03523054464436
  20
42.45699985781761
  30
841.543
  0
SEQEND
  8
Unknown Area Type
  0
TEXT
  8
Unknown Area Type
 62
7
  1
PNOA-H_AMS_1956-57_33k_ES_PAN_2
 40
0.00045
  10
-6.03873031432771
  20
42.43661978937402
  0
POLYLINE
  8
Unknown Area Type
  70
9
  66
1
  0
VERTEX
  8
Unknown Area Type
  70
32
  10
-6.03523054464436
  20
42.45699985781761
  30
841.543
  0
VERTEX
  8
Unknown Area Type
  70
32
  10
-6.02257765041143
  20
42.45548853223355
  30
838.33
  0
VERTEX
  8
Unknown Area Type
  70
32
  10
-6.02184529168312
  20
42.45530525127149
  30
838.399
  0
VERTEX
  8
Unknown Area Type
  70
32
  10
-6.02226509055278
  20
42.41904067597473
  30
848.136
  0
VERTEX
  8
Unknown Area Type
  70
32
  10
-6.02227593155037
  20
42.41901337530754
  30
848.188
  0
VERTEX
  8
Unknown Area Type
  70
32
  10
-6.04418907003619
  20
42.41476354506434
  30
881.489
  0
VERTEX
  8
Unknown Area Type
  70
32
  10
-6.04423154878406
  20
42.41476241597893
  30
881.21
  0
VERTEX
  8
Unknown Area Type
  70
32
  10
-6.0443921569515
  20
42.41481667840532
  30
879.785
  0
VERTEX
  8
Unknown Area Type
  70
32
  10
-6.05561439510465
  20
42.41868256158248
  30
879.695
  0
VERTEX
  8
Unknown Area Type
  70
32
  10
-6.05291613100259
  20
42.45545816543433
  30
865.882
  0
VERTEX
  8
Unknown Area Type
  70
32
  10
-6.05291071456328
  20
42.4554718170321
  30
865.883
  0
VERTEX
  8
Unknown Area Type
  70
32
  10
-6.05286864587227
  20
42.45548194334917
  30
865.928
  0
VERTEX
  8
Unknown Area Type
  70
32
  10
-6.03981713787713
  20
42.45754455465751
  30
842.506
  0
VERTEX
  8
Unknown Area Type
  70
32
  10
-6.03921203790654
  20
42.4574795721717
  30
842.262
  0
VERTEX
  8
Unknown Area Type
  70
32
  10
-6.03524268968349
  20
42.45699953591478
  30
841.551
  0
VERTEX
  8
Unknown Area Type
  70
32
  10
-6.03523054464436
  20
42.45699985781761
  30
841.543
  0
SEQEND
  8
Unknown Area Type
  0
TEXT
  8
Unknown Area Type
 62
7
  1
PNOA-H_AMS_1956-57_33k_ES_PAN_2
 40
0.00045
  10
-6.03873031432771
  20
42.43661978937402
  0
POLYLINE
  8
Unknown Area Type
  70
9
  66
1
  0
VERTEX
  8
Unknown Area Type
  70
32
  10
-5.9635582250488
  20
42.49852085559498
  30
937.995
  0
VERTEX
  8
Unknown Area Type
  70
32
  10
-5.93557329583872
  20
42.4957298225055
  30
923.976
  0
VERTEX
  8
Unknown Area Type
  70
32
  10
-5.93101167282255
  20
42.45903929581441
  30
850.387
  0
VERTEX
  8
Unknown Area Type
  70
32
  10
-5.95760377411636
  20
42.45701389953595
  30
902.596
  0
VERTEX
  8
Unknown Area Type
  70
32
  10
-5.96464419173835
  20
42.45880392350804
  30
888.974
  0
VERTEX
  8
Unknown Area Type
  70
32
  10
-5.96822585110745
  20
42.49545538336332
  30
928.03
  0
VERTEX
  8
Unknown Area Type
  70
32
  10
-5.96356387690685
  20
42.49851170450383
  30
938.009
  0
VERTEX
  8
Unknown Area Type
  70
32
  10
-5.9635582250488
  20
42.49852085559498
  30
937.995
  0
SEQEND
  8
Unknown Area Type
  0
TEXT
  8
Unknown Area Type
 62
7
  1
PNOA-H_AMS_1956-57_33k_ES_PAN_2
 40
0.00045
  10
-5.94961930241069
  20
42.47737491777296
  0
POLYLINE
  8
Unknown Area Type
  70
9
  66
1
  0
VERTEX
  8
Unknown Area Type
  70
32
  10
-5.9635582250488
  20
42.49852085559498
  30
937.995
  0
VERTEX
  8
Unknown Area Type
  70
32
  10
-5.93557329583872
  20
42.4957298225055
  30
923.976
  0
VERTEX
  8
Unknown Area Type
  70
32
  10
-5.93101167282255
  20
42.45903929581441
  30
850.387
  0
VERTEX
  8
Unknown Area Type
  70
32
  10
-5.95760377411636
  20
42.45701389953595
  30
902.596
  0
VERTEX
  8
Unknown Area Type
  70
32
  10
-5.96464419173835
  20
42.45880392350804
  30
888.974
  0
VERTEX
  8
Unknown Area Type
  70
32
  10
-5.96822585110745
  20
42.49545538336332
  30
928.03
  0
VERTEX
  8
Unknown Area Type
  70
32
  10
-5.96356387690685
  20
42.49851170450383
  30
938.009
  0
VERTEX
  8
Unknown Area Type
  70
32
  10
-5.9635582250488
  20
42.49852085559498
  30
937.995
  0
SEQEND
  8
Unknown Area Type
  0
TEXT
  8
Unknown Area Type
 62
7
  1
PNOA-H_AMS_1956-57_33k_ES_PAN_2
 40
0.00045
  10
-5.94961930241069
  20
42.47737491777296
  0
POLYLINE
  8
Unknown Area Type
  70
9
  66
1
  0
VERTEX
  8
Unknown Area Type
  70
32
  10
-6.08412311864994
  20
42.45887670121159
  30
883.913
  0
VERTEX
  8
Unknown Area Type
  70
32
  10
-6.08406669991161
  20
42.45884220162212
  30
883.815
  0
VERTEX
  8
Unknown Area Type
  70
32
  10
-6.08406029483391
  20
42.45871180493144
  30
857.856
  0
VERTEX
  8
Unknown Area Type
  70
32
  10
-6.08412753305488
  20
42.45871899881108
  30
857.249
  0
VERTEX
  8
Unknown Area Type
  70
32
  10
-6.08417202776004
  20
42.45875832191008
  30
857.455
  0
VERTEX
  8
Unknown Area Type
  70
32
  10
-6.08417556172441
  20
42.45883026490412
  30
864.508
  0
VERTEX
  8
Unknown Area Type
  70
32
  10
-6.08413504262607
  20
42.45887187767955
  30
882.212
  0
VERTEX
  8
Unknown Area Type
  70
32
  10
-6.08412311864994
  20
42.45887670121159
  30
883.913
  0
SEQEND
  8
Unknown Area Type
  0
TEXT
  8
Unknown Area Type
 62
7
  1
PNOA-H_AMS_1956-57_33k_ES_PAN_2
 40
0.00045
  10
-6.08411826293533
  20
42.45879355613224
  0
POLYLINE
  8
Unknown Area Type
  70
9
  66
1
  0
VERTEX
  8
Unknown Area Type
  70
32
  10
-6.08412311864994
  20
42.45887670121159
  30
883.913
  0
VERTEX
  8
Unknown Area Type
  70
32
  10
-6.08406669991161
  20
42.45884220162212
  30
883.815
  0
VERTEX
  8
Unknown Area Type
  70
32
  10
-6.08406029483391
  20
42.45871180493144
  30
857.856
  0
VERTEX
  8
Unknown Area Type
  70
32
  10
-6.08412753305488
  20
42.45871899881108
  30
857.249
  0
VERTEX
  8
Unknown Area Type
  70
32
  10
-6.08417202776004
  20
42.45875832191008
  30
857.455
  0
VERTEX
  8
Unknown Area Type
  70
32
  10
-6.08417556172441
  20
42.45883026490412
  30
864.508
  0
VERTEX
  8
Unknown Area Type
  70
32
  10
-6.08413504262607
  20
42.45887187767955
  30
882.212
  0
VERTEX
  8
Unknown Area Type
  70
32
  10
-6.08412311864994
  20
42.45887670121159
  30
883.913
  0
SEQEND
  8
Unknown Area Type
  0
TEXT
  8
Unknown Area Type
 62
7
  1
PNOA-H_AMS_1956-57_33k_ES_PAN_2
 40
0.00045
  10
-6.08411826293533
  20
42.45879355613224
  0
POLYLINE
  8
Unknown Area Type
  70
9
  66
1
  0
VERTEX
  8
Unknown Area Type
  70
32
  10
-6.08425968177774
  20
42.4580670959995
  30
882.81
  0
VERTEX
  8
Unknown Area Type
  70
32
  10
-6.08409572846003
  20
42.45807151178145
  30
883.799
  0
VERTEX
  8
Unknown Area Type
  70
32
  10
-6.08408126342627
  20
42.45790081067518
  30
872.723
  0
VERTEX
  8
Unknown Area Type
  70
32
  10
-6.08425128862889
  20
42.45789623137749
  30
869.286
  0
VERTEX
  8
Unknown Area Type
  70
32
  10
-6.08430770658229
  20
42.45793073090496
  30
863.443
  0
VERTEX
  8
Unknown Area Type
  70
32
  10
-6.08431819644562
  20
42.45802049609426
  30
876.4
  0
VERTEX
  8
Unknown Area Type
  70
32
  10
-6.08427160559234
  20
42.45806227245794
  30
882.445
  0
VERTEX
  8
Unknown Area Type
  70
32
  10
-6.08425968177774
  20
42.4580670959995
  30
882.81
  0
SEQEND
  8
Unknown Area Type
  0
TEXT
  8
Unknown Area Type
 62
7
  1
PNOA-H_AMS_1956-57_33k_ES_PAN_2
 40
0.00045
  10
-6.0842014566013
  20
42.45798167748367
  0
POLYLINE
  8
Unknown Area Type
  70
9
  66
1
  0
VERTEX
  8
Unknown Area Type
  70
32
  10
-6.08425968177774
  20
42.4580670959995
  30
882.81
  0
VERTEX
  8
Unknown Area Type
  70
32
  10
-6.08409572846003
  20
42.45807151178145
  30
883.799
  0
VERTEX
  8
Unknown Area Type
  70
32
  10
-6.08408126342627
  20
42.45790081067518
  30
872.723
  0
VERTEX
  8
Unknown Area Type
  70
32
  10
-6.08425128862889
  20
42.45789623137749
  30
869.286
  0
VERTEX
  8
Unknown Area Type
  70
32
  10
-6.08430770658229
  20
42.45793073090496
  30
863.443
  0
VERTEX
  8
Unknown Area Type
  70
32
  10
-6.08431819644562
  20
42.45802049609426
  30
876.4
  0
VERTEX
  8
Unknown Area Type
  70
32
  10
-6.08427160559234
  20
42.45806227245794
  30
882.445
  0
VERTEX
  8
Unknown Area Type
  70
32
  10
-6.08425968177774
  20
42.4580670959995
  30
882.81
  0
SEQEND
  8
Unknown Area Type
  0
TEXT
  8
Unknown Area Type
 62
7
  1
PNOA-H_AMS_1956-57_33k_ES_PAN_2
 40
0.00045
  10
-6.0842014566013
  20
42.45798167748367
  0
POLYLINE
  8
Unknown Area Type
  70
9
  66
1
  0
VERTEX
  8
Unknown Area Type
  70
32
  10
-6.08276759586808
  20
42.45355986192055
  30
860.067
  0
VERTEX
  8
Unknown Area Type
  70
32
  10
-6.08251842649342
  20
42.45356206701495
  30
863.11
  0
VERTEX
  8
Unknown Area Type
  70
32
  10
-6.0824678647464
  20
42.45352290653356
  30
863.704
  0
VERTEX
  8
Unknown Area Type
  70
32
  10
-6.08251423293784
  20
42.45347663449728
  30
870.266
  0
VERTEX
  8
Unknown Area Type
  70
32
  10
-6.08251048082463
  20
42.45340019487485
  30
883.746
  0
VERTEX
  8
Unknown Area Type
  70
32
  10
-6.08264991387122
  20
42.4533919391133
  30
886.3
  0
VERTEX
  8
Unknown Area Type
  70
32
  10
-6.08269628183302
  20
42.4533456670098
  30
885.87
  0
VERTEX
  8
Unknown Area Type
  70
32
  10
-6.08276307269955
  20
42.45334386899193
  30
883.917
  0
VERTEX
  8
Unknown Area Type
  70
32
  10
-6.08281551243371
  20
42.45329743338565
  30
883.097
  0
VERTEX
  8
Unknown Area Type
  70
32
  10
-6.0829369502615
  20
42.45329416411001
  30
877.526
  0
VERTEX
  8
Unknown Area Type
  70
32
  10
-6.08299358399074
  20
42.45333316091207
  30
866.887
  0
VERTEX
  8
Unknown Area Type
  70
32
  10
-6.08299799892391
  20
42.45342308983963
  30
855.435
  0
VERTEX
  8
Unknown Area Type
  70
32
  10
-6.08288682680688
  20
42.45351162821233
  30
857.373
  0
VERTEX
  8
Unknown Area Type
  70
32
  10
-6.08282003576987
  20
42.45351342630801
  30
858.034
  0
VERTEX
  8
Unknown Area Type
  70
32
  10
-6.08277322632134
  20
42.45355070556718
  30
859.721
  0
VERTEX
  8
Unknown Area Type
  70
32
  10
-6.08276759586808
  20
42.45355986192055
  30
860.067
  0
SEQEND
  8
Unknown Area Type
  0
TEXT
  8
Unknown Area Type
 62
7
  1
PNOA-H_AMS_1956-57_33k_ES_PAN_2
 40
0.00045
  10
-6.08275215909784
  20
42.45342591659049
  0
POLYLINE
  8
Unknown Area Type
  70
9
  66
1
  0
VERTEX
  8
Unknown Area Type
  70
32
  10
-6.08276759586808
  20
42.45355986192055
  30
860.067
  0
VERTEX
  8
Unknown Area Type
  70
32
  10
-6.08251842649342
  20
42.45356206701495
  30
863.11
  0
VERTEX
  8
Unknown Area Type
  70
32
  10
-6.0824678647464
  20
42.45352290653356
  30
863.704
  0
VERTEX
  8
Unknown Area Type
  70
32
  10
-6.08251423293784
  20
42.45347663449728
  30
870.266
  0
VERTEX
  8
Unknown Area Type
  70
32
  10
-6.08251048082463
  20
42.45340019487485
  30
883.746
  0
VERTEX
  8
Unknown Area Type
  70
32
  10
-6.08264991387122
  20
42.4533919391133
  30
886.3
  0
VERTEX
  8
Unknown Area Type
  70
32
  10
-6.08269628183302
  20
42.4533456670098
  30
885.87
  0
VERTEX
  8
Unknown Area Type
  70
32
  10
-6.08276307269955
  20
42.45334386899193
  30
883.917
  0
VERTEX
  8
Unknown Area Type
  70
32
  10
-6.08281551243371
  20
42.45329743338565
  30
883.097
  0
VERTEX
  8
Unknown Area Type
  70
32
  10
-6.0829369502615
  20
42.45329416411001
  30
877.526
  0
VERTEX
  8
Unknown Area Type
  70
32
  10
-6.08299358399074
  20
42.45333316091207
  30
866.887
  0
VERTEX
  8
Unknown Area Type
  70
32
  10
-6.08299799892391
  20
42.45342308983963
  30
855.435
  0
VERTEX
  8
Unknown Area Type
  70
32
  10
-6.08288682680688
  20
42.45351162821233
  30
857.373
  0
VERTEX
  8
Unknown Area Type
  70
32
  10
-6.08282003576987
  20
42.45351342630801
  30
858.034
  0
VERTEX
  8
Unknown Area Type
  70
32
  10
-6.08277322632134
  20
42.45355070556718
  30
859.721
  0
VERTEX
  8
Unknown Area Type
  70
32
  10
-6.08276759586808
  20
42.45355986192055
  30
860.067
  0
SEQEND
  8
Unknown Area Type
  0
TEXT
  8
Unknown Area Type
 62
7
  1
PNOA-H_AMS_1956-57_33k_ES_PAN_2
 40
0.00045
  10
-6.08275215909784
  20
42.45342591659049
  0
POLYLINE
  8
Unknown Area Type
  70
9
  66
1
  0
VERTEX
  8
Unknown Area Type
  70
32
  10
-6.08497229623254
  20
42.45561661146681
  30
858.821
  0
VERTEX
  8
Unknown Area Type
  70
32
  10
-6.08422752388134
  20
42.45555563017031
  30
859.398
  0
VERTEX
  8
Unknown Area Type
  70
32
  10
-6.08623612258135
  20
42.4187214305317
  30
865.32
  0
VERTEX
  8
Unknown Area Type
  70
32
  10
-6.08643505987301
  20
42.41868905495475
  30
865.273
  0
VERTEX
  8
Unknown Area Type
  70
32
  10
-6.10848111824827
  20
42.41586860870016
  30
890.039
  0
VERTEX
  8
Unknown Area Type
  70
32
  10
-6.11594257132832
  20
42.41843932034168
  30
874.794
  0
VERTEX
  8
Unknown Area Type
  70
32
  10
-6.11572664041819
  20
42.45588253470777
  30
895.698
  0
VERTEX
  8
Unknown Area Type
  70
32
  10
-6.11417897883156
  20
42.4564289007304
  30
892.699
  0
VERTEX
  8
Unknown Area Type
  70
32
  10
-6.10982997884553
  20
42.45762315955675
  30
884.475
  0
VERTEX
  8
Unknown Area Type
  70
32
  10
-6.10978140160701
  20
42.45762447878689
  30
884.348
  0
VERTEX
  8
Unknown Area Type
  70
32
  10
-6.08501502186484
  20
42.45561996282107
  30
858.818
  0
VERTEX
  8
Unknown Area Type
  70
32
  10
-6.08497229623254
  20
42.45561661146681
  30
858.821
  0
SEQEND
  8
Unknown Area Type
  0
TEXT
  8
Unknown Area Type
 62
7
  1
PNOA-H_AMS_1956-57_33k_ES_PAN_2
 40
0.00045
  10
-6.10008531187694
  20
42.43688987120159
  0
POLYLINE
  8
Unknown Area Type
  70
9
  66
1
  0
VERTEX
  8
Unknown Area Type
  70
32
  10
-6.08497229623254
  20
42.45561661146681
  30
858.821
  0
VERTEX
  8
Unknown Area Type
  70
32
  10
-6.08422752388134
  20
42.45555563017031
  30
859.398
  0
VERTEX
  8
Unknown Area Type
  70
32
  10
-6.08623612258135
  20
42.4187214305317
  30
865.32
  0
VERTEX
  8
Unknown Area Type
  70
32
  10
-6.08643505987301
  20
42.41868905495475
  30
865.273
  0
VERTEX
  8
Unknown Area Type
  70
32
  10
-6.10848111824827
  20
42.41586860870016
  30
890.039
  0
VERTEX
  8
Unknown Area Type
  70
32
  10
-6.11594257132832
  20
42.41843932034168
  30
874.794
  0
VERTEX
  8
Unknown Area Type
  70
32
  10
-6.11572664041819
  20
42.45588253470777
  30
895.698
  0
VERTEX
  8
Unknown Area Type
  70
32
  10
-6.11417897883156
  20
42.4564289007304
  30
892.699
  0
VERTEX
  8
Unknown Area Type
  70
32
  10
-6.10982997884553
  20
42.45762315955675
  30
884.475
  0
VERTEX
  8
Unknown Area Type
  70
32
  10
-6.10978140160701
  20
42.45762447878689
  30
884.348
  0
VERTEX
  8
Unknown Area Type
  70
32
  10
-6.08501502186484
  20
42.45561996282107
  30
858.818
  0
VERTEX
  8
Unknown Area Type
  70
32
  10
-6.08497229623254
  20
42.45561661146681
  30
858.821
  0
SEQEND
  8
Unknown Area Type
  0
TEXT
  8
Unknown Area Type
 62
7
  1
PNOA-H_AMS_1956-57_33k_ES_PAN_2
 40
0.00045
  10
-6.10008531187694
  20
42.43688987120159
  0
POLYLINE
  8
Unknown Area Type
  70
9
  66
1
  0
VERTEX
  8
Unknown Area Type
  70
32
  10
-6.09704058836619
  20
42.36923634936208
  30
961.846
  0
VERTEX
  8
Unknown Area Type
  70
32
  10
-6.08588766961454
  20
42.35091076617142
  30
934.798
  0
VERTEX
  8
Unknown Area Type
  70
32
  10
-6.08584594374099
  20
42.34026359898029
  30
867.775
  0
VERTEX
  8
Unknown Area Type
  70
32
  10
-6.10088885745239
  20
42.3360258004306
  30
874.105
  0
VERTEX
  8
Unknown Area Type
  70
32
  10
-6.11807927419525
  20
42.3405298703838
  30
884.695
  0
VERTEX
  8
Unknown Area Type
  70
32
  10
-6.11788064353465
  20
42.34964370560119
  30
936.913
  0
VERTEX
  8
Unknown Area Type
  70
32
  10
-6.09704014616751
  20
42.36922735645622
  30
961.889
  0
VERTEX
  8
Unknown Area Type
  70
32
  10
-6.09704058836619
  20
42.36923634936208
  30
961.846
  0
SEQEND
  8
Unknown Area Type
  0
TEXT
  8
Unknown Area Type
 62
7
  1
PNOA-H_AMS_1956-57_33k_ES_PAN_2
 40
0.00045
  10
-6.10196277298312
  20
42.35045379444367
  0
POLYLINE
  8
Unknown Area Type
  70
9
  66
1
  0
VERTEX
  8
Unknown Area Type
  70
32
  10
-6.09704058836619
  20
42.36923634936208
  30
961.846
  0
VERTEX
  8
Unknown Area Type
  70
32
  10
-6.08588766961454
  20
42.35091076617142
  30
934.798
  0
VERTEX
  8
Unknown Area Type
  70
32
  10
-6.08584594374099
  20
42.34026359898029
  30
867.775
  0
VERTEX
  8
Unknown Area Type
  70
32
  10
-6.10088885745239
  20
42.3360258004306
  30
874.105
  0
VERTEX
  8
Unknown Area Type
  70
32
  10
-6.11807927419525
  20
42.3405298703838
  30
884.695
  0
VERTEX
  8
Unknown Area Type
  70
32
  10
-6.11788064353465
  20
42.34964370560119
  30
936.913
  0
VERTEX
  8
Unknown Area Type
  70
32
  10
-6.09704014616751
  20
42.36922735645622
  30
961.889
  0
VERTEX
  8
Unknown Area Type
  70
32
  10
-6.09704058836619
  20
42.36923634936208
  30
961.846
  0
SEQEND
  8
Unknown Area Type
  0
TEXT
  8
Unknown Area Type
 62
7
  1
PNOA-H_AMS_1956-57_33k_ES_PAN_2
 40
0.00045
  10
-6.10196277298312
  20
42.35045379444367
  0
POLYLINE
  8
Unknown Area Type
  70
9
  66
1
  0
VERTEX
  8
Unknown Area Type
  70
32
  10
-6.00575844041059
  20
42.36124482673005
  30
886.268
  0
VERTEX
  8
Unknown Area Type
  70
32
  10
-5.9968069988758
  20
42.36514436941463
  30
838.064
  0
VERTEX
  8
Unknown Area Type
  70
32
  10
-5.99119124019295
  20
42.35376930750387
  30
833.505
  0
VERTEX
  8
Unknown Area Type
  70
32
  10
-5.99141752824531
  20
42.34024693983599
  30
830.391
  0
VERTEX
  8
Unknown Area Type
  70
32
  10
-5.99842852156463
  20
42.33708300630284
  30
842.467
  0
VERTEX
  8
Unknown Area Type
  70
32
  10
-5.9984464912613
  20
42.3370780334885
  30
842.524
  0
VERTEX
  8
Unknown Area Type
  70
32
  10
-5.99863588450707
  20
42.3371045936782
  30
842.537
  0
VERTEX
  8
Unknown Area Type
  70
32
  10
-6.0233402494791
  20
42.34062007876619
  30
833.56
  0
VERTEX
  8
Unknown Area Type
  70
32
  10
-6.02343185390934
  20
42.35353975652126
  30
856.325
  0
VERTEX
  8
Unknown Area Type
  70
32
  10
-6.00577035279175
  20
42.3612400116856
  30
886.477
  0
VERTEX
  8
Unknown Area Type
  70
32
  10
-6.00575844041059
  20
42.36124482673005
  30
886.268
  0
SEQEND
  8
Unknown Area Type
  0
TEXT
  8
Unknown Area Type
 62
7
  1
PNOA-H_AMS_1956-57_33k_ES_PAN_2
 40
0.00045
  10
-6.00732551494607
  20
42.3511093225997
  0
POLYLINE
  8
Unknown Area Type
  70
9
  66
1
  0
VERTEX
  8
Unknown Area Type
  70
32
  10
-6.00575844041059
  20
42.36124482673005
  30
886.268
  0
VERTEX
  8
Unknown Area Type
  70
32
  10
-5.9968069988758
  20
42.36514436941463
  30
838.064
  0
VERTEX
  8
Unknown Area Type
  70
32
  10
-5.99119124019295
  20
42.35376930750387
  30
833.505
  0
VERTEX
  8
Unknown Area Type
  70
32
  10
-5.99141752824531
  20
42.34024693983599
  30
830.391
  0
VERTEX
  8
Unknown Area Type
  70
32
  10
-5.99842852156463
  20
42.33708300630284
  30
842.467
  0
VERTEX
  8
Unknown Area Type
  70
32
  10
-5.9984464912613
  20
42.3370780334885
  30
842.524
  0
VERTEX
  8
Unknown Area Type
  70
32
  10
-5.99863588450707
  20
42.3371045936782
  30
842.537
  0
VERTEX
  8
Unknown Area Type
  70
32
  10
-6.0233402494791
  20
42.34062007876619
  30
833.56
  0
VERTEX
  8
Unknown Area Type
  70
32
  10
-6.02343185390934
  20
42.35353975652126
  30
856.325
  0
VERTEX
  8
Unknown Area Type
  70
32
  10
-6.00577035279175
  20
42.3612400116856
  30
886.477
  0
VERTEX
  8
Unknown Area Type
  70
32
  10
-6.00575844041059
  20
42.36124482673005
  30
886.268
  0
SEQEND
  8
Unknown Area Type
  0
TEXT
  8
Unknown Area Type
 62
7
  1
PNOA-H_AMS_1956-57_33k_ES_PAN_2
 40
0.00045
  10
-6.00732551494607
  20
42.3511093225997
  0
POLYLINE
  8
Unknown Area Type
  70
9
  66
1
  0
VERTEX
  8
Unknown Area Type
  70
32
  10
-6.03087667482853
  20
42.36659376686954
  30
848.128
  0
VERTEX
  8
Unknown Area Type
  70
32
  10
-6.03072940608071
  20
42.36668771259136
  30
847.677
  0
VERTEX
  8
Unknown Area Type
  70
32
  10
-6.03070363628305
  20
42.36665687720208
  30
848.048
  0
VERTEX
  8
Unknown Area Type
  70
32
  10
-6.02343228537102
  20
42.35354875007071
  30
856.286
  0
VERTEX
  8
Unknown Area Type
  70
32
  10
-6.02333440373017
  20
42.34062473551952
  30
833.637
  0
VERTEX
  8
Unknown Area Type
  70
32
  10
-6.03371540403067
  20
42.33652319359557
  30
833.944
  0
VERTEX
  8
Unknown Area Type
  70
32
  10
-6.05529616401164
  20
42.34029453889944
  30
852.865
  0
VERTEX
  8
Unknown Area Type
  70
32
  10
-6.0550016495353
  20
42.35150001312763
  30
897.267
  0
VERTEX
  8
Unknown Area Type
  70
32
  10
-6.03088230593641
  20
42.3665846129568
  30
848.144
  0
VERTEX
  8
Unknown Area Type
  70
32
  10
-6.03087667482853
  20
42.36659376686954
  30
848.128
  0
SEQEND
  8
Unknown Area Type
  0
TEXT
  8
Unknown Area Type
 62
7
  1
PNOA-H_AMS_1956-57_33k_ES_PAN_2
 40
0.00045
  10
-6.03912732514649
  20
42.35160332201071
  0
POLYLINE
  8
Unknown Area Type
  70
9
  66
1
  0
VERTEX
  8
Unknown Area Type
  70
32
  10
-6.03087667482853
  20
42.36659376686954
  30
848.128
  0
VERTEX
  8
Unknown Area Type
  70
32
  10
-6.03072940608071
  20
42.36668771259136
  30
847.677
  0
VERTEX
  8
Unknown Area Type
  70
32
  10
-6.03070363628305
  20
42.36665687720208
  30
848.048
  0
VERTEX
  8
Unknown Area Type
  70
32
  10
-6.02343228537102
  20
42.35354875007071
  30
856.286
  0
VERTEX
  8
Unknown Area Type
  70
32
  10
-6.02333440373017
  20
42.34062473551952
  30
833.637
  0
VERTEX
  8
Unknown Area Type
  70
32
  10
-6.03371540403067
  20
42.33652319359557
  30
833.944
  0
VERTEX
  8
Unknown Area Type
  70
32
  10
-6.05529616401164
  20
42.34029453889944
  30
852.865
  0
VERTEX
  8
Unknown Area Type
  70
32
  10
-6.0550016495353
  20
42.35150001312763
  30
897.267
  0
VERTEX
  8
Unknown Area Type
  70
32
  10
-6.03088230593641
  20
42.3665846129568
  30
848.144
  0
VERTEX
  8
Unknown Area Type
  70
32
  10
-6.03087667482853
  20
42.36659376686954
  30
848.128
  0
SEQEND
  8
Unknown Area Type
  0
TEXT
  8
Unknown Area Type
 62
7
  1
PNOA-H_AMS_1956-57_33k_ES_PAN_2
 40
0.00045
  10
-6.03912732514649
  20
42.35160332201071
  0
POLYLINE
  8
Unknown Area Type
  70
9
  66
1
  0
VERTEX
  8
Unknown Area Type
  70
32
  10
-6.08405775624982
  20
42.45878391147714
  30
862.216
  0
VERTEX
  8
Unknown Area Type
  70
32
  10
-6.08394171779062
  20
42.45877352942816
  30
860.787
  0
VERTEX
  8
Unknown Area Type
  70
32
  10
-6.08395253747917
  20
42.45874622372466
  30
860.819
  0
VERTEX
  8
Unknown Area Type
  70
32
  10
-6.08398179524445
  20
42.45872292384249
  30
860.072
  0
VERTEX
  8
Unknown Area Type
  70
32
  10
-6.08406029483391
  20
42.45871180493144
  30
857.856
  0
VERTEX
  8
Unknown Area Type
  70
32
  10
-6.08405488501701
  20
42.4587254577876
  30
857.845
  0
VERTEX
  8
Unknown Area Type
  70
32
  10
-6.08405775624982
  20
42.45878391147714
  30
862.216
  0
SEQEND
  8
Unknown Area Type
  0
TEXT
  8
Unknown Area Type
 62
7
  1
PNOA-H_AMS_1956-57_33k_ES_PAN_2
 40
0.00045
  10
-6.08400427246312
  20
42.45874566419495
  0
POLYLINE
  8
Unknown Area Type
  70
9
  66
1
  0
VERTEX
  8
Unknown Area Type
  70
32
  10
-6.08405775624982
  20
42.45878391147714
  30
862.216
  0
VERTEX
  8
Unknown Area Type
  70
32
  10
-6.08394171779062
  20
42.45877352942816
  30
860.787
  0
VERTEX
  8
Unknown Area Type
  70
32
  10
-6.08395253747917
  20
42.45874622372466
  30
860.819
  0
VERTEX
  8
Unknown Area Type
  70
32
  10
-6.08398179524445
  20
42.45872292384249
  30
860.072
  0
VERTEX
  8
Unknown Area Type
  70
32
  10
-6.08406029483391
  20
42.45871180493144
  30
857.856
  0
VERTEX
  8
Unknown Area Type
  70
32
  10
-6.08405488501701
  20
42.4587254577876
  30
857.845
  0
VERTEX
  8
Unknown Area Type
  70
32
  10
-6.08405775624982
  20
42.45878391147714
  30
862.216
  0
SEQEND
  8
Unknown Area Type
  0
TEXT
  8
Unknown Area Type
 62
7
  1
PNOA-H_AMS_1956-57_33k_ES_PAN_2
 40
0.00045
  10
-6.08400427246312
  20
42.45874566419495
  0
POLYLINE
  8
Unknown Area Type
  70
9
  66
1
  0
VERTEX
  8
Unknown Area Type
  70
32
  10
-6.08409572846003
  20
42.45807151178145
  30
883.799
  0
VERTEX
  8
Unknown Area Type
  70
32
  10
-6.08402893265336
  20
42.45807331073659
  30
883.713
  0
VERTEX
  8
Unknown Area Type
  70
32
  10
-6.08396600066491
  20
42.45802998173077
  30
871.645
  0
VERTEX
  8
Unknown Area Type
  70
32
  10
-6.08396202533709
  20
42.45794904583506
  30
864.3
  0
VERTEX
  8
Unknown Area Type
  70
32
  10
-6.08402054013002
  20
42.45790244607762
  30
871.462
  0
VERTEX
  8
Unknown Area Type
  70
32
  10
-6.08408126342627
  20
42.45790081067518
  30
872.723
  0
VERTEX
  8
Unknown Area Type
  70
32
  10
-6.08409329898546
  20
42.45802205096287
  30
873.43
  0
VERTEX
  8
Unknown Area Type
  70
32
  10
-6.08409572846003
  20
42.45807151178145
  30
883.799
  0
SEQEND
  8
Unknown Area Type
  0
TEXT
  8
Unknown Area Type
 62
7
  1
PNOA-H_AMS_1956-57_33k_ES_PAN_2
 40
0.00045
  10
-6.08402922376894
  20
42.45798555231123
  0
POLYLINE
  8
Unknown Area Type
  70
9
  66
1
  0
VERTEX
  8
Unknown Area Type
  70
32
  10
-6.08409572846003
  20
42.45807151178145
  30
883.799
  0
VERTEX
  8
Unknown Area Type
  70
32
  10
-6.08402893265336
  20
42.45807331073659
  30
883.713
  0
VERTEX
  8
Unknown Area Type
  70
32
  10
-6.08396600066491
  20
42.45802998173077
  30
871.645
  0
VERTEX
  8
Unknown Area Type
  70
32
  10
-6.08396202533709
  20
42.45794904583506
  30
864.3
  0
VERTEX
  8
Unknown Area Type
  70
32
  10
-6.08402054013002
  20
42.45790244607762
  30
871.462
  0
VERTEX
  8
Unknown Area Type
  70
32
  10
-6.08408126342627
  20
42.45790081067518
  30
872.723
  0
VERTEX
  8
Unknown Area Type
  70
32
  10
-6.08409329898546
  20
42.45802205096287
  30
873.43
  0
VERTEX
  8
Unknown Area Type
  70
32
  10
-6.08409572846003
  20
42.45807151178145
  30
883.799
  0
SEQEND
  8
Unknown Area Type
  0
TEXT
  8
Unknown Area Type
 62
7
  1
PNOA-H_AMS_1956-57_33k_ES_PAN_2
 40
0.00045
  10
-6.08402922376894
  20
42.45798555231123
  0
POLYLINE
  8
Unknown Area Type
  70
9
  66
1
  0
VERTEX
  8
Unknown Area Type
  70
32
  10
-6.08253079104646
  20
42.45356623657121
  30
862.939
  0
VERTEX
  8
Unknown Area Type
  70
32
  10
-6.08251842649342
  20
42.45356206701495
  30
863.11
  0
VERTEX
  8
Unknown Area Type
  70
32
  10
-6.0824678647464
  20
42.45352290653356
  30
863.704
  0
VERTEX
  8
Unknown Area Type
  70
32
  10
-6.0824641126835
  20
42.4534464669084
  30
874.336
  0
VERTEX
  8
Unknown Area Type
  70
32
  10
-6.08251048082463
  20
42.45340019487485
  30
883.746
  0
VERTEX
  8
Unknown Area Type
  70
32
  10
-6.08264991387122
  20
42.4533919391133
  30
886.3
  0
VERTEX
  8
Unknown Area Type
  70
32
  10
-6.08269628183302
  20
42.4533456670098
  30
885.87
  0
VERTEX
  8
Unknown Area Type
  70
32
  10
-6.08276307269955
  20
42.45334386899193
  30
883.917
  0
VERTEX
  8
Unknown Area Type
  70
32
  10
-6.08281551243371
  20
42.45329743338565
  30
883.097
  0
VERTEX
  8
Unknown Area Type
  70
32
  10
-6.0829369502615
  20
42.45329416411001
  30
877.526
  0
VERTEX
  8
Unknown Area Type
  70
32
  10
-6.08299358399074
  20
42.45333316091207
  30
866.887
  0
VERTEX
  8
Unknown Area Type
  70
32
  10
-6.08299799892391
  20
42.45342308983963
  30
855.435
  0
VERTEX
  8
Unknown Area Type
  70
32
  10
-6.08288682680688
  20
42.45351162821233
  30
857.373
  0
VERTEX
  8
Unknown Area Type
  70
32
  10
-6.08282003576987
  20
42.45351342630801
  30
858.034
  0
VERTEX
  8
Unknown Area Type
  70
32
  10
-6.08276759586808
  20
42.45355986192055
  30
860.067
  0
VERTEX
  8
Unknown Area Type
  70
32
  10
-6.08253079104646
  20
42.45356623657121
  30
862.939
  0
SEQEND
  8
Unknown Area Type
  0
TEXT
  8
Unknown Area Type
 62
7
  1
PNOA-H_AMS_1956-57_33k_ES_PAN_2
 40
0.00045
  10
-6.08273513168282
  20
42.45342800133383
  0
POLYLINE
  8
Unknown Area Type
  70
9
  66
1
  0
VERTEX
  8
Unknown Area Type
  70
32
  10
-6.08253079104646
  20
42.45356623657121
  30
862.939
  0
VERTEX
  8
Unknown Area Type
  70
32
  10
-6.08251842649342
  20
42.45356206701495
  30
863.11
  0
VERTEX
  8
Unknown Area Type
  70
32
  10
-6.0824678647464
  20
42.45352290653356
  30
863.704
  0
VERTEX
  8
Unknown Area Type
  70
32
  10
-6.0824641126835
  20
42.4534464669084
  30
874.336
  0
VERTEX
  8
Unknown Area Type
  70
32
  10
-6.08251048082463
  20
42.45340019487485
  30
883.746
  0
VERTEX
  8
Unknown Area Type
  70
32
  10
-6.08264991387122
  20
42.4533919391133
  30
886.3
  0
VERTEX
  8
Unknown Area Type
  70
32
  10
-6.08269628183302
  20
42.4533456670098
  30
885.87
  0
VERTEX
  8
Unknown Area Type
  70
32
  10
-6.08276307269955
  20
42.45334386899193
  30
883.917
  0
VERTEX
  8
Unknown Area Type
  70
32
  10
-6.08281551243371
  20
42.45329743338565
  30
883.097
  0
VERTEX
  8
Unknown Area Type
  70
32
  10
-6.0829369502615
  20
42.45329416411001
  30
877.526
  0
VERTEX
  8
Unknown Area Type
  70
32
  10
-6.08299358399074
  20
42.45333316091207
  30
866.887
  0
VERTEX
  8
Unknown Area Type
  70
32
  10
-6.08299799892391
  20
42.45342308983963
  30
855.435
  0
VERTEX
  8
Unknown Area Type
  70
32
  10
-6.08288682680688
  20
42.45351162821233
  30
857.373
  0
VERTEX
  8
Unknown Area Type
  70
32
  10
-6.08282003576987
  20
42.45351342630801
  30
858.034
  0
VERTEX
  8
Unknown Area Type
  70
32
  10
-6.08276759586808
  20
42.45355986192055
  30
860.067
  0
VERTEX
  8
Unknown Area Type
  70
32
  10
-6.08253079104646
  20
42.45356623657121
  30
862.939
  0
SEQEND
  8
Unknown Area Type
  0
TEXT
  8
Unknown Area Type
 62
7
  1
PNOA-H_AMS_1956-57_33k_ES_PAN_2
 40
0.00045
  10
-6.08273513168282
  20
42.45342800133383
  0
POLYLINE
  8
Unknown Area Type
  70
9
  66
1
  0
VERTEX
  8
Unknown Area Type
  70
32
  10
-6.08462387967198
  20
42.44839966199314
  30
867.435
  0
VERTEX
  8
Unknown Area Type
  70
32
  10
-6.08423359598328
  20
42.4555554666278
  30
859.436
  0
VERTEX
  8
Unknown Area Type
  70
32
  10
-6.08199462692057
  20
42.45626859418193
  30
858.314
  0
VERTEX
  8
Unknown Area Type
  70
32
  10
-6.07443938463343
  20
42.45780889569958
  30
856.217
  0
VERTEX
  8
Unknown Area Type
  70
32
  10
-6.05417669196802
  20
42.45574872536801
  30
866.978
  0
VERTEX
  8
Unknown Area Type
  70
32
  10
-6.05291071456328
  20
42.4554718170321
  30
865.883
  0
VERTEX
  8
Unknown Area Type
  70
32
  10
-6.05554798824054
  20
42.41956680744678
  30
870.532
  0
VERTEX
  8
Unknown Area Type
  70
32
  10
-6.05561029309958
  20
42.41872319279804
  30
878.869
  0
VERTEX
  8
Unknown Area Type
  70
32
  10
-6.05561461362721
  20
42.41868705817159
  30
879.609
  0
VERTEX
  8
Unknown Area Type
  70
32
  10
-6.05562653251652
  20
42.41868223775462
  30
879.69
  0
VERTEX
  8
Unknown Area Type
  70
32
  10
-6.07669726551969
  20
42.41552023307906
  30
884.857
  0
VERTEX
  8
Unknown Area Type
  70
32
  10
-6.08624197040565
  20
42.41871677053688
  30
865.339
  0
VERTEX
  8
Unknown Area Type
  70
32
  10
-6.08462100895576
  20
42.4483412082286
  30
867.868
  0
VERTEX
  8
Unknown Area Type
  70
32
  10
-6.08462387967198
  20
42.44839966199314
  30
867.435
  0
SEQEND
  8
Unknown Area Type
  0
TEXT
  8
Unknown Area Type
 62
7
  1
PNOA-H_AMS_1956-57_33k_ES_PAN_2
 40
0.00045
  10
-6.06957665889357
  20
42.43694998594269
  0
POLYLINE
  8
Unknown Area Type
  70
9
  66
1
  0
VERTEX
  8
Unknown Area Type
  70
32
  10
-6.08462387967198
  20
42.44839966199314
  30
867.435
  0
VERTEX
  8
Unknown Area Type
  70
32
  10
-6.08423359598328
  20
42.4555554666278
  30
859.436
  0
VERTEX
  8
Unknown Area Type
  70
32
  10
-6.08199462692057
  20
42.45626859418193
  30
858.314
  0
VERTEX
  8
Unknown Area Type
  70
32
  10
-6.07443938463343
  20
42.45780889569958
  30
856.217
  0
VERTEX
  8
Unknown Area Type
  70
32
  10
-6.05417669196802
  20
42.45574872536801
  30
866.978
  0
VERTEX
  8
Unknown Area Type
  70
32
  10
-6.05291071456328
  20
42.4554718170321
  30
865.883
  0
VERTEX
  8
Unknown Area Type
  70
32
  10
-6.05554798824054
  20
42.41956680744678
  30
870.532
  0
VERTEX
  8
Unknown Area Type
  70
32
  10
-6.05561029309958
  20
42.41872319279804
  30
878.869
  0
VERTEX
  8
Unknown Area Type
  70
32
  10
-6.05561461362721
  20
42.41868705817159
  30
879.609
  0
VERTEX
  8
Unknown Area Type
  70
32
  10
-6.05562653251652
  20
42.41868223775462
  30
879.69
  0
VERTEX
  8
Unknown Area Type
  70
32
  10
-6.07669726551969
  20
42.41552023307906
  30
884.857
  0
VERTEX
  8
Unknown Area Type
  70
32
  10
-6.08624197040565
  20
42.41871677053688
  30
865.339
  0
VERTEX
  8
Unknown Area Type
  70
32
  10
-6.08462100895576
  20
42.4483412082286
  30
867.868
  0
VERTEX
  8
Unknown Area Type
  70
32
  10
-6.08462387967198
  20
42.44839966199314
  30
867.435
  0
SEQEND
  8
Unknown Area Type
  0
TEXT
  8
Unknown Area Type
 62
7
  1
PNOA-H_AMS_1956-57_33k_ES_PAN_2
 40
0.00045
  10
-6.06957665889357
  20
42.43694998594269
  0
POLYLINE
  8
Unknown Area Type
  70
9
  66
1
  0
VERTEX
  8
Unknown Area Type
  70
32
  10
-5.98072022690084
  20
42.35762621712371
  30
815.792
  0
VERTEX
  8
Unknown Area Type
  70
32
  10
-5.96342142654446
  20
42.36400930283369
  30
807.484
  0
VERTEX
  8
Unknown Area Type
  70
32
  10
-5.95975729748664
  20
42.35528365602634
  30
794.673
  0
VERTEX
  8
Unknown Area Type
  70
32
  10
-5.95892708963999
  20
42.33966793175646
  30
801.135
  0
VERTEX
  8
Unknown Area Type
  70
32
  10
-5.96366133024934
  20
42.33735284013107
  30
804.12
  0
VERTEX
  8
Unknown Area Type
  70
32
  10
-5.96375225112797
  20
42.33735048804097
  30
804.179
  0
VERTEX
  8
Unknown Area Type
  70
32
  10
-5.99141752824531
  20
42.34024693983599
  30
830.391
  0
VERTEX
  8
Unknown Area Type
  70
32
  10
-5.99119059989077
  20
42.35375581678057
  30
833.544
  0
VERTEX
  8
Unknown Area Type
  70
32
  10
-5.98073214067622
  20
42.35762140464336
  30
815.738
  0
VERTEX
  8
Unknown Area Type
  70
32
  10
-5.98072022690084
  20
42.35762621712371
  30
815.792
  0
SEQEND
  8
Unknown Area Type
  0
TEXT
  8
Unknown Area Type
 62
7
  1
PNOA-H_AMS_1956-57_33k_ES_PAN_2
 40
0.00045
  10
-5.97537773707222
  20
42.35067917992639
  0
POLYLINE
  8
Unknown Area Type
  70
9
  66
1
  0
VERTEX
  8
Unknown Area Type
  70
32
  10
-5.98072022690084
  20
42.35762621712371
  30
815.792
  0
VERTEX
  8
Unknown Area Type
  70
32
  10
-5.96342142654446
  20
42.36400930283369
  30
807.484
  0
VERTEX
  8
Unknown Area Type
  70
32
  10
-5.95975729748664
  20
42.35528365602634
  30
794.673
  0
VERTEX
  8
Unknown Area Type
  70
32
  10
-5.95892708963999
  20
42.33966793175646
  30
801.135
  0
VERTEX
  8
Unknown Area Type
  70
32
  10
-5.96366133024934
  20
42.33735284013107
  30
804.12
  0
VERTEX
  8
Unknown Area Type
  70
32
  10
-5.96375225112797
  20
42.33735048804097
  30
804.179
  0
VERTEX
  8
Unknown Area Type
  70
32
  10
-5.99141752824531
  20
42.34024693983599
  30
830.391
  0
VERTEX
  8
Unknown Area Type
  70
32
  10
-5.99119059989077
  20
42.35375581678057
  30
833.544
  0
VERTEX
  8
Unknown Area Type
  70
32
  10
-5.98073214067622
  20
42.35762140464336
  30
815.738
  0
VERTEX
  8
Unknown Area Type
  70
32
  10
-5.98072022690084
  20
42.35762621712371
  30
815.792
  0
SEQEND
  8
Unknown Area Type
  0
TEXT
  8
Unknown Area Type
 62
7
  1
PNOA-H_AMS_1956-57_33k_ES_PAN_2
 40
0.00045
  10
-5.97537773707222
  20
42.35067917992639
  0
POLYLINE
  8
Unknown Area Type
  70
9
  66
1
  0
VERTEX
  8
Unknown Area Type
  70
32
  10
-5.91077291406372
  20
42.45845688326008
  30
819.841
  0
VERTEX
  8
Unknown Area Type
  70
32
  10
-5.89639919013215
  20
42.45662410717559
  30
819.25
  0
VERTEX
  8
Unknown Area Type
  70
32
  10
-5.89628904202132
  20
42.45660888298168
  30
819.166
  0
VERTEX
  8
Unknown Area Type
  70
32
  10
-5.89628779754219
  20
42.45658189971757
  30
819.164
  0
VERTEX
  8
Unknown Area Type
  70
32
  10
-5.89642691512989
  20
42.41739790922065
  30
803.757
  0
VERTEX
  8
Unknown Area Type
  70
32
  10
-5.91038405572162
  20
42.41291984763936
  30
804.132
  0
VERTEX
  8
Unknown Area Type
  70
32
  10
-5.91047571434969
  20
42.41293102604963
  30
804.121
  0
VERTEX
  8
Unknown Area Type
  70
32
  10
-5.92843011598479
  20
42.41709742890958
  30
810.244
  0
VERTEX
  8
Unknown Area Type
  70
32
  10
-5.92846088112874
  20
42.41710564725386
  30
810.239
  0
VERTEX
  8
Unknown Area Type
  70
32
  10
-5.92846381309221
  20
42.41716860683576
  30
810.237
  0
VERTEX
  8
Unknown Area Type
  70
32
  10
-5.92671109288302
  20
42.45796063565405
  30
838.467
  0
VERTEX
  8
Unknown Area Type
  70
32
  10
-5.91300532922778
  20
42.4587378056214
  30
821.769
  0
VERTEX
  8
Unknown Area Type
  70
32
  10
-5.91078506075735
  20
42.45845657453661
  30
819.837
  0
VERTEX
  8
Unknown Area Type
  70
32
  10
-5.91077291406372
  20
42.45845688326008
  30
819.841
  0
SEQEND
  8
Unknown Area Type
  0
TEXT
  8
Unknown Area Type
 62
7
  1
PNOA-H_AMS_1956-57_33k_ES_PAN_2
 40
0.00045
  10
-5.91237628127589
  20
42.43601309286996
  0
POLYLINE
  8
Unknown Area Type
  70
9
  66
1
  0
VERTEX
  8
Unknown Area Type
  70
32
  10
-5.91077291406372
  20
42.45845688326008
  30
819.841
  0
VERTEX
  8
Unknown Area Type
  70
32
  10
-5.89639919013215
  20
42.45662410717559
  30
819.25
  0
VERTEX
  8
Unknown Area Type
  70
32
  10
-5.89628904202132
  20
42.45660888298168
  30
819.166
  0
VERTEX
  8
Unknown Area Type
  70
32
  10
-5.89628779754219
  20
42.45658189971757
  30
819.164
  0
VERTEX
  8
Unknown Area Type
  70
32
  10
-5.89642691512989
  20
42.41739790922065
  30
803.757
  0
VERTEX
  8
Unknown Area Type
  70
32
  10
-5.91038405572162
  20
42.41291984763936
  30
804.132
  0
VERTEX
  8
Unknown Area Type
  70
32
  10
-5.91047571434969
  20
42.41293102604963
  30
804.121
  0
VERTEX
  8
Unknown Area Type
  70
32
  10
-5.92843011598479
  20
42.41709742890958
  30
810.244
  0
VERTEX
  8
Unknown Area Type
  70
32
  10
-5.92846088112874
  20
42.41710564725386
  30
810.239
  0
VERTEX
  8
Unknown Area Type
  70
32
  10
-5.92846381309221
  20
42.41716860683576
  30
810.237
  0
VERTEX
  8
Unknown Area Type
  70
32
  10
-5.92671109288302
  20
42.45796063565405
  30
838.467
  0
VERTEX
  8
Unknown Area Type
  70
32
  10
-5.91300532922778
  20
42.4587378056214
  30
821.769
  0
VERTEX
  8
Unknown Area Type
  70
32
  10
-5.91078506075735
  20
42.45845657453661
  30
819.837
  0
VERTEX
  8
Unknown Area Type
  70
32
  10
-5.91077291406372
  20
42.45845688326008
  30
819.841
  0
SEQEND
  8
Unknown Area Type
  0
TEXT
  8
Unknown Area Type
 62
7
  1
PNOA-H_AMS_1956-57_33k_ES_PAN_2
 40
0.00045
  10
-5.91237628127589
  20
42.43601309286996
  0
POLYLINE
  8
Unknown Area Type
  70
9
  66
1
  0
VERTEX
  8
Unknown Area Type
  70
32
  10
-5.98541015818271
  20
42.45639595393745
  30
912.407
  0
VERTEX
  8
Unknown Area Type
  70
32
  10
-5.96463204556469
  20
42.45880423794097
  30
889.039
  0
VERTEX
  8
Unknown Area Type
  70
32
  10
-5.95759162821127
  20
42.45701421321222
  30
902.562
  0
VERTEX
  8
Unknown Area Type
  70
32
  10
-5.95856476022818
  20
42.41777278316522
  30
862.023
  0
VERTEX
  8
Unknown Area Type
  70
32
  10
-5.9767028802429
  20
42.4135297636176
  30
810.765
  0
VERTEX
  8
Unknown Area Type
  70
32
  10
-5.99019390124859
  20
42.41804548805821
  30
814.455
  0
VERTEX
  8
Unknown Area Type
  70
32
  10
-5.98827472171623
  20
42.45602858444432
  30
916.352
  0
VERTEX
  8
Unknown Area Type
  70
32
  10
-5.98827014696012
  20
42.45606022077987
  30
916.359
  0
VERTEX
  8
Unknown Area Type
  70
32
  10
-5.98825821556722
  20
42.45606503453926
  30
916.37
  0
VERTEX
  8
Unknown Area Type
  70
32
  10
-5.98545852630532
  20
42.45639019059799
  30
912.3
  0
VERTEX
  8
Unknown Area Type
  70
32
  10
-5.98541015818271
  20
42.45639595393745
  30
912.407
  0
SEQEND
  8
Unknown Area Type
  0
TEXT
  8
Unknown Area Type
 62
7
  1
PNOA-H_AMS_1956-57_33k_ES_PAN_2
 40
0.00045
  10
-5.97389307444182
  20
42.43595765769307
  0
POLYLINE
  8
Unknown Area Type
  70
9
  66
1
  0
VERTEX
  8
Unknown Area Type
  70
32
  10
-5.98541015818271
  20
42.45639595393745
  30
912.407
  0
VERTEX
  8
Unknown Area Type
  70
32
  10
-5.96463204556469
  20
42.45880423794097
  30
889.039
  0
VERTEX
  8
Unknown Area Type
  70
32
  10
-5.95759162821127
  20
42.45701421321222
  30
902.562
  0
VERTEX
  8
Unknown Area Type
  70
32
  10
-5.95856476022818
  20
42.41777278316522
  30
862.023
  0
VERTEX
  8
Unknown Area Type
  70
32
  10
-5.9767028802429
  20
42.4135297636176
  30
810.765
  0
VERTEX
  8
Unknown Area Type
  70
32
  10
-5.99019390124859
  20
42.41804548805821
  30
814.455
  0
VERTEX
  8
Unknown Area Type
  70
32
  10
-5.98827472171623
  20
42.45602858444432
  30
916.352
  0
VERTEX
  8
Unknown Area Type
  70
32
  10
-5.98827014696012
  20
42.45606022077987
  30
916.359
  0
VERTEX
  8
Unknown Area Type
  70
32
  10
-5.98825821556722
  20
42.45606503453926
  30
916.37
  0
VERTEX
  8
Unknown Area Type
  70
32
  10
-5.98545852630532
  20
42.45639019059799
  30
912.3
  0
VERTEX
  8
Unknown Area Type
  70
32
  10
-5.98541015818271
  20
42.45639595393745
  30
912.407
  0
SEQEND
  8
Unknown Area Type
  0
TEXT
  8
Unknown Area Type
 62
7
  1
PNOA-H_AMS_1956-57_33k_ES_PAN_2
 40
0.00045
  10
-5.97389307444182
  20
42.43595765769307
  0
POLYLINE
  8
Unknown Area Type
  70
9
  66
1
  0
VERTEX
  8
Unknown Area Type
  70
32
  10
-5.92939728142117
  20
42.36256563614904
  30
790.419
  0
VERTEX
  8
Unknown Area Type
  70
32
  10
-5.92938494432448
  20
42.36256144912914
  30
790.177
  0
VERTEX
  8
Unknown Area Type
  70
32
  10
-5.92932158663947
  20
42.36237396430275
  30
789.096
  0
VERTEX
  8
Unknown Area Type
  70
32
  10
-5.92270851427413
  20
42.34257425571897
  30
783.853
  0
VERTEX
  8
Unknown Area Type
  70
32
  10
-5.92922869146922
  20
42.33895430344769
  30
782.346
  0
VERTEX
  8
Unknown Area Type
  70
32
  10
-5.95892708963999
  20
42.33966793175646
  30
801.135
  0
VERTEX
  8
Unknown Area Type
  70
32
  10
-5.95975729748664
  20
42.35528365602634
  30
794.673
  0
VERTEX
  8
Unknown Area Type
  70
32
  10
-5.92941526433319
  20
42.36256067379608
  30
790.768
  0
VERTEX
  8
Unknown Area Type
  70
32
  10
-5.92939728142117
  20
42.36256563614904
  30
790.419
  0
SEQEND
  8
Unknown Area Type
  0
TEXT
  8
Unknown Area Type
 62
7
  1
PNOA-H_AMS_1956-57_33k_ES_PAN_2
 40
0.00045
  10
-5.942479969801
  20
42.35075891590564
  0
POLYLINE
  8
Unknown Area Type
  70
9
  66
1
  0
VERTEX
  8
Unknown Area Type
  70
32
  10
-5.92939728142117
  20
42.36256563614904
  30
790.419
  0
VERTEX
  8
Unknown Area Type
  70
32
  10
-5.92938494432448
  20
42.36256144912914
  30
790.177
  0
VERTEX
  8
Unknown Area Type
  70
32
  10
-5.92932158663947
  20
42.36237396430275
  30
789.096
  0
VERTEX
  8
Unknown Area Type
  70
32
  10
-5.92270851427413
  20
42.34257425571897
  30
783.853
  0
VERTEX
  8
Unknown Area Type
  70
32
  10
-5.92922869146922
  20
42.33895430344769
  30
782.346
  0
VERTEX
  8
Unknown Area Type
  70
32
  10
-5.95892708963999
  20
42.33966793175646
  30
801.135
  0
VERTEX
  8
Unknown Area Type
  70
32
  10
-5.95975729748664
  20
42.35528365602634
  30
794.673
  0
VERTEX
  8
Unknown Area Type
  70
32
  10
-5.92941526433319
  20
42.36256067379608
  30
790.768
  0
VERTEX
  8
Unknown Area Type
  70
32
  10
-5.92939728142117
  20
42.36256563614904
  30
790.419
  0
SEQEND
  8
Unknown Area Type
  0
TEXT
  8
Unknown Area Type
 62
7
  1
PNOA-H_AMS_1956-57_33k_ES_PAN_2
 40
0.00045
  10
-5.942479969801
  20
42.35075891590564
  0
POLYLINE
  8
Unknown Area Type
  70
9
  66
1
  0
VERTEX
  8
Unknown Area Type
  70
32
  10
-5.93105418587567
  20
42.45903820775816
  30
850.605
  0
VERTEX
  8
Unknown Area Type
  70
32
  10
-5.9309871697344
  20
42.45903542048391
  30
850.248
  0
VERTEX
  8
Unknown Area Type
  70
32
  10
-5.92671109288302
  20
42.45796063565405
  30
838.467
  0
VERTEX
  8
Unknown Area Type
  70
32
  10
-5.92846109055439
  20
42.41711014436687
  30
810.241
  0
VERTEX
  8
Unknown Area Type
  70
32
  10
-5.94255397315944
  20
42.4133766076868
  30
860.433
  0
VERTEX
  8
Unknown Area Type
  70
32
  10
-5.94267054326962
  20
42.41340062764635
  30
863.498
  0
VERTEX
  8
Unknown Area Type
  70
32
  10
-5.95856476022818
  20
42.41777278316522
  30
862.023
  0
VERTEX
  8
Unknown Area Type
  70
32
  10
-5.95759162821127
  20
42.45701421321222
  30
902.562
  0
VERTEX
  8
Unknown Area Type
  70
32
  10
-5.93114507534212
  20
42.4590313790868
  30
851.38
  0
VERTEX
  8
Unknown Area Type
  70
32
  10
-5.93105418587567
  20
42.45903820775816
  30
850.605
  0
SEQEND
  8
Unknown Area Type
  0
TEXT
  8
Unknown Area Type
 62
7
  1
PNOA-H_AMS_1956-57_33k_ES_PAN_2
 40
0.00045
  10
-5.94263840100667
  20
42.43577273669523
  0
POLYLINE
  8
Unknown Area Type
  70
9
  66
1
  0
VERTEX
  8
Unknown Area Type
  70
32
  10
-5.93105418587567
  20
42.45903820775816
  30
850.605
  0
VERTEX
  8
Unknown Area Type
  70
32
  10
-5.9309871697344
  20
42.45903542048391
  30
850.248
  0
VERTEX
  8
Unknown Area Type
  70
32
  10
-5.92671109288302
  20
42.45796063565405
  30
838.467
  0
VERTEX
  8
Unknown Area Type
  70
32
  10
-5.92846109055439
  20
42.41711014436687
  30
810.241
  0
VERTEX
  8
Unknown Area Type
  70
32
  10
-5.94255397315944
  20
42.4133766076868
  30
860.433
  0
VERTEX
  8
Unknown Area Type
  70
32
  10
-5.94267054326962
  20
42.41340062764635
  30
863.498
  0
VERTEX
  8
Unknown Area Type
  70
32
  10
-5.95856476022818
  20
42.41777278316522
  30
862.023
  0
VERTEX
  8
Unknown Area Type
  70
32
  10
-5.95759162821127
  20
42.45701421321222
  30
902.562
  0
VERTEX
  8
Unknown Area Type
  70
32
  10
-5.93114507534212
  20
42.4590313790868
  30
851.38
  0
VERTEX
  8
Unknown Area Type
  70
32
  10
-5.93105418587567
  20
42.45903820775816
  30
850.605
  0
SEQEND
  8
Unknown Area Type
  0
TEXT
  8
Unknown Area Type
 62
7
  1
PNOA-H_AMS_1956-57_33k_ES_PAN_2
 40
0.00045
  10
-5.94263840100667
  20
42.43577273669523
  0
POLYLINE
  8
Unknown Area Type
  70
9
  66
1
  0
VERTEX
  8
Unknown Area Type
  70
32
  10
-6.18055885428413
  20
42.37587589962484
  30
1021.08
  0
VERTEX
  8
Unknown Area Type
  70
32
  10
-6.17035726541355
  20
42.37877012919726
  30
1045.571
  0
VERTEX
  8
Unknown Area Type
  70
32
  10
-6.17010573839655
  20
42.37884012489682
  30
1047.688
  0
VERTEX
  8
Unknown Area Type
  70
32
  10
-6.1700693531498
  20
42.37884113197681
  30
1048.037
  0
VERTEX
  8
Unknown Area Type
  70
32
  10
-6.1493099052331
  20
42.3757443684411
  30
1074.384
  0
VERTEX
  8
Unknown Area Type
  70
32
  10
-6.15106990036783
  20
42.34052308902578
  30
931.03
  0
VERTEX
  8
Unknown Area Type
  70
32
  10
-6.16830588449888
  20
42.33654026733905
  30
999.337
  0
VERTEX
  8
Unknown Area Type
  70
32
  10
-6.16836626009316
  20
42.33653409497248
  30
999.366
  0
VERTEX
  8
Unknown Area Type
  70
32
  10
-6.18325873931072
  20
42.34074518468624
  30
1002.563
  0
VERTEX
  8
Unknown Area Type
  70
32
  10
-6.18147344836436
  20
42.37558935919164
  30
1023.783
  0
VERTEX
  8
Unknown Area Type
  70
32
  10
-6.18145684707305
  20
42.37562133709285
  30
1023.875
  0
VERTEX
  8
Unknown Area Type
  70
32
  10
-6.18057681875688
  20
42.37587089836271
  30
1021.063
  0
VERTEX
  8
Unknown Area Type
  70
32
  10
-6.18055885428413
  20
42.37587589962484
  30
1021.08
  0
SEQEND
  8
Unknown Area Type
  0
TEXT
  8
Unknown Area Type
 62
7
  1
PNOA-H_AMS_1956-57_33k_ES_PAN_2
 40
0.00045
  10
-6.16628454373724
  20
42.35764003146691
  0
POLYLINE
  8
Unknown Area Type
  70
9
  66
1
  0
VERTEX
  8
Unknown Area Type
  70
32
  10
-6.18055885428413
  20
42.37587589962484
  30
1021.08
  0
VERTEX
  8
Unknown Area Type
  70
32
  10
-6.17035726541355
  20
42.37877012919726
  30
1045.571
  0
VERTEX
  8
Unknown Area Type
  70
32
  10
-6.17010573839655
  20
42.37884012489682
  30
1047.688
  0
VERTEX
  8
Unknown Area Type
  70
32
  10
-6.1700693531498
  20
42.37884113197681
  30
1048.037
  0
VERTEX
  8
Unknown Area Type
  70
32
  10
-6.1493099052331
  20
42.3757443684411
  30
1074.384
  0
VERTEX
  8
Unknown Area Type
  70
32
  10
-6.15106990036783
  20
42.34052308902578
  30
931.03
  0
VERTEX
  8
Unknown Area Type
  70
32
  10
-6.16830588449888
  20
42.33654026733905
  30
999.337
  0
VERTEX
  8
Unknown Area Type
  70
32
  10
-6.16836626009316
  20
42.33653409497248
  30
999.366
  0
VERTEX
  8
Unknown Area Type
  70
32
  10
-6.18325873931072
  20
42.34074518468624
  30
1002.563
  0
VERTEX
  8
Unknown Area Type
  70
32
  10
-6.18147344836436
  20
42.37558935919164
  30
1023.783
  0
VERTEX
  8
Unknown Area Type
  70
32
  10
-6.18145684707305
  20
42.37562133709285
  30
1023.875
  0
VERTEX
  8
Unknown Area Type
  70
32
  10
-6.18057681875688
  20
42.37587089836271
  30
1021.063
  0
VERTEX
  8
Unknown Area Type
  70
32
  10
-6.18055885428413
  20
42.37587589962484
  30
1021.08
  0
SEQEND
  8
Unknown Area Type
  0
TEXT
  8
Unknown Area Type
 62
7
  1
PNOA-H_AMS_1956-57_33k_ES_PAN_2
 40
0.00045
  10
-6.16628454373724
  20
42.35764003146691
  0
ENDSEC
  0
EOF
