  0
SECTION
  2
HEADER
  9
$ACADVER
  1
AC1009
  9
$LUNITS
  70
2
  9
$DWGCODEPAGE
  3
UTF8
  9
$LIMMIN
  10
-5.18749999999999
  20
42.5
  9
$LIMMAX
  10
-4.8541666666667
  20
42.6666666666667
  9
$EXTMIN
  10
-5.18749999999999
  20
42.5
  9
$EXTMAX
  10
-4.8541666666667
  20
42.6666666666667
  999
Created by Global Mapper
  999
Projection: Geographic (Latitude/Longitude)
  999
Datum: ETRS89
  999
Ground Units: arc degrees
  999
CENTRAL LONGITUDE: 0
  0
ENDSEC
  0
SECTION
  2
TABLES
  0
ENDSEC
  0
SECTION
  2
BLOCKS
  0
ENDSEC
  0
SECTION
  2
ENTITIES
  0
POLYLINE
  8
Unknown Area Type
  70
9
  66
1
  0
VERTEX
  8
Unknown Area Type
  70
32
  10
-5.03839691208006
  20
42.6666666666667
  30
922.463
  0
VERTEX
  8
Unknown Area Type
  70
32
  10
-5.0208333333333
  20
42.6666666666667
  30
910.206
  0
VERTEX
  8
Unknown Area Type
  70
32
  10
-5.0038500851602
  20
42.6666666666667
  30
929.258
  0
VERTEX
  8
Unknown Area Type
  70
32
  10
-5.00519494792163
  20
42.6342617797755
  30
948.943
  0
VERTEX
  8
Unknown Area Type
  70
32
  10
-5.02312319616314
  20
42.63088018541696
  30
890.265
  0
VERTEX
  8
Unknown Area Type
  70
32
  10
-5.03869247261456
  20
42.63411609892142
  30
898.259
  0
SEQEND
  8
Unknown Area Type
  0
TEXT
  8
Unknown Area Type
 62
7
  1
PNOA-H_AMS_1956-57_33k_ES_PAN_2
 40
0.00045
  10
-5.02124091708423
  20
42.65183350720839
  0
POLYLINE
  8
Unknown Area Type
  70
9
  66
1
  0
VERTEX
  8
Unknown Area Type
  70
32
  10
-5.03839691208006
  20
42.6666666666667
  30
922.463
  0
VERTEX
  8
Unknown Area Type
  70
32
  10
-5.0208333333333
  20
42.6666666666667
  30
910.206
  0
VERTEX
  8
Unknown Area Type
  70
32
  10
-5.0038500851602
  20
42.6666666666667
  30
929.258
  0
VERTEX
  8
Unknown Area Type
  70
32
  10
-5.00519494792163
  20
42.6342617797755
  30
948.943
  0
VERTEX
  8
Unknown Area Type
  70
32
  10
-5.02312319616314
  20
42.63088018541696
  30
890.265
  0
VERTEX
  8
Unknown Area Type
  70
32
  10
-5.03869247261456
  20
42.63411609892142
  30
898.259
  0
SEQEND
  8
Unknown Area Type
  0
TEXT
  8
Unknown Area Type
 62
7
  1
PNOA-H_AMS_1956-57_33k_ES_PAN_2
 40
0.00045
  10
-5.02124091708423
  20
42.65183350720839
  0
POLYLINE
  8
Unknown Area Type
  70
9
  66
1
  0
VERTEX
  8
Unknown Area Type
  70
32
  10
-5.03839691056672
  20
42.66666683333337
  30
922.463
  0
VERTEX
  8
Unknown Area Type
  70
32
  10
-5.00385007824322
  20
42.66666683333337
  30
929.258
  0
VERTEX
  8
Unknown Area Type
  70
32
  10
-5.0038500851602
  20
42.6666666666667
  30
929.258
  0
VERTEX
  8
Unknown Area Type
  70
32
  10
-5.0208333333333
  20
42.6666666666667
  30
910.206
  0
VERTEX
  8
Unknown Area Type
  70
32
  10
-5.03839691208006
  20
42.6666666666667
  30
922.463
  0
SEQEND
  8
Unknown Area Type
  0
TEXT
  8
Unknown Area Type
 62
7
  1
PNOA-H_AMS_1956-57_33k_ES_PAN_2
 40
0.00045
  10
-5.02112349516164
  20
42.66666675000003
  0
POLYLINE
  8
Unknown Area Type
  70
9
  66
1
  0
VERTEX
  8
Unknown Area Type
  70
32
  10
-4.93421938231107
  20
42.6666666666667
  30
1082.2
  0
VERTEX
  8
Unknown Area Type
  70
32
  10
-4.9030256769227
  20
42.6666666666667
  30
1079.835
  0
VERTEX
  8
Unknown Area Type
  70
32
  10
-4.89945964189671
  20
42.66585363111371
  30
1077.418
  0
VERTEX
  8
Unknown Area Type
  70
32
  10
-4.900699358223
  20
42.6346524578607
  30
1066.985
  0
VERTEX
  8
Unknown Area Type
  70
32
  10
-4.9006983992308
  20
42.6346209554009
  30
1067.02
  0
VERTEX
  8
Unknown Area Type
  70
32
  10
-4.90072777198833
  20
42.63378297957968
  30
1066.625
  0
VERTEX
  8
Unknown Area Type
  70
32
  10
-4.90073181191931
  20
42.63371537314338
  30
1066.793
  0
VERTEX
  8
Unknown Area Type
  70
32
  10
-4.90074995956281
  20
42.63371056932179
  30
1066.792
  0
VERTEX
  8
Unknown Area Type
  70
32
  10
-4.92182254649813
  20
42.63027909289483
  30
1062.929
  0
VERTEX
  8
Unknown Area Type
  70
32
  10
-4.93571054486618
  20
42.63393996102091
  30
1012.596
  0
SEQEND
  8
Unknown Area Type
  0
TEXT
  8
Unknown Area Type
 62
7
  1
PNOA-H_AMS_1956-57_33k_ES_PAN_2
 40
0.00045
  10
-4.91758528597943
  20
42.65047620850643
  0
POLYLINE
  8
Unknown Area Type
  70
9
  66
1
  0
VERTEX
  8
Unknown Area Type
  70
32
  10
-4.93421938231107
  20
42.6666666666667
  30
1082.2
  0
VERTEX
  8
Unknown Area Type
  70
32
  10
-4.9030256769227
  20
42.6666666666667
  30
1079.835
  0
VERTEX
  8
Unknown Area Type
  70
32
  10
-4.89945964189671
  20
42.66585363111371
  30
1077.418
  0
VERTEX
  8
Unknown Area Type
  70
32
  10
-4.900699358223
  20
42.6346524578607
  30
1066.985
  0
VERTEX
  8
Unknown Area Type
  70
32
  10
-4.9006983992308
  20
42.6346209554009
  30
1067.02
  0
VERTEX
  8
Unknown Area Type
  70
32
  10
-4.90072777198833
  20
42.63378297957968
  30
1066.625
  0
VERTEX
  8
Unknown Area Type
  70
32
  10
-4.90073181191931
  20
42.63371537314338
  30
1066.793
  0
VERTEX
  8
Unknown Area Type
  70
32
  10
-4.90074995956281
  20
42.63371056932179
  30
1066.792
  0
VERTEX
  8
Unknown Area Type
  70
32
  10
-4.92182254649813
  20
42.63027909289483
  30
1062.929
  0
VERTEX
  8
Unknown Area Type
  70
32
  10
-4.93571054486618
  20
42.63393996102091
  30
1012.596
  0
SEQEND
  8
Unknown Area Type
  0
TEXT
  8
Unknown Area Type
 62
7
  1
PNOA-H_AMS_1956-57_33k_ES_PAN_2
 40
0.00045
  10
-4.91758528597943
  20
42.65047620850643
  0
POLYLINE
  8
Unknown Area Type
  70
9
  66
1
  0
VERTEX
  8
Unknown Area Type
  70
32
  10
-4.93421937471706
  20
42.66666683333337
  30
1082.2
  0
VERTEX
  8
Unknown Area Type
  70
32
  10
-4.90302640793522
  20
42.66666683333337
  30
1079.836
  0
VERTEX
  8
Unknown Area Type
  70
32
  10
-4.9030256769227
  20
42.6666666666667
  30
1079.835
  0
VERTEX
  8
Unknown Area Type
  70
32
  10
-4.93421938231107
  20
42.6666666666667
  30
1082.2
  0
SEQEND
  8
Unknown Area Type
  0
TEXT
  8
Unknown Area Type
 62
7
  1
PNOA-H_AMS_1956-57_33k_ES_PAN_2
 40
0.00045
  10
-4.91862252961689
  20
42.66666675000003
  0
POLYLINE
  8
Unknown Area Type
  70
9
  66
1
  0
VERTEX
  8
Unknown Area Type
  70
32
  10
-4.96991721427607
  20
42.63635990922931
  30
987.745
  0
VERTEX
  8
Unknown Area Type
  70
32
  10
-4.96991977018509
  20
42.63644091221618
  30
987.465
  0
VERTEX
  8
Unknown Area Type
  70
32
  10
-4.9686438758323
  20
42.6666666666667
  30
1006.239
  0
VERTEX
  8
Unknown Area Type
  70
32
  10
-4.93749999999995
  20
42.6666666666667
  30
1085.5
  0
VERTEX
  8
Unknown Area Type
  70
32
  10
-4.93421498358895
  20
42.6666666666667
  30
1082.195
  0
VERTEX
  8
Unknown Area Type
  70
32
  10
-4.93571068438431
  20
42.63394446128058
  30
1012.7
  0
VERTEX
  8
Unknown Area Type
  70
32
  10
-4.95589708385588
  20
42.63050818286108
  30
1054.628
  0
VERTEX
  8
Unknown Area Type
  70
32
  10
-4.97000809019909
  20
42.6342151039868
  30
1002.282
  0
SEQEND
  8
Unknown Area Type
  0
TEXT
  8
Unknown Area Type
 62
7
  1
PNOA-H_AMS_1956-57_33k_ES_PAN_2
 40
0.00045
  10
-4.95206187894859
  20
42.65126500129046
  0
POLYLINE
  8
Unknown Area Type
  70
9
  66
1
  0
VERTEX
  8
Unknown Area Type
  70
32
  10
-4.96991721427607
  20
42.63635990922931
  30
987.745
  0
VERTEX
  8
Unknown Area Type
  70
32
  10
-4.96991977018509
  20
42.63644091221618
  30
987.465
  0
VERTEX
  8
Unknown Area Type
  70
32
  10
-4.9686438758323
  20
42.6666666666667
  30
1006.239
  0
VERTEX
  8
Unknown Area Type
  70
32
  10
-4.93749999999995
  20
42.6666666666667
  30
1085.5
  0
VERTEX
  8
Unknown Area Type
  70
32
  10
-4.93421498358895
  20
42.6666666666667
  30
1082.195
  0
VERTEX
  8
Unknown Area Type
  70
32
  10
-4.93571068438431
  20
42.63394446128058
  30
1012.7
  0
VERTEX
  8
Unknown Area Type
  70
32
  10
-4.95589708385588
  20
42.63050818286108
  30
1054.628
  0
VERTEX
  8
Unknown Area Type
  70
32
  10
-4.97000809019909
  20
42.6342151039868
  30
1002.282
  0
SEQEND
  8
Unknown Area Type
  0
TEXT
  8
Unknown Area Type
 62
7
  1
PNOA-H_AMS_1956-57_33k_ES_PAN_2
 40
0.00045
  10
-4.95206187894859
  20
42.65126500129046
  0
POLYLINE
  8
Unknown Area Type
  70
9
  66
1
  0
VERTEX
  8
Unknown Area Type
  70
32
  10
-4.96864386879694
  20
42.66666683333337
  30
1006.239
  0
VERTEX
  8
Unknown Area Type
  70
32
  10
-4.93421497597077
  20
42.66666683333337
  30
1082.195
  0
VERTEX
  8
Unknown Area Type
  70
32
  10
-4.93421498358895
  20
42.6666666666667
  30
1082.195
  0
VERTEX
  8
Unknown Area Type
  70
32
  10
-4.93749999999995
  20
42.6666666666667
  30
1085.5
  0
VERTEX
  8
Unknown Area Type
  70
32
  10
-4.9686438758323
  20
42.6666666666667
  30
1006.239
  0
SEQEND
  8
Unknown Area Type
  0
TEXT
  8
Unknown Area Type
 62
7
  1
PNOA-H_AMS_1956-57_33k_ES_PAN_2
 40
0.00045
  10
-4.95142942590154
  20
42.66666675000003
  0
POLYLINE
  8
Unknown Area Type
  70
9
  66
1
  0
VERTEX
  8
Unknown Area Type
  70
32
  10
-4.89945964189671
  20
42.66585363111371
  30
1077.418
  0
VERTEX
  8
Unknown Area Type
  70
32
  10
-4.89737464149446
  20
42.6666666666667
  30
1086.517
  0
VERTEX
  8
Unknown Area Type
  70
32
  10
-4.89583333333333
  20
42.6666666666667
  30
1092.355
  0
VERTEX
  8
Unknown Area Type
  70
32
  10
-4.86766797939613
  20
42.6666666666667
  30
1092
  0
VERTEX
  8
Unknown Area Type
  70
32
  10
-4.8646431369898
  20
42.66614218014624
  30
1091.114
  0
VERTEX
  8
Unknown Area Type
  70
32
  10
-4.86600592737209
  20
42.63235481676806
  30
1054.94
  0
VERTEX
  8
Unknown Area Type
  70
32
  10
-4.88784170758809
  20
42.62971412127453
  30
1056.638
  0
VERTEX
  8
Unknown Area Type
  70
32
  10
-4.90073181191931
  20
42.63371537314338
  30
1066.793
  0
SEQEND
  8
Unknown Area Type
  0
TEXT
  8
Unknown Area Type
 62
7
  1
PNOA-H_AMS_1956-57_33k_ES_PAN_2
 40
0.00045
  10
-4.88268773811054
  20
42.6498023721396
  0
POLYLINE
  8
Unknown Area Type
  70
9
  66
1
  0
VERTEX
  8
Unknown Area Type
  70
32
  10
-4.89945964189671
  20
42.66585363111371
  30
1077.418
  0
VERTEX
  8
Unknown Area Type
  70
32
  10
-4.89737464149446
  20
42.6666666666667
  30
1086.517
  0
VERTEX
  8
Unknown Area Type
  70
32
  10
-4.89583333333333
  20
42.6666666666667
  30
1092.355
  0
VERTEX
  8
Unknown Area Type
  70
32
  10
-4.86766797939613
  20
42.6666666666667
  30
1092
  0
VERTEX
  8
Unknown Area Type
  70
32
  10
-4.8646431369898
  20
42.66614218014624
  30
1091.114
  0
VERTEX
  8
Unknown Area Type
  70
32
  10
-4.86600592737209
  20
42.63235481676806
  30
1054.94
  0
VERTEX
  8
Unknown Area Type
  70
32
  10
-4.88784170758809
  20
42.62971412127453
  30
1056.638
  0
VERTEX
  8
Unknown Area Type
  70
32
  10
-4.90073181191931
  20
42.63371537314338
  30
1066.793
  0
SEQEND
  8
Unknown Area Type
  0
TEXT
  8
Unknown Area Type
 62
7
  1
PNOA-H_AMS_1956-57_33k_ES_PAN_2
 40
0.00045
  10
-4.88268773811054
  20
42.6498023721396
  0
POLYLINE
  8
Unknown Area Type
  70
9
  66
1
  0
VERTEX
  8
Unknown Area Type
  70
32
  10
-4.89737421408381
  20
42.66666683333337
  30
1086.519
  0
VERTEX
  8
Unknown Area Type
  70
32
  10
-4.86766894060367
  20
42.66666683333337
  30
1092.001
  0
VERTEX
  8
Unknown Area Type
  70
32
  10
-4.86766797939613
  20
42.6666666666667
  30
1092
  0
VERTEX
  8
Unknown Area Type
  70
32
  10
-4.89583333333333
  20
42.6666666666667
  30
1092.355
  0
VERTEX
  8
Unknown Area Type
  70
32
  10
-4.89737464149446
  20
42.6666666666667
  30
1086.517
  0
SEQEND
  8
Unknown Area Type
  0
TEXT
  8
Unknown Area Type
 62
7
  1
PNOA-H_AMS_1956-57_33k_ES_PAN_2
 40
0.00045
  10
-4.8825213104453
  20
42.66666675000003
  0
POLYLINE
  8
Unknown Area Type
  70
9
  66
1
  0
VERTEX
  8
Unknown Area Type
  70
32
  10
-5.00384981929531
  20
42.6666666666667
  30
929.256
  0
VERTEX
  8
Unknown Area Type
  70
32
  10
-4.97916666666667
  20
42.6666666666667
  30
989.165
  0
VERTEX
  8
Unknown Area Type
  70
32
  10
-4.96864403804302
  20
42.6666666666667
  30
1006.667
  0
VERTEX
  8
Unknown Area Type
  70
32
  10
-4.97000809019909
  20
42.6342151039868
  30
1002.282
  0
VERTEX
  8
Unknown Area Type
  70
32
  10
-4.98988021943035
  20
42.63073321551245
  30
976.455
  0
VERTEX
  8
Unknown Area Type
  70
32
  10
-4.99077385572044
  20
42.63083925479347
  30
970.162
  0
VERTEX
  8
Unknown Area Type
  70
32
  10
-4.9909089340959
  20
42.63086842481761
  30
971.555
  0
VERTEX
  8
Unknown Area Type
  70
32
  10
-5.00518885336735
  20
42.63426188648976
  30
948.894
  0
SEQEND
  8
Unknown Area Type
  0
TEXT
  8
Unknown Area Type
 62
7
  1
PNOA-H_AMS_1956-57_33k_ES_PAN_2
 40
0.00045
  10
-4.98689677174932
  20
42.65175032352764
  0
POLYLINE
  8
Unknown Area Type
  70
9
  66
1
  0
VERTEX
  8
Unknown Area Type
  70
32
  10
-5.00384981929531
  20
42.6666666666667
  30
929.256
  0
VERTEX
  8
Unknown Area Type
  70
32
  10
-4.97916666666667
  20
42.6666666666667
  30
989.165
  0
VERTEX
  8
Unknown Area Type
  70
32
  10
-4.96864403804302
  20
42.6666666666667
  30
1006.667
  0
VERTEX
  8
Unknown Area Type
  70
32
  10
-4.97000809019909
  20
42.6342151039868
  30
1002.282
  0
VERTEX
  8
Unknown Area Type
  70
32
  10
-4.98988021943035
  20
42.63073321551245
  30
976.455
  0
VERTEX
  8
Unknown Area Type
  70
32
  10
-4.99077385572044
  20
42.63083925479347
  30
970.162
  0
VERTEX
  8
Unknown Area Type
  70
32
  10
-4.9909089340959
  20
42.63086842481761
  30
971.555
  0
VERTEX
  8
Unknown Area Type
  70
32
  10
-5.00518885336735
  20
42.63426188648976
  30
948.894
  0
SEQEND
  8
Unknown Area Type
  0
TEXT
  8
Unknown Area Type
 62
7
  1
PNOA-H_AMS_1956-57_33k_ES_PAN_2
 40
0.00045
  10
-4.98689677174932
  20
42.65175032352764
  0
POLYLINE
  8
Unknown Area Type
  70
9
  66
1
  0
VERTEX
  8
Unknown Area Type
  70
32
  10
-5.00384981240829
  20
42.66666683333337
  30
929.256
  0
VERTEX
  8
Unknown Area Type
  70
32
  10
-4.96864403103744
  20
42.66666683333337
  30
1006.667
  0
VERTEX
  8
Unknown Area Type
  70
32
  10
-4.96864403804302
  20
42.6666666666667
  30
1006.667
  0
VERTEX
  8
Unknown Area Type
  70
32
  10
-4.97916666666667
  20
42.6666666666667
  30
989.165
  0
VERTEX
  8
Unknown Area Type
  70
32
  10
-5.00384981929531
  20
42.6666666666667
  30
929.256
  0
SEQEND
  8
Unknown Area Type
  0
TEXT
  8
Unknown Area Type
 62
7
  1
PNOA-H_AMS_1956-57_33k_ES_PAN_2
 40
0.00045
  10
-4.98624692516638
  20
42.66666675000003
  0
POLYLINE
  8
Unknown Area Type
  70
9
  66
1
  0
VERTEX
  8
Unknown Area Type
  70
32
  10
-4.8646491006141
  20
42.66613758042971
  30
1091.159
  0
VERTEX
  8
Unknown Area Type
  70
32
  10
-4.86437791150334
  20
42.66625005855062
  30
1089.425
  0
VERTEX
  8
Unknown Area Type
  70
32
  10
-4.86329514922558
  20
42.6666666666667
  30
1087.584
  0
VERTEX
  8
Unknown Area Type
  70
32
  10
-4.8541666666667
  20
42.6666666666667
  30
1075.396
  0
VERTEX
  8
Unknown Area Type
  70
32
  10
-4.8541666666667
  20
42.64583333333339
  30
1069.877
  0
VERTEX
  8
Unknown Area Type
  70
32
  10
-4.8541666666667
  20
42.6307542025199
  30
1046.606
  0
VERTEX
  8
Unknown Area Type
  70
32
  10
-4.85837727917452
  20
42.63009246163058
  30
1048.4
  0
VERTEX
  8
Unknown Area Type
  70
32
  10
-4.8587173753667
  20
42.63004641877423
  30
1048.651
  0
VERTEX
  8
Unknown Area Type
  70
32
  10
-4.86600592737209
  20
42.63235481676806
  30
1054.94
  0
SEQEND
  8
Unknown Area Type
  0
TEXT
  8
Unknown Area Type
 62
7
  1
PNOA-H_AMS_1956-57_33k_ES_PAN_2
 40
0.00045
  10
-4.86008629701939
  20
42.64835654272046
  0
POLYLINE
  8
Unknown Area Type
  70
9
  66
1
  0
VERTEX
  8
Unknown Area Type
  70
32
  10
-4.8646491006141
  20
42.66613758042971
  30
1091.159
  0
VERTEX
  8
Unknown Area Type
  70
32
  10
-4.86437791150334
  20
42.66625005855062
  30
1089.425
  0
VERTEX
  8
Unknown Area Type
  70
32
  10
-4.86329514922558
  20
42.6666666666667
  30
1087.584
  0
VERTEX
  8
Unknown Area Type
  70
32
  10
-4.8541666666667
  20
42.6666666666667
  30
1075.396
  0
VERTEX
  8
Unknown Area Type
  70
32
  10
-4.8541666666667
  20
42.64583333333339
  30
1069.877
  0
VERTEX
  8
Unknown Area Type
  70
32
  10
-4.8541666666667
  20
42.6307542025199
  30
1046.606
  0
VERTEX
  8
Unknown Area Type
  70
32
  10
-4.85837727917452
  20
42.63009246163058
  30
1048.4
  0
VERTEX
  8
Unknown Area Type
  70
32
  10
-4.8587173753667
  20
42.63004641877423
  30
1048.651
  0
VERTEX
  8
Unknown Area Type
  70
32
  10
-4.86600592737209
  20
42.63235481676806
  30
1054.94
  0
SEQEND
  8
Unknown Area Type
  0
TEXT
  8
Unknown Area Type
 62
7
  1
PNOA-H_AMS_1956-57_33k_ES_PAN_2
 40
0.00045
  10
-4.86008629701939
  20
42.64835654272046
  0
POLYLINE
  8
Unknown Area Type
  70
9
  66
1
  0
VERTEX
  8
Unknown Area Type
  70
32
  10
-4.86329471605979
  20
42.66666683333337
  30
1087.584
  0
VERTEX
  8
Unknown Area Type
  70
32
  10
-4.8541666666667
  20
42.66666683333337
  30
1075.396
  0
VERTEX
  8
Unknown Area Type
  70
32
  10
-4.8541666666667
  20
42.6666666666667
  30
1075.396
  0
VERTEX
  8
Unknown Area Type
  70
32
  10
-4.86329514922558
  20
42.6666666666667
  30
1087.584
  0
SEQEND
  8
Unknown Area Type
  0
TEXT
  8
Unknown Area Type
 62
7
  1
PNOA-H_AMS_1956-57_33k_ES_PAN_2
 40
0.00045
  10
-4.85873090794614
  20
42.66666675000003
  0
POLYLINE
  8
Unknown Area Type
  70
9
  66
1
  0
VERTEX
  8
Unknown Area Type
  70
32
  10
-5.01827374838629
  20
42.58703822959141
  30
893.496
  0
VERTEX
  8
Unknown Area Type
  70
32
  10
-5.01206277206857
  20
42.58679180144948
  30
900.588
  0
VERTEX
  8
Unknown Area Type
  70
32
  10
-4.9932313237013
  20
42.58382964464514
  30
946.187
  0
VERTEX
  8
Unknown Area Type
  70
32
  10
-4.99312053033106
  20
42.54840920987166
  30
929.23
  0
VERTEX
  8
Unknown Area Type
  70
32
  10
-5.01120704639677
  20
42.5436804661169
  30
886.741
  0
VERTEX
  8
Unknown Area Type
  70
32
  10
-5.01129267990769
  20
42.54369247053452
  30
886.589
  0
VERTEX
  8
Unknown Area Type
  70
32
  10
-5.02572361022289
  20
42.54782376324373
  30
866.207
  0
VERTEX
  8
Unknown Area Type
  70
32
  10
-5.02596003569029
  20
42.58598849159021
  30
917.769
  0
VERTEX
  8
Unknown Area Type
  70
32
  10
-5.02253235148176
  20
42.58720624828165
  30
901.713
  0
VERTEX
  8
Unknown Area Type
  70
32
  10
-5.01832855751274
  20
42.58703726374445
  30
893.485
  0
VERTEX
  8
Unknown Area Type
  70
32
  10
-5.01827374838629
  20
42.58703822959141
  30
893.496
  0
SEQEND
  8
Unknown Area Type
  0
TEXT
  8
Unknown Area Type
 62
7
  1
PNOA-H_AMS_1956-57_33k_ES_PAN_2
 40
0.00045
  10
-5.00954028773447
  20
42.56525399613535
  0
POLYLINE
  8
Unknown Area Type
  70
9
  66
1
  0
VERTEX
  8
Unknown Area Type
  70
32
  10
-5.01827374838629
  20
42.58703822959141
  30
893.496
  0
VERTEX
  8
Unknown Area Type
  70
32
  10
-5.01206277206857
  20
42.58679180144948
  30
900.588
  0
VERTEX
  8
Unknown Area Type
  70
32
  10
-4.9932313237013
  20
42.58382964464514
  30
946.187
  0
VERTEX
  8
Unknown Area Type
  70
32
  10
-4.99312053033106
  20
42.54840920987166
  30
929.23
  0
VERTEX
  8
Unknown Area Type
  70
32
  10
-5.01120704639677
  20
42.5436804661169
  30
886.741
  0
VERTEX
  8
Unknown Area Type
  70
32
  10
-5.01129267990769
  20
42.54369247053452
  30
886.589
  0
VERTEX
  8
Unknown Area Type
  70
32
  10
-5.02572361022289
  20
42.54782376324373
  30
866.207
  0
VERTEX
  8
Unknown Area Type
  70
32
  10
-5.02596003569029
  20
42.58598849159021
  30
917.769
  0
VERTEX
  8
Unknown Area Type
  70
32
  10
-5.02253235148176
  20
42.58720624828165
  30
901.713
  0
VERTEX
  8
Unknown Area Type
  70
32
  10
-5.01832855751274
  20
42.58703726374445
  30
893.485
  0
VERTEX
  8
Unknown Area Type
  70
32
  10
-5.01827374838629
  20
42.58703822959141
  30
893.496
  0
SEQEND
  8
Unknown Area Type
  0
TEXT
  8
Unknown Area Type
 62
7
  1
PNOA-H_AMS_1956-57_33k_ES_PAN_2
 40
0.00045
  10
-5.00954028773447
  20
42.56525399613535
  0
POLYLINE
  8
Unknown Area Type
  70
9
  66
1
  0
VERTEX
  8
Unknown Area Type
  70
32
  10
-4.9932313237013
  20
42.58382964464514
  30
946.187
  0
VERTEX
  8
Unknown Area Type
  70
32
  10
-4.97960579468569
  20
42.58724932332436
  30
1022.575
  0
VERTEX
  8
Unknown Area Type
  70
32
  10
-4.96027804558347
  20
42.58629399365448
  30
973.981
  0
VERTEX
  8
Unknown Area Type
  70
32
  10
-4.96043246861476
  20
42.54863561628868
  30
931.161
  0
VERTEX
  8
Unknown Area Type
  70
32
  10
-4.9767886832577
  20
42.54418054503617
  30
924.811
  0
VERTEX
  8
Unknown Area Type
  70
32
  10
-4.97683751241099
  20
42.54418420504454
  30
924.981
  0
VERTEX
  8
Unknown Area Type
  70
32
  10
-4.99312067355638
  20
42.54841371004375
  30
929.25
  0
VERTEX
  8
Unknown Area Type
  70
32
  10
-4.99322788185124
  20
42.58372164119073
  30
946.54
  0
VERTEX
  8
Unknown Area Type
  70
32
  10
-4.9932313237013
  20
42.58382964464514
  30
946.187
  0
SEQEND
  8
Unknown Area Type
  0
TEXT
  8
Unknown Area Type
 62
7
  1
PNOA-H_AMS_1956-57_33k_ES_PAN_2
 40
0.00045
  10
-4.97675494366622
  20
42.56564699638336
  0
POLYLINE
  8
Unknown Area Type
  70
9
  66
1
  0
VERTEX
  8
Unknown Area Type
  70
32
  10
-4.9932313237013
  20
42.58382964464514
  30
946.187
  0
VERTEX
  8
Unknown Area Type
  70
32
  10
-4.97960579468569
  20
42.58724932332436
  30
1022.575
  0
VERTEX
  8
Unknown Area Type
  70
32
  10
-4.96027804558347
  20
42.58629399365448
  30
973.981
  0
VERTEX
  8
Unknown Area Type
  70
32
  10
-4.96043246861476
  20
42.54863561628868
  30
931.161
  0
VERTEX
  8
Unknown Area Type
  70
32
  10
-4.9767886832577
  20
42.54418054503617
  30
924.811
  0
VERTEX
  8
Unknown Area Type
  70
32
  10
-4.97683751241099
  20
42.54418420504454
  30
924.981
  0
VERTEX
  8
Unknown Area Type
  70
32
  10
-4.99312067355638
  20
42.54841371004375
  30
929.25
  0
VERTEX
  8
Unknown Area Type
  70
32
  10
-4.99322788185124
  20
42.58372164119073
  30
946.54
  0
VERTEX
  8
Unknown Area Type
  70
32
  10
-4.9932313237013
  20
42.58382964464514
  30
946.187
  0
SEQEND
  8
Unknown Area Type
  0
TEXT
  8
Unknown Area Type
 62
7
  1
PNOA-H_AMS_1956-57_33k_ES_PAN_2
 40
0.00045
  10
-4.97675494366622
  20
42.56564699638336
  0
POLYLINE
  8
Unknown Area Type
  70
9
  66
1
  0
VERTEX
  8
Unknown Area Type
  70
32
  10
-4.96146406356066
  20
42.50436554907112
  30
926.325
  0
VERTEX
  8
Unknown Area Type
  70
32
  10
-4.94317834221405
  20
42.50753187906942
  30
969.672
  0
VERTEX
  8
Unknown Area Type
  70
32
  10
-4.94314806936963
  20
42.50753689524896
  30
969.486
  0
VERTEX
  8
Unknown Area Type
  70
32
  10
-4.94309940971552
  20
42.50753772057647
  30
969.365
  0
VERTEX
  8
Unknown Area Type
  70
32
  10
-4.94297692402794
  20
42.50751278176544
  30
969.131
  0
VERTEX
  8
Unknown Area Type
  70
32
  10
-4.93009598174905
  20
42.50482176756318
  30
959.475
  0
VERTEX
  8
Unknown Area Type
  70
32
  10
-4.92987041682347
  20
42.5
  30
957.641
  0
VERTEX
  8
Unknown Area Type
  70
32
  10
-4.93749999999995
  20
42.5
  30
964.07
  0
VERTEX
  8
Unknown Area Type
  70
32
  10
-4.96134232708055
  20
42.5
  30
923.381
  0
SEQEND
  8
Unknown Area Type
  0
TEXT
  8
Unknown Area Type
 62
7
  1
PNOA-H_AMS_1956-57_33k_ES_PAN_2
 40
0.00045
  10
-4.94566724019206
  20
42.50376886028823
  0
POLYLINE
  8
Unknown Area Type
  70
9
  66
1
  0
VERTEX
  8
Unknown Area Type
  70
32
  10
-4.96146406356066
  20
42.50436554907112
  30
926.325
  0
VERTEX
  8
Unknown Area Type
  70
32
  10
-4.94317834221405
  20
42.50753187906942
  30
969.672
  0
VERTEX
  8
Unknown Area Type
  70
32
  10
-4.94314806936963
  20
42.50753689524896
  30
969.486
  0
VERTEX
  8
Unknown Area Type
  70
32
  10
-4.94309940971552
  20
42.50753772057647
  30
969.365
  0
VERTEX
  8
Unknown Area Type
  70
32
  10
-4.94297692402794
  20
42.50751278176544
  30
969.131
  0
VERTEX
  8
Unknown Area Type
  70
32
  10
-4.93009598174905
  20
42.50482176756318
  30
959.475
  0
VERTEX
  8
Unknown Area Type
  70
32
  10
-4.92987041682347
  20
42.5
  30
957.641
  0
VERTEX
  8
Unknown Area Type
  70
32
  10
-4.93749999999995
  20
42.5
  30
964.07
  0
VERTEX
  8
Unknown Area Type
  70
32
  10
-4.96134232708055
  20
42.5
  30
923.381
  0
SEQEND
  8
Unknown Area Type
  0
TEXT
  8
Unknown Area Type
 62
7
  1
PNOA-H_AMS_1956-57_33k_ES_PAN_2
 40
0.00045
  10
-4.94566724019206
  20
42.50376886028823
  0
POLYLINE
  8
Unknown Area Type
  70
9
  66
1
  0
VERTEX
  8
Unknown Area Type
  70
32
  10
-4.96134232708055
  20
42.5
  30
923.381
  0
VERTEX
  8
Unknown Area Type
  70
32
  10
-4.93749999999995
  20
42.5
  30
964.07
  0
VERTEX
  8
Unknown Area Type
  70
32
  10
-4.92987041682347
  20
42.5
  30
957.641
  0
VERTEX
  8
Unknown Area Type
  70
32
  10
-4.92987040902671
  20
42.49999983333333
  30
957.641
  0
VERTEX
  8
Unknown Area Type
  70
32
  10
-4.96134232243293
  20
42.49999983333333
  30
923.381
  0
SEQEND
  8
Unknown Area Type
  0
TEXT
  8
Unknown Area Type
 62
7
  1
PNOA-H_AMS_1956-57_33k_ES_PAN_2
 40
0.00045
  10
-4.94560636805363
  20
42.49999991666667
  0
POLYLINE
  8
Unknown Area Type
  70
9
  66
1
  0
VERTEX
  8
Unknown Area Type
  70
32
  10
-4.93009598174905
  20
42.50482176756318
  30
959.475
  0
VERTEX
  8
Unknown Area Type
  70
32
  10
-4.91604737868179
  20
42.50709731498763
  30
961.6
  0
VERTEX
  8
Unknown Area Type
  70
32
  10
-4.91601710361366
  20
42.50710232403567
  30
962.105
  0
VERTEX
  8
Unknown Area Type
  70
32
  10
-4.90957365801002
  20
42.50814196703006
  30
978.434
  0
VERTEX
  8
Unknown Area Type
  70
32
  10
-4.89733521601942
  20
42.50532398332455
  30
979.724
  0
VERTEX
  8
Unknown Area Type
  70
32
  10
-4.89728301895553
  20
42.5
  30
975.79
  0
VERTEX
  8
Unknown Area Type
  70
32
  10
-4.92987041682347
  20
42.5
  30
957.641
  0
SEQEND
  8
Unknown Area Type
  0
TEXT
  8
Unknown Area Type
 62
7
  1
PNOA-H_AMS_1956-57_33k_ES_PAN_2
 40
0.00045
  10
-4.91368950035229
  20
42.50407098351503
  0
POLYLINE
  8
Unknown Area Type
  70
9
  66
1
  0
VERTEX
  8
Unknown Area Type
  70
32
  10
-4.93009598174905
  20
42.50482176756318
  30
959.475
  0
VERTEX
  8
Unknown Area Type
  70
32
  10
-4.91604737868179
  20
42.50709731498763
  30
961.6
  0
VERTEX
  8
Unknown Area Type
  70
32
  10
-4.91601710361366
  20
42.50710232403567
  30
962.105
  0
VERTEX
  8
Unknown Area Type
  70
32
  10
-4.90957365801002
  20
42.50814196703006
  30
978.434
  0
VERTEX
  8
Unknown Area Type
  70
32
  10
-4.89733521601942
  20
42.50532398332455
  30
979.724
  0
VERTEX
  8
Unknown Area Type
  70
32
  10
-4.89728301895553
  20
42.5
  30
975.79
  0
VERTEX
  8
Unknown Area Type
  70
32
  10
-4.92987041682347
  20
42.5
  30
957.641
  0
SEQEND
  8
Unknown Area Type
  0
TEXT
  8
Unknown Area Type
 62
7
  1
PNOA-H_AMS_1956-57_33k_ES_PAN_2
 40
0.00045
  10
-4.91368950035229
  20
42.50407098351503
  0
POLYLINE
  8
Unknown Area Type
  70
9
  66
1
  0
VERTEX
  8
Unknown Area Type
  70
32
  10
-4.92987041682347
  20
42.5
  30
957.641
  0
VERTEX
  8
Unknown Area Type
  70
32
  10
-4.89728301895553
  20
42.5
  30
975.79
  0
VERTEX
  8
Unknown Area Type
  70
32
  10
-4.89728301732151
  20
42.49999983333333
  30
975.79
  0
VERTEX
  8
Unknown Area Type
  70
32
  10
-4.92987040902671
  20
42.49999983333333
  30
957.641
  0
SEQEND
  8
Unknown Area Type
  0
TEXT
  8
Unknown Area Type
 62
7
  1
PNOA-H_AMS_1956-57_33k_ES_PAN_2
 40
0.00045
  10
-4.91357671707249
  20
42.49999991666667
  0
POLYLINE
  8
Unknown Area Type
  70
9
  66
1
  0
VERTEX
  8
Unknown Area Type
  70
32
  10
-5.02796645904727
  20
42.50291945500121
  30
839.715
  0
VERTEX
  8
Unknown Area Type
  70
32
  10
-5.01567764857284
  20
42.50548223525621
  30
842.321
  0
VERTEX
  8
Unknown Area Type
  70
32
  10
-5.0156534652358
  20
42.50548716344681
  30
842.339
  0
VERTEX
  8
Unknown Area Type
  70
32
  10
-5.00958418688736
  20
42.50675098114006
  30
849.405
  0
VERTEX
  8
Unknown Area Type
  70
32
  10
-4.99415278711298
  20
42.50373817153638
  30
877.931
  0
VERTEX
  8
Unknown Area Type
  70
32
  10
-4.99403300411118
  20
42.5
  30
878.642
  0
VERTEX
  8
Unknown Area Type
  70
32
  10
-5.0208333333333
  20
42.5
  30
841.041
  0
VERTEX
  8
Unknown Area Type
  70
32
  10
-5.02778533488742
  20
42.5
  30
838.732
  0
SEQEND
  8
Unknown Area Type
  0
TEXT
  8
Unknown Area Type
 62
7
  1
PNOA-H_AMS_1956-57_33k_ES_PAN_2
 40
0.00045
  10
-5.01099973157922
  20
42.50337549057003
  0
POLYLINE
  8
Unknown Area Type
  70
9
  66
1
  0
VERTEX
  8
Unknown Area Type
  70
32
  10
-5.02796645904727
  20
42.50291945500121
  30
839.715
  0
VERTEX
  8
Unknown Area Type
  70
32
  10
-5.01567764857284
  20
42.50548223525621
  30
842.321
  0
VERTEX
  8
Unknown Area Type
  70
32
  10
-5.0156534652358
  20
42.50548716344681
  30
842.339
  0
VERTEX
  8
Unknown Area Type
  70
32
  10
-5.00958418688736
  20
42.50675098114006
  30
849.405
  0
VERTEX
  8
Unknown Area Type
  70
32
  10
-4.99415278711298
  20
42.50373817153638
  30
877.931
  0
VERTEX
  8
Unknown Area Type
  70
32
  10
-4.99403300411118
  20
42.5
  30
878.642
  0
VERTEX
  8
Unknown Area Type
  70
32
  10
-5.0208333333333
  20
42.5
  30
841.041
  0
VERTEX
  8
Unknown Area Type
  70
32
  10
-5.02778533488742
  20
42.5
  30
838.732
  0
SEQEND
  8
Unknown Area Type
  0
TEXT
  8
Unknown Area Type
 62
7
  1
PNOA-H_AMS_1956-57_33k_ES_PAN_2
 40
0.00045
  10
-5.01099973157922
  20
42.50337549057003
  0
POLYLINE
  8
Unknown Area Type
  70
9
  66
1
  0
VERTEX
  8
Unknown Area Type
  70
32
  10
-5.02778533488742
  20
42.5
  30
838.732
  0
VERTEX
  8
Unknown Area Type
  70
32
  10
-5.0208333333333
  20
42.5
  30
841.041
  0
VERTEX
  8
Unknown Area Type
  70
32
  10
-4.99403300411118
  20
42.5
  30
878.642
  0
VERTEX
  8
Unknown Area Type
  70
32
  10
-4.99403299877064
  20
42.49999983333333
  30
878.642
  0
VERTEX
  8
Unknown Area Type
  70
32
  10
-5.02778532454735
  20
42.49999983333333
  30
838.732
  0
SEQEND
  8
Unknown Area Type
  0
TEXT
  8
Unknown Area Type
 62
7
  1
PNOA-H_AMS_1956-57_33k_ES_PAN_2
 40
0.00045
  10
-5.01090916682903
  20
42.49999991666667
  0
POLYLINE
  8
Unknown Area Type
  70
9
  66
1
  0
VERTEX
  8
Unknown Area Type
  70
32
  10
-4.99415278711298
  20
42.50373817153638
  30
877.931
  0
VERTEX
  8
Unknown Area Type
  70
32
  10
-4.97599359034057
  20
42.50719120564366
  30
889.104
  0
VERTEX
  8
Unknown Area Type
  70
32
  10
-4.96581718995639
  20
42.50520948620989
  30
906.336
  0
VERTEX
  8
Unknown Area Type
  70
32
  10
-4.96578663816377
  20
42.50520550775411
  30
906.373
  0
VERTEX
  8
Unknown Area Type
  70
32
  10
-4.96146406356066
  20
42.50436554907112
  30
926.325
  0
VERTEX
  8
Unknown Area Type
  70
32
  10
-4.96134232708055
  20
42.5
  30
923.381
  0
VERTEX
  8
Unknown Area Type
  70
32
  10
-4.97916666666667
  20
42.5
  30
886.408
  0
VERTEX
  8
Unknown Area Type
  70
32
  10
-4.99403300411118
  20
42.5
  30
878.642
  0
SEQEND
  8
Unknown Area Type
  0
TEXT
  8
Unknown Area Type
 62
7
  1
PNOA-H_AMS_1956-57_33k_ES_PAN_2
 40
0.00045
  10
-4.97774755709677
  20
42.50359560282183
  0
POLYLINE
  8
Unknown Area Type
  70
9
  66
1
  0
VERTEX
  8
Unknown Area Type
  70
32
  10
-4.99415278711298
  20
42.50373817153638
  30
877.931
  0
VERTEX
  8
Unknown Area Type
  70
32
  10
-4.97599359034057
  20
42.50719120564366
  30
889.104
  0
VERTEX
  8
Unknown Area Type
  70
32
  10
-4.96581718995639
  20
42.50520948620989
  30
906.336
  0
VERTEX
  8
Unknown Area Type
  70
32
  10
-4.96578663816377
  20
42.50520550775411
  30
906.373
  0
VERTEX
  8
Unknown Area Type
  70
32
  10
-4.96146406356066
  20
42.50436554907112
  30
926.325
  0
VERTEX
  8
Unknown Area Type
  70
32
  10
-4.96134232708055
  20
42.5
  30
923.381
  0
VERTEX
  8
Unknown Area Type
  70
32
  10
-4.97916666666667
  20
42.5
  30
886.408
  0
VERTEX
  8
Unknown Area Type
  70
32
  10
-4.99403300411118
  20
42.5
  30
878.642
  0
SEQEND
  8
Unknown Area Type
  0
TEXT
  8
Unknown Area Type
 62
7
  1
PNOA-H_AMS_1956-57_33k_ES_PAN_2
 40
0.00045
  10
-4.97774755709677
  20
42.50359560282183
  0
POLYLINE
  8
Unknown Area Type
  70
9
  66
1
  0
VERTEX
  8
Unknown Area Type
  70
32
  10
-4.99403300411118
  20
42.5
  30
878.642
  0
VERTEX
  8
Unknown Area Type
  70
32
  10
-4.97916666666667
  20
42.5
  30
886.408
  0
VERTEX
  8
Unknown Area Type
  70
32
  10
-4.96134232708055
  20
42.5
  30
923.381
  0
VERTEX
  8
Unknown Area Type
  70
32
  10
-4.96134232243293
  20
42.49999983333333
  30
923.381
  0
VERTEX
  8
Unknown Area Type
  70
32
  10
-4.99403299877064
  20
42.49999983333333
  30
878.642
  0
SEQEND
  8
Unknown Area Type
  0
TEXT
  8
Unknown Area Type
 62
7
  1
PNOA-H_AMS_1956-57_33k_ES_PAN_2
 40
0.00045
  10
-4.97768766327205
  20
42.49999991666667
  0
POLYLINE
  8
Unknown Area Type
  70
9
  66
1
  0
VERTEX
  8
Unknown Area Type
  70
32
  10
-4.86661894051691
  20
42.50583756509063
  30
975.276
  0
VERTEX
  8
Unknown Area Type
  70
32
  10
-4.86660082676621
  20
42.50584236293743
  30
975.293
  0
VERTEX
  8
Unknown Area Type
  70
32
  10
-4.8541666666667
  20
42.50737460413737
  30
967.435
  0
VERTEX
  8
Unknown Area Type
  70
32
  10
-4.8541666666667
  20
42.5
  30
968.001
  0
VERTEX
  8
Unknown Area Type
  70
32
  10
-4.86629719801969
  20
42.5
  30
971.786
  0
VERTEX
  8
Unknown Area Type
  70
32
  10
-4.86661452055874
  20
42.50568904723194
  30
975.269
  0
SEQEND
  8
Unknown Area Type
  0
TEXT
  8
Unknown Area Type
 62
7
  1
PNOA-H_AMS_1956-57_33k_ES_PAN_2
 40
0.00045
  10
-4.8603928035918
  20
42.50368730206868
  0
POLYLINE
  8
Unknown Area Type
  70
9
  66
1
  0
VERTEX
  8
Unknown Area Type
  70
32
  10
-4.86661894051691
  20
42.50583756509063
  30
975.276
  0
VERTEX
  8
Unknown Area Type
  70
32
  10
-4.86660082676621
  20
42.50584236293743
  30
975.293
  0
VERTEX
  8
Unknown Area Type
  70
32
  10
-4.8541666666667
  20
42.50737460413737
  30
967.435
  0
VERTEX
  8
Unknown Area Type
  70
32
  10
-4.8541666666667
  20
42.5
  30
968.001
  0
VERTEX
  8
Unknown Area Type
  70
32
  10
-4.86629719801969
  20
42.5
  30
971.786
  0
VERTEX
  8
Unknown Area Type
  70
32
  10
-4.86661452055874
  20
42.50568904723194
  30
975.269
  0
SEQEND
  8
Unknown Area Type
  0
TEXT
  8
Unknown Area Type
 62
7
  1
PNOA-H_AMS_1956-57_33k_ES_PAN_2
 40
0.00045
  10
-4.8603928035918
  20
42.50368730206868
  0
POLYLINE
  8
Unknown Area Type
  70
9
  66
1
  0
VERTEX
  8
Unknown Area Type
  70
32
  10
-4.86629719801969
  20
42.5
  30
971.786
  0
VERTEX
  8
Unknown Area Type
  70
32
  10
-4.8541666666667
  20
42.5
  30
968.001
  0
VERTEX
  8
Unknown Area Type
  70
32
  10
-4.8541666666667
  20
42.49999983333333
  30
968.001
  0
VERTEX
  8
Unknown Area Type
  70
32
  10
-4.86629718872339
  20
42.49999983333333
  30
971.785
  0
SEQEND
  8
Unknown Area Type
  0
TEXT
  8
Unknown Area Type
 62
7
  1
PNOA-H_AMS_1956-57_33k_ES_PAN_2
 40
0.00045
  10
-4.86023193234319
  20
42.49999991666667
  0
POLYLINE
  8
Unknown Area Type
  70
9
  66
1
  0
VERTEX
  8
Unknown Area Type
  70
32
  10
-4.89733521601942
  20
42.50532398332455
  30
979.724
  0
VERTEX
  8
Unknown Area Type
  70
32
  10
-4.89109461094407
  20
42.50623315127872
  30
980.716
  0
VERTEX
  8
Unknown Area Type
  70
32
  10
-4.89105825154356
  20
42.50623825416324
  30
980.723
  0
VERTEX
  8
Unknown Area Type
  70
32
  10
-4.87672201088707
  20
42.50831560817952
  30
974.839
  0
VERTEX
  8
Unknown Area Type
  70
32
  10
-4.86661894051691
  20
42.50583756509063
  30
975.276
  0
VERTEX
  8
Unknown Area Type
  70
32
  10
-4.86629333229696
  20
42.5
  30
971.725
  0
VERTEX
  8
Unknown Area Type
  70
32
  10
-4.89583333333333
  20
42.5
  30
975.779
  0
VERTEX
  8
Unknown Area Type
  70
32
  10
-4.89728301895553
  20
42.5
  30
975.79
  0
SEQEND
  8
Unknown Area Type
  0
TEXT
  8
Unknown Area Type
 62
7
  1
PNOA-H_AMS_1956-57_33k_ES_PAN_2
 40
0.00045
  10
-4.88181427415819
  20
42.50415780408976
  0
POLYLINE
  8
Unknown Area Type
  70
9
  66
1
  0
VERTEX
  8
Unknown Area Type
  70
32
  10
-4.89733521601942
  20
42.50532398332455
  30
979.724
  0
VERTEX
  8
Unknown Area Type
  70
32
  10
-4.89109461094407
  20
42.50623315127872
  30
980.716
  0
VERTEX
  8
Unknown Area Type
  70
32
  10
-4.89105825154356
  20
42.50623825416324
  30
980.723
  0
VERTEX
  8
Unknown Area Type
  70
32
  10
-4.87672201088707
  20
42.50831560817952
  30
974.839
  0
VERTEX
  8
Unknown Area Type
  70
32
  10
-4.86661894051691
  20
42.50583756509063
  30
975.276
  0
VERTEX
  8
Unknown Area Type
  70
32
  10
-4.86629333229696
  20
42.5
  30
971.725
  0
VERTEX
  8
Unknown Area Type
  70
32
  10
-4.89583333333333
  20
42.5
  30
975.779
  0
VERTEX
  8
Unknown Area Type
  70
32
  10
-4.89728301895553
  20
42.5
  30
975.79
  0
SEQEND
  8
Unknown Area Type
  0
TEXT
  8
Unknown Area Type
 62
7
  1
PNOA-H_AMS_1956-57_33k_ES_PAN_2
 40
0.00045
  10
-4.88181427415819
  20
42.50415780408976
  0
POLYLINE
  8
Unknown Area Type
  70
9
  66
1
  0
VERTEX
  8
Unknown Area Type
  70
32
  10
-4.89728301895553
  20
42.5
  30
975.79
  0
VERTEX
  8
Unknown Area Type
  70
32
  10
-4.89583333333333
  20
42.5
  30
975.779
  0
VERTEX
  8
Unknown Area Type
  70
32
  10
-4.86629333229696
  20
42.5
  30
971.725
  0
VERTEX
  8
Unknown Area Type
  70
32
  10
-4.86629332300061
  20
42.49999983333333
  30
971.724
  0
VERTEX
  8
Unknown Area Type
  70
32
  10
-4.89728301732151
  20
42.49999983333333
  30
975.79
  0
SEQEND
  8
Unknown Area Type
  0
TEXT
  8
Unknown Area Type
 62
7
  1
PNOA-H_AMS_1956-57_33k_ES_PAN_2
 40
0.00045
  10
-4.88178817097807
  20
42.49999991666667
  0
POLYLINE
  8
Unknown Area Type
  70
9
  66
1
  0
VERTEX
  8
Unknown Area Type
  70
32
  10
-4.91855492406288
  20
42.5907917128138
  30
1035.055
  0
VERTEX
  8
Unknown Area Type
  70
32
  10
-4.90274171338374
  20
42.58819181217677
  30
1033.615
  0
VERTEX
  8
Unknown Area Type
  70
32
  10
-4.90225673188715
  20
42.55059806575392
  30
995.282
  0
VERTEX
  8
Unknown Area Type
  70
32
  10
-4.91067924293493
  20
42.54761219340817
  30
996.123
  0
VERTEX
  8
Unknown Area Type
  70
32
  10
-4.9251659081749
  20
42.5493823407943
  30
996.512
  0
VERTEX
  8
Unknown Area Type
  70
32
  10
-4.92520270437158
  20
42.54939072773563
  30
996.555
  0
VERTEX
  8
Unknown Area Type
  70
32
  10
-4.92522234764899
  20
42.54943542438868
  30
996.624
  0
VERTEX
  8
Unknown Area Type
  70
32
  10
-4.93863930973851
  20
42.58703601434412
  30
1020.988
  0
VERTEX
  8
Unknown Area Type
  70
32
  10
-4.92192357873796
  20
42.59134759672292
  30
1034.261
  0
VERTEX
  8
Unknown Area Type
  70
32
  10
-4.91858551530581
  20
42.59079570303935
  30
1034.984
  0
VERTEX
  8
Unknown Area Type
  70
32
  10
-4.91855492406288
  20
42.5907917128138
  30
1035.055
  0
SEQEND
  8
Unknown Area Type
  0
TEXT
  8
Unknown Area Type
 62
7
  1
PNOA-H_AMS_1956-57_33k_ES_PAN_2
 40
0.00045
  10
-4.92044802259993
  20
42.56995343879663
  0
POLYLINE
  8
Unknown Area Type
  70
9
  66
1
  0
VERTEX
  8
Unknown Area Type
  70
32
  10
-4.91855492406288
  20
42.5907917128138
  30
1035.055
  0
VERTEX
  8
Unknown Area Type
  70
32
  10
-4.90274171338374
  20
42.58819181217677
  30
1033.615
  0
VERTEX
  8
Unknown Area Type
  70
32
  10
-4.90225673188715
  20
42.55059806575392
  30
995.282
  0
VERTEX
  8
Unknown Area Type
  70
32
  10
-4.91067924293493
  20
42.54761219340817
  30
996.123
  0
VERTEX
  8
Unknown Area Type
  70
32
  10
-4.9251659081749
  20
42.5493823407943
  30
996.512
  0
VERTEX
  8
Unknown Area Type
  70
32
  10
-4.92520270437158
  20
42.54939072773563
  30
996.555
  0
VERTEX
  8
Unknown Area Type
  70
32
  10
-4.92522234764899
  20
42.54943542438868
  30
996.624
  0
VERTEX
  8
Unknown Area Type
  70
32
  10
-4.93863930973851
  20
42.58703601434412
  30
1020.988
  0
VERTEX
  8
Unknown Area Type
  70
32
  10
-4.92192357873796
  20
42.59134759672292
  30
1034.261
  0
VERTEX
  8
Unknown Area Type
  70
32
  10
-4.91858551530581
  20
42.59079570303935
  30
1034.984
  0
VERTEX
  8
Unknown Area Type
  70
32
  10
-4.91855492406288
  20
42.5907917128138
  30
1035.055
  0
SEQEND
  8
Unknown Area Type
  0
TEXT
  8
Unknown Area Type
 62
7
  1
PNOA-H_AMS_1956-57_33k_ES_PAN_2
 40
0.00045
  10
-4.92044802259993
  20
42.56995343879663
  0
POLYLINE
  8
Unknown Area Type
  70
9
  66
1
  0
VERTEX
  8
Unknown Area Type
  70
32
  10
-4.97632364678973
  20
42.52268377626868
  30
911.726
  0
VERTEX
  8
Unknown Area Type
  70
32
  10
-4.97597534342966
  20
42.50719152037139
  30
889.1
  0
VERTEX
  8
Unknown Area Type
  70
32
  10
-4.99416495091676
  20
42.50373795980263
  30
877.925
  0
VERTEX
  8
Unknown Area Type
  70
32
  10
-5.00958404268975
  20
42.50674648098042
  30
849.413
  0
VERTEX
  8
Unknown Area Type
  70
32
  10
-5.0112280657074
  20
42.54357653580728
  30
887.484
  0
VERTEX
  8
Unknown Area Type
  70
32
  10
-5.01123138925192
  20
42.54368003870626
  30
886.719
  0
VERTEX
  8
Unknown Area Type
  70
32
  10
-4.99312067355638
  20
42.54841371004375
  30
929.25
  0
VERTEX
  8
Unknown Area Type
  70
32
  10
-4.97680085503755
  20
42.54418033498524
  30
924.856
  0
VERTEX
  8
Unknown Area Type
  70
32
  10
-4.97633357924149
  20
42.52299879293128
  30
914.754
  0
VERTEX
  8
Unknown Area Type
  70
32
  10
-4.97632364678973
  20
42.52268377626868
  30
911.726
  0
SEQEND
  8
Unknown Area Type
  0
TEXT
  8
Unknown Area Type
 62
7
  1
PNOA-H_AMS_1956-57_33k_ES_PAN_2
 40
0.00045
  10
-4.99360336576186
  20
42.52606512883473
  0
POLYLINE
  8
Unknown Area Type
  70
9
  66
1
  0
VERTEX
  8
Unknown Area Type
  70
32
  10
-4.97632364678973
  20
42.52268377626868
  30
911.726
  0
VERTEX
  8
Unknown Area Type
  70
32
  10
-4.97597534342966
  20
42.50719152037139
  30
889.1
  0
VERTEX
  8
Unknown Area Type
  70
32
  10
-4.99416495091676
  20
42.50373795980263
  30
877.925
  0
VERTEX
  8
Unknown Area Type
  70
32
  10
-5.00958404268975
  20
42.50674648098042
  30
849.413
  0
VERTEX
  8
Unknown Area Type
  70
32
  10
-5.0112280657074
  20
42.54357653580728
  30
887.484
  0
VERTEX
  8
Unknown Area Type
  70
32
  10
-5.01123138925192
  20
42.54368003870626
  30
886.719
  0
VERTEX
  8
Unknown Area Type
  70
32
  10
-4.99312067355638
  20
42.54841371004375
  30
929.25
  0
VERTEX
  8
Unknown Area Type
  70
32
  10
-4.97680085503755
  20
42.54418033498524
  30
924.856
  0
VERTEX
  8
Unknown Area Type
  70
32
  10
-4.97633357924149
  20
42.52299879293128
  30
914.754
  0
VERTEX
  8
Unknown Area Type
  70
32
  10
-4.97632364678973
  20
42.52268377626868
  30
911.726
  0
SEQEND
  8
Unknown Area Type
  0
TEXT
  8
Unknown Area Type
 62
7
  1
PNOA-H_AMS_1956-57_33k_ES_PAN_2
 40
0.00045
  10
-4.99360336576186
  20
42.52606512883473
  0
POLYLINE
  8
Unknown Area Type
  70
9
  66
1
  0
VERTEX
  8
Unknown Area Type
  70
32
  10
-5.04184329667239
  20
42.54429564222259
  30
855.954
  0
VERTEX
  8
Unknown Area Type
  70
32
  10
-5.02577215314897
  20
42.54781840210028
  30
866.214
  0
VERTEX
  8
Unknown Area Type
  70
32
  10
-5.02571143809911
  20
42.54782397850577
  30
866.203
  0
VERTEX
  8
Unknown Area Type
  70
32
  10
-5.01123138925192
  20
42.54368003870626
  30
886.719
  0
VERTEX
  8
Unknown Area Type
  70
32
  10
-5.00959026902394
  20
42.50675087444838
  30
849.39
  0
VERTEX
  8
Unknown Area Type
  70
32
  10
-5.02791795096905
  20
42.50292481637683
  30
839.753
  0
VERTEX
  8
Unknown Area Type
  70
32
  10
-5.02798470413598
  20
42.50291913202196
  30
839.708
  0
VERTEX
  8
Unknown Area Type
  70
32
  10
-5.02803364870726
  20
42.5029272709527
  30
839.69
  0
VERTEX
  8
Unknown Area Type
  70
32
  10
-5.04523540466653
  20
42.50588140172405
  30
859.965
  0
VERTEX
  8
Unknown Area Type
  70
32
  10
-5.044684895141
  20
42.54367311670531
  30
856.329
  0
VERTEX
  8
Unknown Area Type
  70
32
  10
-5.04186749259938
  20
42.54429070825884
  30
855.962
  0
VERTEX
  8
Unknown Area Type
  70
32
  10
-5.04184329667239
  20
42.54429564222259
  30
855.954
  0
SEQEND
  8
Unknown Area Type
  0
TEXT
  8
Unknown Area Type
 62
7
  1
PNOA-H_AMS_1956-57_33k_ES_PAN_2
 40
0.00045
  10
-5.02741295563737
  20
42.52524255724873
  0
POLYLINE
  8
Unknown Area Type
  70
9
  66
1
  0
VERTEX
  8
Unknown Area Type
  70
32
  10
-5.04184329667239
  20
42.54429564222259
  30
855.954
  0
VERTEX
  8
Unknown Area Type
  70
32
  10
-5.02577215314897
  20
42.54781840210028
  30
866.214
  0
VERTEX
  8
Unknown Area Type
  70
32
  10
-5.02571143809911
  20
42.54782397850577
  30
866.203
  0
VERTEX
  8
Unknown Area Type
  70
32
  10
-5.01123138925192
  20
42.54368003870626
  30
886.719
  0
VERTEX
  8
Unknown Area Type
  70
32
  10
-5.00959026902394
  20
42.50675087444838
  30
849.39
  0
VERTEX
  8
Unknown Area Type
  70
32
  10
-5.02791795096905
  20
42.50292481637683
  30
839.753
  0
VERTEX
  8
Unknown Area Type
  70
32
  10
-5.02798470413598
  20
42.50291913202196
  30
839.708
  0
VERTEX
  8
Unknown Area Type
  70
32
  10
-5.02803364870726
  20
42.5029272709527
  30
839.69
  0
VERTEX
  8
Unknown Area Type
  70
32
  10
-5.04523540466653
  20
42.50588140172405
  30
859.965
  0
VERTEX
  8
Unknown Area Type
  70
32
  10
-5.044684895141
  20
42.54367311670531
  30
856.329
  0
VERTEX
  8
Unknown Area Type
  70
32
  10
-5.04186749259938
  20
42.54429070825884
  30
855.962
  0
VERTEX
  8
Unknown Area Type
  70
32
  10
-5.04184329667239
  20
42.54429564222259
  30
855.954
  0
SEQEND
  8
Unknown Area Type
  0
TEXT
  8
Unknown Area Type
 62
7
  1
PNOA-H_AMS_1956-57_33k_ES_PAN_2
 40
0.00045
  10
-5.02741295563737
  20
42.52524255724873
  0
POLYLINE
  8
Unknown Area Type
  70
9
  66
1
  0
VERTEX
  8
Unknown Area Type
  70
32
  10
-4.86767660377961
  20
42.6666666666667
  30
1092.024
  0
VERTEX
  8
Unknown Area Type
  70
32
  10
-4.86328545503663
  20
42.6666666666667
  30
1088.62
  0
VERTEX
  8
Unknown Area Type
  70
32
  10
-4.86464923516364
  20
42.66614208084955
  30
1091.142
  0
SEQEND
  8
Unknown Area Type
  0
TEXT
  8
Unknown Area Type
 62
7
  1
PNOA-H_AMS_1956-57_33k_ES_PAN_2
 40
0.00045
  10
-4.86548102940812
  20
42.66640437375813
  0
POLYLINE
  8
Unknown Area Type
  70
9
  66
1
  0
VERTEX
  8
Unknown Area Type
  70
32
  10
-4.86767660377961
  20
42.6666666666667
  30
1092.024
  0
VERTEX
  8
Unknown Area Type
  70
32
  10
-4.86328545503663
  20
42.6666666666667
  30
1088.62
  0
VERTEX
  8
Unknown Area Type
  70
32
  10
-4.86464923516364
  20
42.66614208084955
  30
1091.142
  0
SEQEND
  8
Unknown Area Type
  0
TEXT
  8
Unknown Area Type
 62
7
  1
PNOA-H_AMS_1956-57_33k_ES_PAN_2
 40
0.00045
  10
-4.86548102940812
  20
42.66640437375813
  0
POLYLINE
  8
Unknown Area Type
  70
9
  66
1
  0
VERTEX
  8
Unknown Area Type
  70
32
  10
-4.86767756560783
  20
42.66666683333337
  30
1092.024
  0
VERTEX
  8
Unknown Area Type
  70
32
  10
-4.86328502174873
  20
42.66666683333337
  30
1088.619
  0
VERTEX
  8
Unknown Area Type
  70
32
  10
-4.86328545503663
  20
42.6666666666667
  30
1088.62
  0
VERTEX
  8
Unknown Area Type
  70
32
  10
-4.86767660377961
  20
42.6666666666667
  30
1092.024
  0
SEQEND
  8
Unknown Area Type
  0
TEXT
  8
Unknown Area Type
 62
7
  1
PNOA-H_AMS_1956-57_33k_ES_PAN_2
 40
0.00045
  10
-4.86548129367828
  20
42.66666675000003
  0
POLYLINE
  8
Unknown Area Type
  70
9
  66
1
  0
VERTEX
  8
Unknown Area Type
  70
32
  10
-4.90303432590521
  20
42.6666666666667
  30
1079.775
  0
VERTEX
  8
Unknown Area Type
  70
32
  10
-4.89737315701351
  20
42.6666666666667
  30
1080.75
  0
VERTEX
  8
Unknown Area Type
  70
32
  10
-4.89946573992034
  20
42.66585352996417
  30
1077.344
  0
SEQEND
  8
Unknown Area Type
  0
TEXT
  8
Unknown Area Type
 62
7
  1
PNOA-H_AMS_1956-57_33k_ES_PAN_2
 40
0.00045
  10
-4.90020374145936
  20
42.66626009831543
  0
POLYLINE
  8
Unknown Area Type
  70
9
  66
1
  0
VERTEX
  8
Unknown Area Type
  70
32
  10
-4.90303432590521
  20
42.6666666666667
  30
1079.775
  0
VERTEX
  8
Unknown Area Type
  70
32
  10
-4.89737315701351
  20
42.6666666666667
  30
1080.75
  0
VERTEX
  8
Unknown Area Type
  70
32
  10
-4.89946573992034
  20
42.66585352996417
  30
1077.344
  0
SEQEND
  8
Unknown Area Type
  0
TEXT
  8
Unknown Area Type
 62
7
  1
PNOA-H_AMS_1956-57_33k_ES_PAN_2
 40
0.00045
  10
-4.90020374145936
  20
42.66626009831543
  0
POLYLINE
  8
Unknown Area Type
  70
9
  66
1
  0
VERTEX
  8
Unknown Area Type
  70
32
  10
-4.90303505734968
  20
42.66666683333337
  30
1079.775
  0
VERTEX
  8
Unknown Area Type
  70
32
  10
-4.89737272810184
  20
42.66666683333337
  30
1080.75
  0
VERTEX
  8
Unknown Area Type
  70
32
  10
-4.89737315701351
  20
42.6666666666667
  30
1080.75
  0
VERTEX
  8
Unknown Area Type
  70
32
  10
-4.90303432590521
  20
42.6666666666667
  30
1079.775
  0
SEQEND
  8
Unknown Area Type
  0
TEXT
  8
Unknown Area Type
 62
7
  1
PNOA-H_AMS_1956-57_33k_ES_PAN_2
 40
0.00045
  10
-4.90020389272576
  20
42.66666675000003
  0
POLYLINE
  8
Unknown Area Type
  70
9
  66
1
  0
VERTEX
  8
Unknown Area Type
  70
32
  10
-4.99079228201321
  20
42.63084343708421
  30
970.403
  0
VERTEX
  8
Unknown Area Type
  70
32
  10
-4.98988036283519
  20
42.63073771562856
  30
976.418
  0
VERTEX
  8
Unknown Area Type
  70
32
  10
-4.98986164982249
  20
42.6307245329568
  30
976.712
  0
VERTEX
  8
Unknown Area Type
  70
32
  10
-4.98985469513889
  20
42.63069763815123
  30
976.921
  0
VERTEX
  8
Unknown Area Type
  70
32
  10
-4.97958752448343
  20
42.58724963910312
  30
1022.541
  0
VERTEX
  8
Unknown Area Type
  70
32
  10
-4.99317071367067
  20
42.58383970469173
  30
945.49
  0
VERTEX
  8
Unknown Area Type
  70
32
  10
-4.99325568243781
  20
42.58382922073269
  30
946.51
  0
VERTEX
  8
Unknown Area Type
  70
32
  10
-5.01207495187326
  20
42.5867915874803
  30
900.584
  0
VERTEX
  8
Unknown Area Type
  70
32
  10
-4.99079199507111
  20
42.63083443685716
  30
970.438
  0
VERTEX
  8
Unknown Area Type
  70
32
  10
-4.99079228201321
  20
42.63084343708421
  30
970.403
  0
SEQEND
  8
Unknown Area Type
  0
TEXT
  8
Unknown Area Type
 62
7
  1
PNOA-H_AMS_1956-57_33k_ES_PAN_2
 40
0.00045
  10
-4.99583135626517
  20
42.60231903618917
  0
POLYLINE
  8
Unknown Area Type
  70
9
  66
1
  0
VERTEX
  8
Unknown Area Type
  70
32
  10
-4.99079228201321
  20
42.63084343708421
  30
970.403
  0
VERTEX
  8
Unknown Area Type
  70
32
  10
-4.98988036283519
  20
42.63073771562856
  30
976.418
  0
VERTEX
  8
Unknown Area Type
  70
32
  10
-4.98986164982249
  20
42.6307245329568
  30
976.712
  0
VERTEX
  8
Unknown Area Type
  70
32
  10
-4.98985469513889
  20
42.63069763815123
  30
976.921
  0
VERTEX
  8
Unknown Area Type
  70
32
  10
-4.97958752448343
  20
42.58724963910312
  30
1022.541
  0
VERTEX
  8
Unknown Area Type
  70
32
  10
-4.99317071367067
  20
42.58383970469173
  30
945.49
  0
VERTEX
  8
Unknown Area Type
  70
32
  10
-4.99325568243781
  20
42.58382922073269
  30
946.51
  0
VERTEX
  8
Unknown Area Type
  70
32
  10
-5.01207495187326
  20
42.5867915874803
  30
900.584
  0
VERTEX
  8
Unknown Area Type
  70
32
  10
-4.99079199507111
  20
42.63083443685716
  30
970.438
  0
VERTEX
  8
Unknown Area Type
  70
32
  10
-4.99079228201321
  20
42.63084343708421
  30
970.403
  0
SEQEND
  8
Unknown Area Type
  0
TEXT
  8
Unknown Area Type
 62
7
  1
PNOA-H_AMS_1956-57_33k_ES_PAN_2
 40
0.00045
  10
-4.99583135626517
  20
42.60231903618917
  0
POLYLINE
  8
Unknown Area Type
  70
9
  66
1
  0
VERTEX
  8
Unknown Area Type
  70
32
  10
-4.85869909135781
  20
42.63004671551487
  30
1048.612
  0
VERTEX
  8
Unknown Area Type
  70
32
  10
-4.8541666666667
  20
42.63075905179846
  30
1046.685
  0
VERTEX
  8
Unknown Area Type
  70
32
  10
-4.8541666666667
  20
42.62499999999998
  30
1044.829
  0
VERTEX
  8
Unknown Area Type
  70
32
  10
-4.8541666666667
  20
42.60710275189228
  30
1033.437
  0
SEQEND
  8
Unknown Area Type
  0
TEXT
  8
Unknown Area Type
 62
7
  1
PNOA-H_AMS_1956-57_33k_ES_PAN_2
 40
0.00045
  10
-4.85643287901225
  20
42.61893090184537
  0
POLYLINE
  8
Unknown Area Type
  70
9
  66
1
  0
VERTEX
  8
Unknown Area Type
  70
32
  10
-4.85869909135781
  20
42.63004671551487
  30
1048.612
  0
VERTEX
  8
Unknown Area Type
  70
32
  10
-4.8541666666667
  20
42.63075905179846
  30
1046.685
  0
VERTEX
  8
Unknown Area Type
  70
32
  10
-4.8541666666667
  20
42.62499999999998
  30
1044.829
  0
VERTEX
  8
Unknown Area Type
  70
32
  10
-4.8541666666667
  20
42.60710275189228
  30
1033.437
  0
SEQEND
  8
Unknown Area Type
  0
TEXT
  8
Unknown Area Type
 62
7
  1
PNOA-H_AMS_1956-57_33k_ES_PAN_2
 40
0.00045
  10
-4.85643287901225
  20
42.61893090184537
  0
POLYLINE
  8
Unknown Area Type
  70
9
  66
1
  0
VERTEX
  8
Unknown Area Type
  70
32
  10
-5.18749999999999
  20
42.60416666666666
  30
917.853
  0
VERTEX
  8
Unknown Area Type
  70
32
  10
-5.18749999999999
  20
42.62191011717481
  30
914.487
  0
VERTEX
  8
Unknown Area Type
  70
32
  10
-5.18551950549814
  20
42.58499995036885
  30
921.51
  0
VERTEX
  8
Unknown Area Type
  70
32
  10
-5.1855165178345
  20
42.58491445814068
  30
921.074
  0
VERTEX
  8
Unknown Area Type
  70
32
  10
-5.18557053297288
  20
42.58489091438532
  30
921.998
  0
VERTEX
  8
Unknown Area Type
  70
32
  10
-5.18749999999999
  20
42.58418178938972
  30
923.759
  0
SEQEND
  8
Unknown Area Type
  0
TEXT
  8
Unknown Area Type
 62
7
  1
PNOA-H_AMS_1956-57_33k_ES_PAN_2
 40
0.00045
  10
-5.18650825891725
  20
42.60304595328226
  0
POLYLINE
  8
Unknown Area Type
  70
9
  66
1
  0
VERTEX
  8
Unknown Area Type
  70
32
  10
-5.18750033333333
  20
42.6219163294561
  30
914.485
  0
VERTEX
  8
Unknown Area Type
  70
32
  10
-5.18749999999999
  20
42.62191011717481
  30
914.487
  0
VERTEX
  8
Unknown Area Type
  70
32
  10
-5.18749999999999
  20
42.60416666666666
  30
917.853
  0
VERTEX
  8
Unknown Area Type
  70
32
  10
-5.18749999999999
  20
42.58418178938972
  30
923.759
  0
VERTEX
  8
Unknown Area Type
  70
32
  10
-5.18750033333333
  20
42.58418166688179
  30
923.759
  0
SEQEND
  8
Unknown Area Type
  0
TEXT
  8
Unknown Area Type
 62
7
  1
PNOA-H_AMS_1956-57_33k_ES_PAN_2
 40
0.00045
  10
-5.18750016666666
  20
42.60304899816894
  0
POLYLINE
  8
Unknown Area Type
  70
9
  66
1
  0
VERTEX
  8
Unknown Area Type
  70
32
  10
-5.18749999999999
  20
42.60416666666666
  30
917.853
  0
VERTEX
  8
Unknown Area Type
  70
32
  10
-5.18749999999999
  20
42.62191011717481
  30
914.487
  0
VERTEX
  8
Unknown Area Type
  70
32
  10
-5.18551950549814
  20
42.58499995036885
  30
921.51
  0
VERTEX
  8
Unknown Area Type
  70
32
  10
-5.1855165178345
  20
42.58491445814068
  30
921.074
  0
VERTEX
  8
Unknown Area Type
  70
32
  10
-5.18557053297288
  20
42.58489091438532
  30
921.998
  0
VERTEX
  8
Unknown Area Type
  70
32
  10
-5.18749999999999
  20
42.58418178938972
  30
923.759
  0
SEQEND
  8
Unknown Area Type
  0
TEXT
  8
Unknown Area Type
 62
7
  1
PNOA-H_AMS_1956-57_33k_ES_PAN_2
 40
0.00045
  10
-5.18650825891725
  20
42.60304595328226
  0
POLYLINE
  8
Unknown Area Type
  70
9
  66
1
  0
VERTEX
  8
Unknown Area Type
  70
32
  10
-4.97003246891823
  20
42.63421468461434
  30
1001.828
  0
VERTEX
  8
Unknown Area Type
  70
32
  10
-4.96999590083932
  20
42.63421531367107
  30
1002.458
  0
VERTEX
  8
Unknown Area Type
  70
32
  10
-4.96968846942149
  20
42.63413505215898
  30
1006.015
  0
VERTEX
  8
Unknown Area Type
  70
32
  10
-4.95589722481151
  20
42.63051268306946
  30
1054.623
  0
VERTEX
  8
Unknown Area Type
  70
32
  10
-4.9548440730652
  20
42.58808886715332
  30
952.984
  0
VERTEX
  8
Unknown Area Type
  70
32
  10
-4.96026586549305
  20
42.58629420211563
  30
973.78
  0
VERTEX
  8
Unknown Area Type
  70
32
  10
-4.97958752448343
  20
42.58724963910312
  30
1022.541
  0
VERTEX
  8
Unknown Area Type
  70
32
  10
-4.98986774408861
  20
42.63072442706494
  30
976.651
  0
VERTEX
  8
Unknown Area Type
  70
32
  10
-4.9898559857655
  20
42.63073813919682
  30
976.699
  0
VERTEX
  8
Unknown Area Type
  70
32
  10
-4.9897165345701
  20
42.63076307519641
  30
980.316
  0
VERTEX
  8
Unknown Area Type
  70
32
  10
-4.97006280032195
  20
42.63420966022424
  30
1001.199
  0
VERTEX
  8
Unknown Area Type
  70
32
  10
-4.97003246891823
  20
42.63421468461434
  30
1001.828
  0
SEQEND
  8
Unknown Area Type
  0
TEXT
  8
Unknown Area Type
 62
7
  1
PNOA-H_AMS_1956-57_33k_ES_PAN_2
 40
0.00045
  10
-4.9723561546885
  20
42.61034808225178
  0
POLYLINE
  8
Unknown Area Type
  70
9
  66
1
  0
VERTEX
  8
Unknown Area Type
  70
32
  10
-4.97003246891823
  20
42.63421468461434
  30
1001.828
  0
VERTEX
  8
Unknown Area Type
  70
32
  10
-4.96999590083932
  20
42.63421531367107
  30
1002.458
  0
VERTEX
  8
Unknown Area Type
  70
32
  10
-4.96968846942149
  20
42.63413505215898
  30
1006.015
  0
VERTEX
  8
Unknown Area Type
  70
32
  10
-4.95589722481151
  20
42.63051268306946
  30
1054.623
  0
VERTEX
  8
Unknown Area Type
  70
32
  10
-4.9548440730652
  20
42.58808886715332
  30
952.984
  0
VERTEX
  8
Unknown Area Type
  70
32
  10
-4.96026586549305
  20
42.58629420211563
  30
973.78
  0
VERTEX
  8
Unknown Area Type
  70
32
  10
-4.97958752448343
  20
42.58724963910312
  30
1022.541
  0
VERTEX
  8
Unknown Area Type
  70
32
  10
-4.98986774408861
  20
42.63072442706494
  30
976.651
  0
VERTEX
  8
Unknown Area Type
  70
32
  10
-4.9898559857655
  20
42.63073813919682
  30
976.699
  0
VERTEX
  8
Unknown Area Type
  70
32
  10
-4.9897165345701
  20
42.63076307519641
  30
980.316
  0
VERTEX
  8
Unknown Area Type
  70
32
  10
-4.97006280032195
  20
42.63420966022424
  30
1001.199
  0
VERTEX
  8
Unknown Area Type
  70
32
  10
-4.97003246891823
  20
42.63421468461434
  30
1001.828
  0
SEQEND
  8
Unknown Area Type
  0
TEXT
  8
Unknown Area Type
 62
7
  1
PNOA-H_AMS_1956-57_33k_ES_PAN_2
 40
0.00045
  10
-4.9723561546885
  20
42.61034808225178
  0
POLYLINE
  8
Unknown Area Type
  70
9
  66
1
  0
VERTEX
  8
Unknown Area Type
  70
32
  10
-4.93571677916238
  20
42.63394435826306
  30
1012.864
  0
VERTEX
  8
Unknown Area Type
  70
32
  10
-4.92183473543869
  20
42.63027888835124
  30
1062.919
  0
VERTEX
  8
Unknown Area Type
  70
32
  10
-4.92191748806234
  20
42.59134769892478
  30
1034.251
  0
VERTEX
  8
Unknown Area Type
  70
32
  10
-4.93863321954264
  20
42.58703611742617
  30
1021.111
  0
VERTEX
  8
Unknown Area Type
  70
32
  10
-4.9548440730652
  20
42.58808886715332
  30
952.984
  0
VERTEX
  8
Unknown Area Type
  70
32
  10
-4.95589708385588
  20
42.63050818286108
  30
1054.628
  0
VERTEX
  8
Unknown Area Type
  70
32
  10
-4.93574101875401
  20
42.63393944593017
  30
1013.414
  0
VERTEX
  8
Unknown Area Type
  70
32
  10
-4.93571677916238
  20
42.63394435826306
  30
1012.864
  0
SEQEND
  8
Unknown Area Type
  0
TEXT
  8
Unknown Area Type
 62
7
  1
PNOA-H_AMS_1956-57_33k_ES_PAN_2
 40
0.00045
  10
-4.9388662343138
  20
42.6102273495061
  0
POLYLINE
  8
Unknown Area Type
  70
9
  66
1
  0
VERTEX
  8
Unknown Area Type
  70
32
  10
-4.93571677916238
  20
42.63394435826306
  30
1012.864
  0
VERTEX
  8
Unknown Area Type
  70
32
  10
-4.92183473543869
  20
42.63027888835124
  30
1062.919
  0
VERTEX
  8
Unknown Area Type
  70
32
  10
-4.92191748806234
  20
42.59134769892478
  30
1034.251
  0
VERTEX
  8
Unknown Area Type
  70
32
  10
-4.93863321954264
  20
42.58703611742617
  30
1021.111
  0
VERTEX
  8
Unknown Area Type
  70
32
  10
-4.9548440730652
  20
42.58808886715332
  30
952.984
  0
VERTEX
  8
Unknown Area Type
  70
32
  10
-4.95589708385588
  20
42.63050818286108
  30
1054.628
  0
VERTEX
  8
Unknown Area Type
  70
32
  10
-4.93574101875401
  20
42.63393944593017
  30
1013.414
  0
VERTEX
  8
Unknown Area Type
  70
32
  10
-4.93571677916238
  20
42.63394435826306
  30
1012.864
  0
SEQEND
  8
Unknown Area Type
  0
TEXT
  8
Unknown Area Type
 62
7
  1
PNOA-H_AMS_1956-57_33k_ES_PAN_2
 40
0.00045
  10
-4.9388662343138
  20
42.6102273495061
  0
POLYLINE
  8
Unknown Area Type
  70
9
  66
1
  0
VERTEX
  8
Unknown Area Type
  70
32
  10
-4.99474309508114
  20
42.63178327270682
  30
975.294
  0
VERTEX
  8
Unknown Area Type
  70
32
  10
-4.99079851975903
  20
42.6308478312561
  30
970.464
  0
VERTEX
  8
Unknown Area Type
  70
32
  10
-4.99079199507111
  20
42.63083443685716
  30
970.438
  0
VERTEX
  8
Unknown Area Type
  70
32
  10
-5.01207495187326
  20
42.5867915874803
  30
900.584
  0
VERTEX
  8
Unknown Area Type
  70
32
  10
-5.0225262615783
  20
42.58720635582304
  30
901.712
  0
VERTEX
  8
Unknown Area Type
  70
32
  10
-5.02311086204938
  20
42.63087590071458
  30
890.222
  0
VERTEX
  8
Unknown Area Type
  70
32
  10
-5.00519509244754
  20
42.63426627984678
  30
948.994
  0
VERTEX
  8
Unknown Area Type
  70
32
  10
-4.99475528378374
  20
42.63178306039924
  30
975.326
  0
VERTEX
  8
Unknown Area Type
  70
32
  10
-4.99474309508114
  20
42.63178327270682
  30
975.294
  0
SEQEND
  8
Unknown Area Type
  0
TEXT
  8
Unknown Area Type
 62
7
  1
PNOA-H_AMS_1956-57_33k_ES_PAN_2
 40
0.00045
  10
-5.00695163214833
  20
42.61566282128678
  0
POLYLINE
  8
Unknown Area Type
  70
9
  66
1
  0
VERTEX
  8
Unknown Area Type
  70
32
  10
-4.99474309508114
  20
42.63178327270682
  30
975.294
  0
VERTEX
  8
Unknown Area Type
  70
32
  10
-4.99079851975903
  20
42.6308478312561
  30
970.464
  0
VERTEX
  8
Unknown Area Type
  70
32
  10
-4.99079199507111
  20
42.63083443685716
  30
970.438
  0
VERTEX
  8
Unknown Area Type
  70
32
  10
-5.01207495187326
  20
42.5867915874803
  30
900.584
  0
VERTEX
  8
Unknown Area Type
  70
32
  10
-5.0225262615783
  20
42.58720635582304
  30
901.712
  0
VERTEX
  8
Unknown Area Type
  70
32
  10
-5.02311086204938
  20
42.63087590071458
  30
890.222
  0
VERTEX
  8
Unknown Area Type
  70
32
  10
-5.00519509244754
  20
42.63426627984678
  30
948.994
  0
VERTEX
  8
Unknown Area Type
  70
32
  10
-4.99475528378374
  20
42.63178306039924
  30
975.326
  0
VERTEX
  8
Unknown Area Type
  70
32
  10
-4.99474309508114
  20
42.63178327270682
  30
975.294
  0
SEQEND
  8
Unknown Area Type
  0
TEXT
  8
Unknown Area Type
 62
7
  1
PNOA-H_AMS_1956-57_33k_ES_PAN_2
 40
0.00045
  10
-5.00695163214833
  20
42.61566282128678
  0
POLYLINE
  8
Unknown Area Type
  70
9
  66
1
  0
VERTEX
  8
Unknown Area Type
  70
32
  10
-5.04474791123163
  20
42.63300405818776
  30
905.037
  0
VERTEX
  8
Unknown Area Type
  70
32
  10
-5.03880173122211
  20
42.63410064600524
  30
898.507
  0
VERTEX
  8
Unknown Area Type
  70
32
  10
-5.0386741893724
  20
42.63411642440822
  30
898.237
  0
VERTEX
  8
Unknown Area Type
  70
32
  10
-5.02310491369159
  20
42.63088050839945
  30
890.202
  0
VERTEX
  8
Unknown Area Type
  70
32
  10
-5.0225262615783
  20
42.58720635582304
  30
901.712
  0
VERTEX
  8
Unknown Area Type
  70
32
  10
-5.02595394591826
  20
42.58598859931132
  30
917.768
  0
VERTEX
  8
Unknown Area Type
  70
32
  10
-5.05474951330586
  20
42.58688043534302
  30
890.202
  0
VERTEX
  8
Unknown Area Type
  70
32
  10
-5.05693658718441
  20
42.63075510639965
  30
932.809
  0
VERTEX
  8
Unknown Area Type
  70
32
  10
-5.04477214099057
  20
42.63299912295925
  30
905.229
  0
VERTEX
  8
Unknown Area Type
  70
32
  10
-5.04474791123163
  20
42.63300405818776
  30
905.037
  0
SEQEND
  8
Unknown Area Type
  0
TEXT
  8
Unknown Area Type
 62
7
  1
PNOA-H_AMS_1956-57_33k_ES_PAN_2
 40
0.00045
  10
-5.03973157967289
  20
42.61017075327479
  0
POLYLINE
  8
Unknown Area Type
  70
9
  66
1
  0
VERTEX
  8
Unknown Area Type
  70
32
  10
-5.04474791123163
  20
42.63300405818776
  30
905.037
  0
VERTEX
  8
Unknown Area Type
  70
32
  10
-5.03880173122211
  20
42.63410064600524
  30
898.507
  0
VERTEX
  8
Unknown Area Type
  70
32
  10
-5.0386741893724
  20
42.63411642440822
  30
898.237
  0
VERTEX
  8
Unknown Area Type
  70
32
  10
-5.02310491369159
  20
42.63088050839945
  30
890.202
  0
VERTEX
  8
Unknown Area Type
  70
32
  10
-5.0225262615783
  20
42.58720635582304
  30
901.712
  0
VERTEX
  8
Unknown Area Type
  70
32
  10
-5.02595394591826
  20
42.58598859931132
  30
917.768
  0
VERTEX
  8
Unknown Area Type
  70
32
  10
-5.05474951330586
  20
42.58688043534302
  30
890.202
  0
VERTEX
  8
Unknown Area Type
  70
32
  10
-5.05693658718441
  20
42.63075510639965
  30
932.809
  0
VERTEX
  8
Unknown Area Type
  70
32
  10
-5.04477214099057
  20
42.63299912295925
  30
905.229
  0
VERTEX
  8
Unknown Area Type
  70
32
  10
-5.04474791123163
  20
42.63300405818776
  30
905.037
  0
SEQEND
  8
Unknown Area Type
  0
TEXT
  8
Unknown Area Type
 62
7
  1
PNOA-H_AMS_1956-57_33k_ES_PAN_2
 40
0.00045
  10
-5.03973157967289
  20
42.61017075327479
  0
POLYLINE
  8
Unknown Area Type
  70
9
  66
1
  0
VERTEX
  8
Unknown Area Type
  70
32
  10
-4.9197901668744
  20
42.63061485606364
  30
1059.151
  0
VERTEX
  8
Unknown Area Type
  70
32
  10
-4.9007257170387
  20
42.63371547429926
  30
1066.765
  0
VERTEX
  8
Unknown Area Type
  70
32
  10
-4.88782951851674
  20
42.62971432219936
  30
1056.603
  0
VERTEX
  8
Unknown Area Type
  70
32
  10
-4.89018927783038
  20
42.5912228162951
  30
1024.859
  0
VERTEX
  8
Unknown Area Type
  70
32
  10
-4.90271735163718
  20
42.58819221687961
  30
1033.576
  0
VERTEX
  8
Unknown Area Type
  70
32
  10
-4.90276607512979
  20
42.58819140746875
  30
1033.651
  0
VERTEX
  8
Unknown Area Type
  70
32
  10
-4.90316414469608
  20
42.58825683634262
  30
1034.15
  0
VERTEX
  8
Unknown Area Type
  70
32
  10
-4.92191748806234
  20
42.59134769892478
  30
1034.251
  0
VERTEX
  8
Unknown Area Type
  70
32
  10
-4.92183875239619
  20
42.63021128158886
  30
1062.934
  0
VERTEX
  8
Unknown Area Type
  70
32
  10
-4.92183473543869
  20
42.63027888835124
  30
1062.919
  0
VERTEX
  8
Unknown Area Type
  70
32
  10
-4.92182268499791
  20
42.63028359319418
  30
1062.933
  0
VERTEX
  8
Unknown Area Type
  70
32
  10
-4.9198205010685
  20
42.63060984493523
  30
1059.263
  0
VERTEX
  8
Unknown Area Type
  70
32
  10
-4.9197901668744
  20
42.63061485606364
  30
1059.151
  0
SEQEND
  8
Unknown Area Type
  0
TEXT
  8
Unknown Area Type
 62
7
  1
PNOA-H_AMS_1956-57_33k_ES_PAN_2
 40
0.00045
  10
-4.90487364768986
  20
42.61078819406274
  0
POLYLINE
  8
Unknown Area Type
  70
9
  66
1
  0
VERTEX
  8
Unknown Area Type
  70
32
  10
-4.9197901668744
  20
42.63061485606364
  30
1059.151
  0
VERTEX
  8
Unknown Area Type
  70
32
  10
-4.9007257170387
  20
42.63371547429926
  30
1066.765
  0
VERTEX
  8
Unknown Area Type
  70
32
  10
-4.88782951851674
  20
42.62971432219936
  30
1056.603
  0
VERTEX
  8
Unknown Area Type
  70
32
  10
-4.89018927783038
  20
42.5912228162951
  30
1024.859
  0
VERTEX
  8
Unknown Area Type
  70
32
  10
-4.90271735163718
  20
42.58819221687961
  30
1033.576
  0
VERTEX
  8
Unknown Area Type
  70
32
  10
-4.90276607512979
  20
42.58819140746875
  30
1033.651
  0
VERTEX
  8
Unknown Area Type
  70
32
  10
-4.90316414469608
  20
42.58825683634262
  30
1034.15
  0
VERTEX
  8
Unknown Area Type
  70
32
  10
-4.92191748806234
  20
42.59134769892478
  30
1034.251
  0
VERTEX
  8
Unknown Area Type
  70
32
  10
-4.92183875239619
  20
42.63021128158886
  30
1062.934
  0
VERTEX
  8
Unknown Area Type
  70
32
  10
-4.92183473543869
  20
42.63027888835124
  30
1062.919
  0
VERTEX
  8
Unknown Area Type
  70
32
  10
-4.92182268499791
  20
42.63028359319418
  30
1062.933
  0
VERTEX
  8
Unknown Area Type
  70
32
  10
-4.9198205010685
  20
42.63060984493523
  30
1059.263
  0
VERTEX
  8
Unknown Area Type
  70
32
  10
-4.9197901668744
  20
42.63061485606364
  30
1059.151
  0
SEQEND
  8
Unknown Area Type
  0
TEXT
  8
Unknown Area Type
 62
7
  1
PNOA-H_AMS_1956-57_33k_ES_PAN_2
 40
0.00045
  10
-4.90487364768986
  20
42.61078819406274
  0
POLYLINE
  8
Unknown Area Type
  70
9
  66
1
  0
VERTEX
  8
Unknown Area Type
  70
32
  10
-5.14464956353435
  20
42.63232031534884
  30
992.879
  0
VERTEX
  8
Unknown Area Type
  70
32
  10
-5.1374744325921
  20
42.63344503588723
  30
932.72
  0
VERTEX
  8
Unknown Area Type
  70
32
  10
-5.12284366128318
  20
42.63069596884551
  30
1005.84
  0
VERTEX
  8
Unknown Area Type
  70
32
  10
-5.12034239411997
  20
42.58628821764685
  30
958.594
  0
VERTEX
  8
Unknown Area Type
  70
32
  10
-5.12651929661996
  20
42.5840889867899
  30
995.767
  0
VERTEX
  8
Unknown Area Type
  70
32
  10
-5.15285375691554
  20
42.5855150974389
  30
996.047
  0
VERTEX
  8
Unknown Area Type
  70
32
  10
-5.15509916330684
  20
42.63067430538118
  30
974.653
  0
VERTEX
  8
Unknown Area Type
  70
32
  10
-5.14468597192721
  20
42.63231513089652
  30
993.081
  0
VERTEX
  8
Unknown Area Type
  70
32
  10
-5.14464956353435
  20
42.63232031534884
  30
992.879
  0
SEQEND
  8
Unknown Area Type
  0
TEXT
  8
Unknown Area Type
 62
7
  1
PNOA-H_AMS_1956-57_33k_ES_PAN_2
 40
0.00045
  10
-5.13772089695466
  20
42.60905000861786
  0
POLYLINE
  8
Unknown Area Type
  70
9
  66
1
  0
VERTEX
  8
Unknown Area Type
  70
32
  10
-5.14464956353435
  20
42.63232031534884
  30
992.879
  0
VERTEX
  8
Unknown Area Type
  70
32
  10
-5.1374744325921
  20
42.63344503588723
  30
932.72
  0
VERTEX
  8
Unknown Area Type
  70
32
  10
-5.12284366128318
  20
42.63069596884551
  30
1005.84
  0
VERTEX
  8
Unknown Area Type
  70
32
  10
-5.12034239411997
  20
42.58628821764685
  30
958.594
  0
VERTEX
  8
Unknown Area Type
  70
32
  10
-5.12651929661996
  20
42.5840889867899
  30
995.767
  0
VERTEX
  8
Unknown Area Type
  70
32
  10
-5.15285375691554
  20
42.5855150974389
  30
996.047
  0
VERTEX
  8
Unknown Area Type
  70
32
  10
-5.15509916330684
  20
42.63067430538118
  30
974.653
  0
VERTEX
  8
Unknown Area Type
  70
32
  10
-5.14468597192721
  20
42.63231513089652
  30
993.081
  0
VERTEX
  8
Unknown Area Type
  70
32
  10
-5.14464956353435
  20
42.63232031534884
  30
992.879
  0
SEQEND
  8
Unknown Area Type
  0
TEXT
  8
Unknown Area Type
 62
7
  1
PNOA-H_AMS_1956-57_33k_ES_PAN_2
 40
0.00045
  10
-5.13772089695466
  20
42.60905000861786
  0
POLYLINE
  8
Unknown Area Type
  70
9
  66
1
  0
VERTEX
  8
Unknown Area Type
  70
32
  10
-5.18749999999999
  20
42.62499999999998
  30
913.958
  0
VERTEX
  8
Unknown Area Type
  70
32
  10
-5.18749999999999
  20
42.63017559214848
  30
913.668
  0
VERTEX
  8
Unknown Area Type
  70
32
  10
-5.1697464913511
  20
42.63333337965963
  30
938.268
  0
VERTEX
  8
Unknown Area Type
  70
32
  10
-5.1697161786017
  20
42.63333845658407
  30
938.58
  0
VERTEX
  8
Unknown Area Type
  70
32
  10
-5.15509916330684
  20
42.63067430538118
  30
974.653
  0
VERTEX
  8
Unknown Area Type
  70
32
  10
-5.15285375691554
  20
42.5855150974389
  30
996.047
  0
VERTEX
  8
Unknown Area Type
  70
32
  10
-5.15912725875785
  20
42.58332580197106
  30
991.468
  0
VERTEX
  8
Unknown Area Type
  70
32
  10
-5.1855165178345
  20
42.58491445814068
  30
921.074
  0
VERTEX
  8
Unknown Area Type
  70
32
  10
-5.18749999999999
  20
42.62181945297976
  30
914.521
  0
SEQEND
  8
Unknown Area Type
  0
TEXT
  8
Unknown Area Type
 62
7
  1
PNOA-H_AMS_1956-57_33k_ES_PAN_2
 40
0.00045
  10
-5.17039946116694
  20
42.60860916967677
  0
POLYLINE
  8
Unknown Area Type
  70
9
  66
1
  0
VERTEX
  8
Unknown Area Type
  70
32
  10
-5.18750033333333
  20
42.63017553285901
  30
913.667
  0
VERTEX
  8
Unknown Area Type
  70
32
  10
-5.18749999999999
  20
42.63017559214848
  30
913.668
  0
VERTEX
  8
Unknown Area Type
  70
32
  10
-5.18749999999999
  20
42.62499999999998
  30
913.958
  0
VERTEX
  8
Unknown Area Type
  70
32
  10
-5.18749999999999
  20
42.62181945297976
  30
914.521
  0
VERTEX
  8
Unknown Area Type
  70
32
  10
-5.18750033333333
  20
42.6218256550345
  30
914.52
  0
SEQEND
  8
Unknown Area Type
  0
TEXT
  8
Unknown Area Type
 62
7
  1
PNOA-H_AMS_1956-57_33k_ES_PAN_2
 40
0.00045
  10
-5.18750016666666
  20
42.62599752256412
  0
POLYLINE
  8
Unknown Area Type
  70
9
  66
1
  0
VERTEX
  8
Unknown Area Type
  70
32
  10
-5.18749999999999
  20
42.62499999999998
  30
913.958
  0
VERTEX
  8
Unknown Area Type
  70
32
  10
-5.18749999999999
  20
42.63017559214848
  30
913.668
  0
VERTEX
  8
Unknown Area Type
  70
32
  10
-5.1697464913511
  20
42.63333337965963
  30
938.268
  0
VERTEX
  8
Unknown Area Type
  70
32
  10
-5.1697161786017
  20
42.63333845658407
  30
938.58
  0
VERTEX
  8
Unknown Area Type
  70
32
  10
-5.15509916330684
  20
42.63067430538118
  30
974.653
  0
VERTEX
  8
Unknown Area Type
  70
32
  10
-5.15285375691554
  20
42.5855150974389
  30
996.047
  0
VERTEX
  8
Unknown Area Type
  70
32
  10
-5.15912725875785
  20
42.58332580197106
  30
991.468
  0
VERTEX
  8
Unknown Area Type
  70
32
  10
-5.1855165178345
  20
42.58491445814068
  30
921.074
  0
VERTEX
  8
Unknown Area Type
  70
32
  10
-5.18749999999999
  20
42.62181945297976
  30
914.521
  0
SEQEND
  8
Unknown Area Type
  0
TEXT
  8
Unknown Area Type
 62
7
  1
PNOA-H_AMS_1956-57_33k_ES_PAN_2
 40
0.00045
  10
-5.17039946116694
  20
42.60860916967677
  0
POLYLINE
  8
Unknown Area Type
  70
9
  66
1
  0
VERTEX
  8
Unknown Area Type
  70
32
  10
-5.09464324226411
  20
42.631634009632
  30
994.252
  0
VERTEX
  8
Unknown Area Type
  70
32
  10
-5.08973267450455
  20
42.6306656183267
  30
988.274
  0
VERTEX
  8
Unknown Area Type
  70
32
  10
-5.08769101250157
  20
42.58672596341372
  30
934.787
  0
VERTEX
  8
Unknown Area Type
  70
32
  10
-5.0930322407845
  20
42.58482743110115
  30
965.675
  0
VERTEX
  8
Unknown Area Type
  70
32
  10
-5.09314064520744
  20
42.58478942904394
  30
966.139
  0
VERTEX
  8
Unknown Area Type
  70
32
  10
-5.093177181595
  20
42.58478876130275
  30
966.192
  0
VERTEX
  8
Unknown Area Type
  70
32
  10
-5.12032397324371
  20
42.58628405607674
  30
958.236
  0
VERTEX
  8
Unknown Area Type
  70
32
  10
-5.12034239411997
  20
42.58628821764685
  30
958.594
  0
VERTEX
  8
Unknown Area Type
  70
32
  10
-5.12035168744776
  20
42.58638260034433
  30
959.66
  0
VERTEX
  8
Unknown Area Type
  70
32
  10
-5.12284366128318
  20
42.63069596884551
  30
1005.84
  0
VERTEX
  8
Unknown Area Type
  70
32
  10
-5.10523858620198
  20
42.63373152796341
  30
1035.432
  0
VERTEX
  8
Unknown Area Type
  70
32
  10
-5.09466167509157
  20
42.63163817505028
  30
994.368
  0
VERTEX
  8
Unknown Area Type
  70
32
  10
-5.09464324226411
  20
42.631634009632
  30
994.252
  0
SEQEND
  8
Unknown Area Type
  0
TEXT
  8
Unknown Area Type
 62
7
  1
PNOA-H_AMS_1956-57_33k_ES_PAN_2
 40
0.00045
  10
-5.10526755887908
  20
42.60958908455365
  0
POLYLINE
  8
Unknown Area Type
  70
9
  66
1
  0
VERTEX
  8
Unknown Area Type
  70
32
  10
-5.09464324226411
  20
42.631634009632
  30
994.252
  0
VERTEX
  8
Unknown Area Type
  70
32
  10
-5.08973267450455
  20
42.6306656183267
  30
988.274
  0
VERTEX
  8
Unknown Area Type
  70
32
  10
-5.08769101250157
  20
42.58672596341372
  30
934.787
  0
VERTEX
  8
Unknown Area Type
  70
32
  10
-5.0930322407845
  20
42.58482743110115
  30
965.675
  0
VERTEX
  8
Unknown Area Type
  70
32
  10
-5.09314064520744
  20
42.58478942904394
  30
966.139
  0
VERTEX
  8
Unknown Area Type
  70
32
  10
-5.093177181595
  20
42.58478876130275
  30
966.192
  0
VERTEX
  8
Unknown Area Type
  70
32
  10
-5.12032397324371
  20
42.58628405607674
  30
958.236
  0
VERTEX
  8
Unknown Area Type
  70
32
  10
-5.12034239411997
  20
42.58628821764685
  30
958.594
  0
VERTEX
  8
Unknown Area Type
  70
32
  10
-5.12035168744776
  20
42.58638260034433
  30
959.66
  0
VERTEX
  8
Unknown Area Type
  70
32
  10
-5.12284366128318
  20
42.63069596884551
  30
1005.84
  0
VERTEX
  8
Unknown Area Type
  70
32
  10
-5.10523858620198
  20
42.63373152796341
  30
1035.432
  0
VERTEX
  8
Unknown Area Type
  70
32
  10
-5.09466167509157
  20
42.63163817505028
  30
994.368
  0
VERTEX
  8
Unknown Area Type
  70
32
  10
-5.09464324226411
  20
42.631634009632
  30
994.252
  0
SEQEND
  8
Unknown Area Type
  0
TEXT
  8
Unknown Area Type
 62
7
  1
PNOA-H_AMS_1956-57_33k_ES_PAN_2
 40
0.00045
  10
-5.10526755887908
  20
42.60958908455365
  0
POLYLINE
  8
Unknown Area Type
  70
9
  66
1
  0
VERTEX
  8
Unknown Area Type
  70
32
  10
-5.16961847074178
  20
42.6666666666667
  30
893.634
  0
VERTEX
  8
Unknown Area Type
  70
32
  10
-5.14583333333336
  20
42.6666666666667
  30
987.449
  0
VERTEX
  8
Unknown Area Type
  70
32
  10
-5.13627729808894
  20
42.6666666666667
  30
1024.776
  0
VERTEX
  8
Unknown Area Type
  70
32
  10
-5.13692460047782
  20
42.6489126061525
  30
1039.508
  0
VERTEX
  8
Unknown Area Type
  70
32
  10
-5.13692413819271
  20
42.64889910709789
  30
1039.61
  0
VERTEX
  8
Unknown Area Type
  70
32
  10
-5.13748052655678
  20
42.63344492213776
  30
932.787
  0
VERTEX
  8
Unknown Area Type
  70
32
  10
-5.15510525693083
  20
42.63067419070018
  30
974.575
  0
VERTEX
  8
Unknown Area Type
  70
32
  10
-5.16971008477659
  20
42.63333857204798
  30
938.647
  0
SEQEND
  8
Unknown Area Type
  0
TEXT
  8
Unknown Area Type
 62
7
  1
PNOA-H_AMS_1956-57_33k_ES_PAN_2
 40
0.00045
  10
-5.15293391321774
  20
42.6517673876737
  0
POLYLINE
  8
Unknown Area Type
  70
9
  66
1
  0
VERTEX
  8
Unknown Area Type
  70
32
  10
-5.16961847074178
  20
42.6666666666667
  30
893.634
  0
VERTEX
  8
Unknown Area Type
  70
32
  10
-5.14583333333336
  20
42.6666666666667
  30
987.449
  0
VERTEX
  8
Unknown Area Type
  70
32
  10
-5.13627729808894
  20
42.6666666666667
  30
1024.776
  0
VERTEX
  8
Unknown Area Type
  70
32
  10
-5.13692460047782
  20
42.6489126061525
  30
1039.508
  0
VERTEX
  8
Unknown Area Type
  70
32
  10
-5.13692413819271
  20
42.64889910709789
  30
1039.61
  0
VERTEX
  8
Unknown Area Type
  70
32
  10
-5.13748052655678
  20
42.63344492213776
  30
932.787
  0
VERTEX
  8
Unknown Area Type
  70
32
  10
-5.15510525693083
  20
42.63067419070018
  30
974.575
  0
VERTEX
  8
Unknown Area Type
  70
32
  10
-5.16971008477659
  20
42.63333857204798
  30
938.647
  0
SEQEND
  8
Unknown Area Type
  0
TEXT
  8
Unknown Area Type
 62
7
  1
PNOA-H_AMS_1956-57_33k_ES_PAN_2
 40
0.00045
  10
-5.15293391321774
  20
42.6517673876737
  0
POLYLINE
  8
Unknown Area Type
  70
9
  66
1
  0
VERTEX
  8
Unknown Area Type
  70
32
  10
-5.16961847028364
  20
42.66666683333337
  30
893.633
  0
VERTEX
  8
Unknown Area Type
  70
32
  10
-5.13627729201237
  20
42.66666683333337
  30
1024.775
  0
VERTEX
  8
Unknown Area Type
  70
32
  10
-5.13627729808894
  20
42.6666666666667
  30
1024.776
  0
VERTEX
  8
Unknown Area Type
  70
32
  10
-5.14583333333336
  20
42.6666666666667
  30
987.449
  0
VERTEX
  8
Unknown Area Type
  70
32
  10
-5.16961847074178
  20
42.6666666666667
  30
893.634
  0
SEQEND
  8
Unknown Area Type
  0
TEXT
  8
Unknown Area Type
 62
7
  1
PNOA-H_AMS_1956-57_33k_ES_PAN_2
 40
0.00045
  10
-5.15294788137708
  20
42.66666675000003
  0
POLYLINE
  8
Unknown Area Type
  70
9
  66
1
  0
VERTEX
  8
Unknown Area Type
  70
32
  10
-5.07204316605487
  20
42.63377866162462
  30
979.634
  0
VERTEX
  8
Unknown Area Type
  70
32
  10
-5.07186538740208
  20
42.63375036010945
  30
979.548
  0
VERTEX
  8
Unknown Area Type
  70
32
  10
-5.05693643894897
  20
42.63075060647002
  30
932.803
  0
VERTEX
  8
Unknown Area Type
  70
32
  10
-5.05474951330586
  20
42.58688043534302
  30
890.202
  0
VERTEX
  8
Unknown Area Type
  70
32
  10
-5.0589824491992
  20
42.58534106374408
  30
897.512
  0
VERTEX
  8
Unknown Area Type
  70
32
  10
-5.08769116272096
  20
42.58673046329048
  30
934.753
  0
VERTEX
  8
Unknown Area Type
  70
32
  10
-5.08973267450455
  20
42.6306656183267
  30
988.274
  0
VERTEX
  8
Unknown Area Type
  70
32
  10
-5.0720734879804
  20
42.63377361038874
  30
979.782
  0
VERTEX
  8
Unknown Area Type
  70
32
  10
-5.07204316605487
  20
42.63377866162462
  30
979.634
  0
SEQEND
  8
Unknown Area Type
  0
TEXT
  8
Unknown Area Type
 62
7
  1
PNOA-H_AMS_1956-57_33k_ES_PAN_2
 40
0.00045
  10
-5.07224134764811
  20
42.60986174427239
  0
POLYLINE
  8
Unknown Area Type
  70
9
  66
1
  0
VERTEX
  8
Unknown Area Type
  70
32
  10
-5.07204316605487
  20
42.63377866162462
  30
979.634
  0
VERTEX
  8
Unknown Area Type
  70
32
  10
-5.07186538740208
  20
42.63375036010945
  30
979.548
  0
VERTEX
  8
Unknown Area Type
  70
32
  10
-5.05693643894897
  20
42.63075060647002
  30
932.803
  0
VERTEX
  8
Unknown Area Type
  70
32
  10
-5.05474951330586
  20
42.58688043534302
  30
890.202
  0
VERTEX
  8
Unknown Area Type
  70
32
  10
-5.0589824491992
  20
42.58534106374408
  30
897.512
  0
VERTEX
  8
Unknown Area Type
  70
32
  10
-5.08769116272096
  20
42.58673046329048
  30
934.753
  0
VERTEX
  8
Unknown Area Type
  70
32
  10
-5.08973267450455
  20
42.6306656183267
  30
988.274
  0
VERTEX
  8
Unknown Area Type
  70
32
  10
-5.0720734879804
  20
42.63377361038874
  30
979.782
  0
VERTEX
  8
Unknown Area Type
  70
32
  10
-5.07204316605487
  20
42.63377866162462
  30
979.634
  0
SEQEND
  8
Unknown Area Type
  0
TEXT
  8
Unknown Area Type
 62
7
  1
PNOA-H_AMS_1956-57_33k_ES_PAN_2
 40
0.00045
  10
-5.07224134764811
  20
42.60986174427239
  0
POLYLINE
  8
Unknown Area Type
  70
9
  66
1
  0
VERTEX
  8
Unknown Area Type
  70
32
  10
-5.13627686306341
  20
42.6666666666667
  30
1014.036
  0
VERTEX
  8
Unknown Area Type
  70
32
  10
-5.10416666666665
  20
42.6666666666667
  30
1002.3
  0
VERTEX
  8
Unknown Area Type
  70
32
  10
-5.10362725352189
  20
42.6666666666667
  30
1002.261
  0
VERTEX
  8
Unknown Area Type
  70
32
  10
-5.10446035241507
  20
42.64953635740937
  30
1027.892
  0
VERTEX
  8
Unknown Area Type
  70
32
  10
-5.1044591383487
  20
42.64950035917744
  30
1028.948
  0
VERTEX
  8
Unknown Area Type
  70
32
  10
-5.10522639796212
  20
42.63373175203317
  30
1035.407
  0
VERTEX
  8
Unknown Area Type
  70
32
  10
-5.12285584879211
  20
42.6306957429144
  30
1005.56
  0
VERTEX
  8
Unknown Area Type
  70
32
  10
-5.13748052655678
  20
42.63344492213776
  30
932.787
  0
SEQEND
  8
Unknown Area Type
  0
TEXT
  8
Unknown Area Type
 62
7
  1
PNOA-H_AMS_1956-57_33k_ES_PAN_2
 40
0.00045
  10
-5.12048265405605
  20
42.65178791814476
  0
POLYLINE
  8
Unknown Area Type
  70
9
  66
1
  0
VERTEX
  8
Unknown Area Type
  70
32
  10
-5.13627686306341
  20
42.6666666666667
  30
1014.036
  0
VERTEX
  8
Unknown Area Type
  70
32
  10
-5.10416666666665
  20
42.6666666666667
  30
1002.3
  0
VERTEX
  8
Unknown Area Type
  70
32
  10
-5.10362725352189
  20
42.6666666666667
  30
1002.261
  0
VERTEX
  8
Unknown Area Type
  70
32
  10
-5.10446035241507
  20
42.64953635740937
  30
1027.892
  0
VERTEX
  8
Unknown Area Type
  70
32
  10
-5.1044591383487
  20
42.64950035917744
  30
1028.948
  0
VERTEX
  8
Unknown Area Type
  70
32
  10
-5.10522639796212
  20
42.63373175203317
  30
1035.407
  0
VERTEX
  8
Unknown Area Type
  70
32
  10
-5.12285584879211
  20
42.6306957429144
  30
1005.56
  0
VERTEX
  8
Unknown Area Type
  70
32
  10
-5.13748052655678
  20
42.63344492213776
  30
932.787
  0
SEQEND
  8
Unknown Area Type
  0
TEXT
  8
Unknown Area Type
 62
7
  1
PNOA-H_AMS_1956-57_33k_ES_PAN_2
 40
0.00045
  10
-5.12048265405605
  20
42.65178791814476
  0
POLYLINE
  8
Unknown Area Type
  70
9
  66
1
  0
VERTEX
  8
Unknown Area Type
  70
32
  10
-5.13627685702488
  20
42.66666683333337
  30
1014.036
  0
VERTEX
  8
Unknown Area Type
  70
32
  10
-5.10362724541639
  20
42.66666683333337
  30
1002.261
  0
VERTEX
  8
Unknown Area Type
  70
32
  10
-5.10362725352189
  20
42.6666666666667
  30
1002.261
  0
VERTEX
  8
Unknown Area Type
  70
32
  10
-5.10416666666665
  20
42.6666666666667
  30
1002.3
  0
VERTEX
  8
Unknown Area Type
  70
32
  10
-5.13627686306341
  20
42.6666666666667
  30
1014.036
  0
SEQEND
  8
Unknown Area Type
  0
TEXT
  8
Unknown Area Type
 62
7
  1
PNOA-H_AMS_1956-57_33k_ES_PAN_2
 40
0.00045
  10
-5.1199520542399
  20
42.66666675000003
  0
POLYLINE
  8
Unknown Area Type
  70
9
  66
1
  0
VERTEX
  8
Unknown Area Type
  70
32
  10
-5.10362704192452
  20
42.6666666666667
  30
1000.938
  0
VERTEX
  8
Unknown Area Type
  70
32
  10
-5.07093056996524
  20
42.6666666666667
  30
988.883
  0
VERTEX
  8
Unknown Area Type
  70
32
  10
-5.07202488329416
  20
42.63377899243167
  30
979.549
  0
VERTEX
  8
Unknown Area Type
  70
32
  10
-5.08970829897902
  20
42.63066606314003
  30
988.222
  0
VERTEX
  8
Unknown Area Type
  70
32
  10
-5.08983687290178
  20
42.63068172715614
  30
988.602
  0
VERTEX
  8
Unknown Area Type
  70
32
  10
-5.10522639796212
  20
42.63373175203317
  30
1035.407
  0
SEQEND
  8
Unknown Area Type
  0
TEXT
  8
Unknown Area Type
 62
7
  1
PNOA-H_AMS_1956-57_33k_ES_PAN_2
 40
0.00045
  10
-5.08803196454769
  20
42.65172465421024
  0
POLYLINE
  8
Unknown Area Type
  70
9
  66
1
  0
VERTEX
  8
Unknown Area Type
  70
32
  10
-5.10362704192452
  20
42.6666666666667
  30
1000.938
  0
VERTEX
  8
Unknown Area Type
  70
32
  10
-5.07093056996524
  20
42.6666666666667
  30
988.883
  0
VERTEX
  8
Unknown Area Type
  70
32
  10
-5.07202488329416
  20
42.63377899243167
  30
979.549
  0
VERTEX
  8
Unknown Area Type
  70
32
  10
-5.08970829897902
  20
42.63066606314003
  30
988.222
  0
VERTEX
  8
Unknown Area Type
  70
32
  10
-5.08983687290178
  20
42.63068172715614
  30
988.602
  0
VERTEX
  8
Unknown Area Type
  70
32
  10
-5.10522639796212
  20
42.63373175203317
  30
1035.407
  0
SEQEND
  8
Unknown Area Type
  0
TEXT
  8
Unknown Area Type
 62
7
  1
PNOA-H_AMS_1956-57_33k_ES_PAN_2
 40
0.00045
  10
-5.08803196454769
  20
42.65172465421024
  0
POLYLINE
  8
Unknown Area Type
  70
9
  66
1
  0
VERTEX
  8
Unknown Area Type
  70
32
  10
-5.10362703383101
  20
42.66666683333337
  30
1000.938
  0
VERTEX
  8
Unknown Area Type
  70
32
  10
-5.07093056441953
  20
42.66666683333337
  30
988.883
  0
VERTEX
  8
Unknown Area Type
  70
32
  10
-5.07093056996524
  20
42.6666666666667
  30
988.883
  0
VERTEX
  8
Unknown Area Type
  70
32
  10
-5.10362704192452
  20
42.6666666666667
  30
1000.938
  0
SEQEND
  8
Unknown Area Type
  0
TEXT
  8
Unknown Area Type
 62
7
  1
PNOA-H_AMS_1956-57_33k_ES_PAN_2
 40
0.00045
  10
-5.08727880317203
  20
42.66666675000003
  0
POLYLINE
  8
Unknown Area Type
  70
9
  66
1
  0
VERTEX
  8
Unknown Area Type
  70
32
  10
-5.07093044071565
  20
42.6666666666667
  30
971.355
  0
VERTEX
  8
Unknown Area Type
  70
32
  10
-5.06250000000002
  20
42.6666666666667
  30
995.397
  0
VERTEX
  8
Unknown Area Type
  70
32
  10
-5.0383967390127
  20
42.6666666666667
  30
922.324
  0
VERTEX
  8
Unknown Area Type
  70
32
  10
-5.03869247261456
  20
42.63411609892142
  30
898.259
  0
VERTEX
  8
Unknown Area Type
  70
32
  10
-5.05693643894897
  20
42.63075060647002
  30
932.803
  0
VERTEX
  8
Unknown Area Type
  70
32
  10
-5.07202488329416
  20
42.63377899243167
  30
979.549
  0
SEQEND
  8
Unknown Area Type
  0
TEXT
  8
Unknown Area Type
 62
7
  1
PNOA-H_AMS_1956-57_33k_ES_PAN_2
 40
0.00045
  10
-5.05519830951712
  20
42.65162759818602
  0
POLYLINE
  8
Unknown Area Type
  70
9
  66
1
  0
VERTEX
  8
Unknown Area Type
  70
32
  10
-5.07093044071565
  20
42.6666666666667
  30
971.355
  0
VERTEX
  8
Unknown Area Type
  70
32
  10
-5.06250000000002
  20
42.6666666666667
  30
995.397
  0
VERTEX
  8
Unknown Area Type
  70
32
  10
-5.0383967390127
  20
42.6666666666667
  30
922.324
  0
VERTEX
  8
Unknown Area Type
  70
32
  10
-5.03869247261456
  20
42.63411609892142
  30
898.259
  0
VERTEX
  8
Unknown Area Type
  70
32
  10
-5.05693643894897
  20
42.63075060647002
  30
932.803
  0
VERTEX
  8
Unknown Area Type
  70
32
  10
-5.07202488329416
  20
42.63377899243167
  30
979.549
  0
SEQEND
  8
Unknown Area Type
  0
TEXT
  8
Unknown Area Type
 62
7
  1
PNOA-H_AMS_1956-57_33k_ES_PAN_2
 40
0.00045
  10
-5.05519830951712
  20
42.65162759818602
  0
POLYLINE
  8
Unknown Area Type
  70
9
  66
1
  0
VERTEX
  8
Unknown Area Type
  70
32
  10
-5.07093043516928
  20
42.66666683333337
  30
971.355
  0
VERTEX
  8
Unknown Area Type
  70
32
  10
-5.03839673749847
  20
42.66666683333337
  30
922.324
  0
VERTEX
  8
Unknown Area Type
  70
32
  10
-5.0383967390127
  20
42.6666666666667
  30
922.324
  0
VERTEX
  8
Unknown Area Type
  70
32
  10
-5.06250000000002
  20
42.6666666666667
  30
995.397
  0
VERTEX
  8
Unknown Area Type
  70
32
  10
-5.07093044071565
  20
42.6666666666667
  30
971.355
  0
SEQEND
  8
Unknown Area Type
  0
TEXT
  8
Unknown Area Type
 62
7
  1
PNOA-H_AMS_1956-57_33k_ES_PAN_2
 40
0.00045
  10
-5.05466358910706
  20
42.66666675000003
  0
POLYLINE
  8
Unknown Area Type
  70
9
  66
1
  0
VERTEX
  8
Unknown Area Type
  70
32
  10
-4.88783534095521
  20
42.62970522095958
  30
1056.618
  0
VERTEX
  8
Unknown Area Type
  70
32
  10
-4.88780527642014
  20
42.62971922443396
  30
1056.51
  0
VERTEX
  8
Unknown Area Type
  70
32
  10
-4.88767769926361
  20
42.62973483520704
  30
1056.798
  0
VERTEX
  8
Unknown Area Type
  70
32
  10
-4.86606674157322
  20
42.63234932324833
  30
1054.918
  0
VERTEX
  8
Unknown Area Type
  70
32
  10
-4.86602421198059
  20
42.63235451884839
  30
1054.939
  0
VERTEX
  8
Unknown Area Type
  70
32
  10
-4.8659690891827
  20
42.63234641171249
  30
1054.909
  0
VERTEX
  8
Unknown Area Type
  70
32
  10
-4.85869909135781
  20
42.63004671551487
  30
1048.612
  0
VERTEX
  8
Unknown Area Type
  70
32
  10
-4.8541666666667
  20
42.60710275189228
  30
1033.437
  0
VERTEX
  8
Unknown Area Type
  70
32
  10
-4.8541666666667
  20
42.60416666666666
  30
1031.568
  0
VERTEX
  8
Unknown Area Type
  70
32
  10
-4.8541666666667
  20
42.59140425995645
  30
1023.408
  0
VERTEX
  8
Unknown Area Type
  70
32
  10
-4.87013179550562
  20
42.58746364509698
  30
1022.711
  0
VERTEX
  8
Unknown Area Type
  70
32
  10
-4.89018927783038
  20
42.5912228162951
  30
1024.859
  0
SEQEND
  8
Unknown Area Type
  0
TEXT
  8
Unknown Area Type
 62
7
  1
PNOA-H_AMS_1956-57_33k_ES_PAN_2
 40
0.00045
  10
-4.87069952816486
  20
42.60967871113832
  0
POLYLINE
  8
Unknown Area Type
  70
9
  66
1
  0
VERTEX
  8
Unknown Area Type
  70
32
  10
-4.88783534095521
  20
42.62970522095958
  30
1056.618
  0
VERTEX
  8
Unknown Area Type
  70
32
  10
-4.88780527642014
  20
42.62971922443396
  30
1056.51
  0
VERTEX
  8
Unknown Area Type
  70
32
  10
-4.88767769926361
  20
42.62973483520704
  30
1056.798
  0
VERTEX
  8
Unknown Area Type
  70
32
  10
-4.86606674157322
  20
42.63234932324833
  30
1054.918
  0
VERTEX
  8
Unknown Area Type
  70
32
  10
-4.86602421198059
  20
42.63235451884839
  30
1054.939
  0
VERTEX
  8
Unknown Area Type
  70
32
  10
-4.8659690891827
  20
42.63234641171249
  30
1054.909
  0
VERTEX
  8
Unknown Area Type
  70
32
  10
-4.85869909135781
  20
42.63004671551487
  30
1048.612
  0
VERTEX
  8
Unknown Area Type
  70
32
  10
-4.8541666666667
  20
42.60710275189228
  30
1033.437
  0
VERTEX
  8
Unknown Area Type
  70
32
  10
-4.8541666666667
  20
42.60416666666666
  30
1031.568
  0
VERTEX
  8
Unknown Area Type
  70
32
  10
-4.8541666666667
  20
42.59140425995645
  30
1023.408
  0
VERTEX
  8
Unknown Area Type
  70
32
  10
-4.87013179550562
  20
42.58746364509698
  30
1022.711
  0
VERTEX
  8
Unknown Area Type
  70
32
  10
-4.89018927783038
  20
42.5912228162951
  30
1024.859
  0
SEQEND
  8
Unknown Area Type
  0
TEXT
  8
Unknown Area Type
 62
7
  1
PNOA-H_AMS_1956-57_33k_ES_PAN_2
 40
0.00045
  10
-4.87069952816486
  20
42.60967871113832
  0
POLYLINE
  8
Unknown Area Type
  70
9
  66
1
  0
VERTEX
  8
Unknown Area Type
  70
32
  10
-5.18749999999999
  20
42.64583333333339
  30
883.672
  0
VERTEX
  8
Unknown Area Type
  70
32
  10
-5.18749999999999
  20
42.6666666666667
  30
886.224
  0
VERTEX
  8
Unknown Area Type
  70
32
  10
-5.16961826104561
  20
42.6666666666667
  30
893.597
  0
VERTEX
  8
Unknown Area Type
  70
32
  10
-5.16970618017053
  20
42.63340168191334
  30
938.252
  0
VERTEX
  8
Unknown Area Type
  70
32
  10
-5.1697160222283
  20
42.63333395698395
  30
938.602
  0
VERTEX
  8
Unknown Area Type
  70
32
  10
-5.18749999999999
  20
42.63017358828914
  30
913.698
  0
SEQEND
  8
Unknown Area Type
  0
TEXT
  8
Unknown Area Type
 62
7
  1
PNOA-H_AMS_1956-57_33k_ES_PAN_2
 40
0.00045
  10
-5.18657787877265
  20
42.65141702172144
  0
POLYLINE
  8
Unknown Area Type
  70
9
  66
1
  0
VERTEX
  8
Unknown Area Type
  70
32
  10
-5.18750033333333
  20
42.6666666666667
  30
886.224
  0
VERTEX
  8
Unknown Area Type
  70
32
  10
-5.18749999999999
  20
42.6666666666667
  30
886.224
  0
VERTEX
  8
Unknown Area Type
  70
32
  10
-5.18749999999999
  20
42.64583333333339
  30
883.672
  0
VERTEX
  8
Unknown Area Type
  70
32
  10
-5.18749999999999
  20
42.63017358828914
  30
913.698
  0
VERTEX
  8
Unknown Area Type
  70
32
  10
-5.18750033333333
  20
42.63017352905288
  30
913.697
  0
SEQEND
  8
Unknown Area Type
  0
TEXT
  8
Unknown Area Type
 62
7
  1
PNOA-H_AMS_1956-57_33k_ES_PAN_2
 40
0.00045
  10
-5.18750016666666
  20
42.64842009785979
  0
POLYLINE
  8
Unknown Area Type
  70
9
  66
1
  0
VERTEX
  8
Unknown Area Type
  70
32
  10
-5.18749999999999
  20
42.64583333333339
  30
883.672
  0
VERTEX
  8
Unknown Area Type
  70
32
  10
-5.18749999999999
  20
42.6666666666667
  30
886.224
  0
VERTEX
  8
Unknown Area Type
  70
32
  10
-5.16961826104561
  20
42.6666666666667
  30
893.597
  0
VERTEX
  8
Unknown Area Type
  70
32
  10
-5.16970618017053
  20
42.63340168191334
  30
938.252
  0
VERTEX
  8
Unknown Area Type
  70
32
  10
-5.1697160222283
  20
42.63333395698395
  30
938.602
  0
VERTEX
  8
Unknown Area Type
  70
32
  10
-5.18749999999999
  20
42.63017358828914
  30
913.698
  0
SEQEND
  8
Unknown Area Type
  0
TEXT
  8
Unknown Area Type
 62
7
  1
PNOA-H_AMS_1956-57_33k_ES_PAN_2
 40
0.00045
  10
-5.18657787877265
  20
42.65141702172144
  0
POLYLINE
  8
Unknown Area Type
  70
9
  66
1
  0
VERTEX
  8
Unknown Area Type
  70
32
  10
-5.18750033333333
  20
42.66666683333337
  30
886.224
  0
VERTEX
  8
Unknown Area Type
  70
32
  10
-5.18749999999999
  20
42.66666683333337
  30
886.224
  0
VERTEX
  8
Unknown Area Type
  70
32
  10
-5.18749999999999
  20
42.6666666666667
  30
886.224
  0
VERTEX
  8
Unknown Area Type
  70
32
  10
-5.18750033333333
  20
42.6666666666667
  30
886.224
  0
SEQEND
  8
Unknown Area Type
  0
TEXT
  8
Unknown Area Type
 62
7
  1
PNOA-H_AMS_1956-57_33k_ES_PAN_2
 40
0.00045
  10
-5.18750016666666
  20
42.66666675000003
  0
POLYLINE
  8
Unknown Area Type
  70
9
  66
1
  0
VERTEX
  8
Unknown Area Type
  70
32
  10
-5.18749999999999
  20
42.66666683333337
  30
886.224
  0
VERTEX
  8
Unknown Area Type
  70
32
  10
-5.16961826060512
  20
42.66666683333337
  30
893.596
  0
VERTEX
  8
Unknown Area Type
  70
32
  10
-5.16961826104561
  20
42.6666666666667
  30
893.597
  0
VERTEX
  8
Unknown Area Type
  70
32
  10
-5.18749999999999
  20
42.6666666666667
  30
886.224
  0
SEQEND
  8
Unknown Area Type
  0
TEXT
  8
Unknown Area Type
 62
7
  1
PNOA-H_AMS_1956-57_33k_ES_PAN_2
 40
0.00045
  10
-5.17855913030256
  20
42.66666675000003
  0
POLYLINE
  8
Unknown Area Type
  70
9
  66
1
  0
VERTEX
  8
Unknown Area Type
  70
32
  10
-5.18749999999999
  20
42.56250000000004
  30
930.832
  0
VERTEX
  8
Unknown Area Type
  70
32
  10
-5.18749999999999
  20
42.58333333333335
  30
923.492
  0
VERTEX
  8
Unknown Area Type
  70
32
  10
-5.18749999999999
  20
42.58418653734438
  30
923.209
  0
VERTEX
  8
Unknown Area Type
  70
32
  10
-5.18552260687722
  20
42.58491434194185
  30
921.182
  0
VERTEX
  8
Unknown Area Type
  70
32
  10
-5.1679376607687
  20
42.58385276454673
  30
960.873
  0
VERTEX
  8
Unknown Area Type
  70
32
  10
-5.16791330472615
  20
42.58385322559291
  30
961.112
  0
VERTEX
  8
Unknown Area Type
  70
32
  10
-5.15913943674723
  20
42.5833255723847
  30
991.409
  0
VERTEX
  8
Unknown Area Type
  70
32
  10
-5.15796739295216
  20
42.54616508921956
  30
955.917
  0
VERTEX
  8
Unknown Area Type
  70
32
  10
-5.18159129489709
  20
42.54224154483266
  30
934.188
  0
VERTEX
  8
Unknown Area Type
  70
32
  10
-5.1816771105786
  20
42.54225792078865
  30
933.307
  0
VERTEX
  8
Unknown Area Type
  70
32
  10
-5.18749999999999
  20
42.54416576140386
  30
933.155
  0
SEQEND
  8
Unknown Area Type
  0
TEXT
  8
Unknown Area Type
 62
7
  1
PNOA-H_AMS_1956-57_33k_ES_PAN_2
 40
0.00045
  10
-5.17517079334015
  20
42.56379735536649
  0
POLYLINE
  8
Unknown Area Type
  70
9
  66
1
  0
VERTEX
  8
Unknown Area Type
  70
32
  10
-5.18750033333333
  20
42.58418641465683
  30
923.209
  0
VERTEX
  8
Unknown Area Type
  70
32
  10
-5.18749999999999
  20
42.58418653734438
  30
923.209
  0
VERTEX
  8
Unknown Area Type
  70
32
  10
-5.18749999999999
  20
42.58333333333335
  30
923.492
  0
VERTEX
  8
Unknown Area Type
  70
32
  10
-5.18749999999999
  20
42.56250000000004
  30
930.832
  0
VERTEX
  8
Unknown Area Type
  70
32
  10
-5.18749999999999
  20
42.54416576140386
  30
933.155
  0
VERTEX
  8
Unknown Area Type
  70
32
  10
-5.18750033333333
  20
42.54416587061885
  30
933.155
  0
SEQEND
  8
Unknown Area Type
  0
TEXT
  8
Unknown Area Type
 62
7
  1
PNOA-H_AMS_1956-57_33k_ES_PAN_2
 40
0.00045
  10
-5.18750016666666
  20
42.56417614937412
  0
POLYLINE
  8
Unknown Area Type
  70
9
  66
1
  0
VERTEX
  8
Unknown Area Type
  70
32
  10
-5.18749999999999
  20
42.56250000000004
  30
930.832
  0
VERTEX
  8
Unknown Area Type
  70
32
  10
-5.18749999999999
  20
42.58333333333335
  30
923.492
  0
VERTEX
  8
Unknown Area Type
  70
32
  10
-5.18749999999999
  20
42.58418653734438
  30
923.209
  0
VERTEX
  8
Unknown Area Type
  70
32
  10
-5.18552260687722
  20
42.58491434194185
  30
921.182
  0
VERTEX
  8
Unknown Area Type
  70
32
  10
-5.1679376607687
  20
42.58385276454673
  30
960.873
  0
VERTEX
  8
Unknown Area Type
  70
32
  10
-5.16791330472615
  20
42.58385322559291
  30
961.112
  0
VERTEX
  8
Unknown Area Type
  70
32
  10
-5.15913943674723
  20
42.5833255723847
  30
991.409
  0
VERTEX
  8
Unknown Area Type
  70
32
  10
-5.15796739295216
  20
42.54616508921956
  30
955.917
  0
VERTEX
  8
Unknown Area Type
  70
32
  10
-5.18159129489709
  20
42.54224154483266
  30
934.188
  0
VERTEX
  8
Unknown Area Type
  70
32
  10
-5.1816771105786
  20
42.54225792078865
  30
933.307
  0
VERTEX
  8
Unknown Area Type
  70
32
  10
-5.18749999999999
  20
42.54416576140386
  30
933.155
  0
SEQEND
  8
Unknown Area Type
  0
TEXT
  8
Unknown Area Type
 62
7
  1
PNOA-H_AMS_1956-57_33k_ES_PAN_2
 40
0.00045
  10
-5.17517079334015
  20
42.56379735536649
  0
POLYLINE
  8
Unknown Area Type
  70
9
  66
1
  0
VERTEX
  8
Unknown Area Type
  70
32
  10
-5.11807757156757
  20
42.58616352899602
  30
952.766
  0
VERTEX
  8
Unknown Area Type
  70
32
  10
-5.09314673460546
  20
42.58478931775456
  30
966.148
  0
VERTEX
  8
Unknown Area Type
  70
32
  10
-5.09278218036388
  20
42.54784291401441
  30
934.75
  0
VERTEX
  8
Unknown Area Type
  70
32
  10
-5.1129864029766
  20
42.54330704337401
  30
940.474
  0
VERTEX
  8
Unknown Area Type
  70
32
  10
-5.11302306651211
  20
42.54331086966878
  30
940.273
  0
VERTEX
  8
Unknown Area Type
  70
32
  10
-5.12552879578944
  20
42.54722191061288
  30
932.07
  0
VERTEX
  8
Unknown Area Type
  70
32
  10
-5.12653147501773
  20
42.58408876066599
  30
995.957
  0
VERTEX
  8
Unknown Area Type
  70
32
  10
-5.12034848355729
  20
42.58628810490865
  30
958.697
  0
VERTEX
  8
Unknown Area Type
  70
32
  10
-5.11811410817171
  20
42.58616285328578
  30
952.564
  0
VERTEX
  8
Unknown Area Type
  70
32
  10
-5.11807757156757
  20
42.58616352899602
  30
952.766
  0
SEQEND
  8
Unknown Area Type
  0
TEXT
  8
Unknown Area Type
 62
7
  1
PNOA-H_AMS_1956-57_33k_ES_PAN_2
 40
0.00045
  10
-5.10965691300145
  20
42.56487519678392
  0
POLYLINE
  8
Unknown Area Type
  70
9
  66
1
  0
VERTEX
  8
Unknown Area Type
  70
32
  10
-5.11807757156757
  20
42.58616352899602
  30
952.766
  0
VERTEX
  8
Unknown Area Type
  70
32
  10
-5.09314673460546
  20
42.58478931775456
  30
966.148
  0
VERTEX
  8
Unknown Area Type
  70
32
  10
-5.09278218036388
  20
42.54784291401441
  30
934.75
  0
VERTEX
  8
Unknown Area Type
  70
32
  10
-5.1129864029766
  20
42.54330704337401
  30
940.474
  0
VERTEX
  8
Unknown Area Type
  70
32
  10
-5.11302306651211
  20
42.54331086966878
  30
940.273
  0
VERTEX
  8
Unknown Area Type
  70
32
  10
-5.12552879578944
  20
42.54722191061288
  30
932.07
  0
VERTEX
  8
Unknown Area Type
  70
32
  10
-5.12653147501773
  20
42.58408876066599
  30
995.957
  0
VERTEX
  8
Unknown Area Type
  70
32
  10
-5.12034848355729
  20
42.58628810490865
  30
958.697
  0
VERTEX
  8
Unknown Area Type
  70
32
  10
-5.11811410817171
  20
42.58616285328578
  30
952.564
  0
VERTEX
  8
Unknown Area Type
  70
32
  10
-5.11807757156757
  20
42.58616352899602
  30
952.766
  0
SEQEND
  8
Unknown Area Type
  0
TEXT
  8
Unknown Area Type
 62
7
  1
PNOA-H_AMS_1956-57_33k_ES_PAN_2
 40
0.00045
  10
-5.10965691300145
  20
42.56487519678392
  0
POLYLINE
  8
Unknown Area Type
  70
9
  66
1
  0
VERTEX
  8
Unknown Area Type
  70
32
  10
-5.14299508321546
  20
42.58498408038548
  30
957.719
  0
VERTEX
  8
Unknown Area Type
  70
32
  10
-5.12653147501773
  20
42.58408876066599
  30
995.957
  0
VERTEX
  8
Unknown Area Type
  70
32
  10
-5.12552879578944
  20
42.54722191061288
  30
932.07
  0
VERTEX
  8
Unknown Area Type
  70
32
  10
-5.14796222710223
  20
42.54295817100098
  30
945.144
  0
VERTEX
  8
Unknown Area Type
  70
32
  10
-5.14806660000811
  20
42.54298322945068
  30
945.346
  0
VERTEX
  8
Unknown Area Type
  70
32
  10
-5.15796739295216
  20
42.54616508921956
  30
955.917
  0
VERTEX
  8
Unknown Area Type
  70
32
  10
-5.15913943674723
  20
42.5833255723847
  30
991.409
  0
VERTEX
  8
Unknown Area Type
  70
32
  10
-5.15285984614846
  20
42.58551498297455
  30
996.174
  0
VERTEX
  8
Unknown Area Type
  70
32
  10
-5.14304988619968
  20
42.58498305492032
  30
957.895
  0
VERTEX
  8
Unknown Area Type
  70
32
  10
-5.14299508321546
  20
42.58498408038548
  30
957.719
  0
SEQEND
  8
Unknown Area Type
  0
TEXT
  8
Unknown Area Type
 62
7
  1
PNOA-H_AMS_1956-57_33k_ES_PAN_2
 40
0.00045
  10
-5.14233413214507
  20
42.56448640188247
  0
POLYLINE
  8
Unknown Area Type
  70
9
  66
1
  0
VERTEX
  8
Unknown Area Type
  70
32
  10
-5.14299508321546
  20
42.58498408038548
  30
957.719
  0
VERTEX
  8
Unknown Area Type
  70
32
  10
-5.12653147501773
  20
42.58408876066599
  30
995.957
  0
VERTEX
  8
Unknown Area Type
  70
32
  10
-5.12552879578944
  20
42.54722191061288
  30
932.07
  0
VERTEX
  8
Unknown Area Type
  70
32
  10
-5.14796222710223
  20
42.54295817100098
  30
945.144
  0
VERTEX
  8
Unknown Area Type
  70
32
  10
-5.14806660000811
  20
42.54298322945068
  30
945.346
  0
VERTEX
  8
Unknown Area Type
  70
32
  10
-5.15796739295216
  20
42.54616508921956
  30
955.917
  0
VERTEX
  8
Unknown Area Type
  70
32
  10
-5.15913943674723
  20
42.5833255723847
  30
991.409
  0
VERTEX
  8
Unknown Area Type
  70
32
  10
-5.15285984614846
  20
42.58551498297455
  30
996.174
  0
VERTEX
  8
Unknown Area Type
  70
32
  10
-5.14304988619968
  20
42.58498305492032
  30
957.895
  0
VERTEX
  8
Unknown Area Type
  70
32
  10
-5.14299508321546
  20
42.58498408038548
  30
957.719
  0
SEQEND
  8
Unknown Area Type
  0
TEXT
  8
Unknown Area Type
 62
7
  1
PNOA-H_AMS_1956-57_33k_ES_PAN_2
 40
0.00045
  10
-5.14233413214507
  20
42.56448640188247
  0
POLYLINE
  8
Unknown Area Type
  70
9
  66
1
  0
VERTEX
  8
Unknown Area Type
  70
32
  10
-5.0432153586183
  20
42.5865239545
  30
872.229
  0
VERTEX
  8
Unknown Area Type
  70
32
  10
-5.02596003569029
  20
42.58598849159021
  30
917.769
  0
VERTEX
  8
Unknown Area Type
  70
32
  10
-5.02572361022289
  20
42.54782376324373
  30
866.207
  0
VERTEX
  8
Unknown Area Type
  70
32
  10
-5.0446605527928
  20
42.54367355122224
  30
856.316
  0
VERTEX
  8
Unknown Area Type
  70
32
  10
-5.0446970663149
  20
42.54367289944492
  30
856.334
  0
VERTEX
  8
Unknown Area Type
  70
32
  10
-5.04478314599991
  20
42.54369837878093
  30
856.366
  0
VERTEX
  8
Unknown Area Type
  70
32
  10
-5.05930128796974
  20
42.54819309002569
  30
865.946
  0
VERTEX
  8
Unknown Area Type
  70
32
  10
-5.05899462836629
  20
42.58534084479341
  30
897.586
  0
VERTEX
  8
Unknown Area Type
  70
32
  10
-5.05476169280499
  20
42.58688021683596
  30
890.313
  0
VERTEX
  8
Unknown Area Type
  70
32
  10
-5.04323362789468
  20
42.5865236285802
  30
872.235
  0
VERTEX
  8
Unknown Area Type
  70
32
  10
-5.0432153586183
  20
42.5865239545
  30
872.229
  0
SEQEND
  8
Unknown Area Type
  0
TEXT
  8
Unknown Area Type
 62
7
  1
PNOA-H_AMS_1956-57_33k_ES_PAN_2
 40
0.00045
  10
-5.04251225897246
  20
42.56532282382163
  0
POLYLINE
  8
Unknown Area Type
  70
9
  66
1
  0
VERTEX
  8
Unknown Area Type
  70
32
  10
-5.0432153586183
  20
42.5865239545
  30
872.229
  0
VERTEX
  8
Unknown Area Type
  70
32
  10
-5.02596003569029
  20
42.58598849159021
  30
917.769
  0
VERTEX
  8
Unknown Area Type
  70
32
  10
-5.02572361022289
  20
42.54782376324373
  30
866.207
  0
VERTEX
  8
Unknown Area Type
  70
32
  10
-5.0446605527928
  20
42.54367355122224
  30
856.316
  0
VERTEX
  8
Unknown Area Type
  70
32
  10
-5.0446970663149
  20
42.54367289944492
  30
856.334
  0
VERTEX
  8
Unknown Area Type
  70
32
  10
-5.04478314599991
  20
42.54369837878093
  30
856.366
  0
VERTEX
  8
Unknown Area Type
  70
32
  10
-5.05930128796974
  20
42.54819309002569
  30
865.946
  0
VERTEX
  8
Unknown Area Type
  70
32
  10
-5.05899462836629
  20
42.58534084479341
  30
897.586
  0
VERTEX
  8
Unknown Area Type
  70
32
  10
-5.05476169280499
  20
42.58688021683596
  30
890.313
  0
VERTEX
  8
Unknown Area Type
  70
32
  10
-5.04323362789468
  20
42.5865236285802
  30
872.235
  0
VERTEX
  8
Unknown Area Type
  70
32
  10
-5.0432153586183
  20
42.5865239545
  30
872.229
  0
SEQEND
  8
Unknown Area Type
  0
TEXT
  8
Unknown Area Type
 62
7
  1
PNOA-H_AMS_1956-57_33k_ES_PAN_2
 40
0.00045
  10
-5.04251225897246
  20
42.56532282382163
  0
POLYLINE
  8
Unknown Area Type
  70
9
  66
1
  0
VERTEX
  8
Unknown Area Type
  70
32
  10
-5.09308659361019
  20
42.58481292994782
  30
965.888
  0
VERTEX
  8
Unknown Area Type
  70
32
  10
-5.08770928132448
  20
42.58672563040131
  30
934.872
  0
VERTEX
  8
Unknown Area Type
  70
32
  10
-5.08766680428818
  20
42.58673090730257
  30
934.651
  0
VERTEX
  8
Unknown Area Type
  70
32
  10
-5.05899462836629
  20
42.58534084479341
  30
897.586
  0
VERTEX
  8
Unknown Area Type
  70
32
  10
-5.05930128796974
  20
42.54819309002569
  30
865.946
  0
VERTEX
  8
Unknown Area Type
  70
32
  10
-5.07884855164281
  20
42.54378311092999
  30
897.596
  0
VERTEX
  8
Unknown Area Type
  70
32
  10
-5.09278218036388
  20
42.54784291401441
  30
934.75
  0
VERTEX
  8
Unknown Area Type
  70
32
  10
-5.09315131798509
  20
42.58474420783865
  30
966.345
  0
VERTEX
  8
Unknown Area Type
  70
32
  10
-5.09314673460546
  20
42.58478931775456
  30
966.148
  0
VERTEX
  8
Unknown Area Type
  70
32
  10
-5.09310471121295
  20
42.58480809622443
  30
965.981
  0
VERTEX
  8
Unknown Area Type
  70
32
  10
-5.09308659361019
  20
42.58481292994782
  30
965.888
  0
SEQEND
  8
Unknown Area Type
  0
TEXT
  8
Unknown Area Type
 62
7
  1
PNOA-H_AMS_1956-57_33k_ES_PAN_2
 40
0.00045
  10
-5.07607317861105
  20
42.56528776758967
  0
POLYLINE
  8
Unknown Area Type
  70
9
  66
1
  0
VERTEX
  8
Unknown Area Type
  70
32
  10
-5.09308659361019
  20
42.58481292994782
  30
965.888
  0
VERTEX
  8
Unknown Area Type
  70
32
  10
-5.08770928132448
  20
42.58672563040131
  30
934.872
  0
VERTEX
  8
Unknown Area Type
  70
32
  10
-5.08766680428818
  20
42.58673090730257
  30
934.651
  0
VERTEX
  8
Unknown Area Type
  70
32
  10
-5.05899462836629
  20
42.58534084479341
  30
897.586
  0
VERTEX
  8
Unknown Area Type
  70
32
  10
-5.05930128796974
  20
42.54819309002569
  30
865.946
  0
VERTEX
  8
Unknown Area Type
  70
32
  10
-5.07884855164281
  20
42.54378311092999
  30
897.596
  0
VERTEX
  8
Unknown Area Type
  70
32
  10
-5.09278218036388
  20
42.54784291401441
  30
934.75
  0
VERTEX
  8
Unknown Area Type
  70
32
  10
-5.09315131798509
  20
42.58474420783865
  30
966.345
  0
VERTEX
  8
Unknown Area Type
  70
32
  10
-5.09314673460546
  20
42.58478931775456
  30
966.148
  0
VERTEX
  8
Unknown Area Type
  70
32
  10
-5.09310471121295
  20
42.58480809622443
  30
965.981
  0
VERTEX
  8
Unknown Area Type
  70
32
  10
-5.09308659361019
  20
42.58481292994782
  30
965.888
  0
SEQEND
  8
Unknown Area Type
  0
TEXT
  8
Unknown Area Type
 62
7
  1
PNOA-H_AMS_1956-57_33k_ES_PAN_2
 40
0.00045
  10
-5.07607317861105
  20
42.56528776758967
  0
POLYLINE
  8
Unknown Area Type
  70
9
  66
1
  0
VERTEX
  8
Unknown Area Type
  70
32
  10
-5.15790673601412
  20
42.50126590380304
  30
929.533
  0
VERTEX
  8
Unknown Area Type
  70
32
  10
-5.14541643037801
  20
42.5045307955001
  30
925.125
  0
VERTEX
  8
Unknown Area Type
  70
32
  10
-5.1453983401125
  20
42.50453563695739
  30
925.14
  0
VERTEX
  8
Unknown Area Type
  70
32
  10
-5.12508447540894
  20
42.50198754732116
  30
909.355
  0
VERTEX
  8
Unknown Area Type
  70
32
  10
-5.12505006509563
  20
42.5
  30
908.764
  0
VERTEX
  8
Unknown Area Type
  70
32
  10
-5.14583333333336
  20
42.5
  30
925.654
  0
VERTEX
  8
Unknown Area Type
  70
32
  10
-5.15786286917105
  20
42.5
  30
928.545
  0
SEQEND
  8
Unknown Area Type
  0
TEXT
  8
Unknown Area Type
 62
7
  1
PNOA-H_AMS_1956-57_33k_ES_PAN_2
 40
0.00045
  10
-5.14147840055488
  20
42.50226781847869
  0
POLYLINE
  8
Unknown Area Type
  70
9
  66
1
  0
VERTEX
  8
Unknown Area Type
  70
32
  10
-5.15790673601412
  20
42.50126590380304
  30
929.533
  0
VERTEX
  8
Unknown Area Type
  70
32
  10
-5.14541643037801
  20
42.5045307955001
  30
925.125
  0
VERTEX
  8
Unknown Area Type
  70
32
  10
-5.1453983401125
  20
42.50453563695739
  30
925.14
  0
VERTEX
  8
Unknown Area Type
  70
32
  10
-5.12508447540894
  20
42.50198754732116
  30
909.355
  0
VERTEX
  8
Unknown Area Type
  70
32
  10
-5.12505006509563
  20
42.5
  30
908.764
  0
VERTEX
  8
Unknown Area Type
  70
32
  10
-5.14583333333336
  20
42.5
  30
925.654
  0
VERTEX
  8
Unknown Area Type
  70
32
  10
-5.15786286917105
  20
42.5
  30
928.545
  0
SEQEND
  8
Unknown Area Type
  0
TEXT
  8
Unknown Area Type
 62
7
  1
PNOA-H_AMS_1956-57_33k_ES_PAN_2
 40
0.00045
  10
-5.14147840055488
  20
42.50226781847869
  0
POLYLINE
  8
Unknown Area Type
  70
9
  66
1
  0
VERTEX
  8
Unknown Area Type
  70
32
  10
-5.15786286917105
  20
42.5
  30
928.545
  0
VERTEX
  8
Unknown Area Type
  70
32
  10
-5.14583333333336
  20
42.5
  30
925.654
  0
VERTEX
  8
Unknown Area Type
  70
32
  10
-5.12505006509563
  20
42.5
  30
908.764
  0
VERTEX
  8
Unknown Area Type
  70
32
  10
-5.12505006221014
  20
42.49999983333333
  30
908.764
  0
VERTEX
  8
Unknown Area Type
  70
32
  10
-5.15786286339562
  20
42.49999983333333
  30
928.545
  0
SEQEND
  8
Unknown Area Type
  0
TEXT
  8
Unknown Area Type
 62
7
  1
PNOA-H_AMS_1956-57_33k_ES_PAN_2
 40
0.00045
  10
-5.14145646569059
  20
42.49999991666667
  0
POLYLINE
  8
Unknown Area Type
  70
9
  66
1
  0
VERTEX
  8
Unknown Area Type
  70
32
  10
-5.05885680628047
  20
42.50298082525372
  30
862.986
  0
VERTEX
  8
Unknown Area Type
  70
32
  10
-5.04525958558654
  20
42.50587646733367
  30
859.994
  0
VERTEX
  8
Unknown Area Type
  70
32
  10
-5.04523540466653
  20
42.50588140172405
  30
859.965
  0
VERTEX
  8
Unknown Area Type
  70
32
  10
-5.02805218480309
  20
42.50293594818555
  30
839.687
  0
VERTEX
  8
Unknown Area Type
  70
32
  10
-5.02796645904727
  20
42.50291945500121
  30
839.715
  0
VERTEX
  8
Unknown Area Type
  70
32
  10
-5.02795994086261
  20
42.50290606232525
  30
839.74
  0
VERTEX
  8
Unknown Area Type
  70
32
  10
-5.02778004013593
  20
42.5
  30
838.759
  0
VERTEX
  8
Unknown Area Type
  70
32
  10
-5.05886735585643
  20
42.5
  30
861.886
  0
SEQEND
  8
Unknown Area Type
  0
TEXT
  8
Unknown Area Type
 62
7
  1
PNOA-H_AMS_1956-57_33k_ES_PAN_2
 40
0.00045
  10
-5.04332369799618
  20
42.50294070086203
  0
POLYLINE
  8
Unknown Area Type
  70
9
  66
1
  0
VERTEX
  8
Unknown Area Type
  70
32
  10
-5.05885680628047
  20
42.50298082525372
  30
862.986
  0
VERTEX
  8
Unknown Area Type
  70
32
  10
-5.04525958558654
  20
42.50587646733367
  30
859.994
  0
VERTEX
  8
Unknown Area Type
  70
32
  10
-5.04523540466653
  20
42.50588140172405
  30
859.965
  0
VERTEX
  8
Unknown Area Type
  70
32
  10
-5.02805218480309
  20
42.50293594818555
  30
839.687
  0
VERTEX
  8
Unknown Area Type
  70
32
  10
-5.02796645904727
  20
42.50291945500121
  30
839.715
  0
VERTEX
  8
Unknown Area Type
  70
32
  10
-5.02795994086261
  20
42.50290606232525
  30
839.74
  0
VERTEX
  8
Unknown Area Type
  70
32
  10
-5.02778004013593
  20
42.5
  30
838.759
  0
VERTEX
  8
Unknown Area Type
  70
32
  10
-5.05886735585643
  20
42.5
  30
861.886
  0
SEQEND
  8
Unknown Area Type
  0
TEXT
  8
Unknown Area Type
 62
7
  1
PNOA-H_AMS_1956-57_33k_ES_PAN_2
 40
0.00045
  10
-5.04332369799618
  20
42.50294070086203
  0
POLYLINE
  8
Unknown Area Type
  70
9
  66
1
  0
VERTEX
  8
Unknown Area Type
  70
32
  10
-5.05886735585643
  20
42.5
  30
861.886
  0
VERTEX
  8
Unknown Area Type
  70
32
  10
-5.02778004013593
  20
42.5
  30
838.759
  0
VERTEX
  8
Unknown Area Type
  70
32
  10
-5.02778002981837
  20
42.49999983333333
  30
838.759
  0
VERTEX
  8
Unknown Area Type
  70
32
  10
-5.05886735644629
  20
42.49999983333333
  30
861.886
  0
SEQEND
  8
Unknown Area Type
  0
TEXT
  8
Unknown Area Type
 62
7
  1
PNOA-H_AMS_1956-57_33k_ES_PAN_2
 40
0.00045
  10
-5.04332369313233
  20
42.49999991666667
  0
POLYLINE
  8
Unknown Area Type
  70
9
  66
1
  0
VERTEX
  8
Unknown Area Type
  70
32
  10
-5.09262184232773
  20
42.50238702905843
  30
882.47
  0
VERTEX
  8
Unknown Area Type
  70
32
  10
-5.07795423710201
  20
42.5058013919168
  30
875.803
  0
VERTEX
  8
Unknown Area Type
  70
32
  10
-5.06546698937051
  20
42.50395598648758
  30
881.414
  0
VERTEX
  8
Unknown Area Type
  70
32
  10
-5.06544874440771
  20
42.50395631544022
  30
881.36
  0
VERTEX
  8
Unknown Area Type
  70
32
  10
-5.05885680628047
  20
42.50298082525372
  30
862.986
  0
VERTEX
  8
Unknown Area Type
  70
32
  10
-5.05886696042537
  20
42.5
  30
861.886
  0
VERTEX
  8
Unknown Area Type
  70
32
  10
-5.06250000000002
  20
42.5
  30
871.72
  0
VERTEX
  8
Unknown Area Type
  70
32
  10
-5.09250459199725
  20
42.5
  30
881.41
  0
SEQEND
  8
Unknown Area Type
  0
TEXT
  8
Unknown Area Type
 62
7
  1
PNOA-H_AMS_1956-57_33k_ES_PAN_2
 40
0.00045
  10
-5.0757393243041
  20
42.5029006959584
  0
POLYLINE
  8
Unknown Area Type
  70
9
  66
1
  0
VERTEX
  8
Unknown Area Type
  70
32
  10
-5.09262184232773
  20
42.50238702905843
  30
882.47
  0
VERTEX
  8
Unknown Area Type
  70
32
  10
-5.07795423710201
  20
42.5058013919168
  30
875.803
  0
VERTEX
  8
Unknown Area Type
  70
32
  10
-5.06546698937051
  20
42.50395598648758
  30
881.414
  0
VERTEX
  8
Unknown Area Type
  70
32
  10
-5.06544874440771
  20
42.50395631544022
  30
881.36
  0
VERTEX
  8
Unknown Area Type
  70
32
  10
-5.05885680628047
  20
42.50298082525372
  30
862.986
  0
VERTEX
  8
Unknown Area Type
  70
32
  10
-5.05886696042537
  20
42.5
  30
861.886
  0
VERTEX
  8
Unknown Area Type
  70
32
  10
-5.06250000000002
  20
42.5
  30
871.72
  0
VERTEX
  8
Unknown Area Type
  70
32
  10
-5.09250459199725
  20
42.5
  30
881.41
  0
SEQEND
  8
Unknown Area Type
  0
TEXT
  8
Unknown Area Type
 62
7
  1
PNOA-H_AMS_1956-57_33k_ES_PAN_2
 40
0.00045
  10
-5.0757393243041
  20
42.5029006959584
  0
POLYLINE
  8
Unknown Area Type
  70
9
  66
1
  0
VERTEX
  8
Unknown Area Type
  70
32
  10
-5.09250459199725
  20
42.5
  30
881.41
  0
VERTEX
  8
Unknown Area Type
  70
32
  10
-5.06250000000002
  20
42.5
  30
871.72
  0
VERTEX
  8
Unknown Area Type
  70
32
  10
-5.05886696042537
  20
42.5
  30
861.886
  0
VERTEX
  8
Unknown Area Type
  70
32
  10
-5.05886696099312
  20
42.49999983333333
  30
861.886
  0
VERTEX
  8
Unknown Area Type
  70
32
  10
-5.09250458381062
  20
42.49999983333333
  30
881.41
  0
SEQEND
  8
Unknown Area Type
  0
TEXT
  8
Unknown Area Type
 62
7
  1
PNOA-H_AMS_1956-57_33k_ES_PAN_2
 40
0.00045
  10
-5.07568577621131
  20
42.49999991666667
  0
POLYLINE
  8
Unknown Area Type
  70
9
  66
1
  0
VERTEX
  8
Unknown Area Type
  70
32
  10
-5.12508447540894
  20
42.50198754732116
  30
909.355
  0
VERTEX
  8
Unknown Area Type
  70
32
  10
-5.11534474812324
  20
42.50440563563328
  30
915.426
  0
VERTEX
  8
Unknown Area Type
  70
32
  10
-5.11532665537997
  20
42.50441047239077
  30
915.43
  0
VERTEX
  8
Unknown Area Type
  70
32
  10
-5.11198918678333
  20
42.50523300215949
  30
915.678
  0
VERTEX
  8
Unknown Area Type
  70
32
  10
-5.09262184232773
  20
42.50238702905843
  30
882.47
  0
VERTEX
  8
Unknown Area Type
  70
32
  10
-5.09250459601391
  20
42.5
  30
881.411
  0
VERTEX
  8
Unknown Area Type
  70
32
  10
-5.10416666666665
  20
42.5
  30
901.258
  0
VERTEX
  8
Unknown Area Type
  70
32
  10
-5.12505006509563
  20
42.5
  30
908.764
  0
SEQEND
  8
Unknown Area Type
  0
TEXT
  8
Unknown Area Type
 62
7
  1
PNOA-H_AMS_1956-57_33k_ES_PAN_2
 40
0.00045
  10
-5.10879453571143
  20
42.50261650107974
  0
POLYLINE
  8
Unknown Area Type
  70
9
  66
1
  0
VERTEX
  8
Unknown Area Type
  70
32
  10
-5.12508447540894
  20
42.50198754732116
  30
909.355
  0
VERTEX
  8
Unknown Area Type
  70
32
  10
-5.11534474812324
  20
42.50440563563328
  30
915.426
  0
VERTEX
  8
Unknown Area Type
  70
32
  10
-5.11532665537997
  20
42.50441047239077
  30
915.43
  0
VERTEX
  8
Unknown Area Type
  70
32
  10
-5.11198918678333
  20
42.50523300215949
  30
915.678
  0
VERTEX
  8
Unknown Area Type
  70
32
  10
-5.09262184232773
  20
42.50238702905843
  30
882.47
  0
VERTEX
  8
Unknown Area Type
  70
32
  10
-5.09250459601391
  20
42.5
  30
881.411
  0
VERTEX
  8
Unknown Area Type
  70
32
  10
-5.10416666666665
  20
42.5
  30
901.258
  0
VERTEX
  8
Unknown Area Type
  70
32
  10
-5.12505006509563
  20
42.5
  30
908.764
  0
SEQEND
  8
Unknown Area Type
  0
TEXT
  8
Unknown Area Type
 62
7
  1
PNOA-H_AMS_1956-57_33k_ES_PAN_2
 40
0.00045
  10
-5.10879453571143
  20
42.50261650107974
  0
POLYLINE
  8
Unknown Area Type
  70
9
  66
1
  0
VERTEX
  8
Unknown Area Type
  70
32
  10
-5.12505006509563
  20
42.5
  30
908.764
  0
VERTEX
  8
Unknown Area Type
  70
32
  10
-5.10416666666665
  20
42.5
  30
901.258
  0
VERTEX
  8
Unknown Area Type
  70
32
  10
-5.09250459601391
  20
42.5
  30
881.411
  0
VERTEX
  8
Unknown Area Type
  70
32
  10
-5.09250458782756
  20
42.49999983333333
  30
881.411
  0
VERTEX
  8
Unknown Area Type
  70
32
  10
-5.12505006221014
  20
42.49999983333333
  30
908.764
  0
SEQEND
  8
Unknown Area Type
  0
TEXT
  8
Unknown Area Type
 62
7
  1
PNOA-H_AMS_1956-57_33k_ES_PAN_2
 40
0.00045
  10
-5.1087773264616
  20
42.49999991666667
  0
POLYLINE
  8
Unknown Area Type
  70
9
  66
1
  0
VERTEX
  8
Unknown Area Type
  70
32
  10
-5.18749999999999
  20
42.50101784674814
  30
917.886
  0
VERTEX
  8
Unknown Area Type
  70
32
  10
-5.17873365584963
  20
42.50348772349314
  30
926.707
  0
VERTEX
  8
Unknown Area Type
  70
32
  10
-5.16510123040412
  20
42.50203068288921
  30
940.208
  0
VERTEX
  8
Unknown Area Type
  70
32
  10
-5.16508298717521
  20
42.50203102769012
  30
940.211
  0
VERTEX
  8
Unknown Area Type
  70
32
  10
-5.15790673601412
  20
42.50126590380304
  30
929.533
  0
VERTEX
  8
Unknown Area Type
  70
32
  10
-5.15786286917105
  20
42.5
  30
928.545
  0
VERTEX
  8
Unknown Area Type
  70
32
  10
-5.18749999999999
  20
42.5
  30
917.618
  0
SEQEND
  8
Unknown Area Type
  0
TEXT
  8
Unknown Area Type
 62
7
  1
PNOA-H_AMS_1956-57_33k_ES_PAN_2
 40
0.00045
  10
-5.17268143458552
  20
42.50174386174657
  0
POLYLINE
  8
Unknown Area Type
  70
9
  66
1
  0
VERTEX
  8
Unknown Area Type
  70
32
  10
-5.18750033333333
  20
42.50101775283302
  30
917.885
  0
VERTEX
  8
Unknown Area Type
  70
32
  10
-5.18749999999999
  20
42.50101784674814
  30
917.886
  0
VERTEX
  8
Unknown Area Type
  70
32
  10
-5.18749999999999
  20
42.5
  30
917.618
  0
VERTEX
  8
Unknown Area Type
  70
32
  10
-5.18750033333333
  20
42.5
  30
917.618
  0
SEQEND
  8
Unknown Area Type
  0
TEXT
  8
Unknown Area Type
 62
7
  1
PNOA-H_AMS_1956-57_33k_ES_PAN_2
 40
0.00045
  10
-5.18750016666666
  20
42.50050892337407
  0
POLYLINE
  8
Unknown Area Type
  70
9
  66
1
  0
VERTEX
  8
Unknown Area Type
  70
32
  10
-5.18749999999999
  20
42.50101784674814
  30
917.886
  0
VERTEX
  8
Unknown Area Type
  70
32
  10
-5.17873365584963
  20
42.50348772349314
  30
926.707
  0
VERTEX
  8
Unknown Area Type
  70
32
  10
-5.16510123040412
  20
42.50203068288921
  30
940.208
  0
VERTEX
  8
Unknown Area Type
  70
32
  10
-5.16508298717521
  20
42.50203102769012
  30
940.211
  0
VERTEX
  8
Unknown Area Type
  70
32
  10
-5.15790673601412
  20
42.50126590380304
  30
929.533
  0
VERTEX
  8
Unknown Area Type
  70
32
  10
-5.15786286917105
  20
42.5
  30
928.545
  0
VERTEX
  8
Unknown Area Type
  70
32
  10
-5.18749999999999
  20
42.5
  30
917.618
  0
SEQEND
  8
Unknown Area Type
  0
TEXT
  8
Unknown Area Type
 62
7
  1
PNOA-H_AMS_1956-57_33k_ES_PAN_2
 40
0.00045
  10
-5.17268143458552
  20
42.50174386174657
  0
POLYLINE
  8
Unknown Area Type
  70
9
  66
1
  0
VERTEX
  8
Unknown Area Type
  70
32
  10
-5.18750033333333
  20
42.5
  30
917.618
  0
VERTEX
  8
Unknown Area Type
  70
32
  10
-5.18749999999999
  20
42.5
  30
917.618
  0
VERTEX
  8
Unknown Area Type
  70
32
  10
-5.18749999999999
  20
42.49999983333333
  30
917.618
  0
VERTEX
  8
Unknown Area Type
  70
32
  10
-5.18750033333333
  20
42.49999983333333
  30
917.618
  0
SEQEND
  8
Unknown Area Type
  0
TEXT
  8
Unknown Area Type
 62
7
  1
PNOA-H_AMS_1956-57_33k_ES_PAN_2
 40
0.00045
  10
-5.18750016666666
  20
42.49999991666667
  0
POLYLINE
  8
Unknown Area Type
  70
9
  66
1
  0
VERTEX
  8
Unknown Area Type
  70
32
  10
-5.18749999999999
  20
42.5
  30
917.618
  0
VERTEX
  8
Unknown Area Type
  70
32
  10
-5.15786286917105
  20
42.5
  30
928.545
  0
VERTEX
  8
Unknown Area Type
  70
32
  10
-5.15786286339562
  20
42.49999983333333
  30
928.545
  0
VERTEX
  8
Unknown Area Type
  70
32
  10
-5.18749999999999
  20
42.49999983333333
  30
917.618
  0
SEQEND
  8
Unknown Area Type
  0
TEXT
  8
Unknown Area Type
 62
7
  1
PNOA-H_AMS_1956-57_33k_ES_PAN_2
 40
0.00045
  10
-5.17268143169781
  20
42.49999991666667
  0
POLYLINE
  8
Unknown Area Type
  70
9
  66
1
  0
VERTEX
  8
Unknown Area Type
  70
32
  10
-5.18749999999999
  20
42.52083333333331
  30
930.063
  0
VERTEX
  8
Unknown Area Type
  70
32
  10
-5.18749999999999
  20
42.54166666666663
  30
933.52
  0
VERTEX
  8
Unknown Area Type
  70
32
  10
-5.18749999999999
  20
42.5441711784849
  30
933.456
  0
VERTEX
  8
Unknown Area Type
  70
32
  10
-5.18160954962807
  20
42.54224119714046
  30
933.965
  0
VERTEX
  8
Unknown Area Type
  70
32
  10
-5.17872757468714
  20
42.50348783915361
  30
926.714
  0
VERTEX
  8
Unknown Area Type
  70
32
  10
-5.18749999999999
  20
42.50101333312196
  30
917.869
  0
SEQEND
  8
Unknown Area Type
  0
TEXT
  8
Unknown Area Type
 62
7
  1
PNOA-H_AMS_1956-57_33k_ES_PAN_2
 40
0.00045
  10
-5.18311378734357
  20
42.52259225580343
  0
POLYLINE
  8
Unknown Area Type
  70
9
  66
1
  0
VERTEX
  8
Unknown Area Type
  70
32
  10
-5.18750033333333
  20
42.54417128770018
  30
933.456
  0
VERTEX
  8
Unknown Area Type
  70
32
  10
-5.18749999999999
  20
42.5441711784849
  30
933.456
  0
VERTEX
  8
Unknown Area Type
  70
32
  10
-5.18749999999999
  20
42.54166666666663
  30
933.52
  0
VERTEX
  8
Unknown Area Type
  70
32
  10
-5.18749999999999
  20
42.52083333333331
  30
930.063
  0
VERTEX
  8
Unknown Area Type
  70
32
  10
-5.18749999999999
  20
42.50101333312196
  30
917.869
  0
VERTEX
  8
Unknown Area Type
  70
32
  10
-5.18750033333333
  20
42.50101323909604
  30
917.869
  0
SEQEND
  8
Unknown Area Type
  0
TEXT
  8
Unknown Area Type
 62
7
  1
PNOA-H_AMS_1956-57_33k_ES_PAN_2
 40
0.00045
  10
-5.18750016666666
  20
42.52259226339811
  0
POLYLINE
  8
Unknown Area Type
  70
9
  66
1
  0
VERTEX
  8
Unknown Area Type
  70
32
  10
-5.18749999999999
  20
42.52083333333331
  30
930.063
  0
VERTEX
  8
Unknown Area Type
  70
32
  10
-5.18749999999999
  20
42.54166666666663
  30
933.52
  0
VERTEX
  8
Unknown Area Type
  70
32
  10
-5.18749999999999
  20
42.5441711784849
  30
933.456
  0
VERTEX
  8
Unknown Area Type
  70
32
  10
-5.18160954962807
  20
42.54224119714046
  30
933.965
  0
VERTEX
  8
Unknown Area Type
  70
32
  10
-5.17872757468714
  20
42.50348783915361
  30
926.714
  0
VERTEX
  8
Unknown Area Type
  70
32
  10
-5.18749999999999
  20
42.50101333312196
  30
917.869
  0
SEQEND
  8
Unknown Area Type
  0
TEXT
  8
Unknown Area Type
 62
7
  1
PNOA-H_AMS_1956-57_33k_ES_PAN_2
 40
0.00045
  10
-5.18311378734357
  20
42.52259225580343
  0
POLYLINE
  8
Unknown Area Type
  70
9
  66
1
  0
VERTEX
  8
Unknown Area Type
  70
32
  10
-4.89020755015806
  20
42.59122251474904
  30
1024.946
  0
VERTEX
  8
Unknown Area Type
  70
32
  10
-4.89014650636615
  20
42.59121901947813
  30
1024.753
  0
VERTEX
  8
Unknown Area Type
  70
32
  10
-4.87013788598569
  20
42.58746354565521
  30
1022.729
  0
VERTEX
  8
Unknown Area Type
  70
32
  10
-4.8705026197787
  20
42.55054463607129
  30
997.953
  0
VERTEX
  8
Unknown Area Type
  70
32
  10
-4.87678906722215
  20
42.54816345130426
  30
1001.819
  0
VERTEX
  8
Unknown Area Type
  70
32
  10
-4.90225673188715
  20
42.55059806575392
  30
995.282
  0
VERTEX
  8
Unknown Area Type
  70
32
  10
-4.90274171338374
  20
42.58819181217677
  30
1033.615
  0
VERTEX
  8
Unknown Area Type
  70
32
  10
-4.89022568644789
  20
42.59121771278718
  30
1025.029
  0
VERTEX
  8
Unknown Area Type
  70
32
  10
-4.89020755015806
  20
42.59122251474904
  30
1024.946
  0
SEQEND
  8
Unknown Area Type
  0
TEXT
  8
Unknown Area Type
 62
7
  1
PNOA-H_AMS_1956-57_33k_ES_PAN_2
 40
0.00045
  10
-4.88644002310087
  20
42.56980301582616
  0
POLYLINE
  8
Unknown Area Type
  70
9
  66
1
  0
VERTEX
  8
Unknown Area Type
  70
32
  10
-4.89020755015806
  20
42.59122251474904
  30
1024.946
  0
VERTEX
  8
Unknown Area Type
  70
32
  10
-4.89014650636615
  20
42.59121901947813
  30
1024.753
  0
VERTEX
  8
Unknown Area Type
  70
32
  10
-4.87013788598569
  20
42.58746354565521
  30
1022.729
  0
VERTEX
  8
Unknown Area Type
  70
32
  10
-4.8705026197787
  20
42.55054463607129
  30
997.953
  0
VERTEX
  8
Unknown Area Type
  70
32
  10
-4.87678906722215
  20
42.54816345130426
  30
1001.819
  0
VERTEX
  8
Unknown Area Type
  70
32
  10
-4.90225673188715
  20
42.55059806575392
  30
995.282
  0
VERTEX
  8
Unknown Area Type
  70
32
  10
-4.90274171338374
  20
42.58819181217677
  30
1033.615
  0
VERTEX
  8
Unknown Area Type
  70
32
  10
-4.89022568644789
  20
42.59121771278718
  30
1025.029
  0
VERTEX
  8
Unknown Area Type
  70
32
  10
-4.89020755015806
  20
42.59122251474904
  30
1024.946
  0
SEQEND
  8
Unknown Area Type
  0
TEXT
  8
Unknown Area Type
 62
7
  1
PNOA-H_AMS_1956-57_33k_ES_PAN_2
 40
0.00045
  10
-4.88644002310087
  20
42.56980301582616
  0
POLYLINE
  8
Unknown Area Type
  70
9
  66
1
  0
VERTEX
  8
Unknown Area Type
  70
32
  10
-4.87679515385706
  20
42.54816335158242
  30
1001.818
  0
VERTEX
  8
Unknown Area Type
  70
32
  10
-4.87052683290214
  20
42.55053973800398
  30
997.964
  0
VERTEX
  8
Unknown Area Type
  70
32
  10
-4.87051479355498
  20
42.55054443728621
  30
997.959
  0
VERTEX
  8
Unknown Area Type
  70
32
  10
-4.8541666666667
  20
42.54911038707517
  30
988.763
  0
VERTEX
  8
Unknown Area Type
  70
32
  10
-4.8541666666667
  20
42.54166666666663
  30
988.399
  0
VERTEX
  8
Unknown Area Type
  70
32
  10
-4.8541666666667
  20
42.52083333333331
  30
967.772
  0
VERTEX
  8
Unknown Area Type
  70
32
  10
-4.8541666666667
  20
42.50737166369227
  30
967.43
  0
VERTEX
  8
Unknown Area Type
  70
32
  10
-4.86662502307953
  20
42.50583746598811
  30
975.271
  0
VERTEX
  8
Unknown Area Type
  70
32
  10
-4.87673417642253
  20
42.50831540889243
  30
974.826
  0
SEQEND
  8
Unknown Area Type
  0
TEXT
  8
Unknown Area Type
 62
7
  1
PNOA-H_AMS_1956-57_33k_ES_PAN_2
 40
0.00045
  10
-4.85958592041242
  20
42.52814394553207
  0
POLYLINE
  8
Unknown Area Type
  70
9
  66
1
  0
VERTEX
  8
Unknown Area Type
  70
32
  10
-4.87679515385706
  20
42.54816335158242
  30
1001.818
  0
VERTEX
  8
Unknown Area Type
  70
32
  10
-4.87052683290214
  20
42.55053973800398
  30
997.964
  0
VERTEX
  8
Unknown Area Type
  70
32
  10
-4.87051479355498
  20
42.55054443728621
  30
997.959
  0
VERTEX
  8
Unknown Area Type
  70
32
  10
-4.8541666666667
  20
42.54911038707517
  30
988.763
  0
VERTEX
  8
Unknown Area Type
  70
32
  10
-4.8541666666667
  20
42.54166666666663
  30
988.399
  0
VERTEX
  8
Unknown Area Type
  70
32
  10
-4.8541666666667
  20
42.52083333333331
  30
967.772
  0
VERTEX
  8
Unknown Area Type
  70
32
  10
-4.8541666666667
  20
42.50737166369227
  30
967.43
  0
VERTEX
  8
Unknown Area Type
  70
32
  10
-4.86662502307953
  20
42.50583746598811
  30
975.271
  0
VERTEX
  8
Unknown Area Type
  70
32
  10
-4.87673417642253
  20
42.50831540889243
  30
974.826
  0
SEQEND
  8
Unknown Area Type
  0
TEXT
  8
Unknown Area Type
 62
7
  1
PNOA-H_AMS_1956-57_33k_ES_PAN_2
 40
0.00045
  10
-4.85958592041242
  20
42.52814394553207
  0
POLYLINE
  8
Unknown Area Type
  70
9
  66
1
  0
VERTEX
  8
Unknown Area Type
  70
32
  10
-4.87014182326737
  20
42.58739143872877
  30
1022.628
  0
VERTEX
  8
Unknown Area Type
  70
32
  10
-4.87013193007991
  20
42.58746814556474
  30
1022.722
  0
VERTEX
  8
Unknown Area Type
  70
32
  10
-4.86858947919273
  20
42.58784902991543
  30
1023.15
  0
VERTEX
  8
Unknown Area Type
  70
32
  10
-4.86856525156402
  20
42.58785392782573
  30
1023.188
  0
VERTEX
  8
Unknown Area Type
  70
32
  10
-4.8541666666667
  20
42.59140604139397
  30
1023.484
  0
VERTEX
  8
Unknown Area Type
  70
32
  10
-4.8541666666667
  20
42.58333333333335
  30
1023.445
  0
VERTEX
  8
Unknown Area Type
  70
32
  10
-4.8541666666667
  20
42.56250000000004
  30
989.419
  0
VERTEX
  8
Unknown Area Type
  70
32
  10
-4.8541666666667
  20
42.54911123956575
  30
988.763
  0
VERTEX
  8
Unknown Area Type
  70
32
  10
-4.8705026197787
  20
42.55054463607129
  30
997.953
  0
SEQEND
  8
Unknown Area Type
  0
TEXT
  8
Unknown Area Type
 62
7
  1
PNOA-H_AMS_1956-57_33k_ES_PAN_2
 40
0.00045
  10
-4.8623346432227
  20
42.57025864047986
  0
POLYLINE
  8
Unknown Area Type
  70
9
  66
1
  0
VERTEX
  8
Unknown Area Type
  70
32
  10
-4.87014182326737
  20
42.58739143872877
  30
1022.628
  0
VERTEX
  8
Unknown Area Type
  70
32
  10
-4.87013193007991
  20
42.58746814556474
  30
1022.722
  0
VERTEX
  8
Unknown Area Type
  70
32
  10
-4.86858947919273
  20
42.58784902991543
  30
1023.15
  0
VERTEX
  8
Unknown Area Type
  70
32
  10
-4.86856525156402
  20
42.58785392782573
  30
1023.188
  0
VERTEX
  8
Unknown Area Type
  70
32
  10
-4.8541666666667
  20
42.59140604139397
  30
1023.484
  0
VERTEX
  8
Unknown Area Type
  70
32
  10
-4.8541666666667
  20
42.58333333333335
  30
1023.445
  0
VERTEX
  8
Unknown Area Type
  70
32
  10
-4.8541666666667
  20
42.56250000000004
  30
989.419
  0
VERTEX
  8
Unknown Area Type
  70
32
  10
-4.8541666666667
  20
42.54911123956575
  30
988.763
  0
VERTEX
  8
Unknown Area Type
  70
32
  10
-4.8705026197787
  20
42.55054463607129
  30
997.953
  0
SEQEND
  8
Unknown Area Type
  0
TEXT
  8
Unknown Area Type
 62
7
  1
PNOA-H_AMS_1956-57_33k_ES_PAN_2
 40
0.00045
  10
-4.8623346432227
  20
42.57025864047986
  0
POLYLINE
  8
Unknown Area Type
  70
9
  66
1
  0
VERTEX
  8
Unknown Area Type
  70
32
  10
-4.9606348974945
  20
42.50451032082922
  30
926.789
  0
VERTEX
  8
Unknown Area Type
  70
32
  10
-4.96140946554465
  20
42.50437098654864
  30
926.647
  0
VERTEX
  8
Unknown Area Type
  70
32
  10
-4.96148839189159
  20
42.50436513253626
  30
926.183
  0
VERTEX
  8
Unknown Area Type
  70
32
  10
-4.97597534342966
  20
42.50719152037139
  30
889.1
  0
VERTEX
  8
Unknown Area Type
  70
32
  10
-4.97680410028456
  20
42.54409022555998
  30
925.562
  0
VERTEX
  8
Unknown Area Type
  70
32
  10
-4.97680085503755
  20
42.54418033498524
  30
924.856
  0
VERTEX
  8
Unknown Area Type
  70
32
  10
-4.97678882528887
  20
42.54418504525614
  30
924.773
  0
VERTEX
  8
Unknown Area Type
  70
32
  10
-4.96044464137981
  20
42.54863540795757
  30
931.109
  0
VERTEX
  8
Unknown Area Type
  70
32
  10
-4.9435339427498
  20
42.54432634501981
  30
976.522
  0
VERTEX
  8
Unknown Area Type
  70
32
  10
-4.94311765708605
  20
42.50753741108107
  30
969.411
  0
VERTEX
  8
Unknown Area Type
  70
32
  10
-4.96060448699484
  20
42.50451084127194
  30
926.723
  0
VERTEX
  8
Unknown Area Type
  70
32
  10
-4.9606348974945
  20
42.50451032082922
  30
926.789
  0
SEQEND
  8
Unknown Area Type
  0
TEXT
  8
Unknown Area Type
 62
7
  1
PNOA-H_AMS_1956-57_33k_ES_PAN_2
 40
0.00045
  10
-4.95996088271145
  20
42.52656616604516
  0
POLYLINE
  8
Unknown Area Type
  70
9
  66
1
  0
VERTEX
  8
Unknown Area Type
  70
32
  10
-4.9606348974945
  20
42.50451032082922
  30
926.789
  0
VERTEX
  8
Unknown Area Type
  70
32
  10
-4.96140946554465
  20
42.50437098654864
  30
926.647
  0
VERTEX
  8
Unknown Area Type
  70
32
  10
-4.96148839189159
  20
42.50436513253626
  30
926.183
  0
VERTEX
  8
Unknown Area Type
  70
32
  10
-4.97597534342966
  20
42.50719152037139
  30
889.1
  0
VERTEX
  8
Unknown Area Type
  70
32
  10
-4.97680410028456
  20
42.54409022555998
  30
925.562
  0
VERTEX
  8
Unknown Area Type
  70
32
  10
-4.97680085503755
  20
42.54418033498524
  30
924.856
  0
VERTEX
  8
Unknown Area Type
  70
32
  10
-4.97678882528887
  20
42.54418504525614
  30
924.773
  0
VERTEX
  8
Unknown Area Type
  70
32
  10
-4.96044464137981
  20
42.54863540795757
  30
931.109
  0
VERTEX
  8
Unknown Area Type
  70
32
  10
-4.9435339427498
  20
42.54432634501981
  30
976.522
  0
VERTEX
  8
Unknown Area Type
  70
32
  10
-4.94311765708605
  20
42.50753741108107
  30
969.411
  0
VERTEX
  8
Unknown Area Type
  70
32
  10
-4.96060448699484
  20
42.50451084127194
  30
926.723
  0
VERTEX
  8
Unknown Area Type
  70
32
  10
-4.9606348974945
  20
42.50451032082922
  30
926.789
  0
SEQEND
  8
Unknown Area Type
  0
TEXT
  8
Unknown Area Type
 62
7
  1
PNOA-H_AMS_1956-57_33k_ES_PAN_2
 40
0.00045
  10
-4.95996088271145
  20
42.52656616604516
  0
POLYLINE
  8
Unknown Area Type
  70
9
  66
1
  0
VERTEX
  8
Unknown Area Type
  70
32
  10
-4.87675789830097
  20
42.52435818905123
  30
982.464
  0
VERTEX
  8
Unknown Area Type
  70
32
  10
-4.87673417642253
  20
42.50831540889243
  30
974.826
  0
VERTEX
  8
Unknown Area Type
  70
32
  10
-4.89734129842489
  20
42.5053238825928
  30
979.723
  0
VERTEX
  8
Unknown Area Type
  70
32
  10
-4.90957974064542
  20
42.50814186564341
  30
978.435
  0
VERTEX
  8
Unknown Area Type
  70
32
  10
-4.91067938023444
  20
42.54761669380201
  30
996.124
  0
VERTEX
  8
Unknown Area Type
  70
32
  10
-4.9022929791561
  20
42.55058845844707
  30
995.104
  0
VERTEX
  8
Unknown Area Type
  70
32
  10
-4.9022384715409
  20
42.55059836898951
  30
995.376
  0
VERTEX
  8
Unknown Area Type
  70
32
  10
-4.87679515385706
  20
42.54816335158242
  30
1001.818
  0
VERTEX
  8
Unknown Area Type
  70
32
  10
-4.87676288418918
  20
42.52452470756479
  30
982.54
  0
VERTEX
  8
Unknown Area Type
  70
32
  10
-4.87675789830097
  20
42.52435818905123
  30
982.464
  0
SEQEND
  8
Unknown Area Type
  0
TEXT
  8
Unknown Area Type
 62
7
  1
PNOA-H_AMS_1956-57_33k_ES_PAN_2
 40
0.00045
  10
-4.8937068392574
  20
42.52781511680757
  0
POLYLINE
  8
Unknown Area Type
  70
9
  66
1
  0
VERTEX
  8
Unknown Area Type
  70
32
  10
-4.87675789830097
  20
42.52435818905123
  30
982.464
  0
VERTEX
  8
Unknown Area Type
  70
32
  10
-4.87673417642253
  20
42.50831540889243
  30
974.826
  0
VERTEX
  8
Unknown Area Type
  70
32
  10
-4.89734129842489
  20
42.5053238825928
  30
979.723
  0
VERTEX
  8
Unknown Area Type
  70
32
  10
-4.90957974064542
  20
42.50814186564341
  30
978.435
  0
VERTEX
  8
Unknown Area Type
  70
32
  10
-4.91067938023444
  20
42.54761669380201
  30
996.124
  0
VERTEX
  8
Unknown Area Type
  70
32
  10
-4.9022929791561
  20
42.55058845844707
  30
995.104
  0
VERTEX
  8
Unknown Area Type
  70
32
  10
-4.9022384715409
  20
42.55059836898951
  30
995.376
  0
VERTEX
  8
Unknown Area Type
  70
32
  10
-4.87679515385706
  20
42.54816335158242
  30
1001.818
  0
VERTEX
  8
Unknown Area Type
  70
32
  10
-4.87676288418918
  20
42.52452470756479
  30
982.54
  0
VERTEX
  8
Unknown Area Type
  70
32
  10
-4.87675789830097
  20
42.52435818905123
  30
982.464
  0
SEQEND
  8
Unknown Area Type
  0
TEXT
  8
Unknown Area Type
 62
7
  1
PNOA-H_AMS_1956-57_33k_ES_PAN_2
 40
0.00045
  10
-4.8937068392574
  20
42.52781511680757
  0
POLYLINE
  8
Unknown Area Type
  70
9
  66
1
  0
VERTEX
  8
Unknown Area Type
  70
32
  10
-5.05931954588043
  20
42.54819276177803
  30
866.094
  0
VERTEX
  8
Unknown Area Type
  70
32
  10
-5.05928911602911
  20
42.54819330885585
  30
865.847
  0
VERTEX
  8
Unknown Area Type
  70
32
  10
-5.05909229348081
  20
42.54813381012199
  30
865.452
  0
VERTEX
  8
Unknown Area Type
  70
32
  10
-5.04470953130188
  20
42.54368168224865
  30
856.344
  0
VERTEX
  8
Unknown Area Type
  70
32
  10
-5.044684895141
  20
42.54367311670531
  30
856.329
  0
VERTEX
  8
Unknown Area Type
  70
32
  10
-5.04468151633877
  20
42.5435696159503
  30
856.265
  0
VERTEX
  8
Unknown Area Type
  70
32
  10
-5.04523525791629
  20
42.50587690166303
  30
859.964
  0
VERTEX
  8
Unknown Area Type
  70
32
  10
-5.05882046447939
  20
42.5029859810644
  30
862.939
  0
VERTEX
  8
Unknown Area Type
  70
32
  10
-5.05892399914766
  20
42.50298862299918
  30
863.135
  0
VERTEX
  8
Unknown Area Type
  70
32
  10
-5.07794207353186
  20
42.50580161255184
  30
875.763
  0
VERTEX
  8
Unknown Area Type
  70
32
  10
-5.07884246617602
  20
42.54378322137419
  30
897.58
  0
VERTEX
  8
Unknown Area Type
  70
32
  10
-5.05934374177991
  20
42.54818782412208
  30
866.281
  0
VERTEX
  8
Unknown Area Type
  70
32
  10
-5.05931954588043
  20
42.54819276177803
  30
866.094
  0
SEQEND
  8
Unknown Area Type
  0
TEXT
  8
Unknown Area Type
 62
7
  1
PNOA-H_AMS_1956-57_33k_ES_PAN_2
 40
0.00045
  10
-5.06176204753955
  20
42.52552305609396
  0
POLYLINE
  8
Unknown Area Type
  70
9
  66
1
  0
VERTEX
  8
Unknown Area Type
  70
32
  10
-5.05931954588043
  20
42.54819276177803
  30
866.094
  0
VERTEX
  8
Unknown Area Type
  70
32
  10
-5.05928911602911
  20
42.54819330885585
  30
865.847
  0
VERTEX
  8
Unknown Area Type
  70
32
  10
-5.05909229348081
  20
42.54813381012199
  30
865.452
  0
VERTEX
  8
Unknown Area Type
  70
32
  10
-5.04470953130188
  20
42.54368168224865
  30
856.344
  0
VERTEX
  8
Unknown Area Type
  70
32
  10
-5.044684895141
  20
42.54367311670531
  30
856.329
  0
VERTEX
  8
Unknown Area Type
  70
32
  10
-5.04468151633877
  20
42.5435696159503
  30
856.265
  0
VERTEX
  8
Unknown Area Type
  70
32
  10
-5.04523525791629
  20
42.50587690166303
  30
859.964
  0
VERTEX
  8
Unknown Area Type
  70
32
  10
-5.05882046447939
  20
42.5029859810644
  30
862.939
  0
VERTEX
  8
Unknown Area Type
  70
32
  10
-5.05892399914766
  20
42.50298862299918
  30
863.135
  0
VERTEX
  8
Unknown Area Type
  70
32
  10
-5.07794207353186
  20
42.50580161255184
  30
875.763
  0
VERTEX
  8
Unknown Area Type
  70
32
  10
-5.07884246617602
  20
42.54378322137419
  30
897.58
  0
VERTEX
  8
Unknown Area Type
  70
32
  10
-5.05934374177991
  20
42.54818782412208
  30
866.281
  0
VERTEX
  8
Unknown Area Type
  70
32
  10
-5.05931954588043
  20
42.54819276177803
  30
866.094
  0
SEQEND
  8
Unknown Area Type
  0
TEXT
  8
Unknown Area Type
 62
7
  1
PNOA-H_AMS_1956-57_33k_ES_PAN_2
 40
0.00045
  10
-5.06176204753955
  20
42.52552305609396
  0
POLYLINE
  8
Unknown Area Type
  70
9
  66
1
  0
VERTEX
  8
Unknown Area Type
  70
32
  10
-5.15799173449855
  20
42.5461646306131
  30
955.935
  0
VERTEX
  8
Unknown Area Type
  70
32
  10
-5.15796130756548
  20
42.54616520387037
  30
955.91
  0
VERTEX
  8
Unknown Area Type
  70
32
  10
-5.15782587861508
  20
42.54612272906484
  30
955.948
  0
VERTEX
  8
Unknown Area Type
  70
32
  10
-5.14797439733264
  20
42.54295794277482
  30
945.219
  0
VERTEX
  8
Unknown Area Type
  70
32
  10
-5.14538617731669
  20
42.50453586474487
  30
925.135
  0
VERTEX
  8
Unknown Area Type
  70
32
  10
-5.15789457395202
  20
42.50126613290385
  30
929.55
  0
VERTEX
  8
Unknown Area Type
  70
32
  10
-5.17872741837608
  20
42.50348333947811
  30
926.755
  0
VERTEX
  8
Unknown Area Type
  70
32
  10
-5.18160954962807
  20
42.54224119714046
  30
933.965
  0
VERTEX
  8
Unknown Area Type
  70
32
  10
-5.15802200637317
  20
42.5461595576442
  30
955.96
  0
VERTEX
  8
Unknown Area Type
  70
32
  10
-5.15799173449855
  20
42.5461646306131
  30
955.935
  0
SEQEND
  8
Unknown Area Type
  0
TEXT
  8
Unknown Area Type
 62
7
  1
PNOA-H_AMS_1956-57_33k_ES_PAN_2
 40
0.00045
  10
-5.16349790360434
  20
42.52355444346495
  0
POLYLINE
  8
Unknown Area Type
  70
9
  66
1
  0
VERTEX
  8
Unknown Area Type
  70
32
  10
-5.15799173449855
  20
42.5461646306131
  30
955.935
  0
VERTEX
  8
Unknown Area Type
  70
32
  10
-5.15796130756548
  20
42.54616520387037
  30
955.91
  0
VERTEX
  8
Unknown Area Type
  70
32
  10
-5.15782587861508
  20
42.54612272906484
  30
955.948
  0
VERTEX
  8
Unknown Area Type
  70
32
  10
-5.14797439733264
  20
42.54295794277482
  30
945.219
  0
VERTEX
  8
Unknown Area Type
  70
32
  10
-5.14538617731669
  20
42.50453586474487
  30
925.135
  0
VERTEX
  8
Unknown Area Type
  70
32
  10
-5.15789457395202
  20
42.50126613290385
  30
929.55
  0
VERTEX
  8
Unknown Area Type
  70
32
  10
-5.17872741837608
  20
42.50348333947811
  30
926.755
  0
VERTEX
  8
Unknown Area Type
  70
32
  10
-5.18160954962807
  20
42.54224119714046
  30
933.965
  0
VERTEX
  8
Unknown Area Type
  70
32
  10
-5.15802200637317
  20
42.5461595576442
  30
955.96
  0
VERTEX
  8
Unknown Area Type
  70
32
  10
-5.15799173449855
  20
42.5461646306131
  30
955.935
  0
SEQEND
  8
Unknown Area Type
  0
TEXT
  8
Unknown Area Type
 62
7
  1
PNOA-H_AMS_1956-57_33k_ES_PAN_2
 40
0.00045
  10
-5.16349790360434
  20
42.52355444346495
  0
POLYLINE
  8
Unknown Area Type
  70
9
  66
1
  0
VERTEX
  8
Unknown Area Type
  70
32
  10
-5.09182895925121
  20
42.54756315190955
  30
933.743
  0
VERTEX
  8
Unknown Area Type
  70
32
  10
-5.07884246617602
  20
42.54378322137419
  30
897.58
  0
VERTEX
  8
Unknown Area Type
  70
32
  10
-5.07794207353186
  20
42.50580161255184
  30
875.763
  0
VERTEX
  8
Unknown Area Type
  70
32
  10
-5.09263400512228
  20
42.50238680687972
  30
882.485
  0
VERTEX
  8
Unknown Area Type
  70
32
  10
-5.11198903524893
  20
42.50522850228863
  30
915.673
  0
VERTEX
  8
Unknown Area Type
  70
32
  10
-5.11200134997833
  20
42.50523277791338
  30
915.689
  0
VERTEX
  8
Unknown Area Type
  70
32
  10
-5.11202453528486
  20
42.50592125810177
  30
915.998
  0
VERTEX
  8
Unknown Area Type
  70
32
  10
-5.1129985735517
  20
42.54330681886093
  30
940.414
  0
VERTEX
  8
Unknown Area Type
  70
32
  10
-5.092794351978
  20
42.54784269162815
  30
934.752
  0
VERTEX
  8
Unknown Area Type
  70
32
  10
-5.09184128113026
  20
42.54756742952141
  30
933.758
  0
VERTEX
  8
Unknown Area Type
  70
32
  10
-5.09182895925121
  20
42.54756315190955
  30
933.743
  0
SEQEND
  8
Unknown Area Type
  0
TEXT
  8
Unknown Area Type
 62
7
  1
PNOA-H_AMS_1956-57_33k_ES_PAN_2
 40
0.00045
  10
-5.09547031983917
  20
42.52502152743386
  0
POLYLINE
  8
Unknown Area Type
  70
9
  66
1
  0
VERTEX
  8
Unknown Area Type
  70
32
  10
-5.09182895925121
  20
42.54756315190955
  30
933.743
  0
VERTEX
  8
Unknown Area Type
  70
32
  10
-5.07884246617602
  20
42.54378322137419
  30
897.58
  0
VERTEX
  8
Unknown Area Type
  70
32
  10
-5.07794207353186
  20
42.50580161255184
  30
875.763
  0
VERTEX
  8
Unknown Area Type
  70
32
  10
-5.09263400512228
  20
42.50238680687972
  30
882.485
  0
VERTEX
  8
Unknown Area Type
  70
32
  10
-5.11198903524893
  20
42.50522850228863
  30
915.673
  0
VERTEX
  8
Unknown Area Type
  70
32
  10
-5.11200134997833
  20
42.50523277791338
  30
915.689
  0
VERTEX
  8
Unknown Area Type
  70
32
  10
-5.11202453528486
  20
42.50592125810177
  30
915.998
  0
VERTEX
  8
Unknown Area Type
  70
32
  10
-5.1129985735517
  20
42.54330681886093
  30
940.414
  0
VERTEX
  8
Unknown Area Type
  70
32
  10
-5.092794351978
  20
42.54784269162815
  30
934.752
  0
VERTEX
  8
Unknown Area Type
  70
32
  10
-5.09184128113026
  20
42.54756742952141
  30
933.758
  0
VERTEX
  8
Unknown Area Type
  70
32
  10
-5.09182895925121
  20
42.54756315190955
  30
933.743
  0
SEQEND
  8
Unknown Area Type
  0
TEXT
  8
Unknown Area Type
 62
7
  1
PNOA-H_AMS_1956-57_33k_ES_PAN_2
 40
0.00045
  10
-5.09547031983917
  20
42.52502152743386
  0
POLYLINE
  8
Unknown Area Type
  70
9
  66
1
  0
VERTEX
  8
Unknown Area Type
  70
32
  10
-4.94209704972565
  20
42.54472443757531
  30
965.866
  0
VERTEX
  8
Unknown Area Type
  70
32
  10
-4.92520270437158
  20
42.54939072773563
  30
996.555
  0
VERTEX
  8
Unknown Area Type
  70
32
  10
-4.91068546669696
  20
42.54761659228114
  30
996.15
  0
VERTEX
  8
Unknown Area Type
  70
32
  10
-4.90957960361424
  20
42.50813736521557
  30
978.433
  0
VERTEX
  8
Unknown Area Type
  70
32
  10
-4.93008989950867
  20
42.50482187003229
  30
959.6
  0
VERTEX
  8
Unknown Area Type
  70
32
  10
-4.94311765708605
  20
42.50753741108107
  30
969.411
  0
VERTEX
  8
Unknown Area Type
  70
32
  10
-4.94353821340715
  20
42.54426773773761
  30
976.533
  0
VERTEX
  8
Unknown Area Type
  70
32
  10
-4.9435339427498
  20
42.54432634501981
  30
976.522
  0
VERTEX
  8
Unknown Area Type
  70
32
  10
-4.94352191034183
  20
42.54433105184725
  30
976.421
  0
VERTEX
  8
Unknown Area Type
  70
32
  10
-4.94211516838933
  20
42.54471962770963
  30
965.975
  0
VERTEX
  8
Unknown Area Type
  70
32
  10
-4.94209704972565
  20
42.54472443757531
  30
965.866
  0
SEQEND
  8
Unknown Area Type
  0
TEXT
  8
Unknown Area Type
 62
7
  1
PNOA-H_AMS_1956-57_33k_ES_PAN_2
 40
0.00045
  10
-4.92655902010243
  20
42.52720251648167
  0
POLYLINE
  8
Unknown Area Type
  70
9
  66
1
  0
VERTEX
  8
Unknown Area Type
  70
32
  10
-4.94209704972565
  20
42.54472443757531
  30
965.866
  0
VERTEX
  8
Unknown Area Type
  70
32
  10
-4.92520270437158
  20
42.54939072773563
  30
996.555
  0
VERTEX
  8
Unknown Area Type
  70
32
  10
-4.91068546669696
  20
42.54761659228114
  30
996.15
  0
VERTEX
  8
Unknown Area Type
  70
32
  10
-4.90957960361424
  20
42.50813736521557
  30
978.433
  0
VERTEX
  8
Unknown Area Type
  70
32
  10
-4.93008989950867
  20
42.50482187003229
  30
959.6
  0
VERTEX
  8
Unknown Area Type
  70
32
  10
-4.94311765708605
  20
42.50753741108107
  30
969.411
  0
VERTEX
  8
Unknown Area Type
  70
32
  10
-4.94353821340715
  20
42.54426773773761
  30
976.533
  0
VERTEX
  8
Unknown Area Type
  70
32
  10
-4.9435339427498
  20
42.54432634501981
  30
976.522
  0
VERTEX
  8
Unknown Area Type
  70
32
  10
-4.94352191034183
  20
42.54433105184725
  30
976.421
  0
VERTEX
  8
Unknown Area Type
  70
32
  10
-4.94211516838933
  20
42.54471962770963
  30
965.975
  0
VERTEX
  8
Unknown Area Type
  70
32
  10
-4.94209704972565
  20
42.54472443757531
  30
965.866
  0
SEQEND
  8
Unknown Area Type
  0
TEXT
  8
Unknown Area Type
 62
7
  1
PNOA-H_AMS_1956-57_33k_ES_PAN_2
 40
0.00045
  10
-4.92655902010243
  20
42.52720251648167
  0
POLYLINE
  8
Unknown Area Type
  70
9
  66
1
  0
VERTEX
  8
Unknown Area Type
  70
32
  10
-5.14162832744918
  20
42.54416641056257
  30
926.968
  0
VERTEX
  8
Unknown Area Type
  70
32
  10
-5.12551662455253
  20
42.54722213647338
  30
932.128
  0
VERTEX
  8
Unknown Area Type
  70
32
  10
-5.1129985735517
  20
42.54330681886093
  30
940.414
  0
VERTEX
  8
Unknown Area Type
  70
32
  10
-5.11200134997833
  20
42.50523277791338
  30
915.689
  0
VERTEX
  8
Unknown Area Type
  70
32
  10
-5.12504205924103
  20
42.50199283682371
  30
909.754
  0
VERTEX
  8
Unknown Area Type
  70
32
  10
-5.12511488156586
  20
42.50198698326354
  30
909.117
  0
VERTEX
  8
Unknown Area Type
  70
32
  10
-5.14539241264085
  20
42.50454025062498
  30
925.175
  0
VERTEX
  8
Unknown Area Type
  70
32
  10
-5.14797439733264
  20
42.54295794277482
  30
945.219
  0
VERTEX
  8
Unknown Area Type
  70
32
  10
-5.14165251460902
  20
42.54416145569046
  30
927.032
  0
VERTEX
  8
Unknown Area Type
  70
32
  10
-5.14162832744918
  20
42.54416641056257
  30
926.968
  0
SEQEND
  8
Unknown Area Type
  0
TEXT
  8
Unknown Area Type
 62
7
  1
PNOA-H_AMS_1956-57_33k_ES_PAN_2
 40
0.00045
  10
-5.12998783613226
  20
42.5244860940709
  0
POLYLINE
  8
Unknown Area Type
  70
9
  66
1
  0
VERTEX
  8
Unknown Area Type
  70
32
  10
-5.14162832744918
  20
42.54416641056257
  30
926.968
  0
VERTEX
  8
Unknown Area Type
  70
32
  10
-5.12551662455253
  20
42.54722213647338
  30
932.128
  0
VERTEX
  8
Unknown Area Type
  70
32
  10
-5.1129985735517
  20
42.54330681886093
  30
940.414
  0
VERTEX
  8
Unknown Area Type
  70
32
  10
-5.11200134997833
  20
42.50523277791338
  30
915.689
  0
VERTEX
  8
Unknown Area Type
  70
32
  10
-5.12504205924103
  20
42.50199283682371
  30
909.754
  0
VERTEX
  8
Unknown Area Type
  70
32
  10
-5.12511488156586
  20
42.50198698326354
  30
909.117
  0
VERTEX
  8
Unknown Area Type
  70
32
  10
-5.14539241264085
  20
42.50454025062498
  30
925.175
  0
VERTEX
  8
Unknown Area Type
  70
32
  10
-5.14797439733264
  20
42.54295794277482
  30
945.219
  0
VERTEX
  8
Unknown Area Type
  70
32
  10
-5.14165251460902
  20
42.54416145569046
  30
927.032
  0
VERTEX
  8
Unknown Area Type
  70
32
  10
-5.14162832744918
  20
42.54416641056257
  30
926.968
  0
SEQEND
  8
Unknown Area Type
  0
TEXT
  8
Unknown Area Type
 62
7
  1
PNOA-H_AMS_1956-57_33k_ES_PAN_2
 40
0.00045
  10
-5.12998783613226
  20
42.5244860940709
  0
POLYLINE
  8
Unknown Area Type
  70
9
  66
1
  0
VERTEX
  8
Unknown Area Type
  70
32
  10
-4.94340790929641
  20
42.58734693248584
  30
997.068
  0
VERTEX
  8
Unknown Area Type
  70
32
  10
-4.93866381002354
  20
42.58704010230144
  30
1020.461
  0
VERTEX
  8
Unknown Area Type
  70
32
  10
-4.93863930973851
  20
42.58703601434412
  30
1020.988
  0
VERTEX
  8
Unknown Area Type
  70
32
  10
-4.9386328010437
  20
42.58702261655961
  30
1021.227
  0
VERTEX
  8
Unknown Area Type
  70
32
  10
-4.92520256602024
  20
42.54938622738147
  30
996.551
  0
VERTEX
  8
Unknown Area Type
  70
32
  10
-4.94352177069923
  20
42.54432655153779
  30
976.411
  0
VERTEX
  8
Unknown Area Type
  70
32
  10
-4.94357059854683
  20
42.54433022576748
  30
976.868
  0
VERTEX
  8
Unknown Area Type
  70
32
  10
-4.96042624135426
  20
42.54863122019301
  30
931.195
  0
VERTEX
  8
Unknown Area Type
  70
32
  10
-4.96043669498077
  20
42.54877062410824
  30
930.843
  0
VERTEX
  8
Unknown Area Type
  70
32
  10
-4.96027804558347
  20
42.58629399365448
  30
973.981
  0
VERTEX
  8
Unknown Area Type
  70
32
  10
-4.95485625354449
  20
42.58808865926149
  30
953
  0
VERTEX
  8
Unknown Area Type
  70
32
  10
-4.94343836034052
  20
42.58734641580038
  30
997.117
  0
VERTEX
  8
Unknown Area Type
  70
32
  10
-4.94340790929641
  20
42.58734693248584
  30
997.068
  0
SEQEND
  8
Unknown Area Type
  0
TEXT
  8
Unknown Area Type
 62
7
  1
PNOA-H_AMS_1956-57_33k_ES_PAN_2
 40
0.00045
  10
-4.9428195097878
  20
42.56591292207477
  0
POLYLINE
  8
Unknown Area Type
  70
9
  66
1
  0
VERTEX
  8
Unknown Area Type
  70
32
  10
-4.94340790929641
  20
42.58734693248584
  30
997.068
  0
VERTEX
  8
Unknown Area Type
  70
32
  10
-4.93866381002354
  20
42.58704010230144
  30
1020.461
  0
VERTEX
  8
Unknown Area Type
  70
32
  10
-4.93863930973851
  20
42.58703601434412
  30
1020.988
  0
VERTEX
  8
Unknown Area Type
  70
32
  10
-4.9386328010437
  20
42.58702261655961
  30
1021.227
  0
VERTEX
  8
Unknown Area Type
  70
32
  10
-4.92520256602024
  20
42.54938622738147
  30
996.551
  0
VERTEX
  8
Unknown Area Type
  70
32
  10
-4.94352177069923
  20
42.54432655153779
  30
976.411
  0
VERTEX
  8
Unknown Area Type
  70
32
  10
-4.94357059854683
  20
42.54433022576748
  30
976.868
  0
VERTEX
  8
Unknown Area Type
  70
32
  10
-4.96042624135426
  20
42.54863122019301
  30
931.195
  0
VERTEX
  8
Unknown Area Type
  70
32
  10
-4.96043669498077
  20
42.54877062410824
  30
930.843
  0
VERTEX
  8
Unknown Area Type
  70
32
  10
-4.96027804558347
  20
42.58629399365448
  30
973.981
  0
VERTEX
  8
Unknown Area Type
  70
32
  10
-4.95485625354449
  20
42.58808865926149
  30
953
  0
VERTEX
  8
Unknown Area Type
  70
32
  10
-4.94343836034052
  20
42.58734641580038
  30
997.117
  0
VERTEX
  8
Unknown Area Type
  70
32
  10
-4.94340790929641
  20
42.58734693248584
  30
997.068
  0
SEQEND
  8
Unknown Area Type
  0
TEXT
  8
Unknown Area Type
 62
7
  1
PNOA-H_AMS_1956-57_33k_ES_PAN_2
 40
0.00045
  10
-4.9428195097878
  20
42.56591292207477
  0
ENDSEC
  0
EOF
