  0
SECTION
  2
HEADER
  9
$ACADVER
  1
AC1009
  9
$LUNITS
  70
2
  9
$DWGCODEPAGE
  3
UTF8
  9
$LIMMIN
  10
-5.85416666666668
  20
42.5
  9
$LIMMAX
  10
-5.52083333333329
  20
42.6666666666667
  9
$EXTMIN
  10
-5.85416666666668
  20
42.5
  9
$EXTMAX
  10
-5.52083333333329
  20
42.6666666666667
  999
Created by Global Mapper
  999
Projection: Geographic (Latitude/Longitude)
  999
Datum: ETRS89
  999
Ground Units: arc degrees
  999
CENTRAL LONGITUDE: 0
  0
ENDSEC
  0
SECTION
  2
TABLES
  0
ENDSEC
  0
SECTION
  2
BLOCKS
  0
ENDSEC
  0
SECTION
  2
ENTITIES
  0
POLYLINE
  8
Unknown Area Type
  70
9
  66
1
  0
VERTEX
  8
Unknown Area Type
  70
32
  10
-5.67817714739972
  20
42.6666666666667
  30
1026.302
  0
VERTEX
  8
Unknown Area Type
  70
32
  10
-5.66643145948449
  20
42.6666666666667
  30
992.069
  0
VERTEX
  8
Unknown Area Type
  70
32
  10
-5.67507825449184
  20
42.66574830799088
  30
1018.256
  0
SEQEND
  8
Unknown Area Type
  0
TEXT
  8
Unknown Area Type
 62
7
  1
PNOA-H_AMS_1956-57_33k_ES_PAN_2
 40
0.00045
  10
-5.67230430344211
  20
42.66620748732879
  0
POLYLINE
  8
Unknown Area Type
  70
9
  66
1
  0
VERTEX
  8
Unknown Area Type
  70
32
  10
-5.67817714739972
  20
42.6666666666667
  30
1026.302
  0
VERTEX
  8
Unknown Area Type
  70
32
  10
-5.66643145948449
  20
42.6666666666667
  30
992.069
  0
VERTEX
  8
Unknown Area Type
  70
32
  10
-5.67507825449184
  20
42.66574830799088
  30
1018.256
  0
SEQEND
  8
Unknown Area Type
  0
TEXT
  8
Unknown Area Type
 62
7
  1
PNOA-H_AMS_1956-57_33k_ES_PAN_2
 40
0.00045
  10
-5.67230430344211
  20
42.66620748732879
  0
POLYLINE
  8
Unknown Area Type
  70
9
  66
1
  0
VERTEX
  8
Unknown Area Type
  70
32
  10
-5.67817770979672
  20
42.66666683333337
  30
1026.303
  0
VERTEX
  8
Unknown Area Type
  70
32
  10
-5.66642989023657
  20
42.66666683333337
  30
992.064
  0
VERTEX
  8
Unknown Area Type
  70
32
  10
-5.66643145948449
  20
42.6666666666667
  30
992.069
  0
VERTEX
  8
Unknown Area Type
  70
32
  10
-5.67817714739972
  20
42.6666666666667
  30
1026.302
  0
SEQEND
  8
Unknown Area Type
  0
TEXT
  8
Unknown Area Type
 62
7
  1
PNOA-H_AMS_1956-57_33k_ES_PAN_2
 40
0.00045
  10
-5.67230380001664
  20
42.66666675000003
  0
POLYLINE
  8
Unknown Area Type
  70
9
  66
1
  0
VERTEX
  8
Unknown Area Type
  70
32
  10
-5.71612272879431
  20
42.6666666666667
  30
1081.341
  0
VERTEX
  8
Unknown Area Type
  70
32
  10
-5.68853614839593
  20
42.6666666666667
  30
1045.672
  0
VERTEX
  8
Unknown Area Type
  70
32
  10
-5.70398465623853
  20
42.66309259193227
  30
1065.703
  0
SEQEND
  8
Unknown Area Type
  0
TEXT
  8
Unknown Area Type
 62
7
  1
PNOA-H_AMS_1956-57_33k_ES_PAN_2
 40
0.00045
  10
-5.70232943859512
  20
42.66487962929948
  0
POLYLINE
  8
Unknown Area Type
  70
9
  66
1
  0
VERTEX
  8
Unknown Area Type
  70
32
  10
-5.71612272879431
  20
42.6666666666667
  30
1081.341
  0
VERTEX
  8
Unknown Area Type
  70
32
  10
-5.68853614839593
  20
42.6666666666667
  30
1045.672
  0
VERTEX
  8
Unknown Area Type
  70
32
  10
-5.70398465623853
  20
42.66309259193227
  30
1065.703
  0
SEQEND
  8
Unknown Area Type
  0
TEXT
  8
Unknown Area Type
 62
7
  1
PNOA-H_AMS_1956-57_33k_ES_PAN_2
 40
0.00045
  10
-5.70232943859512
  20
42.66487962929948
  0
POLYLINE
  8
Unknown Area Type
  70
9
  66
1
  0
VERTEX
  8
Unknown Area Type
  70
32
  10
-5.7161232948183
  20
42.66666683333337
  30
1081.341
  0
VERTEX
  8
Unknown Area Type
  70
32
  10
-5.68853542799933
  20
42.66666683333337
  30
1045.671
  0
VERTEX
  8
Unknown Area Type
  70
32
  10
-5.68853614839593
  20
42.6666666666667
  30
1045.672
  0
VERTEX
  8
Unknown Area Type
  70
32
  10
-5.71612272879431
  20
42.6666666666667
  30
1081.341
  0
SEQEND
  8
Unknown Area Type
  0
TEXT
  8
Unknown Area Type
 62
7
  1
PNOA-H_AMS_1956-57_33k_ES_PAN_2
 40
0.00045
  10
-5.70232936140881
  20
42.66666675000003
  0
POLYLINE
  8
Unknown Area Type
  70
9
  66
1
  0
VERTEX
  8
Unknown Area Type
  70
32
  10
-5.85402881536188
  20
42.66393417476047
  30
921.327
  0
VERTEX
  8
Unknown Area Type
  70
32
  10
-5.85316667210049
  20
42.6666666666667
  30
931.993
  0
VERTEX
  8
Unknown Area Type
  70
32
  10
-5.83058428138459
  20
42.6666666666667
  30
925.871
  0
VERTEX
  8
Unknown Area Type
  70
32
  10
-5.83000728749317
  20
42.66210834892231
  30
907.273
  0
VERTEX
  8
Unknown Area Type
  70
32
  10
-5.84174890056298
  20
42.65939517730996
  30
912.915
  0
VERTEX
  8
Unknown Area Type
  70
32
  10
-5.85388536839934
  20
42.6638657138889
  30
921.067
  0
VERTEX
  8
Unknown Area Type
  70
32
  10
-5.85402189824393
  20
42.66391633784394
  30
921.357
  0
SEQEND
  8
Unknown Area Type
  0
TEXT
  8
Unknown Area Type
 62
7
  1
PNOA-H_AMS_1956-57_33k_ES_PAN_2
 40
0.00045
  10
-5.84201805142753
  20
42.66303092198833
  0
POLYLINE
  8
Unknown Area Type
  70
9
  66
1
  0
VERTEX
  8
Unknown Area Type
  70
32
  10
-5.85402881536188
  20
42.66393417476047
  30
921.327
  0
VERTEX
  8
Unknown Area Type
  70
32
  10
-5.85316667210049
  20
42.6666666666667
  30
931.993
  0
VERTEX
  8
Unknown Area Type
  70
32
  10
-5.83058428138459
  20
42.6666666666667
  30
925.871
  0
VERTEX
  8
Unknown Area Type
  70
32
  10
-5.83000728749317
  20
42.66210834892231
  30
907.273
  0
VERTEX
  8
Unknown Area Type
  70
32
  10
-5.84174890056298
  20
42.65939517730996
  30
912.915
  0
VERTEX
  8
Unknown Area Type
  70
32
  10
-5.85388536839934
  20
42.6638657138889
  30
921.067
  0
VERTEX
  8
Unknown Area Type
  70
32
  10
-5.85402189824393
  20
42.66391633784394
  30
921.357
  0
SEQEND
  8
Unknown Area Type
  0
TEXT
  8
Unknown Area Type
 62
7
  1
PNOA-H_AMS_1956-57_33k_ES_PAN_2
 40
0.00045
  10
-5.84201805142753
  20
42.66303092198833
  0
POLYLINE
  8
Unknown Area Type
  70
9
  66
1
  0
VERTEX
  8
Unknown Area Type
  70
32
  10
-5.85316661951459
  20
42.66666683333337
  30
931.994
  0
VERTEX
  8
Unknown Area Type
  70
32
  10
-5.83058430248133
  20
42.66666683333337
  30
925.872
  0
VERTEX
  8
Unknown Area Type
  70
32
  10
-5.83058428138459
  20
42.6666666666667
  30
925.871
  0
VERTEX
  8
Unknown Area Type
  70
32
  10
-5.85316667210049
  20
42.6666666666667
  30
931.993
  0
SEQEND
  8
Unknown Area Type
  0
TEXT
  8
Unknown Area Type
 62
7
  1
PNOA-H_AMS_1956-57_33k_ES_PAN_2
 40
0.00045
  10
-5.84187547674254
  20
42.66666675000003
  0
POLYLINE
  8
Unknown Area Type
  70
9
  66
1
  0
VERTEX
  8
Unknown Area Type
  70
32
  10
-5.7504579577323
  20
42.6666666666667
  30
1078.007
  0
VERTEX
  8
Unknown Area Type
  70
32
  10
-5.7291666666667
  20
42.6666666666667
  30
1072.587
  0
VERTEX
  8
Unknown Area Type
  70
32
  10
-5.71759523893523
  20
42.6666666666667
  30
1081.495
  0
VERTEX
  8
Unknown Area Type
  70
32
  10
-5.73811790699287
  20
42.66199756374125
  30
1064.879
  0
VERTEX
  8
Unknown Area Type
  70
32
  10
-5.73814837712538
  20
42.66199683488647
  30
1064.598
  0
VERTEX
  8
Unknown Area Type
  70
32
  10
-5.73829051493217
  20
42.66203845865551
  30
1062.487
  0
VERTEX
  8
Unknown Area Type
  70
32
  10
-5.75031784698939
  20
42.66557263325456
  30
1077.392
  0
VERTEX
  8
Unknown Area Type
  70
32
  10
-5.75036149926266
  20
42.66559409630491
  30
1077.046
  0
SEQEND
  8
Unknown Area Type
  0
TEXT
  8
Unknown Area Type
 62
7
  1
PNOA-H_AMS_1956-57_33k_ES_PAN_2
 40
0.00045
  10
-5.73402659833377
  20
42.66433175077658
  0
POLYLINE
  8
Unknown Area Type
  70
9
  66
1
  0
VERTEX
  8
Unknown Area Type
  70
32
  10
-5.7504579577323
  20
42.6666666666667
  30
1078.007
  0
VERTEX
  8
Unknown Area Type
  70
32
  10
-5.7291666666667
  20
42.6666666666667
  30
1072.587
  0
VERTEX
  8
Unknown Area Type
  70
32
  10
-5.71759523893523
  20
42.6666666666667
  30
1081.495
  0
VERTEX
  8
Unknown Area Type
  70
32
  10
-5.73811790699287
  20
42.66199756374125
  30
1064.879
  0
VERTEX
  8
Unknown Area Type
  70
32
  10
-5.73814837712538
  20
42.66199683488647
  30
1064.598
  0
VERTEX
  8
Unknown Area Type
  70
32
  10
-5.73829051493217
  20
42.66203845865551
  30
1062.487
  0
VERTEX
  8
Unknown Area Type
  70
32
  10
-5.75031784698939
  20
42.66557263325456
  30
1077.392
  0
VERTEX
  8
Unknown Area Type
  70
32
  10
-5.75036149926266
  20
42.66559409630491
  30
1077.046
  0
SEQEND
  8
Unknown Area Type
  0
TEXT
  8
Unknown Area Type
 62
7
  1
PNOA-H_AMS_1956-57_33k_ES_PAN_2
 40
0.00045
  10
-5.73402659833377
  20
42.66433175077658
  0
POLYLINE
  8
Unknown Area Type
  70
9
  66
1
  0
VERTEX
  8
Unknown Area Type
  70
32
  10
-5.75045797272098
  20
42.66666683333337
  30
1078.007
  0
VERTEX
  8
Unknown Area Type
  70
32
  10
-5.71759450636525
  20
42.66666683333337
  30
1081.495
  0
VERTEX
  8
Unknown Area Type
  70
32
  10
-5.71759523893523
  20
42.6666666666667
  30
1081.495
  0
VERTEX
  8
Unknown Area Type
  70
32
  10
-5.7291666666667
  20
42.6666666666667
  30
1072.587
  0
VERTEX
  8
Unknown Area Type
  70
32
  10
-5.7504579577323
  20
42.6666666666667
  30
1078.007
  0
SEQEND
  8
Unknown Area Type
  0
TEXT
  8
Unknown Area Type
 62
7
  1
PNOA-H_AMS_1956-57_33k_ES_PAN_2
 40
0.00045
  10
-5.73402623954311
  20
42.66666675000003
  0
POLYLINE
  8
Unknown Area Type
  70
9
  66
1
  0
VERTEX
  8
Unknown Area Type
  70
32
  10
-5.78512678783185
  20
42.6666666666667
  30
1071.271
  0
VERTEX
  8
Unknown Area Type
  70
32
  10
-5.77083333333333
  20
42.6666666666667
  30
1068.202
  0
VERTEX
  8
Unknown Area Type
  70
32
  10
-5.75045223215019
  20
42.6666666666667
  30
1078.073
  0
VERTEX
  8
Unknown Area Type
  70
32
  10
-5.75035520653162
  20
42.66558974512387
  30
1077.11
  0
VERTEX
  8
Unknown Area Type
  70
32
  10
-5.77180387930508
  20
42.66075009578146
  30
1067.187
  0
VERTEX
  8
Unknown Area Type
  70
32
  10
-5.78500901997752
  20
42.6650760192515
  30
1070.784
  0
SEQEND
  8
Unknown Area Type
  0
TEXT
  8
Unknown Area Type
 62
7
  1
PNOA-H_AMS_1956-57_33k_ES_PAN_2
 40
0.00045
  10
-5.76774099718173
  20
42.66370838122408
  0
POLYLINE
  8
Unknown Area Type
  70
9
  66
1
  0
VERTEX
  8
Unknown Area Type
  70
32
  10
-5.78512678783185
  20
42.6666666666667
  30
1071.271
  0
VERTEX
  8
Unknown Area Type
  70
32
  10
-5.77083333333333
  20
42.6666666666667
  30
1068.202
  0
VERTEX
  8
Unknown Area Type
  70
32
  10
-5.75045223215019
  20
42.6666666666667
  30
1078.073
  0
VERTEX
  8
Unknown Area Type
  70
32
  10
-5.75035520653162
  20
42.66558974512387
  30
1077.11
  0
VERTEX
  8
Unknown Area Type
  70
32
  10
-5.77180387930508
  20
42.66075009578146
  30
1067.187
  0
VERTEX
  8
Unknown Area Type
  70
32
  10
-5.78500901997752
  20
42.6650760192515
  30
1070.784
  0
SEQEND
  8
Unknown Area Type
  0
TEXT
  8
Unknown Area Type
 62
7
  1
PNOA-H_AMS_1956-57_33k_ES_PAN_2
 40
0.00045
  10
-5.76774099718173
  20
42.66370838122408
  0
POLYLINE
  8
Unknown Area Type
  70
9
  66
1
  0
VERTEX
  8
Unknown Area Type
  70
32
  10
-5.78512680017146
  20
42.66666683333337
  30
1071.271
  0
VERTEX
  8
Unknown Area Type
  70
32
  10
-5.75045224716608
  20
42.66666683333337
  30
1078.073
  0
VERTEX
  8
Unknown Area Type
  70
32
  10
-5.75045223215019
  20
42.6666666666667
  30
1078.073
  0
VERTEX
  8
Unknown Area Type
  70
32
  10
-5.77083333333333
  20
42.6666666666667
  30
1068.202
  0
VERTEX
  8
Unknown Area Type
  70
32
  10
-5.78512678783185
  20
42.6666666666667
  30
1071.271
  0
SEQEND
  8
Unknown Area Type
  0
TEXT
  8
Unknown Area Type
 62
7
  1
PNOA-H_AMS_1956-57_33k_ES_PAN_2
 40
0.00045
  10
-5.76778951616083
  20
42.66666675000003
  0
POLYLINE
  8
Unknown Area Type
  70
9
  66
1
  0
VERTEX
  8
Unknown Area Type
  70
32
  10
-5.81453020738992
  20
42.6666666666667
  30
980.747
  0
VERTEX
  8
Unknown Area Type
  70
32
  10
-5.81249999999996
  20
42.6666666666667
  30
980.785
  0
VERTEX
  8
Unknown Area Type
  70
32
  10
-5.78512666164501
  20
42.6666666666667
  30
1071.331
  0
VERTEX
  8
Unknown Area Type
  70
32
  10
-5.78500922088763
  20
42.66508051673236
  30
1070.848
  0
VERTEX
  8
Unknown Area Type
  70
32
  10
-5.80714209398348
  20
42.659785370193
  30
1008.839
  0
VERTEX
  8
Unknown Area Type
  70
32
  10
-5.81448013591481
  20
42.66234261296608
  30
987.652
  0
SEQEND
  8
Unknown Area Type
  0
TEXT
  8
Unknown Area Type
 62
7
  1
PNOA-H_AMS_1956-57_33k_ES_PAN_2
 40
0.00045
  10
-5.79976971413877
  20
42.66322601842985
  0
POLYLINE
  8
Unknown Area Type
  70
9
  66
1
  0
VERTEX
  8
Unknown Area Type
  70
32
  10
-5.81453020738992
  20
42.6666666666667
  30
980.747
  0
VERTEX
  8
Unknown Area Type
  70
32
  10
-5.81249999999996
  20
42.6666666666667
  30
980.785
  0
VERTEX
  8
Unknown Area Type
  70
32
  10
-5.78512666164501
  20
42.6666666666667
  30
1071.331
  0
VERTEX
  8
Unknown Area Type
  70
32
  10
-5.78500922088763
  20
42.66508051673236
  30
1070.848
  0
VERTEX
  8
Unknown Area Type
  70
32
  10
-5.80714209398348
  20
42.659785370193
  30
1008.839
  0
VERTEX
  8
Unknown Area Type
  70
32
  10
-5.81448013591481
  20
42.66234261296608
  30
987.652
  0
SEQEND
  8
Unknown Area Type
  0
TEXT
  8
Unknown Area Type
 62
7
  1
PNOA-H_AMS_1956-57_33k_ES_PAN_2
 40
0.00045
  10
-5.79976971413877
  20
42.66322601842985
  0
POLYLINE
  8
Unknown Area Type
  70
9
  66
1
  0
VERTEX
  8
Unknown Area Type
  70
32
  10
-5.81453020931988
  20
42.66666683333337
  30
980.747
  0
VERTEX
  8
Unknown Area Type
  70
32
  10
-5.78512667398524
  20
42.66666683333337
  30
1071.331
  0
VERTEX
  8
Unknown Area Type
  70
32
  10
-5.78512666164501
  20
42.6666666666667
  30
1071.331
  0
VERTEX
  8
Unknown Area Type
  70
32
  10
-5.81249999999996
  20
42.6666666666667
  30
980.785
  0
VERTEX
  8
Unknown Area Type
  70
32
  10
-5.81453020738992
  20
42.6666666666667
  30
980.747
  0
SEQEND
  8
Unknown Area Type
  0
TEXT
  8
Unknown Area Type
 62
7
  1
PNOA-H_AMS_1956-57_33k_ES_PAN_2
 40
0.00045
  10
-5.79982843548244
  20
42.66666675000003
  0
POLYLINE
  8
Unknown Area Type
  70
9
  66
1
  0
VERTEX
  8
Unknown Area Type
  70
32
  10
-5.85416666666668
  20
42.58102645256349
  30
877.886
  0
VERTEX
  8
Unknown Area Type
  70
32
  10
-5.85023324134205
  20
42.57991089860582
  30
874.715
  0
VERTEX
  8
Unknown Area Type
  70
32
  10
-5.85034249461438
  20
42.57549132394383
  30
870.732
  0
VERTEX
  8
Unknown Area Type
  70
32
  10
-5.85416666666668
  20
42.56908881508656
  30
866.324
  0
SEQEND
  8
Unknown Area Type
  0
TEXT
  8
Unknown Area Type
 62
7
  1
PNOA-H_AMS_1956-57_33k_ES_PAN_2
 40
0.00045
  10
-5.85219995400436
  20
42.57505763382503
  0
POLYLINE
  8
Unknown Area Type
  70
9
  66
1
  0
VERTEX
  8
Unknown Area Type
  70
32
  10
-5.85416700000001
  20
42.58102654709975
  30
877.887
  0
VERTEX
  8
Unknown Area Type
  70
32
  10
-5.85416666666668
  20
42.58102645256349
  30
877.886
  0
VERTEX
  8
Unknown Area Type
  70
32
  10
-5.85416666666668
  20
42.56908881508656
  30
866.324
  0
VERTEX
  8
Unknown Area Type
  70
32
  10
-5.85416700000001
  20
42.56908825701292
  30
866.323
  0
SEQEND
  8
Unknown Area Type
  0
TEXT
  8
Unknown Area Type
 62
7
  1
PNOA-H_AMS_1956-57_33k_ES_PAN_2
 40
0.00045
  10
-5.85416683333334
  20
42.57505740205634
  0
POLYLINE
  8
Unknown Area Type
  70
9
  66
1
  0
VERTEX
  8
Unknown Area Type
  70
32
  10
-5.85416666666668
  20
42.58102645256349
  30
877.886
  0
VERTEX
  8
Unknown Area Type
  70
32
  10
-5.85023324134205
  20
42.57991089860582
  30
874.715
  0
VERTEX
  8
Unknown Area Type
  70
32
  10
-5.85034249461438
  20
42.57549132394383
  30
870.732
  0
VERTEX
  8
Unknown Area Type
  70
32
  10
-5.85416666666668
  20
42.56908881508656
  30
866.324
  0
SEQEND
  8
Unknown Area Type
  0
TEXT
  8
Unknown Area Type
 62
7
  1
PNOA-H_AMS_1956-57_33k_ES_PAN_2
 40
0.00045
  10
-5.85219995400436
  20
42.57505763382503
  0
POLYLINE
  8
Unknown Area Type
  70
9
  66
1
  0
VERTEX
  8
Unknown Area Type
  70
32
  10
-5.54429298693278
  20
42.62847338589346
  30
840.615
  0
VERTEX
  8
Unknown Area Type
  70
32
  10
-5.5339685107092
  20
42.62887795210807
  30
840.365
  0
VERTEX
  8
Unknown Area Type
  70
32
  10
-5.52913512687518
  20
42.62756654585682
  30
838.503
  0
VERTEX
  8
Unknown Area Type
  70
32
  10
-5.52820493496987
  20
42.58108542671287
  30
893.784
  0
VERTEX
  8
Unknown Area Type
  70
32
  10
-5.5615754535074
  20
42.58037529179951
  30
813.61
  0
VERTEX
  8
Unknown Area Type
  70
32
  10
-5.5625738956839
  20
42.5803574541167
  30
813.453
  0
VERTEX
  8
Unknown Area Type
  70
32
  10
-5.56266667438197
  20
42.58039139766622
  30
813.488
  0
VERTEX
  8
Unknown Area Type
  70
32
  10
-5.56366715175789
  20
42.62721725155926
  30
863.151
  0
VERTEX
  8
Unknown Area Type
  70
32
  10
-5.55805037064536
  20
42.62792820400213
  30
848.695
  0
VERTEX
  8
Unknown Area Type
  70
32
  10
-5.54455474698986
  20
42.62846306615717
  30
840.62
  0
VERTEX
  8
Unknown Area Type
  70
32
  10
-5.54429298693278
  20
42.62847338589346
  30
840.615
  0
SEQEND
  8
Unknown Area Type
  0
TEXT
  8
Unknown Area Type
 62
7
  1
PNOA-H_AMS_1956-57_33k_ES_PAN_2
 40
0.00045
  10
-5.5459361154473
  20
42.60455670722716
  0
POLYLINE
  8
Unknown Area Type
  70
9
  66
1
  0
VERTEX
  8
Unknown Area Type
  70
32
  10
-5.54429298693278
  20
42.62847338589346
  30
840.615
  0
VERTEX
  8
Unknown Area Type
  70
32
  10
-5.5339685107092
  20
42.62887795210807
  30
840.365
  0
VERTEX
  8
Unknown Area Type
  70
32
  10
-5.52913512687518
  20
42.62756654585682
  30
838.503
  0
VERTEX
  8
Unknown Area Type
  70
32
  10
-5.52820493496987
  20
42.58108542671287
  30
893.784
  0
VERTEX
  8
Unknown Area Type
  70
32
  10
-5.5615754535074
  20
42.58037529179951
  30
813.61
  0
VERTEX
  8
Unknown Area Type
  70
32
  10
-5.5625738956839
  20
42.5803574541167
  30
813.453
  0
VERTEX
  8
Unknown Area Type
  70
32
  10
-5.56266667438197
  20
42.58039139766622
  30
813.488
  0
VERTEX
  8
Unknown Area Type
  70
32
  10
-5.56366715175789
  20
42.62721725155926
  30
863.151
  0
VERTEX
  8
Unknown Area Type
  70
32
  10
-5.55805037064536
  20
42.62792820400213
  30
848.695
  0
VERTEX
  8
Unknown Area Type
  70
32
  10
-5.54455474698986
  20
42.62846306615717
  30
840.62
  0
VERTEX
  8
Unknown Area Type
  70
32
  10
-5.54429298693278
  20
42.62847338589346
  30
840.615
  0
SEQEND
  8
Unknown Area Type
  0
TEXT
  8
Unknown Area Type
 62
7
  1
PNOA-H_AMS_1956-57_33k_ES_PAN_2
 40
0.00045
  10
-5.5459361154473
  20
42.60455670722716
  0
POLYLINE
  8
Unknown Area Type
  70
9
  66
1
  0
VERTEX
  8
Unknown Area Type
  70
32
  10
-5.71882383141928
  20
42.62564580971995
  30
990.757
  0
VERTEX
  8
Unknown Area Type
  70
32
  10
-5.70189351671415
  20
42.62678953291422
  30
978.931
  0
VERTEX
  8
Unknown Area Type
  70
32
  10
-5.69854791715419
  20
42.62555823911871
  30
964.031
  0
VERTEX
  8
Unknown Area Type
  70
32
  10
-5.69938408841148
  20
42.57902387825037
  30
933.683
  0
VERTEX
  8
Unknown Area Type
  70
32
  10
-5.69939567822357
  20
42.57901009766486
  30
933.593
  0
VERTEX
  8
Unknown Area Type
  70
32
  10
-5.70112614141106
  20
42.57845150575996
  30
926.266
  0
VERTEX
  8
Unknown Area Type
  70
32
  10
-5.730916367772
  20
42.57912709191888
  30
952.413
  0
VERTEX
  8
Unknown Area Type
  70
32
  10
-5.73199661866559
  20
42.62475139971796
  30
1008.205
  0
VERTEX
  8
Unknown Area Type
  70
32
  10
-5.71892717535717
  20
42.62563885294658
  30
992.878
  0
VERTEX
  8
Unknown Area Type
  70
32
  10
-5.71882383141928
  20
42.62564580971995
  30
990.757
  0
SEQEND
  8
Unknown Area Type
  0
TEXT
  8
Unknown Area Type
 62
7
  1
PNOA-H_AMS_1956-57_33k_ES_PAN_2
 40
0.00045
  10
-5.7152722446589
  20
42.60232757721221
  0
POLYLINE
  8
Unknown Area Type
  70
9
  66
1
  0
VERTEX
  8
Unknown Area Type
  70
32
  10
-5.71882383141928
  20
42.62564580971995
  30
990.757
  0
VERTEX
  8
Unknown Area Type
  70
32
  10
-5.70189351671415
  20
42.62678953291422
  30
978.931
  0
VERTEX
  8
Unknown Area Type
  70
32
  10
-5.69854791715419
  20
42.62555823911871
  30
964.031
  0
VERTEX
  8
Unknown Area Type
  70
32
  10
-5.69938408841148
  20
42.57902387825037
  30
933.683
  0
VERTEX
  8
Unknown Area Type
  70
32
  10
-5.69939567822357
  20
42.57901009766486
  30
933.593
  0
VERTEX
  8
Unknown Area Type
  70
32
  10
-5.70112614141106
  20
42.57845150575996
  30
926.266
  0
VERTEX
  8
Unknown Area Type
  70
32
  10
-5.730916367772
  20
42.57912709191888
  30
952.413
  0
VERTEX
  8
Unknown Area Type
  70
32
  10
-5.73199661866559
  20
42.62475139971796
  30
1008.205
  0
VERTEX
  8
Unknown Area Type
  70
32
  10
-5.71892717535717
  20
42.62563885294658
  30
992.878
  0
VERTEX
  8
Unknown Area Type
  70
32
  10
-5.71882383141928
  20
42.62564580971995
  30
990.757
  0
SEQEND
  8
Unknown Area Type
  0
TEXT
  8
Unknown Area Type
 62
7
  1
PNOA-H_AMS_1956-57_33k_ES_PAN_2
 40
0.00045
  10
-5.7152722446589
  20
42.60232757721221
  0
POLYLINE
  8
Unknown Area Type
  70
9
  66
1
  0
VERTEX
  8
Unknown Area Type
  70
32
  10
-5.57143384882028
  20
42.6666666666667
  30
905.088
  0
VERTEX
  8
Unknown Area Type
  70
32
  10
-5.56250000000001
  20
42.6666666666667
  30
907.795
  0
VERTEX
  8
Unknown Area Type
  70
32
  10
-5.54992917195799
  20
42.6666666666667
  30
884.622
  0
VERTEX
  8
Unknown Area Type
  70
32
  10
-5.55803246449263
  20
42.62793760899691
  30
848.69
  0
VERTEX
  8
Unknown Area Type
  70
32
  10
-5.55805018633632
  20
42.627923705659
  30
848.692
  0
VERTEX
  8
Unknown Area Type
  70
32
  10
-5.56364887727783
  20
42.62721766075817
  30
863.092
  0
VERTEX
  8
Unknown Area Type
  70
32
  10
-5.56379655085372
  20
42.62725037367296
  30
864.693
  0
VERTEX
  8
Unknown Area Type
  70
32
  10
-5.56842787873852
  20
42.62852432257824
  30
862.003
  0
SEQEND
  8
Unknown Area Type
  0
TEXT
  8
Unknown Area Type
 62
7
  1
PNOA-H_AMS_1956-57_33k_ES_PAN_2
 40
0.00045
  10
-5.56034219058361
  20
42.64865126322606
  0
POLYLINE
  8
Unknown Area Type
  70
9
  66
1
  0
VERTEX
  8
Unknown Area Type
  70
32
  10
-5.57143384882028
  20
42.6666666666667
  30
905.088
  0
VERTEX
  8
Unknown Area Type
  70
32
  10
-5.56250000000001
  20
42.6666666666667
  30
907.795
  0
VERTEX
  8
Unknown Area Type
  70
32
  10
-5.54992917195799
  20
42.6666666666667
  30
884.622
  0
VERTEX
  8
Unknown Area Type
  70
32
  10
-5.55803246449263
  20
42.62793760899691
  30
848.69
  0
VERTEX
  8
Unknown Area Type
  70
32
  10
-5.55805018633632
  20
42.627923705659
  30
848.692
  0
VERTEX
  8
Unknown Area Type
  70
32
  10
-5.56364887727783
  20
42.62721766075817
  30
863.092
  0
VERTEX
  8
Unknown Area Type
  70
32
  10
-5.56379655085372
  20
42.62725037367296
  30
864.693
  0
VERTEX
  8
Unknown Area Type
  70
32
  10
-5.56842787873852
  20
42.62852432257824
  30
862.003
  0
SEQEND
  8
Unknown Area Type
  0
TEXT
  8
Unknown Area Type
 62
7
  1
PNOA-H_AMS_1956-57_33k_ES_PAN_2
 40
0.00045
  10
-5.56034219058361
  20
42.64865126322606
  0
POLYLINE
  8
Unknown Area Type
  70
9
  66
1
  0
VERTEX
  8
Unknown Area Type
  70
32
  10
-5.57143386195516
  20
42.66666683333337
  30
905.089
  0
VERTEX
  8
Unknown Area Type
  70
32
  10
-5.54992913708627
  20
42.66666683333337
  30
884.623
  0
VERTEX
  8
Unknown Area Type
  70
32
  10
-5.54992917195799
  20
42.6666666666667
  30
884.622
  0
VERTEX
  8
Unknown Area Type
  70
32
  10
-5.56250000000001
  20
42.6666666666667
  30
907.795
  0
VERTEX
  8
Unknown Area Type
  70
32
  10
-5.57143384882028
  20
42.6666666666667
  30
905.088
  0
SEQEND
  8
Unknown Area Type
  0
TEXT
  8
Unknown Area Type
 62
7
  1
PNOA-H_AMS_1956-57_33k_ES_PAN_2
 40
0.00045
  10
-5.56068149952072
  20
42.66666675000003
  0
POLYLINE
  8
Unknown Area Type
  70
9
  66
1
  0
VERTEX
  8
Unknown Area Type
  70
32
  10
-5.64023146761744
  20
42.6666666666667
  30
906.792
  0
VERTEX
  8
Unknown Area Type
  70
32
  10
-5.6204602676701
  20
42.6666666666667
  30
862.14
  0
VERTEX
  8
Unknown Area Type
  70
32
  10
-5.62484589836822
  20
42.62708715898985
  30
851.933
  0
VERTEX
  8
Unknown Area Type
  70
32
  10
-5.62486950665113
  20
42.62706860795345
  30
851.925
  0
VERTEX
  8
Unknown Area Type
  70
32
  10
-5.63213219970514
  20
42.62608242003355
  30
873.385
  0
VERTEX
  8
Unknown Area Type
  70
32
  10
-5.63216265496332
  20
42.62608171984294
  30
873.955
  0
VERTEX
  8
Unknown Area Type
  70
32
  10
-5.63697198607883
  20
42.62735329629164
  30
891.712
  0
SEQEND
  8
Unknown Area Type
  0
TEXT
  8
Unknown Area Type
 62
7
  1
PNOA-H_AMS_1956-57_33k_ES_PAN_2
 40
0.00045
  10
-5.63024311321233
  20
42.64705178811381
  0
POLYLINE
  8
Unknown Area Type
  70
9
  66
1
  0
VERTEX
  8
Unknown Area Type
  70
32
  10
-5.64023146761744
  20
42.6666666666667
  30
906.792
  0
VERTEX
  8
Unknown Area Type
  70
32
  10
-5.6204602676701
  20
42.6666666666667
  30
862.14
  0
VERTEX
  8
Unknown Area Type
  70
32
  10
-5.62484589836822
  20
42.62708715898985
  30
851.933
  0
VERTEX
  8
Unknown Area Type
  70
32
  10
-5.62486950665113
  20
42.62706860795345
  30
851.925
  0
VERTEX
  8
Unknown Area Type
  70
32
  10
-5.63213219970514
  20
42.62608242003355
  30
873.385
  0
VERTEX
  8
Unknown Area Type
  70
32
  10
-5.63216265496332
  20
42.62608171984294
  30
873.955
  0
VERTEX
  8
Unknown Area Type
  70
32
  10
-5.63697198607883
  20
42.62735329629164
  30
891.712
  0
SEQEND
  8
Unknown Area Type
  0
TEXT
  8
Unknown Area Type
 62
7
  1
PNOA-H_AMS_1956-57_33k_ES_PAN_2
 40
0.00045
  10
-5.63024311321233
  20
42.64705178811381
  0
POLYLINE
  8
Unknown Area Type
  70
9
  66
1
  0
VERTEX
  8
Unknown Area Type
  70
32
  10
-5.64023148143582
  20
42.66666683333337
  30
906.792
  0
VERTEX
  8
Unknown Area Type
  70
32
  10
-5.6204602492025
  20
42.66666683333337
  30
862.14
  0
VERTEX
  8
Unknown Area Type
  70
32
  10
-5.6204602676701
  20
42.6666666666667
  30
862.14
  0
VERTEX
  8
Unknown Area Type
  70
32
  10
-5.64023146761744
  20
42.6666666666667
  30
906.792
  0
SEQEND
  8
Unknown Area Type
  0
TEXT
  8
Unknown Area Type
 62
7
  1
PNOA-H_AMS_1956-57_33k_ES_PAN_2
 40
0.00045
  10
-5.63034586531916
  20
42.66666675000003
  0
POLYLINE
  8
Unknown Area Type
  70
9
  66
1
  0
VERTEX
  8
Unknown Area Type
  70
32
  10
-5.64406090961197
  20
42.62701870425734
  30
914.429
  0
VERTEX
  8
Unknown Area Type
  70
32
  10
-5.63696589492688
  20
42.62735343658945
  30
891.686
  0
VERTEX
  8
Unknown Area Type
  70
32
  10
-5.63215047286018
  20
42.62608199992016
  30
873.822
  0
VERTEX
  8
Unknown Area Type
  70
32
  10
-5.63019975573127
  20
42.57975604590614
  30
888.28
  0
VERTEX
  8
Unknown Area Type
  70
32
  10
-5.63317073618295
  20
42.57869271594778
  30
901.407
  0
VERTEX
  8
Unknown Area Type
  70
32
  10
-5.66516895139211
  20
42.57958227679932
  30
904.663
  0
VERTEX
  8
Unknown Area Type
  70
32
  10
-5.66553382708368
  20
42.62557075684665
  30
961.601
  0
VERTEX
  8
Unknown Area Type
  70
32
  10
-5.66551613066405
  20
42.62558467615852
  30
961.579
  0
VERTEX
  8
Unknown Area Type
  70
32
  10
-5.66536462776254
  20
42.62560621316815
  30
961.524
  0
VERTEX
  8
Unknown Area Type
  70
32
  10
-5.66096413614167
  20
42.62621285008138
  30
944.231
  0
VERTEX
  8
Unknown Area Type
  70
32
  10
-5.64424954270051
  20
42.62700984517267
  30
914.819
  0
VERTEX
  8
Unknown Area Type
  70
32
  10
-5.64406090961197
  20
42.62701870425734
  30
914.429
  0
SEQEND
  8
Unknown Area Type
  0
TEXT
  8
Unknown Area Type
 62
7
  1
PNOA-H_AMS_1956-57_33k_ES_PAN_2
 40
0.00045
  10
-5.64786691073467
  20
42.60296781839997
  0
POLYLINE
  8
Unknown Area Type
  70
9
  66
1
  0
VERTEX
  8
Unknown Area Type
  70
32
  10
-5.64406090961197
  20
42.62701870425734
  30
914.429
  0
VERTEX
  8
Unknown Area Type
  70
32
  10
-5.63696589492688
  20
42.62735343658945
  30
891.686
  0
VERTEX
  8
Unknown Area Type
  70
32
  10
-5.63215047286018
  20
42.62608199992016
  30
873.822
  0
VERTEX
  8
Unknown Area Type
  70
32
  10
-5.63019975573127
  20
42.57975604590614
  30
888.28
  0
VERTEX
  8
Unknown Area Type
  70
32
  10
-5.63317073618295
  20
42.57869271594778
  30
901.407
  0
VERTEX
  8
Unknown Area Type
  70
32
  10
-5.66516895139211
  20
42.57958227679932
  30
904.663
  0
VERTEX
  8
Unknown Area Type
  70
32
  10
-5.66553382708368
  20
42.62557075684665
  30
961.601
  0
VERTEX
  8
Unknown Area Type
  70
32
  10
-5.66551613066405
  20
42.62558467615852
  30
961.579
  0
VERTEX
  8
Unknown Area Type
  70
32
  10
-5.66536462776254
  20
42.62560621316815
  30
961.524
  0
VERTEX
  8
Unknown Area Type
  70
32
  10
-5.66096413614167
  20
42.62621285008138
  30
944.231
  0
VERTEX
  8
Unknown Area Type
  70
32
  10
-5.64424954270051
  20
42.62700984517267
  30
914.819
  0
VERTEX
  8
Unknown Area Type
  70
32
  10
-5.64406090961197
  20
42.62701870425734
  30
914.429
  0
SEQEND
  8
Unknown Area Type
  0
TEXT
  8
Unknown Area Type
 62
7
  1
PNOA-H_AMS_1956-57_33k_ES_PAN_2
 40
0.00045
  10
-5.64786691073467
  20
42.60296781839997
  0
POLYLINE
  8
Unknown Area Type
  70
9
  66
1
  0
VERTEX
  8
Unknown Area Type
  70
32
  10
-5.74381541572534
  20
42.62565737845577
  30
1015.395
  0
VERTEX
  8
Unknown Area Type
  70
32
  10
-5.73633735413296
  20
42.62627760117723
  30
1012.846
  0
VERTEX
  8
Unknown Area Type
  70
32
  10
-5.73199661866559
  20
42.62475139971796
  30
1008.205
  0
VERTEX
  8
Unknown Area Type
  70
32
  10
-5.730916367772
  20
42.57912709191888
  30
952.413
  0
VERTEX
  8
Unknown Area Type
  70
32
  10
-5.73315066850368
  20
42.57839391020582
  30
954.408
  0
VERTEX
  8
Unknown Area Type
  70
32
  10
-5.76286936184696
  20
42.57951311731377
  30
951.71
  0
VERTEX
  8
Unknown Area Type
  70
32
  10
-5.76588943714215
  20
42.62380698263019
  30
1015.929
  0
VERTEX
  8
Unknown Area Type
  70
32
  10
-5.74389439392158
  20
42.62565098310355
  30
1015.75
  0
VERTEX
  8
Unknown Area Type
  70
32
  10
-5.74381541572534
  20
42.62565737845577
  30
1015.395
  0
SEQEND
  8
Unknown Area Type
  0
TEXT
  8
Unknown Area Type
 62
7
  1
PNOA-H_AMS_1956-57_33k_ES_PAN_2
 40
0.00045
  10
-5.74840286742603
  20
42.60211896294398
  0
POLYLINE
  8
Unknown Area Type
  70
9
  66
1
  0
VERTEX
  8
Unknown Area Type
  70
32
  10
-5.74381541572534
  20
42.62565737845577
  30
1015.395
  0
VERTEX
  8
Unknown Area Type
  70
32
  10
-5.73633735413296
  20
42.62627760117723
  30
1012.846
  0
VERTEX
  8
Unknown Area Type
  70
32
  10
-5.73199661866559
  20
42.62475139971796
  30
1008.205
  0
VERTEX
  8
Unknown Area Type
  70
32
  10
-5.730916367772
  20
42.57912709191888
  30
952.413
  0
VERTEX
  8
Unknown Area Type
  70
32
  10
-5.73315066850368
  20
42.57839391020582
  30
954.408
  0
VERTEX
  8
Unknown Area Type
  70
32
  10
-5.76286936184696
  20
42.57951311731377
  30
951.71
  0
VERTEX
  8
Unknown Area Type
  70
32
  10
-5.76588943714215
  20
42.62380698263019
  30
1015.929
  0
VERTEX
  8
Unknown Area Type
  70
32
  10
-5.74389439392158
  20
42.62565098310355
  30
1015.75
  0
VERTEX
  8
Unknown Area Type
  70
32
  10
-5.74381541572534
  20
42.62565737845577
  30
1015.395
  0
SEQEND
  8
Unknown Area Type
  0
TEXT
  8
Unknown Area Type
 62
7
  1
PNOA-H_AMS_1956-57_33k_ES_PAN_2
 40
0.00045
  10
-5.74840286742603
  20
42.60211896294398
  0
POLYLINE
  8
Unknown Area Type
  70
9
  66
1
  0
VERTEX
  8
Unknown Area Type
  70
32
  10
-5.6190051334513
  20
42.6273830089559
  30
841.918
  0
VERTEX
  8
Unknown Area Type
  70
32
  10
-5.60318098371302
  20
42.62820765817967
  30
838.679
  0
VERTEX
  8
Unknown Area Type
  70
32
  10
-5.59761559080962
  20
42.62662763780787
  30
850.145
  0
VERTEX
  8
Unknown Area Type
  70
32
  10
-5.59709749949819
  20
42.5801469385537
  30
828.971
  0
VERTEX
  8
Unknown Area Type
  70
32
  10
-5.59863880170506
  20
42.57955816449178
  30
828.382
  0
VERTEX
  8
Unknown Area Type
  70
32
  10
-5.63019975573127
  20
42.57975604590614
  30
888.28
  0
VERTEX
  8
Unknown Area Type
  70
32
  10
-5.63215047286018
  20
42.62608199992016
  30
873.822
  0
VERTEX
  8
Unknown Area Type
  70
32
  10
-5.62486969576558
  20
42.62707310605935
  30
851.933
  0
VERTEX
  8
Unknown Area Type
  70
32
  10
-5.61915722579921
  20
42.62737502715854
  30
841.568
  0
VERTEX
  8
Unknown Area Type
  70
32
  10
-5.6190051334513
  20
42.6273830089559
  30
841.918
  0
SEQEND
  8
Unknown Area Type
  0
TEXT
  8
Unknown Area Type
 62
7
  1
PNOA-H_AMS_1956-57_33k_ES_PAN_2
 40
0.00045
  10
-5.61462401981916
  20
42.60363335696637
  0
POLYLINE
  8
Unknown Area Type
  70
9
  66
1
  0
VERTEX
  8
Unknown Area Type
  70
32
  10
-5.6190051334513
  20
42.6273830089559
  30
841.918
  0
VERTEX
  8
Unknown Area Type
  70
32
  10
-5.60318098371302
  20
42.62820765817967
  30
838.679
  0
VERTEX
  8
Unknown Area Type
  70
32
  10
-5.59761559080962
  20
42.62662763780787
  30
850.145
  0
VERTEX
  8
Unknown Area Type
  70
32
  10
-5.59709749949819
  20
42.5801469385537
  30
828.971
  0
VERTEX
  8
Unknown Area Type
  70
32
  10
-5.59863880170506
  20
42.57955816449178
  30
828.382
  0
VERTEX
  8
Unknown Area Type
  70
32
  10
-5.63019975573127
  20
42.57975604590614
  30
888.28
  0
VERTEX
  8
Unknown Area Type
  70
32
  10
-5.63215047286018
  20
42.62608199992016
  30
873.822
  0
VERTEX
  8
Unknown Area Type
  70
32
  10
-5.62486969576558
  20
42.62707310605935
  30
851.933
  0
VERTEX
  8
Unknown Area Type
  70
32
  10
-5.61915722579921
  20
42.62737502715854
  30
841.568
  0
VERTEX
  8
Unknown Area Type
  70
32
  10
-5.6190051334513
  20
42.6273830089559
  30
841.918
  0
SEQEND
  8
Unknown Area Type
  0
TEXT
  8
Unknown Area Type
 62
7
  1
PNOA-H_AMS_1956-57_33k_ES_PAN_2
 40
0.00045
  10
-5.61462401981916
  20
42.60363335696637
  0
POLYLINE
  8
Unknown Area Type
  70
9
  66
1
  0
VERTEX
  8
Unknown Area Type
  70
32
  10
-5.60416666666664
  20
42.6666666666667
  30
904.983
  0
VERTEX
  8
Unknown Area Type
  70
32
  10
-5.58574015358009
  20
42.6666666666667
  30
962.279
  0
VERTEX
  8
Unknown Area Type
  70
32
  10
-5.58920867595801
  20
42.62767803987955
  30
909.202
  0
VERTEX
  8
Unknown Area Type
  70
32
  10
-5.59756686062574
  20
42.62662874342632
  30
850.327
  0
VERTEX
  8
Unknown Area Type
  70
32
  10
-5.59765860402312
  20
42.62663566678248
  30
850.036
  0
VERTEX
  8
Unknown Area Type
  70
32
  10
-5.60319925791265
  20
42.62820724266739
  30
838.629
  0
VERTEX
  8
Unknown Area Type
  70
32
  10
-5.60593060247792
  20
42.6666666666667
  30
898.062
  0
SEQEND
  8
Unknown Area Type
  0
TEXT
  8
Unknown Area Type
 62
7
  1
PNOA-H_AMS_1956-57_33k_ES_PAN_2
 40
0.00045
  10
-5.59573965705651
  20
42.64772609283709
  0
POLYLINE
  8
Unknown Area Type
  70
9
  66
1
  0
VERTEX
  8
Unknown Area Type
  70
32
  10
-5.60416666666664
  20
42.6666666666667
  30
904.983
  0
VERTEX
  8
Unknown Area Type
  70
32
  10
-5.58574015358009
  20
42.6666666666667
  30
962.279
  0
VERTEX
  8
Unknown Area Type
  70
32
  10
-5.58920867595801
  20
42.62767803987955
  30
909.202
  0
VERTEX
  8
Unknown Area Type
  70
32
  10
-5.59756686062574
  20
42.62662874342632
  30
850.327
  0
VERTEX
  8
Unknown Area Type
  70
32
  10
-5.59765860402312
  20
42.62663566678248
  30
850.036
  0
VERTEX
  8
Unknown Area Type
  70
32
  10
-5.60319925791265
  20
42.62820724266739
  30
838.629
  0
VERTEX
  8
Unknown Area Type
  70
32
  10
-5.60593060247792
  20
42.6666666666667
  30
898.062
  0
SEQEND
  8
Unknown Area Type
  0
TEXT
  8
Unknown Area Type
 62
7
  1
PNOA-H_AMS_1956-57_33k_ES_PAN_2
 40
0.00045
  10
-5.59573965705651
  20
42.64772609283709
  0
POLYLINE
  8
Unknown Area Type
  70
9
  66
1
  0
VERTEX
  8
Unknown Area Type
  70
32
  10
-5.6059306143144
  20
42.66666683333337
  30
898.062
  0
VERTEX
  8
Unknown Area Type
  70
32
  10
-5.58574013875302
  20
42.66666683333337
  30
962.279
  0
VERTEX
  8
Unknown Area Type
  70
32
  10
-5.58574015358009
  20
42.6666666666667
  30
962.279
  0
VERTEX
  8
Unknown Area Type
  70
32
  10
-5.60416666666664
  20
42.6666666666667
  30
904.983
  0
VERTEX
  8
Unknown Area Type
  70
32
  10
-5.60593060247792
  20
42.6666666666667
  30
898.062
  0
SEQEND
  8
Unknown Area Type
  0
TEXT
  8
Unknown Area Type
 62
7
  1
PNOA-H_AMS_1956-57_33k_ES_PAN_2
 40
0.00045
  10
-5.59583537653371
  20
42.66666675000003
  0
POLYLINE
  8
Unknown Area Type
  70
9
  66
1
  0
VERTEX
  8
Unknown Area Type
  70
32
  10
-5.79765475073128
  20
42.57933477087897
  30
928.704
  0
VERTEX
  8
Unknown Area Type
  70
32
  10
-5.79765570308419
  20
42.57894753975985
  30
929.687
  0
VERTEX
  8
Unknown Area Type
  70
32
  10
-5.79837571339308
  20
42.57870032045731
  30
928.051
  0
VERTEX
  8
Unknown Area Type
  70
32
  10
-5.79844265497835
  20
42.57869868426918
  30
927.867
  0
VERTEX
  8
Unknown Area Type
  70
32
  10
-5.81208106583867
  20
42.57919296025656
  30
880.787
  0
VERTEX
  8
Unknown Area Type
  70
32
  10
-5.8302746768216
  20
42.58367928290593
  30
869.44
  0
VERTEX
  8
Unknown Area Type
  70
32
  10
-5.83163316143323
  20
42.62267241953793
  30
888.664
  0
VERTEX
  8
Unknown Area Type
  70
32
  10
-5.80677006639908
  20
42.62589610711198
  30
891.286
  0
VERTEX
  8
Unknown Area Type
  70
32
  10
-5.79798006196447
  20
42.62307667577161
  30
943.616
  0
VERTEX
  8
Unknown Area Type
  70
32
  10
-5.79766098849339
  20
42.57947419337309
  30
924.433
  0
VERTEX
  8
Unknown Area Type
  70
32
  10
-5.79765475073128
  20
42.57933477087897
  30
928.704
  0
SEQEND
  8
Unknown Area Type
  0
TEXT
  8
Unknown Area Type
 62
7
  1
PNOA-H_AMS_1956-57_33k_ES_PAN_2
 40
0.00045
  10
-5.81464392757798
  20
42.60234867823334
  0
POLYLINE
  8
Unknown Area Type
  70
9
  66
1
  0
VERTEX
  8
Unknown Area Type
  70
32
  10
-5.79765475073128
  20
42.57933477087897
  30
928.704
  0
VERTEX
  8
Unknown Area Type
  70
32
  10
-5.79765570308419
  20
42.57894753975985
  30
929.687
  0
VERTEX
  8
Unknown Area Type
  70
32
  10
-5.79837571339308
  20
42.57870032045731
  30
928.051
  0
VERTEX
  8
Unknown Area Type
  70
32
  10
-5.79844265497835
  20
42.57869868426918
  30
927.867
  0
VERTEX
  8
Unknown Area Type
  70
32
  10
-5.81208106583867
  20
42.57919296025656
  30
880.787
  0
VERTEX
  8
Unknown Area Type
  70
32
  10
-5.8302746768216
  20
42.58367928290593
  30
869.44
  0
VERTEX
  8
Unknown Area Type
  70
32
  10
-5.83163316143323
  20
42.62267241953793
  30
888.664
  0
VERTEX
  8
Unknown Area Type
  70
32
  10
-5.80677006639908
  20
42.62589610711198
  30
891.286
  0
VERTEX
  8
Unknown Area Type
  70
32
  10
-5.79798006196447
  20
42.62307667577161
  30
943.616
  0
VERTEX
  8
Unknown Area Type
  70
32
  10
-5.79766098849339
  20
42.57947419337309
  30
924.433
  0
VERTEX
  8
Unknown Area Type
  70
32
  10
-5.79765475073128
  20
42.57933477087897
  30
928.704
  0
SEQEND
  8
Unknown Area Type
  0
TEXT
  8
Unknown Area Type
 62
7
  1
PNOA-H_AMS_1956-57_33k_ES_PAN_2
 40
0.00045
  10
-5.81464392757798
  20
42.60234867823334
  0
POLYLINE
  8
Unknown Area Type
  70
9
  66
1
  0
VERTEX
  8
Unknown Area Type
  70
32
  10
-5.56846461338859
  20
42.62852800093876
  30
861.847
  0
VERTEX
  8
Unknown Area Type
  70
32
  10
-5.56842806379867
  20
42.62852882088434
  30
862.02
  0
VERTEX
  8
Unknown Area Type
  70
32
  10
-5.56834794774341
  20
42.62850810586119
  30
862.312
  0
VERTEX
  8
Unknown Area Type
  70
32
  10
-5.56366715175789
  20
42.62721725155926
  30
863.151
  0
VERTEX
  8
Unknown Area Type
  70
32
  10
-5.56266667438197
  20
42.58039139766622
  30
813.488
  0
VERTEX
  8
Unknown Area Type
  70
32
  10
-5.59709768630633
  20
42.58015143679615
  30
828.974
  0
VERTEX
  8
Unknown Area Type
  70
32
  10
-5.59761559080962
  20
42.62662763780787
  30
850.145
  0
VERTEX
  8
Unknown Area Type
  70
32
  10
-5.58920886250892
  20
42.62768253811269
  30
909.193
  0
VERTEX
  8
Unknown Area Type
  70
32
  10
-5.56871418379807
  20
42.62851789936045
  30
861.607
  0
VERTEX
  8
Unknown Area Type
  70
32
  10
-5.56846461338859
  20
42.62852800093876
  30
861.847
  0
SEQEND
  8
Unknown Area Type
  0
TEXT
  8
Unknown Area Type
 62
7
  1
PNOA-H_AMS_1956-57_33k_ES_PAN_2
 40
0.00045
  10
-5.58014113349228
  20
42.60415908574491
  0
POLYLINE
  8
Unknown Area Type
  70
9
  66
1
  0
VERTEX
  8
Unknown Area Type
  70
32
  10
-5.56846461338859
  20
42.62852800093876
  30
861.847
  0
VERTEX
  8
Unknown Area Type
  70
32
  10
-5.56842806379867
  20
42.62852882088434
  30
862.02
  0
VERTEX
  8
Unknown Area Type
  70
32
  10
-5.56834794774341
  20
42.62850810586119
  30
862.312
  0
VERTEX
  8
Unknown Area Type
  70
32
  10
-5.56366715175789
  20
42.62721725155926
  30
863.151
  0
VERTEX
  8
Unknown Area Type
  70
32
  10
-5.56266667438197
  20
42.58039139766622
  30
813.488
  0
VERTEX
  8
Unknown Area Type
  70
32
  10
-5.59709768630633
  20
42.58015143679615
  30
828.974
  0
VERTEX
  8
Unknown Area Type
  70
32
  10
-5.59761559080962
  20
42.62662763780787
  30
850.145
  0
VERTEX
  8
Unknown Area Type
  70
32
  10
-5.58920886250892
  20
42.62768253811269
  30
909.193
  0
VERTEX
  8
Unknown Area Type
  70
32
  10
-5.56871418379807
  20
42.62851789936045
  30
861.607
  0
VERTEX
  8
Unknown Area Type
  70
32
  10
-5.56846461338859
  20
42.62852800093876
  30
861.847
  0
SEQEND
  8
Unknown Area Type
  0
TEXT
  8
Unknown Area Type
 62
7
  1
PNOA-H_AMS_1956-57_33k_ES_PAN_2
 40
0.00045
  10
-5.58014113349228
  20
42.60415908574491
  0
POLYLINE
  8
Unknown Area Type
  70
9
  66
1
  0
VERTEX
  8
Unknown Area Type
  70
32
  10
-5.85416666666668
  20
42.58333333333335
  30
878.331
  0
VERTEX
  8
Unknown Area Type
  70
32
  10
-5.85416666666668
  20
42.60416666666666
  30
911.495
  0
VERTEX
  8
Unknown Area Type
  70
32
  10
-5.85416666666668
  20
42.62414363763818
  30
915.798
  0
VERTEX
  8
Unknown Area Type
  70
32
  10
-5.84300759941693
  20
42.62584832248492
  30
895.567
  0
VERTEX
  8
Unknown Area Type
  70
32
  10
-5.84297126449319
  20
42.62585372724899
  30
895.718
  0
VERTEX
  8
Unknown Area Type
  70
32
  10
-5.84289777541796
  20
42.62584654759119
  30
895.443
  0
VERTEX
  8
Unknown Area Type
  70
32
  10
-5.83163316143323
  20
42.62267241953793
  30
888.664
  0
VERTEX
  8
Unknown Area Type
  70
32
  10
-5.8302746768216
  20
42.58367928290593
  30
869.44
  0
VERTEX
  8
Unknown Area Type
  70
32
  10
-5.85020889956417
  20
42.57991150460405
  30
874.69
  0
VERTEX
  8
Unknown Area Type
  70
32
  10
-5.8502454122307
  20
42.57991059560477
  30
874.728
  0
VERTEX
  8
Unknown Area Type
  70
32
  10
-5.85033792393564
  20
42.57993530682587
  30
874.731
  0
VERTEX
  8
Unknown Area Type
  70
32
  10
-5.85416666666668
  20
42.58102212041055
  30
877.838
  0
SEQEND
  8
Unknown Area Type
  0
TEXT
  8
Unknown Area Type
 62
7
  1
PNOA-H_AMS_1956-57_33k_ES_PAN_2
 40
0.00045
  10
-5.84754200949587
  20
42.60278457535449
  0
POLYLINE
  8
Unknown Area Type
  70
9
  66
1
  0
VERTEX
  8
Unknown Area Type
  70
32
  10
-5.85416700000001
  20
42.62414358671742
  30
915.798
  0
VERTEX
  8
Unknown Area Type
  70
32
  10
-5.85416666666668
  20
42.62414363763818
  30
915.798
  0
VERTEX
  8
Unknown Area Type
  70
32
  10
-5.85416666666668
  20
42.60416666666666
  30
911.495
  0
VERTEX
  8
Unknown Area Type
  70
32
  10
-5.85416666666668
  20
42.58333333333335
  30
878.331
  0
VERTEX
  8
Unknown Area Type
  70
32
  10
-5.85416666666668
  20
42.58102212041055
  30
877.838
  0
VERTEX
  8
Unknown Area Type
  70
32
  10
-5.85416700000001
  20
42.58102221502939
  30
877.838
  0
SEQEND
  8
Unknown Area Type
  0
TEXT
  8
Unknown Area Type
 62
7
  1
PNOA-H_AMS_1956-57_33k_ES_PAN_2
 40
0.00045
  10
-5.85416683333334
  20
42.60258287902437
  0
POLYLINE
  8
Unknown Area Type
  70
9
  66
1
  0
VERTEX
  8
Unknown Area Type
  70
32
  10
-5.85416666666668
  20
42.58333333333335
  30
878.331
  0
VERTEX
  8
Unknown Area Type
  70
32
  10
-5.85416666666668
  20
42.60416666666666
  30
911.495
  0
VERTEX
  8
Unknown Area Type
  70
32
  10
-5.85416666666668
  20
42.62414363763818
  30
915.798
  0
VERTEX
  8
Unknown Area Type
  70
32
  10
-5.84300759941693
  20
42.62584832248492
  30
895.567
  0
VERTEX
  8
Unknown Area Type
  70
32
  10
-5.84297126449319
  20
42.62585372724899
  30
895.718
  0
VERTEX
  8
Unknown Area Type
  70
32
  10
-5.84289777541796
  20
42.62584654759119
  30
895.443
  0
VERTEX
  8
Unknown Area Type
  70
32
  10
-5.83163316143323
  20
42.62267241953793
  30
888.664
  0
VERTEX
  8
Unknown Area Type
  70
32
  10
-5.8302746768216
  20
42.58367928290593
  30
869.44
  0
VERTEX
  8
Unknown Area Type
  70
32
  10
-5.85020889956417
  20
42.57991150460405
  30
874.69
  0
VERTEX
  8
Unknown Area Type
  70
32
  10
-5.8502454122307
  20
42.57991059560477
  30
874.728
  0
VERTEX
  8
Unknown Area Type
  70
32
  10
-5.85033792393564
  20
42.57993530682587
  30
874.731
  0
VERTEX
  8
Unknown Area Type
  70
32
  10
-5.85416666666668
  20
42.58102212041055
  30
877.838
  0
SEQEND
  8
Unknown Area Type
  0
TEXT
  8
Unknown Area Type
 62
7
  1
PNOA-H_AMS_1956-57_33k_ES_PAN_2
 40
0.00045
  10
-5.84754200949587
  20
42.60278457535449
  0
POLYLINE
  8
Unknown Area Type
  70
9
  66
1
  0
VERTEX
  8
Unknown Area Type
  70
32
  10
-5.6750660650706
  20
42.66574859284335
  30
1018.211
  0
VERTEX
  8
Unknown Area Type
  70
32
  10
-5.66643781747733
  20
42.6666666666667
  30
991.914
  0
VERTEX
  8
Unknown Area Type
  70
32
  10
-5.65183432357423
  20
42.6666666666667
  30
946.761
  0
VERTEX
  8
Unknown Area Type
  70
32
  10
-5.66095804521914
  20
42.62621299165173
  30
944.179
  0
VERTEX
  8
Unknown Area Type
  70
32
  10
-5.66551593863322
  20
42.62558017819917
  30
961.591
  0
VERTEX
  8
Unknown Area Type
  70
32
  10
-5.66944598796213
  20
42.6266637426403
  30
950.999
  0
SEQEND
  8
Unknown Area Type
  0
TEXT
  8
Unknown Area Type
 62
7
  1
PNOA-H_AMS_1956-57_33k_ES_PAN_2
 40
0.00045
  10
-5.66327178895413
  20
42.64644643713359
  0
POLYLINE
  8
Unknown Area Type
  70
9
  66
1
  0
VERTEX
  8
Unknown Area Type
  70
32
  10
-5.6750660650706
  20
42.66574859284335
  30
1018.211
  0
VERTEX
  8
Unknown Area Type
  70
32
  10
-5.66643781747733
  20
42.6666666666667
  30
991.914
  0
VERTEX
  8
Unknown Area Type
  70
32
  10
-5.65183432357423
  20
42.6666666666667
  30
946.761
  0
VERTEX
  8
Unknown Area Type
  70
32
  10
-5.66095804521914
  20
42.62621299165173
  30
944.179
  0
VERTEX
  8
Unknown Area Type
  70
32
  10
-5.66551593863322
  20
42.62558017819917
  30
961.591
  0
VERTEX
  8
Unknown Area Type
  70
32
  10
-5.66944598796213
  20
42.6266637426403
  30
950.999
  0
SEQEND
  8
Unknown Area Type
  0
TEXT
  8
Unknown Area Type
 62
7
  1
PNOA-H_AMS_1956-57_33k_ES_PAN_2
 40
0.00045
  10
-5.66327178895413
  20
42.64644643713359
  0
POLYLINE
  8
Unknown Area Type
  70
9
  66
1
  0
VERTEX
  8
Unknown Area Type
  70
32
  10
-5.66643625110951
  20
42.66666683333337
  30
991.909
  0
VERTEX
  8
Unknown Area Type
  70
32
  10
-5.65183428598505
  20
42.66666683333337
  30
946.761
  0
VERTEX
  8
Unknown Area Type
  70
32
  10
-5.65183432357423
  20
42.6666666666667
  30
946.761
  0
VERTEX
  8
Unknown Area Type
  70
32
  10
-5.66643781747733
  20
42.6666666666667
  30
991.914
  0
SEQEND
  8
Unknown Area Type
  0
TEXT
  8
Unknown Area Type
 62
7
  1
PNOA-H_AMS_1956-57_33k_ES_PAN_2
 40
0.00045
  10
-5.65913605173119
  20
42.66666675000003
  0
POLYLINE
  8
Unknown Area Type
  70
9
  66
1
  0
VERTEX
  8
Unknown Area Type
  70
32
  10
-5.84164975080056
  20
42.58153351831176
  30
869.484
  0
VERTEX
  8
Unknown Area Type
  70
32
  10
-5.83026250498902
  20
42.583679583807
  30
869.433
  0
VERTEX
  8
Unknown Area Type
  70
32
  10
-5.81208126809188
  20
42.57919745770096
  30
880.771
  0
VERTEX
  8
Unknown Area Type
  70
32
  10
-5.83525250805151
  20
42.54362871188263
  30
870.412
  0
VERTEX
  8
Unknown Area Type
  70
32
  10
-5.83526467204856
  20
42.54362841067871
  30
870.397
  0
VERTEX
  8
Unknown Area Type
  70
32
  10
-5.85034269959068
  20
42.57549582124231
  30
870.738
  0
VERTEX
  8
Unknown Area Type
  70
32
  10
-5.85023324134205
  20
42.57991089860582
  30
874.715
  0
VERTEX
  8
Unknown Area Type
  70
32
  10
-5.84167388899393
  20
42.58152841678576
  30
869.567
  0
VERTEX
  8
Unknown Area Type
  70
32
  10
-5.84164975080056
  20
42.58153351831176
  30
869.484
  0
SEQEND
  8
Unknown Area Type
  0
TEXT
  8
Unknown Area Type
 62
7
  1
PNOA-H_AMS_1956-57_33k_ES_PAN_2
 40
0.00045
  10
-5.8312119021519
  20
42.56666450479537
  0
POLYLINE
  8
Unknown Area Type
  70
9
  66
1
  0
VERTEX
  8
Unknown Area Type
  70
32
  10
-5.84164975080056
  20
42.58153351831176
  30
869.484
  0
VERTEX
  8
Unknown Area Type
  70
32
  10
-5.83026250498902
  20
42.583679583807
  30
869.433
  0
VERTEX
  8
Unknown Area Type
  70
32
  10
-5.81208126809188
  20
42.57919745770096
  30
880.771
  0
VERTEX
  8
Unknown Area Type
  70
32
  10
-5.83525250805151
  20
42.54362871188263
  30
870.412
  0
VERTEX
  8
Unknown Area Type
  70
32
  10
-5.83526467204856
  20
42.54362841067871
  30
870.397
  0
VERTEX
  8
Unknown Area Type
  70
32
  10
-5.85034269959068
  20
42.57549582124231
  30
870.738
  0
VERTEX
  8
Unknown Area Type
  70
32
  10
-5.85023324134205
  20
42.57991089860582
  30
874.715
  0
VERTEX
  8
Unknown Area Type
  70
32
  10
-5.84167388899393
  20
42.58152841678576
  30
869.567
  0
VERTEX
  8
Unknown Area Type
  70
32
  10
-5.84164975080056
  20
42.58153351831176
  30
869.484
  0
SEQEND
  8
Unknown Area Type
  0
TEXT
  8
Unknown Area Type
 62
7
  1
PNOA-H_AMS_1956-57_33k_ES_PAN_2
 40
0.00045
  10
-5.8312119021519
  20
42.56666450479537
  0
POLYLINE
  8
Unknown Area Type
  70
9
  66
1
  0
VERTEX
  8
Unknown Area Type
  70
32
  10
-5.76868096937474
  20
42.62475254319369
  30
1009.628
  0
VERTEX
  8
Unknown Area Type
  70
32
  10
-5.76589572654507
  20
42.62381133307434
  30
1015.965
  0
VERTEX
  8
Unknown Area Type
  70
32
  10
-5.76588155379228
  20
42.62376665149522
  30
1015.351
  0
VERTEX
  8
Unknown Area Type
  70
32
  10
-5.76286916312827
  20
42.57950861968116
  30
951.756
  0
VERTEX
  8
Unknown Area Type
  70
32
  10
-5.76772083295649
  20
42.57790563935652
  30
953.521
  0
VERTEX
  8
Unknown Area Type
  70
32
  10
-5.79765570308419
  20
42.57894753975985
  30
929.687
  0
VERTEX
  8
Unknown Area Type
  70
32
  10
-5.79798006196447
  20
42.62307667577161
  30
943.616
  0
VERTEX
  8
Unknown Area Type
  70
32
  10
-5.77175024169207
  20
42.62577235391228
  30
1022.597
  0
VERTEX
  8
Unknown Area Type
  70
32
  10
-5.77168933849258
  20
42.62577382848546
  30
1023.004
  0
VERTEX
  8
Unknown Area Type
  70
32
  10
-5.76869943953594
  20
42.62475659888823
  30
1010.033
  0
VERTEX
  8
Unknown Area Type
  70
32
  10
-5.76868096937474
  20
42.62475254319369
  30
1009.628
  0
SEQEND
  8
Unknown Area Type
  0
TEXT
  8
Unknown Area Type
 62
7
  1
PNOA-H_AMS_1956-57_33k_ES_PAN_2
 40
0.00045
  10
-5.78042465161668
  20
42.6016129929778
  0
POLYLINE
  8
Unknown Area Type
  70
9
  66
1
  0
VERTEX
  8
Unknown Area Type
  70
32
  10
-5.76868096937474
  20
42.62475254319369
  30
1009.628
  0
VERTEX
  8
Unknown Area Type
  70
32
  10
-5.76589572654507
  20
42.62381133307434
  30
1015.965
  0
VERTEX
  8
Unknown Area Type
  70
32
  10
-5.76588155379228
  20
42.62376665149522
  30
1015.351
  0
VERTEX
  8
Unknown Area Type
  70
32
  10
-5.76286916312827
  20
42.57950861968116
  30
951.756
  0
VERTEX
  8
Unknown Area Type
  70
32
  10
-5.76772083295649
  20
42.57790563935652
  30
953.521
  0
VERTEX
  8
Unknown Area Type
  70
32
  10
-5.79765570308419
  20
42.57894753975985
  30
929.687
  0
VERTEX
  8
Unknown Area Type
  70
32
  10
-5.79798006196447
  20
42.62307667577161
  30
943.616
  0
VERTEX
  8
Unknown Area Type
  70
32
  10
-5.77175024169207
  20
42.62577235391228
  30
1022.597
  0
VERTEX
  8
Unknown Area Type
  70
32
  10
-5.77168933849258
  20
42.62577382848546
  30
1023.004
  0
VERTEX
  8
Unknown Area Type
  70
32
  10
-5.76869943953594
  20
42.62475659888823
  30
1010.033
  0
VERTEX
  8
Unknown Area Type
  70
32
  10
-5.76868096937474
  20
42.62475254319369
  30
1009.628
  0
SEQEND
  8
Unknown Area Type
  0
TEXT
  8
Unknown Area Type
 62
7
  1
PNOA-H_AMS_1956-57_33k_ES_PAN_2
 40
0.00045
  10
-5.78042465161668
  20
42.6016129929778
  0
POLYLINE
  8
Unknown Area Type
  70
9
  66
1
  0
VERTEX
  8
Unknown Area Type
  70
32
  10
-5.66886594199089
  20
42.62650167143584
  30
960.19
  0
VERTEX
  8
Unknown Area Type
  70
32
  10
-5.66552812030968
  20
42.62557989457687
  30
961.581
  0
VERTEX
  8
Unknown Area Type
  70
32
  10
-5.66516895139211
  20
42.57958227679932
  30
904.663
  0
VERTEX
  8
Unknown Area Type
  70
32
  10
-5.66860863558521
  20
42.57838104881879
  30
895.524
  0
VERTEX
  8
Unknown Area Type
  70
32
  10
-5.69938978624166
  20
42.57901473902216
  30
933.626
  0
VERTEX
  8
Unknown Area Type
  70
32
  10
-5.69854791715419
  20
42.62555823911871
  30
964.031
  0
VERTEX
  8
Unknown Area Type
  70
32
  10
-5.66959217013515
  20
42.62666033400355
  30
950.825
  0
VERTEX
  8
Unknown Area Type
  70
32
  10
-5.6694398970377
  20
42.62666388466278
  30
951.067
  0
VERTEX
  8
Unknown Area Type
  70
32
  10
-5.66888440700466
  20
42.62650574340653
  30
960.098
  0
VERTEX
  8
Unknown Area Type
  70
32
  10
-5.66886594199089
  20
42.62650167143584
  30
960.19
  0
SEQEND
  8
Unknown Area Type
  0
TEXT
  8
Unknown Area Type
 62
7
  1
PNOA-H_AMS_1956-57_33k_ES_PAN_2
 40
0.00045
  10
-5.68227940294784
  20
42.60241904713688
  0
POLYLINE
  8
Unknown Area Type
  70
9
  66
1
  0
VERTEX
  8
Unknown Area Type
  70
32
  10
-5.66886594199089
  20
42.62650167143584
  30
960.19
  0
VERTEX
  8
Unknown Area Type
  70
32
  10
-5.66552812030968
  20
42.62557989457687
  30
961.581
  0
VERTEX
  8
Unknown Area Type
  70
32
  10
-5.66516895139211
  20
42.57958227679932
  30
904.663
  0
VERTEX
  8
Unknown Area Type
  70
32
  10
-5.66860863558521
  20
42.57838104881879
  30
895.524
  0
VERTEX
  8
Unknown Area Type
  70
32
  10
-5.69938978624166
  20
42.57901473902216
  30
933.626
  0
VERTEX
  8
Unknown Area Type
  70
32
  10
-5.69854791715419
  20
42.62555823911871
  30
964.031
  0
VERTEX
  8
Unknown Area Type
  70
32
  10
-5.66959217013515
  20
42.62666033400355
  30
950.825
  0
VERTEX
  8
Unknown Area Type
  70
32
  10
-5.6694398970377
  20
42.62666388466278
  30
951.067
  0
VERTEX
  8
Unknown Area Type
  70
32
  10
-5.66888440700466
  20
42.62650574340653
  30
960.098
  0
VERTEX
  8
Unknown Area Type
  70
32
  10
-5.66886594199089
  20
42.62650167143584
  30
960.19
  0
SEQEND
  8
Unknown Area Type
  0
TEXT
  8
Unknown Area Type
 62
7
  1
PNOA-H_AMS_1956-57_33k_ES_PAN_2
 40
0.00045
  10
-5.68227940294784
  20
42.60241904713688
  0
POLYLINE
  8
Unknown Area Type
  70
9
  66
1
  0
VERTEX
  8
Unknown Area Type
  70
32
  10
-5.52913512687518
  20
42.62756654585682
  30
838.503
  0
VERTEX
  8
Unknown Area Type
  70
32
  10
-5.52083333333329
  20
42.62872457207332
  30
910.863
  0
VERTEX
  8
Unknown Area Type
  70
32
  10
-5.52083333333329
  20
42.62499999999998
  30
906.421
  0
VERTEX
  8
Unknown Area Type
  70
32
  10
-5.52083333333329
  20
42.60416666666666
  30
866.519
  0
VERTEX
  8
Unknown Area Type
  70
32
  10
-5.52083333333329
  20
42.58333333333335
  30
885.348
  0
VERTEX
  8
Unknown Area Type
  70
32
  10
-5.52083333333329
  20
42.58107756511258
  30
885.366
  0
VERTEX
  8
Unknown Area Type
  70
32
  10
-5.52788549272826
  20
42.58102043920305
  30
892.238
  0
VERTEX
  8
Unknown Area Type
  70
32
  10
-5.52803176649418
  20
42.5810217124553
  30
892.858
  0
VERTEX
  8
Unknown Area Type
  70
32
  10
-5.52820493496987
  20
42.58108542671287
  30
893.784
  0
SEQEND
  8
Unknown Area Type
  0
TEXT
  8
Unknown Area Type
 62
7
  1
PNOA-H_AMS_1956-57_33k_ES_PAN_2
 40
0.00045
  10
-5.52498423010424
  20
42.60487250563818
  0
POLYLINE
  8
Unknown Area Type
  70
9
  66
1
  0
VERTEX
  8
Unknown Area Type
  70
32
  10
-5.52913512687518
  20
42.62756654585682
  30
838.503
  0
VERTEX
  8
Unknown Area Type
  70
32
  10
-5.52083333333329
  20
42.62872457207332
  30
910.863
  0
VERTEX
  8
Unknown Area Type
  70
32
  10
-5.52083333333329
  20
42.62499999999998
  30
906.421
  0
VERTEX
  8
Unknown Area Type
  70
32
  10
-5.52083333333329
  20
42.60416666666666
  30
866.519
  0
VERTEX
  8
Unknown Area Type
  70
32
  10
-5.52083333333329
  20
42.58333333333335
  30
885.348
  0
VERTEX
  8
Unknown Area Type
  70
32
  10
-5.52083333333329
  20
42.58107756511258
  30
885.366
  0
VERTEX
  8
Unknown Area Type
  70
32
  10
-5.52788549272826
  20
42.58102043920305
  30
892.238
  0
VERTEX
  8
Unknown Area Type
  70
32
  10
-5.52803176649418
  20
42.5810217124553
  30
892.858
  0
VERTEX
  8
Unknown Area Type
  70
32
  10
-5.52820493496987
  20
42.58108542671287
  30
893.784
  0
SEQEND
  8
Unknown Area Type
  0
TEXT
  8
Unknown Area Type
 62
7
  1
PNOA-H_AMS_1956-57_33k_ES_PAN_2
 40
0.00045
  10
-5.52498423010424
  20
42.60487250563818
  0
POLYLINE
  8
Unknown Area Type
  70
9
  66
1
  0
VERTEX
  8
Unknown Area Type
  70
32
  10
-5.52083333333329
  20
42.58333333333335
  30
885.348
  0
VERTEX
  8
Unknown Area Type
  70
32
  10
-5.52083333333329
  20
42.60416666666666
  30
866.519
  0
VERTEX
  8
Unknown Area Type
  70
32
  10
-5.52083333333329
  20
42.62499999999998
  30
906.421
  0
VERTEX
  8
Unknown Area Type
  70
32
  10
-5.52083333333329
  20
42.62872457207332
  30
910.863
  0
VERTEX
  8
Unknown Area Type
  70
32
  10
-5.52083299999996
  20
42.62872461857036
  30
910.866
  0
VERTEX
  8
Unknown Area Type
  70
32
  10
-5.52083299999996
  20
42.58107756781274
  30
885.365
  0
VERTEX
  8
Unknown Area Type
  70
32
  10
-5.52083333333329
  20
42.58107756511258
  30
885.366
  0
SEQEND
  8
Unknown Area Type
  0
TEXT
  8
Unknown Area Type
 62
7
  1
PNOA-H_AMS_1956-57_33k_ES_PAN_2
 40
0.00045
  10
-5.52083316666663
  20
42.60490109184147
  0
POLYLINE
  8
Unknown Area Type
  70
9
  66
1
  0
VERTEX
  8
Unknown Area Type
  70
32
  10
-5.53773802810046
  20
42.6666666666667
  30
865.745
  0
VERTEX
  8
Unknown Area Type
  70
32
  10
-5.52083333333329
  20
42.6666666666667
  30
895.699
  0
VERTEX
  8
Unknown Area Type
  70
32
  10
-5.52083333333329
  20
42.64583333333339
  30
850.817
  0
VERTEX
  8
Unknown Area Type
  70
32
  10
-5.52083333333329
  20
42.62872017591539
  30
869.369
  0
VERTEX
  8
Unknown Area Type
  70
32
  10
-5.52911076011107
  20
42.62756708411392
  30
838.503
  0
VERTEX
  8
Unknown Area Type
  70
32
  10
-5.52914731025699
  20
42.62756627672633
  30
838.503
  0
VERTEX
  8
Unknown Area Type
  70
32
  10
-5.53398069430122
  20
42.62887768245694
  30
840.442
  0
SEQEND
  8
Unknown Area Type
  0
TEXT
  8
Unknown Area Type
 62
7
  1
PNOA-H_AMS_1956-57_33k_ES_PAN_2
 40
0.00045
  10
-5.52103837604286
  20
42.64961935913512
  0
POLYLINE
  8
Unknown Area Type
  70
9
  66
1
  0
VERTEX
  8
Unknown Area Type
  70
32
  10
-5.53773802810046
  20
42.6666666666667
  30
865.745
  0
VERTEX
  8
Unknown Area Type
  70
32
  10
-5.52083333333329
  20
42.6666666666667
  30
895.699
  0
VERTEX
  8
Unknown Area Type
  70
32
  10
-5.52083333333329
  20
42.64583333333339
  30
850.817
  0
VERTEX
  8
Unknown Area Type
  70
32
  10
-5.52083333333329
  20
42.62872017591539
  30
869.369
  0
VERTEX
  8
Unknown Area Type
  70
32
  10
-5.52911076011107
  20
42.62756708411392
  30
838.503
  0
VERTEX
  8
Unknown Area Type
  70
32
  10
-5.52914731025699
  20
42.62756627672633
  30
838.503
  0
VERTEX
  8
Unknown Area Type
  70
32
  10
-5.53398069430122
  20
42.62887768245694
  30
840.442
  0
SEQEND
  8
Unknown Area Type
  0
TEXT
  8
Unknown Area Type
 62
7
  1
PNOA-H_AMS_1956-57_33k_ES_PAN_2
 40
0.00045
  10
-5.52103837604286
  20
42.64961935913512
  0
POLYLINE
  8
Unknown Area Type
  70
9
  66
1
  0
VERTEX
  8
Unknown Area Type
  70
32
  10
-5.52083333333329
  20
42.64583333333339
  30
850.817
  0
VERTEX
  8
Unknown Area Type
  70
32
  10
-5.52083333333329
  20
42.6666666666667
  30
895.699
  0
VERTEX
  8
Unknown Area Type
  70
32
  10
-5.52083299999996
  20
42.6666666666667
  30
895.699
  0
VERTEX
  8
Unknown Area Type
  70
32
  10
-5.52083299999996
  20
42.62872022235058
  30
869.37
  0
VERTEX
  8
Unknown Area Type
  70
32
  10
-5.52083333333329
  20
42.62872017591539
  30
869.369
  0
SEQEND
  8
Unknown Area Type
  0
TEXT
  8
Unknown Area Type
 62
7
  1
PNOA-H_AMS_1956-57_33k_ES_PAN_2
 40
0.00045
  10
-5.52083316666663
  20
42.64769342129105
  0
POLYLINE
  8
Unknown Area Type
  70
9
  66
1
  0
VERTEX
  8
Unknown Area Type
  70
32
  10
-5.53773804467202
  20
42.66666683333337
  30
865.745
  0
VERTEX
  8
Unknown Area Type
  70
32
  10
-5.52083333333329
  20
42.66666683333337
  30
895.699
  0
VERTEX
  8
Unknown Area Type
  70
32
  10
-5.52083333333329
  20
42.6666666666667
  30
895.699
  0
VERTEX
  8
Unknown Area Type
  70
32
  10
-5.53773802810046
  20
42.6666666666667
  30
865.745
  0
SEQEND
  8
Unknown Area Type
  0
TEXT
  8
Unknown Area Type
 62
7
  1
PNOA-H_AMS_1956-57_33k_ES_PAN_2
 40
0.00045
  10
-5.52928568900266
  20
42.66666675000003
  0
POLYLINE
  8
Unknown Area Type
  70
9
  66
1
  0
VERTEX
  8
Unknown Area Type
  70
32
  10
-5.52083333333329
  20
42.66666683333337
  30
895.699
  0
VERTEX
  8
Unknown Area Type
  70
32
  10
-5.52083299999996
  20
42.66666683333337
  30
895.699
  0
VERTEX
  8
Unknown Area Type
  70
32
  10
-5.52083299999996
  20
42.6666666666667
  30
895.699
  0
VERTEX
  8
Unknown Area Type
  70
32
  10
-5.52083333333329
  20
42.6666666666667
  30
895.699
  0
SEQEND
  8
Unknown Area Type
  0
TEXT
  8
Unknown Area Type
 62
7
  1
PNOA-H_AMS_1956-57_33k_ES_PAN_2
 40
0.00045
  10
-5.52083316666663
  20
42.66666675000003
  0
POLYLINE
  8
Unknown Area Type
  70
9
  66
1
  0
VERTEX
  8
Unknown Area Type
  70
32
  10
-5.85416666666668
  20
42.52083333333331
  30
843.594
  0
VERTEX
  8
Unknown Area Type
  70
32
  10
-5.85416666666668
  20
42.53232917832162
  30
847.712
  0
VERTEX
  8
Unknown Area Type
  70
32
  10
-5.83562781129695
  20
42.53510982905723
  30
867.382
  0
VERTEX
  8
Unknown Area Type
  70
32
  10
-5.83559152790527
  20
42.53511523002361
  30
867.411
  0
VERTEX
  8
Unknown Area Type
  70
32
  10
-5.82311690615928
  20
42.53186654968005
  30
880.315
  0
VERTEX
  8
Unknown Area Type
  70
32
  10
-5.82030707930781
  20
42.5
  30
853.898
  0
VERTEX
  8
Unknown Area Type
  70
32
  10
-5.85416666666668
  20
42.5
  30
840.287
  0
SEQEND
  8
Unknown Area Type
  0
TEXT
  8
Unknown Area Type
 62
7
  1
PNOA-H_AMS_1956-57_33k_ES_PAN_2
 40
0.00045
  10
-5.83884973691665
  20
42.51590244034143
  0
POLYLINE
  8
Unknown Area Type
  70
9
  66
1
  0
VERTEX
  8
Unknown Area Type
  70
32
  10
-5.85416700000001
  20
42.53232912832482
  30
847.712
  0
VERTEX
  8
Unknown Area Type
  70
32
  10
-5.85416666666668
  20
42.53232917832162
  30
847.712
  0
VERTEX
  8
Unknown Area Type
  70
32
  10
-5.85416666666668
  20
42.52083333333331
  30
843.594
  0
VERTEX
  8
Unknown Area Type
  70
32
  10
-5.85416666666668
  20
42.5
  30
840.287
  0
VERTEX
  8
Unknown Area Type
  70
32
  10
-5.85416700000001
  20
42.5
  30
840.287
  0
SEQEND
  8
Unknown Area Type
  0
TEXT
  8
Unknown Area Type
 62
7
  1
PNOA-H_AMS_1956-57_33k_ES_PAN_2
 40
0.00045
  10
-5.85416683333334
  20
42.51616458916081
  0
POLYLINE
  8
Unknown Area Type
  70
9
  66
1
  0
VERTEX
  8
Unknown Area Type
  70
32
  10
-5.85416666666668
  20
42.52083333333331
  30
843.594
  0
VERTEX
  8
Unknown Area Type
  70
32
  10
-5.85416666666668
  20
42.53232917832162
  30
847.712
  0
VERTEX
  8
Unknown Area Type
  70
32
  10
-5.83562781129695
  20
42.53510982905723
  30
867.382
  0
VERTEX
  8
Unknown Area Type
  70
32
  10
-5.83559152790527
  20
42.53511523002361
  30
867.411
  0
VERTEX
  8
Unknown Area Type
  70
32
  10
-5.82311690615928
  20
42.53186654968005
  30
880.315
  0
VERTEX
  8
Unknown Area Type
  70
32
  10
-5.82030707930781
  20
42.5
  30
853.898
  0
VERTEX
  8
Unknown Area Type
  70
32
  10
-5.85416666666668
  20
42.5
  30
840.287
  0
SEQEND
  8
Unknown Area Type
  0
TEXT
  8
Unknown Area Type
 62
7
  1
PNOA-H_AMS_1956-57_33k_ES_PAN_2
 40
0.00045
  10
-5.83884973691665
  20
42.51590244034143
  0
POLYLINE
  8
Unknown Area Type
  70
9
  66
1
  0
VERTEX
  8
Unknown Area Type
  70
32
  10
-5.85416700000001
  20
42.5
  30
840.287
  0
VERTEX
  8
Unknown Area Type
  70
32
  10
-5.85416666666668
  20
42.5
  30
840.287
  0
VERTEX
  8
Unknown Area Type
  70
32
  10
-5.85416666666668
  20
42.49999983333333
  30
840.287
  0
VERTEX
  8
Unknown Area Type
  70
32
  10
-5.85416700000001
  20
42.49999983333333
  30
840.287
  0
SEQEND
  8
Unknown Area Type
  0
TEXT
  8
Unknown Area Type
 62
7
  1
PNOA-H_AMS_1956-57_33k_ES_PAN_2
 40
0.00045
  10
-5.85416683333334
  20
42.49999991666667
  0
POLYLINE
  8
Unknown Area Type
  70
9
  66
1
  0
VERTEX
  8
Unknown Area Type
  70
32
  10
-5.85416666666668
  20
42.5
  30
840.287
  0
VERTEX
  8
Unknown Area Type
  70
32
  10
-5.82030707930781
  20
42.5
  30
853.898
  0
VERTEX
  8
Unknown Area Type
  70
32
  10
-5.82030706461201
  20
42.49999983333333
  30
853.898
  0
VERTEX
  8
Unknown Area Type
  70
32
  10
-5.85416666666668
  20
42.49999983333333
  30
840.287
  0
SEQEND
  8
Unknown Area Type
  0
TEXT
  8
Unknown Area Type
 62
7
  1
PNOA-H_AMS_1956-57_33k_ES_PAN_2
 40
0.00045
  10
-5.83723686563934
  20
42.49999991666667
  0
POLYLINE
  8
Unknown Area Type
  70
9
  66
1
  0
VERTEX
  8
Unknown Area Type
  70
32
  10
-5.75103383218426
  20
42.53189658588678
  30
898.692
  0
VERTEX
  8
Unknown Area Type
  70
32
  10
-5.7351577610201
  20
42.53595540991434
  30
899.861
  0
VERTEX
  8
Unknown Area Type
  70
32
  10
-5.73513971213079
  20
42.53596034348832
  30
899.889
  0
VERTEX
  8
Unknown Area Type
  70
32
  10
-5.71524709936289
  20
42.53154407745003
  30
898.924
  0
VERTEX
  8
Unknown Area Type
  70
32
  10
-5.71512159925282
  20
42.50083112110821
  30
881.915
  0
VERTEX
  8
Unknown Area Type
  70
32
  10
-5.71668062461321
  20
42.5
  30
881.74
  0
VERTEX
  8
Unknown Area Type
  70
32
  10
-5.7291666666667
  20
42.5
  30
883.058
  0
VERTEX
  8
Unknown Area Type
  70
32
  10
-5.74520192270196
  20
42.5
  30
886.113
  0
VERTEX
  8
Unknown Area Type
  70
32
  10
-5.74837921708894
  20
42.5002449239092
  30
886.722
  0
SEQEND
  8
Unknown Area Type
  0
TEXT
  8
Unknown Area Type
 62
7
  1
PNOA-H_AMS_1956-57_33k_ES_PAN_2
 40
0.00045
  10
-5.73307790747691
  20
42.51728235989852
  0
POLYLINE
  8
Unknown Area Type
  70
9
  66
1
  0
VERTEX
  8
Unknown Area Type
  70
32
  10
-5.75103383218426
  20
42.53189658588678
  30
898.692
  0
VERTEX
  8
Unknown Area Type
  70
32
  10
-5.7351577610201
  20
42.53595540991434
  30
899.861
  0
VERTEX
  8
Unknown Area Type
  70
32
  10
-5.73513971213079
  20
42.53596034348832
  30
899.889
  0
VERTEX
  8
Unknown Area Type
  70
32
  10
-5.71524709936289
  20
42.53154407745003
  30
898.924
  0
VERTEX
  8
Unknown Area Type
  70
32
  10
-5.71512159925282
  20
42.50083112110821
  30
881.915
  0
VERTEX
  8
Unknown Area Type
  70
32
  10
-5.71668062461321
  20
42.5
  30
881.74
  0
VERTEX
  8
Unknown Area Type
  70
32
  10
-5.7291666666667
  20
42.5
  30
883.058
  0
VERTEX
  8
Unknown Area Type
  70
32
  10
-5.74520192270196
  20
42.5
  30
886.113
  0
VERTEX
  8
Unknown Area Type
  70
32
  10
-5.74837921708894
  20
42.5002449239092
  30
886.722
  0
SEQEND
  8
Unknown Area Type
  0
TEXT
  8
Unknown Area Type
 62
7
  1
PNOA-H_AMS_1956-57_33k_ES_PAN_2
 40
0.00045
  10
-5.73307790747691
  20
42.51728235989852
  0
POLYLINE
  8
Unknown Area Type
  70
9
  66
1
  0
VERTEX
  8
Unknown Area Type
  70
32
  10
-5.74520192270196
  20
42.5
  30
886.113
  0
VERTEX
  8
Unknown Area Type
  70
32
  10
-5.7291666666667
  20
42.5
  30
883.058
  0
VERTEX
  8
Unknown Area Type
  70
32
  10
-5.71668062461321
  20
42.5
  30
881.74
  0
VERTEX
  8
Unknown Area Type
  70
32
  10
-5.71668093724823
  20
42.49999983333333
  30
881.74
  0
VERTEX
  8
Unknown Area Type
  70
32
  10
-5.74519976060567
  20
42.49999983333333
  30
886.113
  0
SEQEND
  8
Unknown Area Type
  0
TEXT
  8
Unknown Area Type
 62
7
  1
PNOA-H_AMS_1956-57_33k_ES_PAN_2
 40
0.00045
  10
-5.73094127365759
  20
42.49999991666667
  0
POLYLINE
  8
Unknown Area Type
  70
9
  66
1
  0
VERTEX
  8
Unknown Area Type
  70
32
  10
-5.78522504772231
  20
42.53099801282144
  30
881.56
  0
VERTEX
  8
Unknown Area Type
  70
32
  10
-5.76787175308415
  20
42.53518734078025
  30
902.715
  0
VERTEX
  8
Unknown Area Type
  70
32
  10
-5.76783526390295
  20
42.5351882227862
  30
902.71
  0
VERTEX
  8
Unknown Area Type
  70
32
  10
-5.76470310209352
  20
42.53457051113366
  30
901.533
  0
VERTEX
  8
Unknown Area Type
  70
32
  10
-5.76469093912043
  20
42.5345708047972
  30
901.523
  0
VERTEX
  8
Unknown Area Type
  70
32
  10
-5.75103363464545
  20
42.53189208817186
  30
898.687
  0
VERTEX
  8
Unknown Area Type
  70
32
  10
-5.74837921708894
  20
42.5002449239092
  30
886.722
  0
VERTEX
  8
Unknown Area Type
  70
32
  10
-5.74882646998284
  20
42.5
  30
885.141
  0
VERTEX
  8
Unknown Area Type
  70
32
  10
-5.77083333333333
  20
42.5
  30
867.876
  0
VERTEX
  8
Unknown Area Type
  70
32
  10
-5.78436297222715
  20
42.5
  30
867.553
  0
SEQEND
  8
Unknown Area Type
  0
TEXT
  8
Unknown Area Type
 62
7
  1
PNOA-H_AMS_1956-57_33k_ES_PAN_2
 40
0.00045
  10
-5.76680226868414
  20
42.51665538606147
  0
POLYLINE
  8
Unknown Area Type
  70
9
  66
1
  0
VERTEX
  8
Unknown Area Type
  70
32
  10
-5.78522504772231
  20
42.53099801282144
  30
881.56
  0
VERTEX
  8
Unknown Area Type
  70
32
  10
-5.76787175308415
  20
42.53518734078025
  30
902.715
  0
VERTEX
  8
Unknown Area Type
  70
32
  10
-5.76783526390295
  20
42.5351882227862
  30
902.71
  0
VERTEX
  8
Unknown Area Type
  70
32
  10
-5.76470310209352
  20
42.53457051113366
  30
901.533
  0
VERTEX
  8
Unknown Area Type
  70
32
  10
-5.76469093912043
  20
42.5345708047972
  30
901.523
  0
VERTEX
  8
Unknown Area Type
  70
32
  10
-5.75103363464545
  20
42.53189208817186
  30
898.687
  0
VERTEX
  8
Unknown Area Type
  70
32
  10
-5.74837921708894
  20
42.5002449239092
  30
886.722
  0
VERTEX
  8
Unknown Area Type
  70
32
  10
-5.74882646998284
  20
42.5
  30
885.141
  0
VERTEX
  8
Unknown Area Type
  70
32
  10
-5.77083333333333
  20
42.5
  30
867.876
  0
VERTEX
  8
Unknown Area Type
  70
32
  10
-5.78436297222715
  20
42.5
  30
867.553
  0
SEQEND
  8
Unknown Area Type
  0
TEXT
  8
Unknown Area Type
 62
7
  1
PNOA-H_AMS_1956-57_33k_ES_PAN_2
 40
0.00045
  10
-5.76680226868414
  20
42.51665538606147
  0
POLYLINE
  8
Unknown Area Type
  70
9
  66
1
  0
VERTEX
  8
Unknown Area Type
  70
32
  10
-5.78436297222715
  20
42.5
  30
867.553
  0
VERTEX
  8
Unknown Area Type
  70
32
  10
-5.77083333333333
  20
42.5
  30
867.876
  0
VERTEX
  8
Unknown Area Type
  70
32
  10
-5.74882646998284
  20
42.5
  30
885.141
  0
VERTEX
  8
Unknown Area Type
  70
32
  10
-5.74882677433103
  20
42.49999983333333
  30
885.14
  0
VERTEX
  8
Unknown Area Type
  70
32
  10
-5.78436296759204
  20
42.49999983333333
  30
867.553
  0
SEQEND
  8
Unknown Area Type
  0
TEXT
  8
Unknown Area Type
 62
7
  1
PNOA-H_AMS_1956-57_33k_ES_PAN_2
 40
0.00045
  10
-5.766594721105
  20
42.49999991666667
  0
POLYLINE
  8
Unknown Area Type
  70
9
  66
1
  0
VERTEX
  8
Unknown Area Type
  70
32
  10
-5.82311690615928
  20
42.53186654968005
  30
880.315
  0
VERTEX
  8
Unknown Area Type
  70
32
  10
-5.81455373307011
  20
42.53340557247235
  30
878.622
  0
VERTEX
  8
Unknown Area Type
  70
32
  10
-5.81452352959858
  20
42.53341081731062
  30
878.619
  0
VERTEX
  8
Unknown Area Type
  70
32
  10
-5.80301862884194
  20
42.53547599375611
  30
879.426
  0
VERTEX
  8
Unknown Area Type
  70
32
  10
-5.78522504772231
  20
42.53099801282144
  30
881.56
  0
VERTEX
  8
Unknown Area Type
  70
32
  10
-5.78436297222715
  20
42.5
  30
867.553
  0
VERTEX
  8
Unknown Area Type
  70
32
  10
-5.81249999999996
  20
42.5
  30
854.361
  0
VERTEX
  8
Unknown Area Type
  70
32
  10
-5.82031243038199
  20
42.5
  30
853.945
  0
SEQEND
  8
Unknown Area Type
  0
TEXT
  8
Unknown Area Type
 62
7
  1
PNOA-H_AMS_1956-57_33k_ES_PAN_2
 40
0.00045
  10
-5.80373317229454
  20
42.51676320850235
  0
POLYLINE
  8
Unknown Area Type
  70
9
  66
1
  0
VERTEX
  8
Unknown Area Type
  70
32
  10
-5.82311690615928
  20
42.53186654968005
  30
880.315
  0
VERTEX
  8
Unknown Area Type
  70
32
  10
-5.81455373307011
  20
42.53340557247235
  30
878.622
  0
VERTEX
  8
Unknown Area Type
  70
32
  10
-5.81452352959858
  20
42.53341081731062
  30
878.619
  0
VERTEX
  8
Unknown Area Type
  70
32
  10
-5.80301862884194
  20
42.53547599375611
  30
879.426
  0
VERTEX
  8
Unknown Area Type
  70
32
  10
-5.78522504772231
  20
42.53099801282144
  30
881.56
  0
VERTEX
  8
Unknown Area Type
  70
32
  10
-5.78436297222715
  20
42.5
  30
867.553
  0
VERTEX
  8
Unknown Area Type
  70
32
  10
-5.81249999999996
  20
42.5
  30
854.361
  0
VERTEX
  8
Unknown Area Type
  70
32
  10
-5.82031243038199
  20
42.5
  30
853.945
  0
SEQEND
  8
Unknown Area Type
  0
TEXT
  8
Unknown Area Type
 62
7
  1
PNOA-H_AMS_1956-57_33k_ES_PAN_2
 40
0.00045
  10
-5.80373317229454
  20
42.51676320850235
  0
POLYLINE
  8
Unknown Area Type
  70
9
  66
1
  0
VERTEX
  8
Unknown Area Type
  70
32
  10
-5.82031243038199
  20
42.5
  30
853.945
  0
VERTEX
  8
Unknown Area Type
  70
32
  10
-5.81249999999996
  20
42.5
  30
854.361
  0
VERTEX
  8
Unknown Area Type
  70
32
  10
-5.78436297222715
  20
42.5
  30
867.553
  0
VERTEX
  8
Unknown Area Type
  70
32
  10
-5.78436296759204
  20
42.49999983333333
  30
867.553
  0
VERTEX
  8
Unknown Area Type
  70
32
  10
-5.82031241571418
  20
42.49999983333333
  30
853.945
  0
SEQEND
  8
Unknown Area Type
  0
TEXT
  8
Unknown Area Type
 62
7
  1
PNOA-H_AMS_1956-57_33k_ES_PAN_2
 40
0.00045
  10
-5.80233769898702
  20
42.49999991666667
  0
POLYLINE
  8
Unknown Area Type
  70
9
  66
1
  0
VERTEX
  8
Unknown Area Type
  70
32
  10
-5.68130039381725
  20
42.53207381241439
  30
906.169
  0
VERTEX
  8
Unknown Area Type
  70
32
  10
-5.66693323619228
  20
42.53636249279279
  30
893.737
  0
VERTEX
  8
Unknown Area Type
  70
32
  10
-5.66679238902615
  20
42.53634326049063
  30
893.562
  0
VERTEX
  8
Unknown Area Type
  70
32
  10
-5.66503681422328
  20
42.53600592188375
  30
891.971
  0
VERTEX
  8
Unknown Area Type
  70
32
  10
-5.66500621218698
  20
42.53600213158077
  30
891.955
  0
VERTEX
  8
Unknown Area Type
  70
32
  10
-5.64724503370059
  20
42.53264100671682
  30
884.54
  0
VERTEX
  8
Unknown Area Type
  70
32
  10
-5.64602767975042
  20
42.50150731365772
  30
867.918
  0
VERTEX
  8
Unknown Area Type
  70
32
  10
-5.64922000282923
  20
42.5
  30
868.36
  0
VERTEX
  8
Unknown Area Type
  70
32
  10
-5.67267621223287
  20
42.5
  30
872.121
  0
VERTEX
  8
Unknown Area Type
  70
32
  10
-5.68017396764558
  20
42.5007583267756
  30
873.335
  0
SEQEND
  8
Unknown Area Type
  0
TEXT
  8
Unknown Area Type
 62
7
  1
PNOA-H_AMS_1956-57_33k_ES_PAN_2
 40
0.00045
  10
-5.66366408787035
  20
42.5174173227057
  0
POLYLINE
  8
Unknown Area Type
  70
9
  66
1
  0
VERTEX
  8
Unknown Area Type
  70
32
  10
-5.68130039381725
  20
42.53207381241439
  30
906.169
  0
VERTEX
  8
Unknown Area Type
  70
32
  10
-5.66693323619228
  20
42.53636249279279
  30
893.737
  0
VERTEX
  8
Unknown Area Type
  70
32
  10
-5.66679238902615
  20
42.53634326049063
  30
893.562
  0
VERTEX
  8
Unknown Area Type
  70
32
  10
-5.66503681422328
  20
42.53600592188375
  30
891.971
  0
VERTEX
  8
Unknown Area Type
  70
32
  10
-5.66500621218698
  20
42.53600213158077
  30
891.955
  0
VERTEX
  8
Unknown Area Type
  70
32
  10
-5.64724503370059
  20
42.53264100671682
  30
884.54
  0
VERTEX
  8
Unknown Area Type
  70
32
  10
-5.64602767975042
  20
42.50150731365772
  30
867.918
  0
VERTEX
  8
Unknown Area Type
  70
32
  10
-5.64922000282923
  20
42.5
  30
868.36
  0
VERTEX
  8
Unknown Area Type
  70
32
  10
-5.67267621223287
  20
42.5
  30
872.121
  0
VERTEX
  8
Unknown Area Type
  70
32
  10
-5.68017396764558
  20
42.5007583267756
  30
873.335
  0
SEQEND
  8
Unknown Area Type
  0
TEXT
  8
Unknown Area Type
 62
7
  1
PNOA-H_AMS_1956-57_33k_ES_PAN_2
 40
0.00045
  10
-5.66366408787035
  20
42.5174173227057
  0
POLYLINE
  8
Unknown Area Type
  70
9
  66
1
  0
VERTEX
  8
Unknown Area Type
  70
32
  10
-5.67267621223287
  20
42.5
  30
872.121
  0
VERTEX
  8
Unknown Area Type
  70
32
  10
-5.64922000282923
  20
42.5
  30
868.36
  0
VERTEX
  8
Unknown Area Type
  70
32
  10
-5.64922035581074
  20
42.49999983333333
  30
868.36
  0
VERTEX
  8
Unknown Area Type
  70
32
  10
-5.67267456436031
  20
42.49999983333333
  30
872.12
  0
SEQEND
  8
Unknown Area Type
  0
TEXT
  8
Unknown Area Type
 62
7
  1
PNOA-H_AMS_1956-57_33k_ES_PAN_2
 40
0.00045
  10
-5.66094810753105
  20
42.49999991666667
  0
POLYLINE
  8
Unknown Area Type
  70
9
  66
1
  0
VERTEX
  8
Unknown Area Type
  70
32
  10
-5.61259446036042
  20
42.53311258525218
  30
825.827
  0
VERTEX
  8
Unknown Area Type
  70
32
  10
-5.59648662894992
  20
42.53797693605668
  30
816.6
  0
VERTEX
  8
Unknown Area Type
  70
32
  10
-5.59635796079241
  20
42.53795734077386
  30
816.378
  0
VERTEX
  8
Unknown Area Type
  70
32
  10
-5.59023400178784
  20
42.53665521705546
  30
811.511
  0
VERTEX
  8
Unknown Area Type
  70
32
  10
-5.59022183667457
  20
42.53665549221084
  30
811.514
  0
VERTEX
  8
Unknown Area Type
  70
32
  10
-5.57904371183176
  20
42.53428731412101
  30
808.125
  0
VERTEX
  8
Unknown Area Type
  70
32
  10
-5.5789146854047
  20
42.53425870218397
  30
808.082
  0
VERTEX
  8
Unknown Area Type
  70
32
  10
-5.57890196503975
  20
42.53424548109546
  30
808.071
  0
VERTEX
  8
Unknown Area Type
  70
32
  10
-5.58909229694532
  20
42.5
  30
810.609
  0
VERTEX
  8
Unknown Area Type
  70
32
  10
-5.59387760622968
  20
42.5
  30
820.851
  0
VERTEX
  8
Unknown Area Type
  70
32
  10
-5.61254110121348
  20
42.53197917141095
  30
836.426
  0
SEQEND
  8
Unknown Area Type
  0
TEXT
  8
Unknown Area Type
 62
7
  1
PNOA-H_AMS_1956-57_33k_ES_PAN_2
 40
0.00045
  10
-5.59574823639007
  20
42.52051433228058
  0
POLYLINE
  8
Unknown Area Type
  70
9
  66
1
  0
VERTEX
  8
Unknown Area Type
  70
32
  10
-5.61259446036042
  20
42.53311258525218
  30
825.827
  0
VERTEX
  8
Unknown Area Type
  70
32
  10
-5.59648662894992
  20
42.53797693605668
  30
816.6
  0
VERTEX
  8
Unknown Area Type
  70
32
  10
-5.59635796079241
  20
42.53795734077386
  30
816.378
  0
VERTEX
  8
Unknown Area Type
  70
32
  10
-5.59023400178784
  20
42.53665521705546
  30
811.511
  0
VERTEX
  8
Unknown Area Type
  70
32
  10
-5.59022183667457
  20
42.53665549221084
  30
811.514
  0
VERTEX
  8
Unknown Area Type
  70
32
  10
-5.57904371183176
  20
42.53428731412101
  30
808.125
  0
VERTEX
  8
Unknown Area Type
  70
32
  10
-5.5789146854047
  20
42.53425870218397
  30
808.082
  0
VERTEX
  8
Unknown Area Type
  70
32
  10
-5.57890196503975
  20
42.53424548109546
  30
808.071
  0
VERTEX
  8
Unknown Area Type
  70
32
  10
-5.58909229694532
  20
42.5
  30
810.609
  0
VERTEX
  8
Unknown Area Type
  70
32
  10
-5.59387760622968
  20
42.5
  30
820.851
  0
VERTEX
  8
Unknown Area Type
  70
32
  10
-5.61254110121348
  20
42.53197917141095
  30
836.426
  0
SEQEND
  8
Unknown Area Type
  0
TEXT
  8
Unknown Area Type
 62
7
  1
PNOA-H_AMS_1956-57_33k_ES_PAN_2
 40
0.00045
  10
-5.59574823639007
  20
42.52051433228058
  0
POLYLINE
  8
Unknown Area Type
  70
9
  66
1
  0
VERTEX
  8
Unknown Area Type
  70
32
  10
-5.59387760622968
  20
42.5
  30
820.851
  0
VERTEX
  8
Unknown Area Type
  70
32
  10
-5.58909229694532
  20
42.5
  30
810.609
  0
VERTEX
  8
Unknown Area Type
  70
32
  10
-5.58909234653986
  20
42.49999983333333
  30
810.609
  0
VERTEX
  8
Unknown Area Type
  70
32
  10
-5.59387750896067
  20
42.49999983333333
  30
820.851
  0
SEQEND
  8
Unknown Area Type
  0
TEXT
  8
Unknown Area Type
 62
7
  1
PNOA-H_AMS_1956-57_33k_ES_PAN_2
 40
0.00045
  10
-5.5914849515875
  20
42.49999991666667
  0
POLYLINE
  8
Unknown Area Type
  70
9
  66
1
  0
VERTEX
  8
Unknown Area Type
  70
32
  10
-5.64724503370059
  20
42.53264100671682
  30
884.54
  0
VERTEX
  8
Unknown Area Type
  70
32
  10
-5.64005105219425
  20
42.53485121452992
  30
868.14
  0
VERTEX
  8
Unknown Area Type
  70
32
  10
-5.64003907750931
  20
42.53485599308769
  30
868.076
  0
VERTEX
  8
Unknown Area Type
  70
32
  10
-5.63258586164368
  20
42.53713924625909
  30
846.201
  0
VERTEX
  8
Unknown Area Type
  70
32
  10
-5.61259446036042
  20
42.53311258525218
  30
825.827
  0
VERTEX
  8
Unknown Area Type
  70
32
  10
-5.61255288999804
  20
42.53196989746055
  30
836.491
  0
VERTEX
  8
Unknown Area Type
  70
32
  10
-5.62495403255634
  20
42.5
  30
848.18
  0
VERTEX
  8
Unknown Area Type
  70
32
  10
-5.63443907975538
  20
42.5
  30
857.065
  0
VERTEX
  8
Unknown Area Type
  70
32
  10
-5.64602767975042
  20
42.50150731365772
  30
867.918
  0
SEQEND
  8
Unknown Area Type
  0
TEXT
  8
Unknown Area Type
 62
7
  1
PNOA-H_AMS_1956-57_33k_ES_PAN_2
 40
0.00045
  10
-5.62989890298761
  20
42.5180023016075
  0
POLYLINE
  8
Unknown Area Type
  70
9
  66
1
  0
VERTEX
  8
Unknown Area Type
  70
32
  10
-5.64724503370059
  20
42.53264100671682
  30
884.54
  0
VERTEX
  8
Unknown Area Type
  70
32
  10
-5.64005105219425
  20
42.53485121452992
  30
868.14
  0
VERTEX
  8
Unknown Area Type
  70
32
  10
-5.64003907750931
  20
42.53485599308769
  30
868.076
  0
VERTEX
  8
Unknown Area Type
  70
32
  10
-5.63258586164368
  20
42.53713924625909
  30
846.201
  0
VERTEX
  8
Unknown Area Type
  70
32
  10
-5.61259446036042
  20
42.53311258525218
  30
825.827
  0
VERTEX
  8
Unknown Area Type
  70
32
  10
-5.61255288999804
  20
42.53196989746055
  30
836.491
  0
VERTEX
  8
Unknown Area Type
  70
32
  10
-5.62495403255634
  20
42.5
  30
848.18
  0
VERTEX
  8
Unknown Area Type
  70
32
  10
-5.63443907975538
  20
42.5
  30
857.065
  0
VERTEX
  8
Unknown Area Type
  70
32
  10
-5.64602767975042
  20
42.50150731365772
  30
867.918
  0
SEQEND
  8
Unknown Area Type
  0
TEXT
  8
Unknown Area Type
 62
7
  1
PNOA-H_AMS_1956-57_33k_ES_PAN_2
 40
0.00045
  10
-5.62989890298761
  20
42.5180023016075
  0
POLYLINE
  8
Unknown Area Type
  70
9
  66
1
  0
VERTEX
  8
Unknown Area Type
  70
32
  10
-5.63443907975538
  20
42.5
  30
857.065
  0
VERTEX
  8
Unknown Area Type
  70
32
  10
-5.62495403255634
  20
42.5
  30
848.18
  0
VERTEX
  8
Unknown Area Type
  70
32
  10
-5.62495409720644
  20
42.49999983333333
  30
848.18
  0
VERTEX
  8
Unknown Area Type
  70
32
  10
-5.63443779838087
  20
42.49999983333333
  30
857.064
  0
SEQEND
  8
Unknown Area Type
  0
TEXT
  8
Unknown Area Type
 62
7
  1
PNOA-H_AMS_1956-57_33k_ES_PAN_2
 40
0.00045
  10
-5.62969655615586
  20
42.49999991666667
  0
POLYLINE
  8
Unknown Area Type
  70
9
  66
1
  0
VERTEX
  8
Unknown Area Type
  70
32
  10
-5.79159679145963
  20
42.57873974037461
  30
934.124
  0
VERTEX
  8
Unknown Area Type
  70
32
  10
-5.76771474727624
  20
42.57790578646862
  30
953.522
  0
VERTEX
  8
Unknown Area Type
  70
32
  10
-5.76785350849376
  20
42.53518778178468
  30
902.713
  0
VERTEX
  8
Unknown Area Type
  70
32
  10
-5.78521288565396
  20
42.53099830864319
  30
881.562
  0
VERTEX
  8
Unknown Area Type
  70
32
  10
-5.80301842754808
  20
42.53547149624234
  30
879.424
  0
VERTEX
  8
Unknown Area Type
  70
32
  10
-5.79838788459082
  20
42.57870002297146
  30
927.995
  0
VERTEX
  8
Unknown Area Type
  70
32
  10
-5.79767984437414
  20
42.57894244743698
  30
929.596
  0
VERTEX
  8
Unknown Area Type
  70
32
  10
-5.79760701806912
  20
42.57894872938994
  30
929.704
  0
VERTEX
  8
Unknown Area Type
  70
32
  10
-5.79165764783701
  20
42.57873825653175
  30
934.104
  0
VERTEX
  8
Unknown Area Type
  70
32
  10
-5.79159679145963
  20
42.57873974037461
  30
934.124
  0
SEQEND
  8
Unknown Area Type
  0
TEXT
  8
Unknown Area Type
 62
7
  1
PNOA-H_AMS_1956-57_33k_ES_PAN_2
 40
0.00045
  10
-5.78536658645322
  20
42.55477795522431
  0
POLYLINE
  8
Unknown Area Type
  70
9
  66
1
  0
VERTEX
  8
Unknown Area Type
  70
32
  10
-5.79159679145963
  20
42.57873974037461
  30
934.124
  0
VERTEX
  8
Unknown Area Type
  70
32
  10
-5.76771474727624
  20
42.57790578646862
  30
953.522
  0
VERTEX
  8
Unknown Area Type
  70
32
  10
-5.76785350849376
  20
42.53518778178468
  30
902.713
  0
VERTEX
  8
Unknown Area Type
  70
32
  10
-5.78521288565396
  20
42.53099830864319
  30
881.562
  0
VERTEX
  8
Unknown Area Type
  70
32
  10
-5.80301842754808
  20
42.53547149624234
  30
879.424
  0
VERTEX
  8
Unknown Area Type
  70
32
  10
-5.79838788459082
  20
42.57870002297146
  30
927.995
  0
VERTEX
  8
Unknown Area Type
  70
32
  10
-5.79767984437414
  20
42.57894244743698
  30
929.596
  0
VERTEX
  8
Unknown Area Type
  70
32
  10
-5.79760701806912
  20
42.57894872938994
  30
929.704
  0
VERTEX
  8
Unknown Area Type
  70
32
  10
-5.79165764783701
  20
42.57873825653175
  30
934.104
  0
VERTEX
  8
Unknown Area Type
  70
32
  10
-5.79159679145963
  20
42.57873974037461
  30
934.124
  0
SEQEND
  8
Unknown Area Type
  0
TEXT
  8
Unknown Area Type
 62
7
  1
PNOA-H_AMS_1956-57_33k_ES_PAN_2
 40
0.00045
  10
-5.78536658645322
  20
42.55477795522431
  0
POLYLINE
  8
Unknown Area Type
  70
9
  66
1
  0
VERTEX
  8
Unknown Area Type
  70
32
  10
-5.71524729433159
  20
42.53154857529959
  30
898.927
  0
VERTEX
  8
Unknown Area Type
  70
32
  10
-5.71472405639032
  20
42.5316960549608
  30
898.463
  0
VERTEX
  8
Unknown Area Type
  70
32
  10
-5.71470600693509
  20
42.53170098532656
  30
898.417
  0
VERTEX
  8
Unknown Area Type
  70
32
  10
-5.70083583379288
  20
42.53559942255849
  30
904.39
  0
VERTEX
  8
Unknown Area Type
  70
32
  10
-5.68130039381725
  20
42.53207381241439
  30
906.169
  0
VERTEX
  8
Unknown Area Type
  70
32
  10
-5.68018004628153
  20
42.50075818452009
  30
873.36
  0
VERTEX
  8
Unknown Area Type
  70
32
  10
-5.68172297190414
  20
42.5
  30
873.98
  0
VERTEX
  8
Unknown Area Type
  70
32
  10
-5.68749999999998
  20
42.5
  30
876.115
  0
VERTEX
  8
Unknown Area Type
  70
32
  10
-5.70726931962999
  20
42.5
  30
880.254
  0
VERTEX
  8
Unknown Area Type
  70
32
  10
-5.71512179400318
  20
42.50083561898243
  30
881.916
  0
VERTEX
  8
Unknown Area Type
  70
32
  10
-5.71525259590033
  20
42.53153043970195
  30
898.917
  0
SEQEND
  8
Unknown Area Type
  0
TEXT
  8
Unknown Area Type
 62
7
  1
PNOA-H_AMS_1956-57_33k_ES_PAN_2
 40
0.00045
  10
-5.69771644268761
  20
42.51700830950442
  0
POLYLINE
  8
Unknown Area Type
  70
9
  66
1
  0
VERTEX
  8
Unknown Area Type
  70
32
  10
-5.71524729433159
  20
42.53154857529959
  30
898.927
  0
VERTEX
  8
Unknown Area Type
  70
32
  10
-5.71472405639032
  20
42.5316960549608
  30
898.463
  0
VERTEX
  8
Unknown Area Type
  70
32
  10
-5.71470600693509
  20
42.53170098532656
  30
898.417
  0
VERTEX
  8
Unknown Area Type
  70
32
  10
-5.70083583379288
  20
42.53559942255849
  30
904.39
  0
VERTEX
  8
Unknown Area Type
  70
32
  10
-5.68130039381725
  20
42.53207381241439
  30
906.169
  0
VERTEX
  8
Unknown Area Type
  70
32
  10
-5.68018004628153
  20
42.50075818452009
  30
873.36
  0
VERTEX
  8
Unknown Area Type
  70
32
  10
-5.68172297190414
  20
42.5
  30
873.98
  0
VERTEX
  8
Unknown Area Type
  70
32
  10
-5.68749999999998
  20
42.5
  30
876.115
  0
VERTEX
  8
Unknown Area Type
  70
32
  10
-5.70726931962999
  20
42.5
  30
880.254
  0
VERTEX
  8
Unknown Area Type
  70
32
  10
-5.71512179400318
  20
42.50083561898243
  30
881.916
  0
VERTEX
  8
Unknown Area Type
  70
32
  10
-5.71525259590033
  20
42.53153043970195
  30
898.917
  0
SEQEND
  8
Unknown Area Type
  0
TEXT
  8
Unknown Area Type
 62
7
  1
PNOA-H_AMS_1956-57_33k_ES_PAN_2
 40
0.00045
  10
-5.69771644268761
  20
42.51700830950442
  0
POLYLINE
  8
Unknown Area Type
  70
9
  66
1
  0
VERTEX
  8
Unknown Area Type
  70
32
  10
-5.70726931962999
  20
42.5
  30
880.254
  0
VERTEX
  8
Unknown Area Type
  70
32
  10
-5.68749999999998
  20
42.5
  30
876.115
  0
VERTEX
  8
Unknown Area Type
  70
32
  10
-5.68172297190414
  20
42.5
  30
873.98
  0
VERTEX
  8
Unknown Area Type
  70
32
  10
-5.68172331107522
  20
42.49999983333333
  30
873.98
  0
VERTEX
  8
Unknown Area Type
  70
32
  10
-5.70726775343085
  20
42.49999983333333
  30
880.253
  0
SEQEND
  8
Unknown Area Type
  0
TEXT
  8
Unknown Area Type
 62
7
  1
PNOA-H_AMS_1956-57_33k_ES_PAN_2
 40
0.00045
  10
-5.69449614576707
  20
42.49999991666667
  0
POLYLINE
  8
Unknown Area Type
  70
9
  66
1
  0
VERTEX
  8
Unknown Area Type
  70
32
  10
-5.85416666666668
  20
42.54166666666663
  30
849.163
  0
VERTEX
  8
Unknown Area Type
  70
32
  10
-5.85416666666668
  20
42.56250000000004
  30
864.679
  0
VERTEX
  8
Unknown Area Type
  70
32
  10
-5.85416666666668
  20
42.56908773313076
  30
867.291
  0
VERTEX
  8
Unknown Area Type
  70
32
  10
-5.85034269959068
  20
42.57549582124231
  30
870.738
  0
VERTEX
  8
Unknown Area Type
  70
32
  10
-5.84040413819685
  20
42.55450945043222
  30
856.122
  0
VERTEX
  8
Unknown Area Type
  70
32
  10
-5.84040352586009
  20
42.55449595837064
  30
856.041
  0
VERTEX
  8
Unknown Area Type
  70
32
  10
-5.83525859005006
  20
42.54362856128083
  30
870.405
  0
VERTEX
  8
Unknown Area Type
  70
32
  10
-5.83557936556394
  20
42.53511553121393
  30
867.424
  0
VERTEX
  8
Unknown Area Type
  70
32
  10
-5.85416666666668
  20
42.53232898753475
  30
847.711
  0
SEQEND
  8
Unknown Area Type
  0
TEXT
  8
Unknown Area Type
 62
7
  1
PNOA-H_AMS_1956-57_33k_ES_PAN_2
 40
0.00045
  10
-5.84471262835837
  20
42.55391240438853
  0
POLYLINE
  8
Unknown Area Type
  70
9
  66
1
  0
VERTEX
  8
Unknown Area Type
  70
32
  10
-5.85416700000001
  20
42.56908717454087
  30
867.291
  0
VERTEX
  8
Unknown Area Type
  70
32
  10
-5.85416666666668
  20
42.56908773313076
  30
867.291
  0
VERTEX
  8
Unknown Area Type
  70
32
  10
-5.85416666666668
  20
42.56250000000004
  30
864.679
  0
VERTEX
  8
Unknown Area Type
  70
32
  10
-5.85416666666668
  20
42.54166666666663
  30
849.163
  0
VERTEX
  8
Unknown Area Type
  70
32
  10
-5.85416666666668
  20
42.53232898753475
  30
847.711
  0
VERTEX
  8
Unknown Area Type
  70
32
  10
-5.85416700000001
  20
42.53232893756258
  30
847.711
  0
SEQEND
  8
Unknown Area Type
  0
TEXT
  8
Unknown Area Type
 62
7
  1
PNOA-H_AMS_1956-57_33k_ES_PAN_2
 40
0.00045
  10
-5.85416683333334
  20
42.55070833534667
  0
POLYLINE
  8
Unknown Area Type
  70
9
  66
1
  0
VERTEX
  8
Unknown Area Type
  70
32
  10
-5.85416666666668
  20
42.54166666666663
  30
849.163
  0
VERTEX
  8
Unknown Area Type
  70
32
  10
-5.85416666666668
  20
42.56250000000004
  30
864.679
  0
VERTEX
  8
Unknown Area Type
  70
32
  10
-5.85416666666668
  20
42.56908773313076
  30
867.291
  0
VERTEX
  8
Unknown Area Type
  70
32
  10
-5.85034269959068
  20
42.57549582124231
  30
870.738
  0
VERTEX
  8
Unknown Area Type
  70
32
  10
-5.84040413819685
  20
42.55450945043222
  30
856.122
  0
VERTEX
  8
Unknown Area Type
  70
32
  10
-5.84040352586009
  20
42.55449595837064
  30
856.041
  0
VERTEX
  8
Unknown Area Type
  70
32
  10
-5.83525859005006
  20
42.54362856128083
  30
870.405
  0
VERTEX
  8
Unknown Area Type
  70
32
  10
-5.83557936556394
  20
42.53511553121393
  30
867.424
  0
VERTEX
  8
Unknown Area Type
  70
32
  10
-5.85416666666668
  20
42.53232898753475
  30
847.711
  0
SEQEND
  8
Unknown Area Type
  0
TEXT
  8
Unknown Area Type
 62
7
  1
PNOA-H_AMS_1956-57_33k_ES_PAN_2
 40
0.00045
  10
-5.84471262835837
  20
42.55391240438853
  0
POLYLINE
  8
Unknown Area Type
  70
9
  66
1
  0
VERTEX
  8
Unknown Area Type
  70
32
  10
-5.7167377976529
  20
42.57880703843595
  30
942.604
  0
VERTEX
  8
Unknown Area Type
  70
32
  10
-5.70121154069222
  20
42.57845399351969
  30
927.041
  0
VERTEX
  8
Unknown Area Type
  70
32
  10
-5.70113831355461
  20
42.57845121860596
  30
926.38
  0
VERTEX
  8
Unknown Area Type
  70
32
  10
-5.7011324853304
  20
42.57831628264989
  30
927.353
  0
VERTEX
  8
Unknown Area Type
  70
32
  10
-5.70084799761391
  20
42.53559913566696
  30
904.407
  0
VERTEX
  8
Unknown Area Type
  70
32
  10
-5.71524709936289
  20
42.53154407745003
  30
898.924
  0
VERTEX
  8
Unknown Area Type
  70
32
  10
-5.73512735216051
  20
42.53595613624999
  30
899.87
  0
VERTEX
  8
Unknown Area Type
  70
32
  10
-5.73513461248844
  20
42.53598297761328
  30
900.025
  0
VERTEX
  8
Unknown Area Type
  70
32
  10
-5.73316284031251
  20
42.5783936196502
  30
954.414
  0
VERTEX
  8
Unknown Area Type
  70
32
  10
-5.73092853974613
  20
42.5791268015966
  30
952.406
  0
VERTEX
  8
Unknown Area Type
  70
32
  10
-5.71681082998299
  20
42.57880530553044
  30
942.415
  0
VERTEX
  8
Unknown Area Type
  70
32
  10
-5.7167377976529
  20
42.57880703843595
  30
942.604
  0
SEQEND
  8
Unknown Area Type
  0
TEXT
  8
Unknown Area Type
 62
7
  1
PNOA-H_AMS_1956-57_33k_ES_PAN_2
 40
0.00045
  10
-5.71799116813681
  20
42.55549157032637
  0
POLYLINE
  8
Unknown Area Type
  70
9
  66
1
  0
VERTEX
  8
Unknown Area Type
  70
32
  10
-5.7167377976529
  20
42.57880703843595
  30
942.604
  0
VERTEX
  8
Unknown Area Type
  70
32
  10
-5.70121154069222
  20
42.57845399351969
  30
927.041
  0
VERTEX
  8
Unknown Area Type
  70
32
  10
-5.70113831355461
  20
42.57845121860596
  30
926.38
  0
VERTEX
  8
Unknown Area Type
  70
32
  10
-5.7011324853304
  20
42.57831628264989
  30
927.353
  0
VERTEX
  8
Unknown Area Type
  70
32
  10
-5.70084799761391
  20
42.53559913566696
  30
904.407
  0
VERTEX
  8
Unknown Area Type
  70
32
  10
-5.71524709936289
  20
42.53154407745003
  30
898.924
  0
VERTEX
  8
Unknown Area Type
  70
32
  10
-5.73512735216051
  20
42.53595613624999
  30
899.87
  0
VERTEX
  8
Unknown Area Type
  70
32
  10
-5.73513461248844
  20
42.53598297761328
  30
900.025
  0
VERTEX
  8
Unknown Area Type
  70
32
  10
-5.73316284031251
  20
42.5783936196502
  30
954.414
  0
VERTEX
  8
Unknown Area Type
  70
32
  10
-5.73092853974613
  20
42.5791268015966
  30
952.406
  0
VERTEX
  8
Unknown Area Type
  70
32
  10
-5.71681082998299
  20
42.57880530553044
  30
942.415
  0
VERTEX
  8
Unknown Area Type
  70
32
  10
-5.7167377976529
  20
42.57880703843595
  30
942.604
  0
SEQEND
  8
Unknown Area Type
  0
TEXT
  8
Unknown Area Type
 62
7
  1
PNOA-H_AMS_1956-57_33k_ES_PAN_2
 40
0.00045
  10
-5.71799116813681
  20
42.55549157032637
  0
POLYLINE
  8
Unknown Area Type
  70
9
  66
1
  0
VERTEX
  8
Unknown Area Type
  70
32
  10
-5.81208106583867
  20
42.57919296025656
  30
880.787
  0
VERTEX
  8
Unknown Area Type
  70
32
  10
-5.79838788459082
  20
42.57870002297146
  30
927.995
  0
VERTEX
  8
Unknown Area Type
  70
32
  10
-5.80301862884194
  20
42.53547599375611
  30
879.426
  0
VERTEX
  8
Unknown Area Type
  70
32
  10
-5.82312906800121
  20
42.53186624983078
  30
880.31
  0
VERTEX
  8
Unknown Area Type
  70
32
  10
-5.83557936556394
  20
42.53511553121393
  30
867.424
  0
VERTEX
  8
Unknown Area Type
  70
32
  10
-5.83525859005006
  20
42.54362856128083
  30
870.405
  0
VERTEX
  8
Unknown Area Type
  70
32
  10
-5.81208654465336
  20
42.57917931845137
  30
880.861
  0
VERTEX
  8
Unknown Area Type
  70
32
  10
-5.81208106583867
  20
42.57919296025656
  30
880.787
  0
SEQEND
  8
Unknown Area Type
  0
TEXT
  8
Unknown Area Type
 62
7
  1
PNOA-H_AMS_1956-57_33k_ES_PAN_2
 40
0.00045
  10
-5.81698365789173
  20
42.55231599350672
  0
POLYLINE
  8
Unknown Area Type
  70
9
  66
1
  0
VERTEX
  8
Unknown Area Type
  70
32
  10
-5.81208106583867
  20
42.57919296025656
  30
880.787
  0
VERTEX
  8
Unknown Area Type
  70
32
  10
-5.79838788459082
  20
42.57870002297146
  30
927.995
  0
VERTEX
  8
Unknown Area Type
  70
32
  10
-5.80301862884194
  20
42.53547599375611
  30
879.426
  0
VERTEX
  8
Unknown Area Type
  70
32
  10
-5.82312906800121
  20
42.53186624983078
  30
880.31
  0
VERTEX
  8
Unknown Area Type
  70
32
  10
-5.83557936556394
  20
42.53511553121393
  30
867.424
  0
VERTEX
  8
Unknown Area Type
  70
32
  10
-5.83525859005006
  20
42.54362856128083
  30
870.405
  0
VERTEX
  8
Unknown Area Type
  70
32
  10
-5.81208654465336
  20
42.57917931845137
  30
880.861
  0
VERTEX
  8
Unknown Area Type
  70
32
  10
-5.81208106583867
  20
42.57919296025656
  30
880.787
  0
SEQEND
  8
Unknown Area Type
  0
TEXT
  8
Unknown Area Type
 62
7
  1
PNOA-H_AMS_1956-57_33k_ES_PAN_2
 40
0.00045
  10
-5.81698365789173
  20
42.55231599350672
  0
POLYLINE
  8
Unknown Area Type
  70
9
  66
1
  0
VERTEX
  8
Unknown Area Type
  70
32
  10
-5.69178601402717
  20
42.57886057043549
  30
911.67
  0
VERTEX
  8
Unknown Area Type
  70
32
  10
-5.66859646313059
  20
42.57838133251673
  30
895.576
  0
VERTEX
  8
Unknown Area Type
  70
32
  10
-5.66692107188491
  20
42.53636277608847
  30
893.715
  0
VERTEX
  8
Unknown Area Type
  70
32
  10
-5.68128823048489
  20
42.5320740972121
  30
906.066
  0
VERTEX
  8
Unknown Area Type
  70
32
  10
-5.70084799761391
  20
42.53559913566696
  30
904.407
  0
VERTEX
  8
Unknown Area Type
  70
32
  10
-5.70113831355461
  20
42.57845121860596
  30
926.38
  0
VERTEX
  8
Unknown Area Type
  70
32
  10
-5.69939587237695
  20
42.57901459553603
  30
933.63
  0
VERTEX
  8
Unknown Area Type
  70
32
  10
-5.69184078945113
  20
42.57885928268733
  30
911.806
  0
VERTEX
  8
Unknown Area Type
  70
32
  10
-5.69178601402717
  20
42.57886057043549
  30
911.67
  0
SEQEND
  8
Unknown Area Type
  0
TEXT
  8
Unknown Area Type
 62
7
  1
PNOA-H_AMS_1956-57_33k_ES_PAN_2
 40
0.00045
  10
-5.68402970113953
  20
42.55563251786657
  0
POLYLINE
  8
Unknown Area Type
  70
9
  66
1
  0
VERTEX
  8
Unknown Area Type
  70
32
  10
-5.69178601402717
  20
42.57886057043549
  30
911.67
  0
VERTEX
  8
Unknown Area Type
  70
32
  10
-5.66859646313059
  20
42.57838133251673
  30
895.576
  0
VERTEX
  8
Unknown Area Type
  70
32
  10
-5.66692107188491
  20
42.53636277608847
  30
893.715
  0
VERTEX
  8
Unknown Area Type
  70
32
  10
-5.68128823048489
  20
42.5320740972121
  30
906.066
  0
VERTEX
  8
Unknown Area Type
  70
32
  10
-5.70084799761391
  20
42.53559913566696
  30
904.407
  0
VERTEX
  8
Unknown Area Type
  70
32
  10
-5.70113831355461
  20
42.57845121860596
  30
926.38
  0
VERTEX
  8
Unknown Area Type
  70
32
  10
-5.69939587237695
  20
42.57901459553603
  30
933.63
  0
VERTEX
  8
Unknown Area Type
  70
32
  10
-5.69184078945113
  20
42.57885928268733
  30
911.806
  0
VERTEX
  8
Unknown Area Type
  70
32
  10
-5.69178601402717
  20
42.57886057043549
  30
911.67
  0
SEQEND
  8
Unknown Area Type
  0
TEXT
  8
Unknown Area Type
 62
7
  1
PNOA-H_AMS_1956-57_33k_ES_PAN_2
 40
0.00045
  10
-5.68402970113953
  20
42.55563251786657
  0
POLYLINE
  8
Unknown Area Type
  70
9
  66
1
  0
VERTEX
  8
Unknown Area Type
  70
32
  10
-5.66684383466141
  20
42.57899848145965
  30
895.835
  0
VERTEX
  8
Unknown Area Type
  70
32
  10
-5.66517503775323
  20
42.57958213512937
  30
904.593
  0
VERTEX
  8
Unknown Area Type
  70
32
  10
-5.6651446059472
  20
42.5795828434759
  30
905.188
  0
VERTEX
  8
Unknown Area Type
  70
32
  10
-5.63317073618295
  20
42.57869271594778
  30
901.407
  0
VERTEX
  8
Unknown Area Type
  70
32
  10
-5.63258926498976
  20
42.53722021293743
  30
846.554
  0
VERTEX
  8
Unknown Area Type
  70
32
  10
-5.63259783736455
  20
42.53713446845525
  30
846.215
  0
VERTEX
  8
Unknown Area Type
  70
32
  10
-5.64725111559028
  20
42.53264086612331
  30
884.548
  0
VERTEX
  8
Unknown Area Type
  70
32
  10
-5.66692107188491
  20
42.53636277608847
  30
893.715
  0
VERTEX
  8
Unknown Area Type
  70
32
  10
-5.66859646313059
  20
42.57838133251673
  30
895.576
  0
VERTEX
  8
Unknown Area Type
  70
32
  10
-5.66685581543891
  20
42.57899369995349
  30
895.53
  0
VERTEX
  8
Unknown Area Type
  70
32
  10
-5.66684383466141
  20
42.57899848145965
  30
895.835
  0
SEQEND
  8
Unknown Area Type
  0
TEXT
  8
Unknown Area Type
 62
7
  1
PNOA-H_AMS_1956-57_33k_ES_PAN_2
 40
0.00045
  10
-5.65059288663435
  20
42.55622411779346
  0
POLYLINE
  8
Unknown Area Type
  70
9
  66
1
  0
VERTEX
  8
Unknown Area Type
  70
32
  10
-5.66684383466141
  20
42.57899848145965
  30
895.835
  0
VERTEX
  8
Unknown Area Type
  70
32
  10
-5.66517503775323
  20
42.57958213512937
  30
904.593
  0
VERTEX
  8
Unknown Area Type
  70
32
  10
-5.6651446059472
  20
42.5795828434759
  30
905.188
  0
VERTEX
  8
Unknown Area Type
  70
32
  10
-5.63317073618295
  20
42.57869271594778
  30
901.407
  0
VERTEX
  8
Unknown Area Type
  70
32
  10
-5.63258926498976
  20
42.53722021293743
  30
846.554
  0
VERTEX
  8
Unknown Area Type
  70
32
  10
-5.63259783736455
  20
42.53713446845525
  30
846.215
  0
VERTEX
  8
Unknown Area Type
  70
32
  10
-5.64725111559028
  20
42.53264086612331
  30
884.548
  0
VERTEX
  8
Unknown Area Type
  70
32
  10
-5.66692107188491
  20
42.53636277608847
  30
893.715
  0
VERTEX
  8
Unknown Area Type
  70
32
  10
-5.66859646313059
  20
42.57838133251673
  30
895.576
  0
VERTEX
  8
Unknown Area Type
  70
32
  10
-5.66685581543891
  20
42.57899369995349
  30
895.53
  0
VERTEX
  8
Unknown Area Type
  70
32
  10
-5.66684383466141
  20
42.57899848145965
  30
895.835
  0
SEQEND
  8
Unknown Area Type
  0
TEXT
  8
Unknown Area Type
 62
7
  1
PNOA-H_AMS_1956-57_33k_ES_PAN_2
 40
0.00045
  10
-5.65059288663435
  20
42.55622411779346
  0
POLYLINE
  8
Unknown Area Type
  70
9
  66
1
  0
VERTEX
  8
Unknown Area Type
  70
32
  10
-5.52802567933102
  20
42.58102184684373
  30
892.833
  0
VERTEX
  8
Unknown Area Type
  70
32
  10
-5.52083333333329
  20
42.58107864801326
  30
876.716
  0
VERTEX
  8
Unknown Area Type
  70
32
  10
-5.52083333333329
  20
42.56250000000004
  30
871.427
  0
VERTEX
  8
Unknown Area Type
  70
32
  10
-5.52083333333329
  20
42.54166666666663
  30
847.594
  0
VERTEX
  8
Unknown Area Type
  70
32
  10
-5.52083333333329
  20
42.53526879267486
  30
871.697
  0
VERTEX
  8
Unknown Area Type
  70
32
  10
-5.52317630283716
  20
42.53510408981008
  30
874.905
  0
VERTEX
  8
Unknown Area Type
  70
32
  10
-5.52322496463237
  20
42.53510301768212
  30
874.936
  0
VERTEX
  8
Unknown Area Type
  70
32
  10
-5.52326200462183
  20
42.53511570918554
  30
874.963
  0
VERTEX
  8
Unknown Area Type
  70
32
  10
-5.5268487760253
  20
42.53649544578251
  30
841.86
  0
SEQEND
  8
Unknown Area Type
  0
TEXT
  8
Unknown Area Type
 62
7
  1
PNOA-H_AMS_1956-57_33k_ES_PAN_2
 40
0.00045
  10
-5.52442950633216
  20
42.55809083284769
  0
POLYLINE
  8
Unknown Area Type
  70
9
  66
1
  0
VERTEX
  8
Unknown Area Type
  70
32
  10
-5.52802567933102
  20
42.58102184684373
  30
892.833
  0
VERTEX
  8
Unknown Area Type
  70
32
  10
-5.52083333333329
  20
42.58107864801326
  30
876.716
  0
VERTEX
  8
Unknown Area Type
  70
32
  10
-5.52083333333329
  20
42.56250000000004
  30
871.427
  0
VERTEX
  8
Unknown Area Type
  70
32
  10
-5.52083333333329
  20
42.54166666666663
  30
847.594
  0
VERTEX
  8
Unknown Area Type
  70
32
  10
-5.52083333333329
  20
42.53526879267486
  30
871.697
  0
VERTEX
  8
Unknown Area Type
  70
32
  10
-5.52317630283716
  20
42.53510408981008
  30
874.905
  0
VERTEX
  8
Unknown Area Type
  70
32
  10
-5.52322496463237
  20
42.53510301768212
  30
874.936
  0
VERTEX
  8
Unknown Area Type
  70
32
  10
-5.52326200462183
  20
42.53511570918554
  30
874.963
  0
VERTEX
  8
Unknown Area Type
  70
32
  10
-5.5268487760253
  20
42.53649544578251
  30
841.86
  0
SEQEND
  8
Unknown Area Type
  0
TEXT
  8
Unknown Area Type
 62
7
  1
PNOA-H_AMS_1956-57_33k_ES_PAN_2
 40
0.00045
  10
-5.52442950633216
  20
42.55809083284769
  0
POLYLINE
  8
Unknown Area Type
  70
9
  66
1
  0
VERTEX
  8
Unknown Area Type
  70
32
  10
-5.52083333333329
  20
42.54166666666663
  30
847.594
  0
VERTEX
  8
Unknown Area Type
  70
32
  10
-5.52083333333329
  20
42.56250000000004
  30
871.427
  0
VERTEX
  8
Unknown Area Type
  70
32
  10
-5.52083333333329
  20
42.58107864801326
  30
876.716
  0
VERTEX
  8
Unknown Area Type
  70
32
  10
-5.52083299999996
  20
42.58107865064574
  30
876.715
  0
VERTEX
  8
Unknown Area Type
  70
32
  10
-5.52083299999996
  20
42.53526881610708
  30
871.696
  0
VERTEX
  8
Unknown Area Type
  70
32
  10
-5.52083333333329
  20
42.53526879267486
  30
871.697
  0
SEQEND
  8
Unknown Area Type
  0
TEXT
  8
Unknown Area Type
 62
7
  1
PNOA-H_AMS_1956-57_33k_ES_PAN_2
 40
0.00045
  10
-5.52083316666663
  20
42.5581737216603
  0
POLYLINE
  8
Unknown Area Type
  70
9
  66
1
  0
VERTEX
  8
Unknown Area Type
  70
32
  10
-5.54213890290197
  20
42.58079043882489
  30
864.452
  0
VERTEX
  8
Unknown Area Type
  70
32
  10
-5.52819884780133
  20
42.58108556111066
  30
893.761
  0
VERTEX
  8
Unknown Area Type
  70
32
  10
-5.52802567933102
  20
42.58102184684373
  30
892.833
  0
VERTEX
  8
Unknown Area Type
  70
32
  10
-5.5268487760253
  20
42.53649544578251
  30
841.86
  0
VERTEX
  8
Unknown Area Type
  70
32
  10
-5.55861373201777
  20
42.53432234508234
  30
796.548
  0
VERTEX
  8
Unknown Area Type
  70
32
  10
-5.55871105171521
  20
42.5343201707423
  30
796.57
  0
VERTEX
  8
Unknown Area Type
  70
32
  10
-5.55874809786926
  20
42.53433285058662
  30
796.658
  0
VERTEX
  8
Unknown Area Type
  70
32
  10
-5.56137803193035
  20
42.53537267438153
  30
796.895
  0
VERTEX
  8
Unknown Area Type
  70
32
  10
-5.5625678087488
  20
42.58035759033846
  30
813.464
  0
VERTEX
  8
Unknown Area Type
  70
32
  10
-5.5432650109035
  20
42.58076543287
  30
862.028
  0
VERTEX
  8
Unknown Area Type
  70
32
  10
-5.54213890290197
  20
42.58079043882489
  30
864.452
  0
SEQEND
  8
Unknown Area Type
  0
TEXT
  8
Unknown Area Type
 62
7
  1
PNOA-H_AMS_1956-57_33k_ES_PAN_2
 40
0.00045
  10
-5.54470826433341
  20
42.55800276167579
  0
POLYLINE
  8
Unknown Area Type
  70
9
  66
1
  0
VERTEX
  8
Unknown Area Type
  70
32
  10
-5.54213890290197
  20
42.58079043882489
  30
864.452
  0
VERTEX
  8
Unknown Area Type
  70
32
  10
-5.52819884780133
  20
42.58108556111066
  30
893.761
  0
VERTEX
  8
Unknown Area Type
  70
32
  10
-5.52802567933102
  20
42.58102184684373
  30
892.833
  0
VERTEX
  8
Unknown Area Type
  70
32
  10
-5.5268487760253
  20
42.53649544578251
  30
841.86
  0
VERTEX
  8
Unknown Area Type
  70
32
  10
-5.55861373201777
  20
42.53432234508234
  30
796.548
  0
VERTEX
  8
Unknown Area Type
  70
32
  10
-5.55871105171521
  20
42.5343201707423
  30
796.57
  0
VERTEX
  8
Unknown Area Type
  70
32
  10
-5.55874809786926
  20
42.53433285058662
  30
796.658
  0
VERTEX
  8
Unknown Area Type
  70
32
  10
-5.56137803193035
  20
42.53537267438153
  30
796.895
  0
VERTEX
  8
Unknown Area Type
  70
32
  10
-5.5625678087488
  20
42.58035759033846
  30
813.464
  0
VERTEX
  8
Unknown Area Type
  70
32
  10
-5.5432650109035
  20
42.58076543287
  30
862.028
  0
VERTEX
  8
Unknown Area Type
  70
32
  10
-5.54213890290197
  20
42.58079043882489
  30
864.452
  0
SEQEND
  8
Unknown Area Type
  0
TEXT
  8
Unknown Area Type
 62
7
  1
PNOA-H_AMS_1956-57_33k_ES_PAN_2
 40
0.00045
  10
-5.54470826433341
  20
42.55800276167579
  0
POLYLINE
  8
Unknown Area Type
  70
9
  66
1
  0
VERTEX
  8
Unknown Area Type
  70
32
  10
-5.61028886878348
  20
42.5733138852661
  30
852.417
  0
VERTEX
  8
Unknown Area Type
  70
32
  10
-5.61027650903147
  20
42.57330966454121
  30
851.955
  0
VERTEX
  8
Unknown Area Type
  70
32
  10
-5.6102324052296
  20
42.57327465008933
  30
849.703
  0
VERTEX
  8
Unknown Area Type
  70
32
  10
-5.61023473710372
  20
42.57318454733577
  30
848.716
  0
VERTEX
  8
Unknown Area Type
  70
32
  10
-5.61028211119885
  20
42.57315195003963
  30
866.353
  0
VERTEX
  8
Unknown Area Type
  70
32
  10
-5.61040401900822
  20
42.57315367342623
  30
875.663
  0
VERTEX
  8
Unknown Area Type
  70
32
  10
-5.61044812281423
  20
42.57318868781236
  30
876.554
  0
VERTEX
  8
Unknown Area Type
  70
32
  10
-5.61044579124797
  20
42.57327879056189
  30
855.87
  0
VERTEX
  8
Unknown Area Type
  70
32
  10
-5.61039841714871
  20
42.57331138792543
  30
855.391
  0
VERTEX
  8
Unknown Area Type
  70
32
  10
-5.61028886878348
  20
42.5733138852661
  30
852.417
  0
SEQEND
  8
Unknown Area Type
  0
TEXT
  8
Unknown Area Type
 62
7
  1
PNOA-H_AMS_1956-57_33k_ES_PAN_2
 40
0.00045
  10
-5.61034045098066
  20
42.57323115979543
  0
POLYLINE
  8
Unknown Area Type
  70
9
  66
1
  0
VERTEX
  8
Unknown Area Type
  70
32
  10
-5.61028886878348
  20
42.5733138852661
  30
852.417
  0
VERTEX
  8
Unknown Area Type
  70
32
  10
-5.61027650903147
  20
42.57330966454121
  30
851.955
  0
VERTEX
  8
Unknown Area Type
  70
32
  10
-5.6102324052296
  20
42.57327465008933
  30
849.703
  0
VERTEX
  8
Unknown Area Type
  70
32
  10
-5.61023473710372
  20
42.57318454733577
  30
848.716
  0
VERTEX
  8
Unknown Area Type
  70
32
  10
-5.61028211119885
  20
42.57315195003963
  30
866.353
  0
VERTEX
  8
Unknown Area Type
  70
32
  10
-5.61040401900822
  20
42.57315367342623
  30
875.663
  0
VERTEX
  8
Unknown Area Type
  70
32
  10
-5.61044812281423
  20
42.57318868781236
  30
876.554
  0
VERTEX
  8
Unknown Area Type
  70
32
  10
-5.61044579124797
  20
42.57327879056189
  30
855.87
  0
VERTEX
  8
Unknown Area Type
  70
32
  10
-5.61039841714871
  20
42.57331138792543
  30
855.391
  0
VERTEX
  8
Unknown Area Type
  70
32
  10
-5.61028886878348
  20
42.5733138852661
  30
852.417
  0
SEQEND
  8
Unknown Area Type
  0
TEXT
  8
Unknown Area Type
 62
7
  1
PNOA-H_AMS_1956-57_33k_ES_PAN_2
 40
0.00045
  10
-5.61034045098066
  20
42.57323115979543
  0
POLYLINE
  8
Unknown Area Type
  70
9
  66
1
  0
VERTEX
  8
Unknown Area Type
  70
32
  10
-5.61695739187631
  20
42.57967225374108
  30
863.817
  0
VERTEX
  8
Unknown Area Type
  70
32
  10
-5.59864488838935
  20
42.57955802635592
  30
828.385
  0
VERTEX
  8
Unknown Area Type
  70
32
  10
-5.59647446364035
  20
42.53797721188269
  30
816.593
  0
VERTEX
  8
Unknown Area Type
  70
32
  10
-5.61258837825564
  20
42.53311272400762
  30
825.821
  0
VERTEX
  8
Unknown Area Type
  70
32
  10
-5.63259194404175
  20
42.53713910643173
  30
846.218
  0
VERTEX
  8
Unknown Area Type
  70
32
  10
-5.6331709255744
  20
42.57869721406179
  30
901.407
  0
VERTEX
  8
Unknown Area Type
  70
32
  10
-5.63020584228141
  20
42.57975590609324
  30
888.304
  0
VERTEX
  8
Unknown Area Type
  70
32
  10
-5.61697565169591
  20
42.57967183641239
  30
863.904
  0
VERTEX
  8
Unknown Area Type
  70
32
  10
-5.61695739187631
  20
42.57967225374108
  30
863.817
  0
SEQEND
  8
Unknown Area Type
  0
TEXT
  8
Unknown Area Type
 62
7
  1
PNOA-H_AMS_1956-57_33k_ES_PAN_2
 40
0.00045
  10
-5.61482260883229
  20
42.55660944725363
  0
POLYLINE
  8
Unknown Area Type
  70
9
  66
1
  0
VERTEX
  8
Unknown Area Type
  70
32
  10
-5.61695739187631
  20
42.57967225374108
  30
863.817
  0
VERTEX
  8
Unknown Area Type
  70
32
  10
-5.59864488838935
  20
42.57955802635592
  30
828.385
  0
VERTEX
  8
Unknown Area Type
  70
32
  10
-5.59647446364035
  20
42.53797721188269
  30
816.593
  0
VERTEX
  8
Unknown Area Type
  70
32
  10
-5.61258837825564
  20
42.53311272400762
  30
825.821
  0
VERTEX
  8
Unknown Area Type
  70
32
  10
-5.63259194404175
  20
42.53713910643173
  30
846.218
  0
VERTEX
  8
Unknown Area Type
  70
32
  10
-5.6331709255744
  20
42.57869721406179
  30
901.407
  0
VERTEX
  8
Unknown Area Type
  70
32
  10
-5.63020584228141
  20
42.57975590609324
  30
888.304
  0
VERTEX
  8
Unknown Area Type
  70
32
  10
-5.61697565169591
  20
42.57967183641239
  30
863.904
  0
VERTEX
  8
Unknown Area Type
  70
32
  10
-5.61695739187631
  20
42.57967225374108
  30
863.817
  0
SEQEND
  8
Unknown Area Type
  0
TEXT
  8
Unknown Area Type
 62
7
  1
PNOA-H_AMS_1956-57_33k_ES_PAN_2
 40
0.00045
  10
-5.61482260883229
  20
42.55660944725363
  0
POLYLINE
  8
Unknown Area Type
  70
9
  66
1
  0
VERTEX
  8
Unknown Area Type
  70
32
  10
-5.76662816178582
  20
42.5782697299017
  30
949.297
  0
VERTEX
  8
Unknown Area Type
  70
32
  10
-5.76297751626151
  20
42.57947899037342
  30
952.029
  0
VERTEX
  8
Unknown Area Type
  70
32
  10
-5.76284501840065
  20
42.57951370474733
  30
951.745
  0
VERTEX
  8
Unknown Area Type
  70
32
  10
-5.73316284031251
  20
42.5783936196502
  30
954.414
  0
VERTEX
  8
Unknown Area Type
  70
32
  10
-5.73510952189703
  20
42.53638429614382
  30
897.458
  0
VERTEX
  8
Unknown Area Type
  70
32
  10
-5.73513951570448
  20
42.5359558457167
  30
899.865
  0
VERTEX
  8
Unknown Area Type
  70
32
  10
-5.7510397159421
  20
42.5318919420724
  30
898.689
  0
VERTEX
  8
Unknown Area Type
  70
32
  10
-5.76785350849376
  20
42.53518778178468
  30
902.713
  0
VERTEX
  8
Unknown Area Type
  70
32
  10
-5.76771474727624
  20
42.57790578646862
  30
953.522
  0
VERTEX
  8
Unknown Area Type
  70
32
  10
-5.76664013424719
  20
42.57826493817132
  30
949.372
  0
VERTEX
  8
Unknown Area Type
  70
32
  10
-5.76662816178582
  20
42.5782697299017
  30
949.297
  0
SEQEND
  8
Unknown Area Type
  0
TEXT
  8
Unknown Area Type
 62
7
  1
PNOA-H_AMS_1956-57_33k_ES_PAN_2
 40
0.00045
  10
-5.75050804658769
  20
42.55553692223733
  0
POLYLINE
  8
Unknown Area Type
  70
9
  66
1
  0
VERTEX
  8
Unknown Area Type
  70
32
  10
-5.76662816178582
  20
42.5782697299017
  30
949.297
  0
VERTEX
  8
Unknown Area Type
  70
32
  10
-5.76297751626151
  20
42.57947899037342
  30
952.029
  0
VERTEX
  8
Unknown Area Type
  70
32
  10
-5.76284501840065
  20
42.57951370474733
  30
951.745
  0
VERTEX
  8
Unknown Area Type
  70
32
  10
-5.73316284031251
  20
42.5783936196502
  30
954.414
  0
VERTEX
  8
Unknown Area Type
  70
32
  10
-5.73510952189703
  20
42.53638429614382
  30
897.458
  0
VERTEX
  8
Unknown Area Type
  70
32
  10
-5.73513951570448
  20
42.5359558457167
  30
899.865
  0
VERTEX
  8
Unknown Area Type
  70
32
  10
-5.7510397159421
  20
42.5318919420724
  30
898.689
  0
VERTEX
  8
Unknown Area Type
  70
32
  10
-5.76785350849376
  20
42.53518778178468
  30
902.713
  0
VERTEX
  8
Unknown Area Type
  70
32
  10
-5.76771474727624
  20
42.57790578646862
  30
953.522
  0
VERTEX
  8
Unknown Area Type
  70
32
  10
-5.76664013424719
  20
42.57826493817132
  30
949.372
  0
VERTEX
  8
Unknown Area Type
  70
32
  10
-5.76662816178582
  20
42.5782697299017
  30
949.297
  0
SEQEND
  8
Unknown Area Type
  0
TEXT
  8
Unknown Area Type
 62
7
  1
PNOA-H_AMS_1956-57_33k_ES_PAN_2
 40
0.00045
  10
-5.75050804658769
  20
42.55553692223733
  0
POLYLINE
  8
Unknown Area Type
  70
9
  66
1
  0
VERTEX
  8
Unknown Area Type
  70
32
  10
-5.61039841714871
  20
42.57331138792543
  30
855.391
  0
VERTEX
  8
Unknown Area Type
  70
32
  10
-5.61028886878348
  20
42.5733138852661
  30
852.417
  0
VERTEX
  8
Unknown Area Type
  70
32
  10
-5.61023886666196
  20
42.57328350775576
  30
850.071
  0
VERTEX
  8
Unknown Area Type
  70
32
  10
-5.61022902650799
  20
42.57319368247258
  30
848.708
  0
VERTEX
  8
Unknown Area Type
  70
32
  10
-5.61027012689789
  20
42.57315672571476
  30
861.46
  0
VERTEX
  8
Unknown Area Type
  70
32
  10
-5.61039165928126
  20
42.57314945271304
  30
875.304
  0
VERTEX
  8
Unknown Area Type
  70
32
  10
-5.61044166136328
  20
42.57317983015815
  30
876.427
  0
VERTEX
  8
Unknown Area Type
  70
32
  10
-5.61045150181866
  20
42.57326965541503
  30
855.759
  0
VERTEX
  8
Unknown Area Type
  70
32
  10
-5.61041040146827
  20
42.57330661223644
  30
855.623
  0
VERTEX
  8
Unknown Area Type
  70
32
  10
-5.61039841714871
  20
42.57331138792543
  30
855.391
  0
SEQEND
  8
Unknown Area Type
  0
TEXT
  8
Unknown Area Type
 62
7
  1
PNOA-H_AMS_1956-57_33k_ES_PAN_2
 40
0.00045
  10
-5.61034048320993
  20
42.57322991591968
  0
POLYLINE
  8
Unknown Area Type
  70
9
  66
1
  0
VERTEX
  8
Unknown Area Type
  70
32
  10
-5.61039841714871
  20
42.57331138792543
  30
855.391
  0
VERTEX
  8
Unknown Area Type
  70
32
  10
-5.61028886878348
  20
42.5733138852661
  30
852.417
  0
VERTEX
  8
Unknown Area Type
  70
32
  10
-5.61023886666196
  20
42.57328350775576
  30
850.071
  0
VERTEX
  8
Unknown Area Type
  70
32
  10
-5.61022902650799
  20
42.57319368247258
  30
848.708
  0
VERTEX
  8
Unknown Area Type
  70
32
  10
-5.61027012689789
  20
42.57315672571476
  30
861.46
  0
VERTEX
  8
Unknown Area Type
  70
32
  10
-5.61039165928126
  20
42.57314945271304
  30
875.304
  0
VERTEX
  8
Unknown Area Type
  70
32
  10
-5.61044166136328
  20
42.57317983015815
  30
876.427
  0
VERTEX
  8
Unknown Area Type
  70
32
  10
-5.61045150181866
  20
42.57326965541503
  30
855.759
  0
VERTEX
  8
Unknown Area Type
  70
32
  10
-5.61041040146827
  20
42.57330661223644
  30
855.623
  0
VERTEX
  8
Unknown Area Type
  70
32
  10
-5.61039841714871
  20
42.57331138792543
  30
855.391
  0
SEQEND
  8
Unknown Area Type
  0
TEXT
  8
Unknown Area Type
 62
7
  1
PNOA-H_AMS_1956-57_33k_ES_PAN_2
 40
0.00045
  10
-5.61034048320993
  20
42.57322991591968
  0
POLYLINE
  8
Unknown Area Type
  70
9
  66
1
  0
VERTEX
  8
Unknown Area Type
  70
32
  10
-5.59709768630633
  20
42.58015143679615
  30
828.974
  0
VERTEX
  8
Unknown Area Type
  70
32
  10
-5.56279468441321
  20
42.58039303519323
  30
813.666
  0
VERTEX
  8
Unknown Area Type
  70
32
  10
-5.56265450050602
  20
42.58039167011945
  30
813.496
  0
VERTEX
  8
Unknown Area Type
  70
32
  10
-5.5625678087488
  20
42.58035759033846
  30
813.464
  0
VERTEX
  8
Unknown Area Type
  70
32
  10
-5.56137803193035
  20
42.53537267438153
  30
796.895
  0
VERTEX
  8
Unknown Area Type
  70
32
  10
-5.57891450020108
  20
42.53425420384071
  30
808.073
  0
VERTEX
  8
Unknown Area Type
  70
32
  10
-5.59647446364035
  20
42.53797721188269
  30
816.593
  0
VERTEX
  8
Unknown Area Type
  70
32
  10
-5.59864488838935
  20
42.57955802635592
  30
828.385
  0
VERTEX
  8
Unknown Area Type
  70
32
  10
-5.59710967299614
  20
42.58014666244236
  30
828.976
  0
VERTEX
  8
Unknown Area Type
  70
32
  10
-5.59709768630633
  20
42.58015143679615
  30
828.974
  0
SEQEND
  8
Unknown Area Type
  0
TEXT
  8
Unknown Area Type
 62
7
  1
PNOA-H_AMS_1956-57_33k_ES_PAN_2
 40
0.00045
  10
-5.5800113616765
  20
42.55737795610658
  0
POLYLINE
  8
Unknown Area Type
  70
9
  66
1
  0
VERTEX
  8
Unknown Area Type
  70
32
  10
-5.59709768630633
  20
42.58015143679615
  30
828.974
  0
VERTEX
  8
Unknown Area Type
  70
32
  10
-5.56279468441321
  20
42.58039303519323
  30
813.666
  0
VERTEX
  8
Unknown Area Type
  70
32
  10
-5.56265450050602
  20
42.58039167011945
  30
813.496
  0
VERTEX
  8
Unknown Area Type
  70
32
  10
-5.5625678087488
  20
42.58035759033846
  30
813.464
  0
VERTEX
  8
Unknown Area Type
  70
32
  10
-5.56137803193035
  20
42.53537267438153
  30
796.895
  0
VERTEX
  8
Unknown Area Type
  70
32
  10
-5.57891450020108
  20
42.53425420384071
  30
808.073
  0
VERTEX
  8
Unknown Area Type
  70
32
  10
-5.59647446364035
  20
42.53797721188269
  30
816.593
  0
VERTEX
  8
Unknown Area Type
  70
32
  10
-5.59864488838935
  20
42.57955802635592
  30
828.385
  0
VERTEX
  8
Unknown Area Type
  70
32
  10
-5.59710967299614
  20
42.58014666244236
  30
828.976
  0
VERTEX
  8
Unknown Area Type
  70
32
  10
-5.59709768630633
  20
42.58015143679615
  30
828.974
  0
SEQEND
  8
Unknown Area Type
  0
TEXT
  8
Unknown Area Type
 62
7
  1
PNOA-H_AMS_1956-57_33k_ES_PAN_2
 40
0.00045
  10
-5.5800113616765
  20
42.55737795610658
  0
POLYLINE
  8
Unknown Area Type
  70
9
  66
1
  0
VERTEX
  8
Unknown Area Type
  70
32
  10
-5.68018023852693
  20
42.50076268252385
  30
873.325
  0
VERTEX
  8
Unknown Area Type
  70
32
  10
-5.67263715844645
  20
42.5
  30
872.095
  0
VERTEX
  8
Unknown Area Type
  70
32
  10
-5.68173253808408
  20
42.5
  30
874.002
  0
SEQEND
  8
Unknown Area Type
  0
TEXT
  8
Unknown Area Type
 62
7
  1
PNOA-H_AMS_1956-57_33k_ES_PAN_2
 40
0.00045
  10
-5.67718484826526
  20
42.50038134126193
  0
POLYLINE
  8
Unknown Area Type
  70
9
  66
1
  0
VERTEX
  8
Unknown Area Type
  70
32
  10
-5.68018023852693
  20
42.50076268252385
  30
873.325
  0
VERTEX
  8
Unknown Area Type
  70
32
  10
-5.67263715844645
  20
42.5
  30
872.095
  0
VERTEX
  8
Unknown Area Type
  70
32
  10
-5.68173253808408
  20
42.5
  30
874.002
  0
SEQEND
  8
Unknown Area Type
  0
TEXT
  8
Unknown Area Type
 62
7
  1
PNOA-H_AMS_1956-57_33k_ES_PAN_2
 40
0.00045
  10
-5.67718484826526
  20
42.50038134126193
  0
POLYLINE
  8
Unknown Area Type
  70
9
  66
1
  0
VERTEX
  8
Unknown Area Type
  70
32
  10
-5.68173253808408
  20
42.5
  30
874.002
  0
VERTEX
  8
Unknown Area Type
  70
32
  10
-5.67263715844645
  20
42.5
  30
872.095
  0
VERTEX
  8
Unknown Area Type
  70
32
  10
-5.67263551008039
  20
42.49999983333333
  30
872.095
  0
VERTEX
  8
Unknown Area Type
  70
32
  10
-5.68173287730332
  20
42.49999983333333
  30
874.002
  0
SEQEND
  8
Unknown Area Type
  0
TEXT
  8
Unknown Area Type
 62
7
  1
PNOA-H_AMS_1956-57_33k_ES_PAN_2
 40
0.00045
  10
-5.67718419369185
  20
42.49999991666667
  0
POLYLINE
  8
Unknown Area Type
  70
9
  66
1
  0
VERTEX
  8
Unknown Area Type
  70
32
  10
-5.74838529533144
  20
42.5002447780377
  30
886.72
  0
VERTEX
  8
Unknown Area Type
  70
32
  10
-5.74521276538713
  20
42.5
  30
886.014
  0
VERTEX
  8
Unknown Area Type
  70
32
  10
-5.74883228178294
  20
42.5
  30
885.141
  0
SEQEND
  8
Unknown Area Type
  0
TEXT
  8
Unknown Area Type
 62
7
  1
PNOA-H_AMS_1956-57_33k_ES_PAN_2
 40
0.00045
  10
-5.74702252358503
  20
42.50012238901886
  0
POLYLINE
  8
Unknown Area Type
  70
9
  66
1
  0
VERTEX
  8
Unknown Area Type
  70
32
  10
-5.74838529533144
  20
42.5002447780377
  30
886.72
  0
VERTEX
  8
Unknown Area Type
  70
32
  10
-5.74521276538713
  20
42.5
  30
886.014
  0
VERTEX
  8
Unknown Area Type
  70
32
  10
-5.74883228178294
  20
42.5
  30
885.141
  0
SEQEND
  8
Unknown Area Type
  0
TEXT
  8
Unknown Area Type
 62
7
  1
PNOA-H_AMS_1956-57_33k_ES_PAN_2
 40
0.00045
  10
-5.74702252358503
  20
42.50012238901886
  0
POLYLINE
  8
Unknown Area Type
  70
9
  66
1
  0
VERTEX
  8
Unknown Area Type
  70
32
  10
-5.74883228178294
  20
42.5
  30
885.141
  0
VERTEX
  8
Unknown Area Type
  70
32
  10
-5.74521276538713
  20
42.5
  30
886.014
  0
VERTEX
  8
Unknown Area Type
  70
32
  10
-5.74521060524648
  20
42.49999983333333
  30
886.013
  0
VERTEX
  8
Unknown Area Type
  70
32
  10
-5.74883258613108
  20
42.49999983333333
  30
885.14
  0
SEQEND
  8
Unknown Area Type
  0
TEXT
  8
Unknown Area Type
 62
7
  1
PNOA-H_AMS_1956-57_33k_ES_PAN_2
 40
0.00045
  10
-5.74702159568878
  20
42.49999991666667
  0
POLYLINE
  8
Unknown Area Type
  70
9
  66
1
  0
VERTEX
  8
Unknown Area Type
  70
32
  10
-5.64603375862776
  20
42.50150717321132
  30
867.925
  0
VERTEX
  8
Unknown Area Type
  70
32
  10
-5.63860000555919
  20
42.50053954478044
  30
853.927
  0
VERTEX
  8
Unknown Area Type
  70
32
  10
-5.63857569027862
  20
42.50054010497675
  30
853.868
  0
VERTEX
  8
Unknown Area Type
  70
32
  10
-5.6344282226539
  20
42.5
  30
852.211
  0
VERTEX
  8
Unknown Area Type
  70
32
  10
-5.64583333333336
  20
42.5
  30
867.983
  0
VERTEX
  8
Unknown Area Type
  70
32
  10
-5.64922830429484
  20
42.5
  30
868.373
  0
SEQEND
  8
Unknown Area Type
  0
TEXT
  8
Unknown Area Type
 62
7
  1
PNOA-H_AMS_1956-57_33k_ES_PAN_2
 40
0.00045
  10
-5.64182826347437
  20
42.50075358660565
  0
POLYLINE
  8
Unknown Area Type
  70
9
  66
1
  0
VERTEX
  8
Unknown Area Type
  70
32
  10
-5.64603375862776
  20
42.50150717321132
  30
867.925
  0
VERTEX
  8
Unknown Area Type
  70
32
  10
-5.63860000555919
  20
42.50053954478044
  30
853.927
  0
VERTEX
  8
Unknown Area Type
  70
32
  10
-5.63857569027862
  20
42.50054010497675
  30
853.868
  0
VERTEX
  8
Unknown Area Type
  70
32
  10
-5.6344282226539
  20
42.5
  30
852.211
  0
VERTEX
  8
Unknown Area Type
  70
32
  10
-5.64583333333336
  20
42.5
  30
867.983
  0
VERTEX
  8
Unknown Area Type
  70
32
  10
-5.64922830429484
  20
42.5
  30
868.373
  0
SEQEND
  8
Unknown Area Type
  0
TEXT
  8
Unknown Area Type
 62
7
  1
PNOA-H_AMS_1956-57_33k_ES_PAN_2
 40
0.00045
  10
-5.64182826347437
  20
42.50075358660565
  0
POLYLINE
  8
Unknown Area Type
  70
9
  66
1
  0
VERTEX
  8
Unknown Area Type
  70
32
  10
-5.64922830429484
  20
42.5
  30
868.373
  0
VERTEX
  8
Unknown Area Type
  70
32
  10
-5.64583333333336
  20
42.5
  30
867.983
  0
VERTEX
  8
Unknown Area Type
  70
32
  10
-5.6344282226539
  20
42.5
  30
852.211
  0
VERTEX
  8
Unknown Area Type
  70
32
  10
-5.63442694282009
  20
42.49999983333333
  30
852.211
  0
VERTEX
  8
Unknown Area Type
  70
32
  10
-5.64922865755502
  20
42.49999983333333
  30
868.373
  0
SEQEND
  8
Unknown Area Type
  0
TEXT
  8
Unknown Area Type
 62
7
  1
PNOA-H_AMS_1956-57_33k_ES_PAN_2
 40
0.00045
  10
-5.64182780018756
  20
42.49999991666667
  0
POLYLINE
  8
Unknown Area Type
  70
9
  66
1
  0
VERTEX
  8
Unknown Area Type
  70
32
  10
-5.52219920620533
  20
42.50009133557229
  30
782.344
  0
VERTEX
  8
Unknown Area Type
  70
32
  10
-5.52162185013342
  20
42.50010855075841
  30
782.404
  0
VERTEX
  8
Unknown Area Type
  70
32
  10
-5.52149418401173
  20
42.50011136140775
  30
782.636
  0
VERTEX
  8
Unknown Area Type
  70
32
  10
-5.52129005175943
  20
42.5
  30
784.294
  0
VERTEX
  8
Unknown Area Type
  70
32
  10
-5.52524354303507
  20
42.5
  30
782.689
  0
SEQEND
  8
Unknown Area Type
  0
TEXT
  8
Unknown Area Type
 62
7
  1
PNOA-H_AMS_1956-57_33k_ES_PAN_2
 40
0.00045
  10
-5.52326679739725
  20
42.50005568070387
  0
POLYLINE
  8
Unknown Area Type
  70
9
  66
1
  0
VERTEX
  8
Unknown Area Type
  70
32
  10
-5.52219920620533
  20
42.50009133557229
  30
782.344
  0
VERTEX
  8
Unknown Area Type
  70
32
  10
-5.52162185013342
  20
42.50010855075841
  30
782.404
  0
VERTEX
  8
Unknown Area Type
  70
32
  10
-5.52149418401173
  20
42.50011136140775
  30
782.636
  0
VERTEX
  8
Unknown Area Type
  70
32
  10
-5.52129005175943
  20
42.5
  30
784.294
  0
VERTEX
  8
Unknown Area Type
  70
32
  10
-5.52524354303507
  20
42.5
  30
782.689
  0
SEQEND
  8
Unknown Area Type
  0
TEXT
  8
Unknown Area Type
 62
7
  1
PNOA-H_AMS_1956-57_33k_ES_PAN_2
 40
0.00045
  10
-5.52326679739725
  20
42.50005568070387
  0
POLYLINE
  8
Unknown Area Type
  70
9
  66
1
  0
VERTEX
  8
Unknown Area Type
  70
32
  10
-5.52524354303507
  20
42.5
  30
782.689
  0
VERTEX
  8
Unknown Area Type
  70
32
  10
-5.52129005175943
  20
42.5
  30
784.294
  0
VERTEX
  8
Unknown Area Type
  70
32
  10
-5.52128974624926
  20
42.49999983333333
  30
784.296
  0
VERTEX
  8
Unknown Area Type
  70
32
  10
-5.5252490982581
  20
42.49999983333333
  30
782.69
  0
SEQEND
  8
Unknown Area Type
  0
TEXT
  8
Unknown Area Type
 62
7
  1
PNOA-H_AMS_1956-57_33k_ES_PAN_2
 40
0.00045
  10
-5.52326942225368
  20
42.49999991666667
  0
POLYLINE
  8
Unknown Area Type
  70
9
  66
1
  0
VERTEX
  8
Unknown Area Type
  70
32
  10
-5.71513375618869
  20
42.50083083288938
  30
881.915
  0
VERTEX
  8
Unknown Area Type
  70
32
  10
-5.71512179400318
  20
42.50083561898243
  30
881.916
  0
VERTEX
  8
Unknown Area Type
  70
32
  10
-5.70726931962999
  20
42.5
  30
880.254
  0
VERTEX
  8
Unknown Area Type
  70
32
  10
-5.7166928206166
  20
42.5
  30
881.729
  0
SEQEND
  8
Unknown Area Type
  0
TEXT
  8
Unknown Area Type
 62
7
  1
PNOA-H_AMS_1956-57_33k_ES_PAN_2
 40
0.00045
  10
-5.7119810701233
  20
42.50041780949121
  0
POLYLINE
  8
Unknown Area Type
  70
9
  66
1
  0
VERTEX
  8
Unknown Area Type
  70
32
  10
-5.71513375618869
  20
42.50083083288938
  30
881.915
  0
VERTEX
  8
Unknown Area Type
  70
32
  10
-5.71512179400318
  20
42.50083561898243
  30
881.916
  0
VERTEX
  8
Unknown Area Type
  70
32
  10
-5.70726931962999
  20
42.5
  30
880.254
  0
VERTEX
  8
Unknown Area Type
  70
32
  10
-5.7166928206166
  20
42.5
  30
881.729
  0
SEQEND
  8
Unknown Area Type
  0
TEXT
  8
Unknown Area Type
 62
7
  1
PNOA-H_AMS_1956-57_33k_ES_PAN_2
 40
0.00045
  10
-5.7119810701233
  20
42.50041780949121
  0
POLYLINE
  8
Unknown Area Type
  70
9
  66
1
  0
VERTEX
  8
Unknown Area Type
  70
32
  10
-5.7166928206166
  20
42.5
  30
881.729
  0
VERTEX
  8
Unknown Area Type
  70
32
  10
-5.70726931962999
  20
42.5
  30
880.254
  0
VERTEX
  8
Unknown Area Type
  70
32
  10
-5.70726775343085
  20
42.49999983333333
  30
880.253
  0
VERTEX
  8
Unknown Area Type
  70
32
  10
-5.71669313336791
  20
42.49999983333333
  30
881.729
  0
SEQEND
  8
Unknown Area Type
  0
TEXT
  8
Unknown Area Type
 62
7
  1
PNOA-H_AMS_1956-57_33k_ES_PAN_2
 40
0.00045
  10
-5.71198044339938
  20
42.49999991666667
  0
POLYLINE
  8
Unknown Area Type
  70
9
  66
1
  0
VERTEX
  8
Unknown Area Type
  70
32
  10
-5.85416666666668
  20
42.6666666666667
  30
930.95
  0
VERTEX
  8
Unknown Area Type
  70
32
  10
-5.8531616791034
  20
42.6666666666667
  30
932.074
  0
VERTEX
  8
Unknown Area Type
  70
32
  10
-5.85402819773141
  20
42.66392068311717
  30
921.367
  0
VERTEX
  8
Unknown Area Type
  70
32
  10
-5.85416666666668
  20
42.66392044120137
  30
922.009
  0
SEQEND
  8
Unknown Area Type
  0
TEXT
  8
Unknown Area Type
 62
7
  1
PNOA-H_AMS_1956-57_33k_ES_PAN_2
 40
0.00045
  10
-5.85366417288504
  20
42.66529355393403
  0
POLYLINE
  8
Unknown Area Type
  70
9
  66
1
  0
VERTEX
  8
Unknown Area Type
  70
32
  10
-5.85416700000001
  20
42.6666666666667
  30
930.949
  0
VERTEX
  8
Unknown Area Type
  70
32
  10
-5.85416666666668
  20
42.6666666666667
  30
930.95
  0
VERTEX
  8
Unknown Area Type
  70
32
  10
-5.85416666666668
  20
42.66392044120137
  30
922.009
  0
VERTEX
  8
Unknown Area Type
  70
32
  10
-5.85416700000001
  20
42.66392044061901
  30
922.011
  0
SEQEND
  8
Unknown Area Type
  0
TEXT
  8
Unknown Area Type
 62
7
  1
PNOA-H_AMS_1956-57_33k_ES_PAN_2
 40
0.00045
  10
-5.85416683333334
  20
42.66529355364285
  0
POLYLINE
  8
Unknown Area Type
  70
9
  66
1
  0
VERTEX
  8
Unknown Area Type
  70
32
  10
-5.85416666666668
  20
42.6666666666667
  30
930.95
  0
VERTEX
  8
Unknown Area Type
  70
32
  10
-5.8531616791034
  20
42.6666666666667
  30
932.074
  0
VERTEX
  8
Unknown Area Type
  70
32
  10
-5.85402819773141
  20
42.66392068311717
  30
921.367
  0
VERTEX
  8
Unknown Area Type
  70
32
  10
-5.85416666666668
  20
42.66392044120137
  30
922.009
  0
SEQEND
  8
Unknown Area Type
  0
TEXT
  8
Unknown Area Type
 62
7
  1
PNOA-H_AMS_1956-57_33k_ES_PAN_2
 40
0.00045
  10
-5.85366417288504
  20
42.66529355393403
  0
POLYLINE
  8
Unknown Area Type
  70
9
  66
1
  0
VERTEX
  8
Unknown Area Type
  70
32
  10
-5.85416700000001
  20
42.66666683333337
  30
930.95
  0
VERTEX
  8
Unknown Area Type
  70
32
  10
-5.85416666666668
  20
42.66666683333337
  30
930.95
  0
VERTEX
  8
Unknown Area Type
  70
32
  10
-5.85416666666668
  20
42.6666666666667
  30
930.95
  0
VERTEX
  8
Unknown Area Type
  70
32
  10
-5.85416700000001
  20
42.6666666666667
  30
930.949
  0
SEQEND
  8
Unknown Area Type
  0
TEXT
  8
Unknown Area Type
 62
7
  1
PNOA-H_AMS_1956-57_33k_ES_PAN_2
 40
0.00045
  10
-5.85416683333334
  20
42.66666675000003
  0
POLYLINE
  8
Unknown Area Type
  70
9
  66
1
  0
VERTEX
  8
Unknown Area Type
  70
32
  10
-5.85416666666668
  20
42.66666683333337
  30
930.95
  0
VERTEX
  8
Unknown Area Type
  70
32
  10
-5.85316162651031
  20
42.66666683333337
  30
932.075
  0
VERTEX
  8
Unknown Area Type
  70
32
  10
-5.8531616791034
  20
42.6666666666667
  30
932.074
  0
VERTEX
  8
Unknown Area Type
  70
32
  10
-5.85416666666668
  20
42.6666666666667
  30
930.95
  0
SEQEND
  8
Unknown Area Type
  0
TEXT
  8
Unknown Area Type
 62
7
  1
PNOA-H_AMS_1956-57_33k_ES_PAN_2
 40
0.00045
  10
-5.85366414658849
  20
42.66666675000003
  0
POLYLINE
  8
Unknown Area Type
  70
9
  66
1
  0
VERTEX
  8
Unknown Area Type
  70
32
  10
-5.83058449122662
  20
42.6666666666667
  30
926.131
  0
VERTEX
  8
Unknown Area Type
  70
32
  10
-5.81453020738992
  20
42.6666666666667
  30
980.747
  0
VERTEX
  8
Unknown Area Type
  70
32
  10
-5.81448013591481
  20
42.66234261296608
  30
987.652
  0
VERTEX
  8
Unknown Area Type
  70
32
  10
-5.83000728749317
  20
42.66210834892231
  30
907.273
  0
SEQEND
  8
Unknown Area Type
  0
TEXT
  8
Unknown Area Type
 62
7
  1
PNOA-H_AMS_1956-57_33k_ES_PAN_2
 40
0.00045
  10
-5.82253231357072
  20
42.6643875077945
  0
POLYLINE
  8
Unknown Area Type
  70
9
  66
1
  0
VERTEX
  8
Unknown Area Type
  70
32
  10
-5.83058449122662
  20
42.6666666666667
  30
926.131
  0
VERTEX
  8
Unknown Area Type
  70
32
  10
-5.81453020738992
  20
42.6666666666667
  30
980.747
  0
VERTEX
  8
Unknown Area Type
  70
32
  10
-5.81448013591481
  20
42.66234261296608
  30
987.652
  0
VERTEX
  8
Unknown Area Type
  70
32
  10
-5.83000728749317
  20
42.66210834892231
  30
907.273
  0
SEQEND
  8
Unknown Area Type
  0
TEXT
  8
Unknown Area Type
 62
7
  1
PNOA-H_AMS_1956-57_33k_ES_PAN_2
 40
0.00045
  10
-5.82253231357072
  20
42.6643875077945
  0
POLYLINE
  8
Unknown Area Type
  70
9
  66
1
  0
VERTEX
  8
Unknown Area Type
  70
32
  10
-5.83058451233104
  20
42.66666683333337
  30
926.132
  0
VERTEX
  8
Unknown Area Type
  70
32
  10
-5.81453020931988
  20
42.66666683333337
  30
980.747
  0
VERTEX
  8
Unknown Area Type
  70
32
  10
-5.81453020738992
  20
42.6666666666667
  30
980.747
  0
VERTEX
  8
Unknown Area Type
  70
32
  10
-5.83058449122662
  20
42.6666666666667
  30
926.131
  0
SEQEND
  8
Unknown Area Type
  0
TEXT
  8
Unknown Area Type
 62
7
  1
PNOA-H_AMS_1956-57_33k_ES_PAN_2
 40
0.00045
  10
-5.82255735986048
  20
42.66666675000003
  0
POLYLINE
  8
Unknown Area Type
  70
9
  66
1
  0
VERTEX
  8
Unknown Area Type
  70
32
  10
-5.61255288999804
  20
42.53196989746055
  30
836.491
  0
VERTEX
  8
Unknown Area Type
  70
32
  10
-5.61254774601569
  20
42.53199252733629
  30
836.401
  0
VERTEX
  8
Unknown Area Type
  70
32
  10
-5.59386972220817
  20
42.5
  30
819.82
  0
VERTEX
  8
Unknown Area Type
  70
32
  10
-5.60416666666664
  20
42.5
  30
830.583
  0
VERTEX
  8
Unknown Area Type
  70
32
  10
-5.62495216814675
  20
42.5
  30
848.178
  0
SEQEND
  8
Unknown Area Type
  0
TEXT
  8
Unknown Area Type
 62
7
  1
PNOA-H_AMS_1956-57_33k_ES_PAN_2
 40
0.00045
  10
-5.60932040840004
  20
42.51188637172309
  0
POLYLINE
  8
Unknown Area Type
  70
9
  66
1
  0
VERTEX
  8
Unknown Area Type
  70
32
  10
-5.61255288999804
  20
42.53196989746055
  30
836.491
  0
VERTEX
  8
Unknown Area Type
  70
32
  10
-5.61254774601569
  20
42.53199252733629
  30
836.401
  0
VERTEX
  8
Unknown Area Type
  70
32
  10
-5.59386972220817
  20
42.5
  30
819.82
  0
VERTEX
  8
Unknown Area Type
  70
32
  10
-5.60416666666664
  20
42.5
  30
830.583
  0
VERTEX
  8
Unknown Area Type
  70
32
  10
-5.62495216814675
  20
42.5
  30
848.178
  0
SEQEND
  8
Unknown Area Type
  0
TEXT
  8
Unknown Area Type
 62
7
  1
PNOA-H_AMS_1956-57_33k_ES_PAN_2
 40
0.00045
  10
-5.60932040840004
  20
42.51188637172309
  0
POLYLINE
  8
Unknown Area Type
  70
9
  66
1
  0
VERTEX
  8
Unknown Area Type
  70
32
  10
-5.62495216814675
  20
42.5
  30
848.178
  0
VERTEX
  8
Unknown Area Type
  70
32
  10
-5.60416666666664
  20
42.5
  30
830.583
  0
VERTEX
  8
Unknown Area Type
  70
32
  10
-5.59386972220817
  20
42.5
  30
819.82
  0
VERTEX
  8
Unknown Area Type
  70
32
  10
-5.59386962490407
  20
42.49999983333333
  30
819.82
  0
VERTEX
  8
Unknown Area Type
  70
32
  10
-5.62495223278713
  20
42.49999983333333
  30
848.178
  0
SEQEND
  8
Unknown Area Type
  0
TEXT
  8
Unknown Area Type
 62
7
  1
PNOA-H_AMS_1956-57_33k_ES_PAN_2
 40
0.00045
  10
-5.6094109288456
  20
42.49999991666667
  0
POLYLINE
  8
Unknown Area Type
  70
9
  66
1
  0
VERTEX
  8
Unknown Area Type
  70
32
  10
-5.57890233544512
  20
42.53425447778206
  30
808.078
  0
VERTEX
  8
Unknown Area Type
  70
32
  10
-5.56136586678985
  20
42.53537294646706
  30
796.892
  0
VERTEX
  8
Unknown Area Type
  70
32
  10
-5.55870496923444
  20
42.53432030664098
  30
796.557
  0
VERTEX
  8
Unknown Area Type
  70
32
  10
-5.55667007270385
  20
42.51130830784706
  30
789.297
  0
VERTEX
  8
Unknown Area Type
  70
32
  10
-5.55666566967897
  20
42.51120034529076
  30
789.53
  0
VERTEX
  8
Unknown Area Type
  70
32
  10
-5.55567297160735
  20
42.5
  30
786.27
  0
VERTEX
  8
Unknown Area Type
  70
32
  10
-5.56250000000001
  20
42.5
  30
791.114
  0
VERTEX
  8
Unknown Area Type
  70
32
  10
-5.58909099166467
  20
42.5
  30
810.634
  0
SEQEND
  8
Unknown Area Type
  0
TEXT
  8
Unknown Area Type
 62
7
  1
PNOA-H_AMS_1956-57_33k_ES_PAN_2
 40
0.00045
  10
-5.57263272774575
  20
42.51668811194371
  0
POLYLINE
  8
Unknown Area Type
  70
9
  66
1
  0
VERTEX
  8
Unknown Area Type
  70
32
  10
-5.57890233544512
  20
42.53425447778206
  30
808.078
  0
VERTEX
  8
Unknown Area Type
  70
32
  10
-5.56136586678985
  20
42.53537294646706
  30
796.892
  0
VERTEX
  8
Unknown Area Type
  70
32
  10
-5.55870496923444
  20
42.53432030664098
  30
796.557
  0
VERTEX
  8
Unknown Area Type
  70
32
  10
-5.55667007270385
  20
42.51130830784706
  30
789.297
  0
VERTEX
  8
Unknown Area Type
  70
32
  10
-5.55666566967897
  20
42.51120034529076
  30
789.53
  0
VERTEX
  8
Unknown Area Type
  70
32
  10
-5.55567297160735
  20
42.5
  30
786.27
  0
VERTEX
  8
Unknown Area Type
  70
32
  10
-5.56250000000001
  20
42.5
  30
791.114
  0
VERTEX
  8
Unknown Area Type
  70
32
  10
-5.58909099166467
  20
42.5
  30
810.634
  0
SEQEND
  8
Unknown Area Type
  0
TEXT
  8
Unknown Area Type
 62
7
  1
PNOA-H_AMS_1956-57_33k_ES_PAN_2
 40
0.00045
  10
-5.57263272774575
  20
42.51668811194371
  0
POLYLINE
  8
Unknown Area Type
  70
9
  66
1
  0
VERTEX
  8
Unknown Area Type
  70
32
  10
-5.58909099166467
  20
42.5
  30
810.634
  0
VERTEX
  8
Unknown Area Type
  70
32
  10
-5.56250000000001
  20
42.5
  30
791.114
  0
VERTEX
  8
Unknown Area Type
  70
32
  10
-5.55567297160735
  20
42.5
  30
786.27
  0
VERTEX
  8
Unknown Area Type
  70
32
  10
-5.55567295683551
  20
42.49999983333333
  30
786.27
  0
VERTEX
  8
Unknown Area Type
  70
32
  10
-5.58909104123803
  20
42.49999983333333
  30
810.634
  0
SEQEND
  8
Unknown Area Type
  0
TEXT
  8
Unknown Area Type
 62
7
  1
PNOA-H_AMS_1956-57_33k_ES_PAN_2
 40
0.00045
  10
-5.57238199903677
  20
42.49999991666667
  0
POLYLINE
  8
Unknown Area Type
  70
9
  66
1
  0
VERTEX
  8
Unknown Area Type
  70
32
  10
-5.55870496923444
  20
42.53432030664098
  30
796.557
  0
VERTEX
  8
Unknown Area Type
  70
32
  10
-5.52698241705663
  20
42.53648799449137
  30
840.616
  0
VERTEX
  8
Unknown Area Type
  70
32
  10
-5.52687919023663
  20
42.5364947747127
  30
841.529
  0
VERTEX
  8
Unknown Area Type
  70
32
  10
-5.52684269318291
  20
42.5364955799955
  30
841.926
  0
VERTEX
  8
Unknown Area Type
  70
32
  10
-5.52321888190811
  20
42.53510315169924
  30
874.933
  0
VERTEX
  8
Unknown Area Type
  70
32
  10
-5.52149418401173
  20
42.50011136140775
  30
782.636
  0
VERTEX
  8
Unknown Area Type
  70
32
  10
-5.52521042841728
  20
42.5
  30
783.016
  0
VERTEX
  8
Unknown Area Type
  70
32
  10
-5.55567900965362
  20
42.5
  30
786.273
  0
SEQEND
  8
Unknown Area Type
  0
TEXT
  8
Unknown Area Type
 62
7
  1
PNOA-H_AMS_1956-57_33k_ES_PAN_2
 40
0.00045
  10
-5.54009962414011
  20
42.51757112506995
  0
POLYLINE
  8
Unknown Area Type
  70
9
  66
1
  0
VERTEX
  8
Unknown Area Type
  70
32
  10
-5.55870496923444
  20
42.53432030664098
  30
796.557
  0
VERTEX
  8
Unknown Area Type
  70
32
  10
-5.52698241705663
  20
42.53648799449137
  30
840.616
  0
VERTEX
  8
Unknown Area Type
  70
32
  10
-5.52687919023663
  20
42.5364947747127
  30
841.529
  0
VERTEX
  8
Unknown Area Type
  70
32
  10
-5.52684269318291
  20
42.5364955799955
  30
841.926
  0
VERTEX
  8
Unknown Area Type
  70
32
  10
-5.52321888190811
  20
42.53510315169924
  30
874.933
  0
VERTEX
  8
Unknown Area Type
  70
32
  10
-5.52149418401173
  20
42.50011136140775
  30
782.636
  0
VERTEX
  8
Unknown Area Type
  70
32
  10
-5.52521042841728
  20
42.5
  30
783.016
  0
VERTEX
  8
Unknown Area Type
  70
32
  10
-5.55567900965362
  20
42.5
  30
786.273
  0
SEQEND
  8
Unknown Area Type
  0
TEXT
  8
Unknown Area Type
 62
7
  1
PNOA-H_AMS_1956-57_33k_ES_PAN_2
 40
0.00045
  10
-5.54009962414011
  20
42.51757112506995
  0
POLYLINE
  8
Unknown Area Type
  70
9
  66
1
  0
VERTEX
  8
Unknown Area Type
  70
32
  10
-5.55567900965362
  20
42.5
  30
786.273
  0
VERTEX
  8
Unknown Area Type
  70
32
  10
-5.52521042841728
  20
42.5
  30
783.016
  0
VERTEX
  8
Unknown Area Type
  70
32
  10
-5.52521599025481
  20
42.49999983333333
  30
783.016
  0
VERTEX
  8
Unknown Area Type
  70
32
  10
-5.55567899495892
  20
42.49999983333333
  30
786.273
  0
SEQEND
  8
Unknown Area Type
  0
TEXT
  8
Unknown Area Type
 62
7
  1
PNOA-H_AMS_1956-57_33k_ES_PAN_2
 40
0.00045
  10
-5.54044471903545
  20
42.49999991666667
  0
POLYLINE
  8
Unknown Area Type
  70
9
  66
1
  0
VERTEX
  8
Unknown Area Type
  70
32
  10
-5.52321888190811
  20
42.53510315169924
  30
874.933
  0
VERTEX
  8
Unknown Area Type
  70
32
  10
-5.52083333333329
  20
42.53527180904274
  30
862.649
  0
VERTEX
  8
Unknown Area Type
  70
32
  10
-5.52083333333329
  20
42.52083333333331
  30
837.085
  0
VERTEX
  8
Unknown Area Type
  70
32
  10
-5.52083333333329
  20
42.5
  30
787.11
  0
VERTEX
  8
Unknown Area Type
  70
32
  10
-5.52129850779166
  20
42.5
  30
784.224
  0
VERTEX
  8
Unknown Area Type
  70
32
  10
-5.52149400314523
  20
42.50010686283643
  30
782.648
  0
SEQEND
  8
Unknown Area Type
  0
TEXT
  8
Unknown Area Type
 62
7
  1
PNOA-H_AMS_1956-57_33k_ES_PAN_2
 40
0.00045
  10
-5.5220261076207
  20
42.51763590452137
  0
POLYLINE
  8
Unknown Area Type
  70
9
  66
1
  0
VERTEX
  8
Unknown Area Type
  70
32
  10
-5.52321888190811
  20
42.53510315169924
  30
874.933
  0
VERTEX
  8
Unknown Area Type
  70
32
  10
-5.52083333333329
  20
42.53527180904274
  30
862.649
  0
VERTEX
  8
Unknown Area Type
  70
32
  10
-5.52083333333329
  20
42.52083333333331
  30
837.085
  0
VERTEX
  8
Unknown Area Type
  70
32
  10
-5.52083333333329
  20
42.5
  30
787.11
  0
VERTEX
  8
Unknown Area Type
  70
32
  10
-5.52129850779166
  20
42.5
  30
784.224
  0
VERTEX
  8
Unknown Area Type
  70
32
  10
-5.52149400314523
  20
42.50010686283643
  30
782.648
  0
SEQEND
  8
Unknown Area Type
  0
TEXT
  8
Unknown Area Type
 62
7
  1
PNOA-H_AMS_1956-57_33k_ES_PAN_2
 40
0.00045
  10
-5.5220261076207
  20
42.51763590452137
  0
POLYLINE
  8
Unknown Area Type
  70
9
  66
1
  0
VERTEX
  8
Unknown Area Type
  70
32
  10
-5.52083333333329
  20
42.52083333333331
  30
837.085
  0
VERTEX
  8
Unknown Area Type
  70
32
  10
-5.52083333333329
  20
42.53527180904274
  30
862.649
  0
VERTEX
  8
Unknown Area Type
  70
32
  10
-5.52083299999996
  20
42.53527183260928
  30
862.647
  0
VERTEX
  8
Unknown Area Type
  70
32
  10
-5.52083299999996
  20
42.5
  30
787.112
  0
VERTEX
  8
Unknown Area Type
  70
32
  10
-5.52083333333329
  20
42.5
  30
787.11
  0
SEQEND
  8
Unknown Area Type
  0
TEXT
  8
Unknown Area Type
 62
7
  1
PNOA-H_AMS_1956-57_33k_ES_PAN_2
 40
0.00045
  10
-5.52083316666663
  20
42.51763591630464
  0
POLYLINE
  8
Unknown Area Type
  70
9
  66
1
  0
VERTEX
  8
Unknown Area Type
  70
32
  10
-5.52129850779166
  20
42.5
  30
784.224
  0
VERTEX
  8
Unknown Area Type
  70
32
  10
-5.52083333333329
  20
42.5
  30
787.11
  0
VERTEX
  8
Unknown Area Type
  70
32
  10
-5.52083333333329
  20
42.49999983333333
  30
787.111
  0
VERTEX
  8
Unknown Area Type
  70
32
  10
-5.52129820289091
  20
42.49999983333333
  30
784.226
  0
SEQEND
  8
Unknown Area Type
  0
TEXT
  8
Unknown Area Type
 62
7
  1
PNOA-H_AMS_1956-57_33k_ES_PAN_2
 40
0.00045
  10
-5.52106592056248
  20
42.49999991666667
  0
POLYLINE
  8
Unknown Area Type
  70
9
  66
1
  0
VERTEX
  8
Unknown Area Type
  70
32
  10
-5.52083333333329
  20
42.5
  30
787.11
  0
VERTEX
  8
Unknown Area Type
  70
32
  10
-5.52083299999996
  20
42.5
  30
787.112
  0
VERTEX
  8
Unknown Area Type
  70
32
  10
-5.52083299999996
  20
42.49999983333333
  30
787.113
  0
VERTEX
  8
Unknown Area Type
  70
32
  10
-5.52083333333329
  20
42.49999983333333
  30
787.111
  0
SEQEND
  8
Unknown Area Type
  0
TEXT
  8
Unknown Area Type
 62
7
  1
PNOA-H_AMS_1956-57_33k_ES_PAN_2
 40
0.00045
  10
-5.52083316666663
  20
42.49999991666667
  0
POLYLINE
  8
Unknown Area Type
  70
9
  66
1
  0
VERTEX
  8
Unknown Area Type
  70
32
  10
-5.58574361232707
  20
42.6666666666667
  30
960.402
  0
VERTEX
  8
Unknown Area Type
  70
32
  10
-5.57142963905769
  20
42.6666666666667
  30
908.783
  0
VERTEX
  8
Unknown Area Type
  70
32
  10
-5.56933842909032
  20
42.64012922760036
  30
905.511
  0
VERTEX
  8
Unknown Area Type
  70
32
  10
-5.56933361388313
  20
42.64001227196139
  30
904.814
  0
VERTEX
  8
Unknown Area Type
  70
32
  10
-5.56842806379867
  20
42.62852882088434
  30
862.02
  0
VERTEX
  8
Unknown Area Type
  70
32
  10
-5.58920886250892
  20
42.62768253811269
  30
909.193
  0
SEQEND
  8
Unknown Area Type
  0
TEXT
  8
Unknown Area Type
 62
7
  1
PNOA-H_AMS_1956-57_33k_ES_PAN_2
 40
0.00045
  10
-5.57881851186076
  20
42.64951183966852
  0
POLYLINE
  8
Unknown Area Type
  70
9
  66
1
  0
VERTEX
  8
Unknown Area Type
  70
32
  10
-5.58574361232707
  20
42.6666666666667
  30
960.402
  0
VERTEX
  8
Unknown Area Type
  70
32
  10
-5.57142963905769
  20
42.6666666666667
  30
908.783
  0
VERTEX
  8
Unknown Area Type
  70
32
  10
-5.56933842909032
  20
42.64012922760036
  30
905.511
  0
VERTEX
  8
Unknown Area Type
  70
32
  10
-5.56933361388313
  20
42.64001227196139
  30
904.814
  0
VERTEX
  8
Unknown Area Type
  70
32
  10
-5.56842806379867
  20
42.62852882088434
  30
862.02
  0
VERTEX
  8
Unknown Area Type
  70
32
  10
-5.58920886250892
  20
42.62768253811269
  30
909.193
  0
SEQEND
  8
Unknown Area Type
  0
TEXT
  8
Unknown Area Type
 62
7
  1
PNOA-H_AMS_1956-57_33k_ES_PAN_2
 40
0.00045
  10
-5.57881851186076
  20
42.64951183966852
  0
POLYLINE
  8
Unknown Area Type
  70
9
  66
1
  0
VERTEX
  8
Unknown Area Type
  70
32
  10
-5.58574359751228
  20
42.66666683333337
  30
960.402
  0
VERTEX
  8
Unknown Area Type
  70
32
  10
-5.5714296521914
  20
42.66666683333337
  30
908.783
  0
VERTEX
  8
Unknown Area Type
  70
32
  10
-5.57142963905769
  20
42.6666666666667
  30
908.783
  0
VERTEX
  8
Unknown Area Type
  70
32
  10
-5.58574361232707
  20
42.6666666666667
  30
960.402
  0
SEQEND
  8
Unknown Area Type
  0
TEXT
  8
Unknown Area Type
 62
7
  1
PNOA-H_AMS_1956-57_33k_ES_PAN_2
 40
0.00045
  10
-5.57858662569238
  20
42.66666675000003
  0
POLYLINE
  8
Unknown Area Type
  70
9
  66
1
  0
VERTEX
  8
Unknown Area Type
  70
32
  10
-5.82032028748951
  20
42.66225289234308
  30
904.942
  0
VERTEX
  8
Unknown Area Type
  70
32
  10
-5.8144740422491
  20
42.66234276279915
  30
987.897
  0
VERTEX
  8
Unknown Area Type
  70
32
  10
-5.80714229645154
  20
42.65978986759302
  30
1008.718
  0
VERTEX
  8
Unknown Area Type
  70
32
  10
-5.80677615654913
  20
42.62589595779092
  30
891.281
  0
VERTEX
  8
Unknown Area Type
  70
32
  10
-5.83161489231659
  20
42.62267287143673
  30
888.65
  0
VERTEX
  8
Unknown Area Type
  70
32
  10
-5.83170096408303
  20
42.62268875188719
  30
888.798
  0
VERTEX
  8
Unknown Area Type
  70
32
  10
-5.8429408147141
  20
42.62585448347053
  30
895.602
  0
VERTEX
  8
Unknown Area Type
  70
32
  10
-5.84176026719135
  20
42.65937688569451
  30
913.084
  0
VERTEX
  8
Unknown Area Type
  70
32
  10
-5.84174910552227
  20
42.659399674576
  30
912.869
  0
VERTEX
  8
Unknown Area Type
  70
32
  10
-5.8300133810544
  20
42.66210819826363
  30
907.289
  0
VERTEX
  8
Unknown Area Type
  70
32
  10
-5.8204299727554
  20
42.66225018970508
  30
904.111
  0
VERTEX
  8
Unknown Area Type
  70
32
  10
-5.82032028748951
  20
42.66225289234308
  30
904.942
  0
SEQEND
  8
Unknown Area Type
  0
TEXT
  8
Unknown Area Type
 62
7
  1
PNOA-H_AMS_1956-57_33k_ES_PAN_2
 40
0.00045
  10
-5.82485848672932
  20
42.64286521848295
  0
POLYLINE
  8
Unknown Area Type
  70
9
  66
1
  0
VERTEX
  8
Unknown Area Type
  70
32
  10
-5.82032028748951
  20
42.66225289234308
  30
904.942
  0
VERTEX
  8
Unknown Area Type
  70
32
  10
-5.8144740422491
  20
42.66234276279915
  30
987.897
  0
VERTEX
  8
Unknown Area Type
  70
32
  10
-5.80714229645154
  20
42.65978986759302
  30
1008.718
  0
VERTEX
  8
Unknown Area Type
  70
32
  10
-5.80677615654913
  20
42.62589595779092
  30
891.281
  0
VERTEX
  8
Unknown Area Type
  70
32
  10
-5.83161489231659
  20
42.62267287143673
  30
888.65
  0
VERTEX
  8
Unknown Area Type
  70
32
  10
-5.83170096408303
  20
42.62268875188719
  30
888.798
  0
VERTEX
  8
Unknown Area Type
  70
32
  10
-5.8429408147141
  20
42.62585448347053
  30
895.602
  0
VERTEX
  8
Unknown Area Type
  70
32
  10
-5.84176026719135
  20
42.65937688569451
  30
913.084
  0
VERTEX
  8
Unknown Area Type
  70
32
  10
-5.84174910552227
  20
42.659399674576
  30
912.869
  0
VERTEX
  8
Unknown Area Type
  70
32
  10
-5.8300133810544
  20
42.66210819826363
  30
907.289
  0
VERTEX
  8
Unknown Area Type
  70
32
  10
-5.8204299727554
  20
42.66225018970508
  30
904.111
  0
VERTEX
  8
Unknown Area Type
  70
32
  10
-5.82032028748951
  20
42.66225289234308
  30
904.942
  0
SEQEND
  8
Unknown Area Type
  0
TEXT
  8
Unknown Area Type
 62
7
  1
PNOA-H_AMS_1956-57_33k_ES_PAN_2
 40
0.00045
  10
-5.82485848672932
  20
42.64286521848295
  0
POLYLINE
  8
Unknown Area Type
  70
9
  66
1
  0
VERTEX
  8
Unknown Area Type
  70
32
  10
-5.65184015825055
  20
42.6666666666667
  30
946.805
  0
VERTEX
  8
Unknown Area Type
  70
32
  10
-5.64583333333336
  20
42.6666666666667
  30
921.751
  0
VERTEX
  8
Unknown Area Type
  70
32
  10
-5.64023146761744
  20
42.6666666666667
  30
906.792
  0
VERTEX
  8
Unknown Area Type
  70
32
  10
-5.63697198607883
  20
42.62735329629164
  30
891.712
  0
VERTEX
  8
Unknown Area Type
  70
32
  10
-5.66095804521914
  20
42.62621299165173
  30
944.179
  0
SEQEND
  8
Unknown Area Type
  0
TEXT
  8
Unknown Area Type
 62
7
  1
PNOA-H_AMS_1956-57_33k_ES_PAN_2
 40
0.00045
  10
-5.64896505794201
  20
42.64779745288677
  0
POLYLINE
  8
Unknown Area Type
  70
9
  66
1
  0
VERTEX
  8
Unknown Area Type
  70
32
  10
-5.65184015825055
  20
42.6666666666667
  30
946.805
  0
VERTEX
  8
Unknown Area Type
  70
32
  10
-5.64583333333336
  20
42.6666666666667
  30
921.751
  0
VERTEX
  8
Unknown Area Type
  70
32
  10
-5.64023146761744
  20
42.6666666666667
  30
906.792
  0
VERTEX
  8
Unknown Area Type
  70
32
  10
-5.63697198607883
  20
42.62735329629164
  30
891.712
  0
VERTEX
  8
Unknown Area Type
  70
32
  10
-5.66095804521914
  20
42.62621299165173
  30
944.179
  0
SEQEND
  8
Unknown Area Type
  0
TEXT
  8
Unknown Area Type
 62
7
  1
PNOA-H_AMS_1956-57_33k_ES_PAN_2
 40
0.00045
  10
-5.64896505794201
  20
42.64779745288677
  0
POLYLINE
  8
Unknown Area Type
  70
9
  66
1
  0
VERTEX
  8
Unknown Area Type
  70
32
  10
-5.65184012068541
  20
42.66666683333337
  30
946.805
  0
VERTEX
  8
Unknown Area Type
  70
32
  10
-5.64023148143582
  20
42.66666683333337
  30
906.792
  0
VERTEX
  8
Unknown Area Type
  70
32
  10
-5.64023146761744
  20
42.6666666666667
  30
906.792
  0
VERTEX
  8
Unknown Area Type
  70
32
  10
-5.64583333333336
  20
42.6666666666667
  30
921.751
  0
VERTEX
  8
Unknown Area Type
  70
32
  10
-5.65184015825055
  20
42.6666666666667
  30
946.805
  0
SEQEND
  8
Unknown Area Type
  0
TEXT
  8
Unknown Area Type
 62
7
  1
PNOA-H_AMS_1956-57_33k_ES_PAN_2
 40
0.00045
  10
-5.646035812934
  20
42.66666675000003
  0
POLYLINE
  8
Unknown Area Type
  70
9
  66
1
  0
VERTEX
  8
Unknown Area Type
  70
32
  10
-5.78501531497428
  20
42.66508036845904
  30
1070.778
  0
VERTEX
  8
Unknown Area Type
  70
32
  10
-5.77181606676909
  20
42.66074980066349
  30
1067.269
  0
VERTEX
  8
Unknown Area Type
  70
32
  10
-5.77170151913284
  20
42.62577353357341
  30
1022.919
  0
VERTEX
  8
Unknown Area Type
  70
32
  10
-5.79799224180655
  20
42.62307637807948
  30
943.788
  0
VERTEX
  8
Unknown Area Type
  70
32
  10
-5.80677615654913
  20
42.62589595779092
  30
891.281
  0
VERTEX
  8
Unknown Area Type
  70
32
  10
-5.80714209398348
  20
42.659785370193
  30
1008.839
  0
VERTEX
  8
Unknown Area Type
  70
32
  10
-5.78503339632211
  20
42.66507542615638
  30
1070.508
  0
VERTEX
  8
Unknown Area Type
  70
32
  10
-5.78501531497428
  20
42.66508036845904
  30
1070.778
  0
SEQEND
  8
Unknown Area Type
  0
TEXT
  8
Unknown Area Type
 62
7
  1
PNOA-H_AMS_1956-57_33k_ES_PAN_2
 40
0.00045
  10
-5.78942202869707
  20
42.64398900198361
  0
POLYLINE
  8
Unknown Area Type
  70
9
  66
1
  0
VERTEX
  8
Unknown Area Type
  70
32
  10
-5.78501531497428
  20
42.66508036845904
  30
1070.778
  0
VERTEX
  8
Unknown Area Type
  70
32
  10
-5.77181606676909
  20
42.66074980066349
  30
1067.269
  0
VERTEX
  8
Unknown Area Type
  70
32
  10
-5.77170151913284
  20
42.62577353357341
  30
1022.919
  0
VERTEX
  8
Unknown Area Type
  70
32
  10
-5.79799224180655
  20
42.62307637807948
  30
943.788
  0
VERTEX
  8
Unknown Area Type
  70
32
  10
-5.80677615654913
  20
42.62589595779092
  30
891.281
  0
VERTEX
  8
Unknown Area Type
  70
32
  10
-5.80714209398348
  20
42.659785370193
  30
1008.839
  0
VERTEX
  8
Unknown Area Type
  70
32
  10
-5.78503339632211
  20
42.66507542615638
  30
1070.508
  0
VERTEX
  8
Unknown Area Type
  70
32
  10
-5.78501531497428
  20
42.66508036845904
  30
1070.778
  0
SEQEND
  8
Unknown Area Type
  0
TEXT
  8
Unknown Area Type
 62
7
  1
PNOA-H_AMS_1956-57_33k_ES_PAN_2
 40
0.00045
  10
-5.78942202869707
  20
42.64398900198361
  0
POLYLINE
  8
Unknown Area Type
  70
9
  66
1
  0
VERTEX
  8
Unknown Area Type
  70
32
  10
-5.85416666666668
  20
42.62499999999998
  30
915.598
  0
VERTEX
  8
Unknown Area Type
  70
32
  10
-5.85416666666668
  20
42.64583333333339
  30
905.705
  0
VERTEX
  8
Unknown Area Type
  70
32
  10
-5.85416666666668
  20
42.6639240116771
  30
921.99
  0
VERTEX
  8
Unknown Area Type
  70
32
  10
-5.85405887166561
  20
42.66392442062035
  30
921.491
  0
VERTEX
  8
Unknown Area Type
  70
32
  10
-5.85396013864667
  20
42.66389986837959
  30
921.212
  0
VERTEX
  8
Unknown Area Type
  70
32
  10
-5.84175499379729
  20
42.65939502603441
  30
912.928
  0
VERTEX
  8
Unknown Area Type
  70
32
  10
-5.8429408147141
  20
42.62585448347053
  30
895.602
  0
VERTEX
  8
Unknown Area Type
  70
32
  10
-5.85416666666668
  20
42.62414246790014
  30
915.828
  0
SEQEND
  8
Unknown Area Type
  0
TEXT
  8
Unknown Area Type
 62
7
  1
PNOA-H_AMS_1956-57_33k_ES_PAN_2
 40
0.00045
  10
-5.84796083023198
  20
42.64403344426024
  0
POLYLINE
  8
Unknown Area Type
  70
9
  66
1
  0
VERTEX
  8
Unknown Area Type
  70
32
  10
-5.85416700000001
  20
42.66392401041253
  30
921.992
  0
VERTEX
  8
Unknown Area Type
  70
32
  10
-5.85416666666668
  20
42.6639240116771
  30
921.99
  0
VERTEX
  8
Unknown Area Type
  70
32
  10
-5.85416666666668
  20
42.64583333333339
  30
905.705
  0
VERTEX
  8
Unknown Area Type
  70
32
  10
-5.85416666666668
  20
42.62499999999998
  30
915.598
  0
VERTEX
  8
Unknown Area Type
  70
32
  10
-5.85416666666668
  20
42.62414246790014
  30
915.828
  0
VERTEX
  8
Unknown Area Type
  70
32
  10
-5.85416700000001
  20
42.62414241706465
  30
915.829
  0
SEQEND
  8
Unknown Area Type
  0
TEXT
  8
Unknown Area Type
 62
7
  1
PNOA-H_AMS_1956-57_33k_ES_PAN_2
 40
0.00045
  10
-5.85416683333334
  20
42.64403321437087
  0
POLYLINE
  8
Unknown Area Type
  70
9
  66
1
  0
VERTEX
  8
Unknown Area Type
  70
32
  10
-5.85416666666668
  20
42.62499999999998
  30
915.598
  0
VERTEX
  8
Unknown Area Type
  70
32
  10
-5.85416666666668
  20
42.64583333333339
  30
905.705
  0
VERTEX
  8
Unknown Area Type
  70
32
  10
-5.85416666666668
  20
42.6639240116771
  30
921.99
  0
VERTEX
  8
Unknown Area Type
  70
32
  10
-5.85405887166561
  20
42.66392442062035
  30
921.491
  0
VERTEX
  8
Unknown Area Type
  70
32
  10
-5.85396013864667
  20
42.66389986837959
  30
921.212
  0
VERTEX
  8
Unknown Area Type
  70
32
  10
-5.84175499379729
  20
42.65939502603441
  30
912.928
  0
VERTEX
  8
Unknown Area Type
  70
32
  10
-5.8429408147141
  20
42.62585448347053
  30
895.602
  0
VERTEX
  8
Unknown Area Type
  70
32
  10
-5.85416666666668
  20
42.62414246790014
  30
915.828
  0
SEQEND
  8
Unknown Area Type
  0
TEXT
  8
Unknown Area Type
 62
7
  1
PNOA-H_AMS_1956-57_33k_ES_PAN_2
 40
0.00045
  10
-5.84796083023198
  20
42.64403344426024
  0
POLYLINE
  8
Unknown Area Type
  70
9
  66
1
  0
VERTEX
  8
Unknown Area Type
  70
32
  10
-5.73813618907251
  20
42.66199712642936
  30
1064.71
  0
VERTEX
  8
Unknown Area Type
  70
32
  10
-5.71760816156608
  20
42.6666666666667
  30
1081.599
  0
VERTEX
  8
Unknown Area Type
  70
32
  10
-5.71610697239717
  20
42.6666666666667
  30
1081.239
  0
VERTEX
  8
Unknown Area Type
  70
32
  10
-5.70399075054495
  20
42.66309244797481
  30
1065.727
  0
VERTEX
  8
Unknown Area Type
  70
32
  10
-5.70189960748868
  20
42.62678938916603
  30
978.866
  0
VERTEX
  8
Unknown Area Type
  70
32
  10
-5.73200879951293
  20
42.62475110903164
  30
1008.231
  0
VERTEX
  8
Unknown Area Type
  70
32
  10
-5.73634953523369
  20
42.62627731002106
  30
1012.85
  0
SEQEND
  8
Unknown Area Type
  0
TEXT
  8
Unknown Area Type
 62
7
  1
PNOA-H_AMS_1956-57_33k_ES_PAN_2
 40
0.00045
  10
-5.72001802317235
  20
42.64583944716701
  0
POLYLINE
  8
Unknown Area Type
  70
9
  66
1
  0
VERTEX
  8
Unknown Area Type
  70
32
  10
-5.73813618907251
  20
42.66199712642936
  30
1064.71
  0
VERTEX
  8
Unknown Area Type
  70
32
  10
-5.71760816156608
  20
42.6666666666667
  30
1081.599
  0
VERTEX
  8
Unknown Area Type
  70
32
  10
-5.71610697239717
  20
42.6666666666667
  30
1081.239
  0
VERTEX
  8
Unknown Area Type
  70
32
  10
-5.70399075054495
  20
42.66309244797481
  30
1065.727
  0
VERTEX
  8
Unknown Area Type
  70
32
  10
-5.70189960748868
  20
42.62678938916603
  30
978.866
  0
VERTEX
  8
Unknown Area Type
  70
32
  10
-5.73200879951293
  20
42.62475110903164
  30
1008.231
  0
VERTEX
  8
Unknown Area Type
  70
32
  10
-5.73634953523369
  20
42.62627731002106
  30
1012.85
  0
SEQEND
  8
Unknown Area Type
  0
TEXT
  8
Unknown Area Type
 62
7
  1
PNOA-H_AMS_1956-57_33k_ES_PAN_2
 40
0.00045
  10
-5.72001802317235
  20
42.64583944716701
  0
POLYLINE
  8
Unknown Area Type
  70
9
  66
1
  0
VERTEX
  8
Unknown Area Type
  70
32
  10
-5.71760742887341
  20
42.66666683333337
  30
1081.599
  0
VERTEX
  8
Unknown Area Type
  70
32
  10
-5.71610753737946
  20
42.66666683333337
  30
1081.24
  0
VERTEX
  8
Unknown Area Type
  70
32
  10
-5.71610697239717
  20
42.6666666666667
  30
1081.239
  0
VERTEX
  8
Unknown Area Type
  70
32
  10
-5.71760816156608
  20
42.6666666666667
  30
1081.599
  0
SEQEND
  8
Unknown Area Type
  0
TEXT
  8
Unknown Area Type
 62
7
  1
PNOA-H_AMS_1956-57_33k_ES_PAN_2
 40
0.00045
  10
-5.71685756698162
  20
42.66666675000003
  0
POLYLINE
  8
Unknown Area Type
  70
9
  66
1
  0
VERTEX
  8
Unknown Area Type
  70
32
  10
-5.70399075054495
  20
42.66309244797481
  30
1065.727
  0
VERTEX
  8
Unknown Area Type
  70
32
  10
-5.6885432781198
  20
42.6666666666667
  30
1045.776
  0
VERTEX
  8
Unknown Area Type
  70
32
  10
-5.68749999999998
  20
42.6666666666667
  30
1044.497
  0
VERTEX
  8
Unknown Area Type
  70
32
  10
-5.67816858403311
  20
42.6666666666667
  30
1026.311
  0
VERTEX
  8
Unknown Area Type
  70
32
  10
-5.6750660650706
  20
42.66574859284335
  30
1018.211
  0
VERTEX
  8
Unknown Area Type
  70
32
  10
-5.66944598796213
  20
42.6266637426403
  30
950.999
  0
VERTEX
  8
Unknown Area Type
  70
32
  10
-5.69856009849674
  20
42.62555795198436
  30
964.093
  0
VERTEX
  8
Unknown Area Type
  70
32
  10
-5.70189960748868
  20
42.62678938916603
  30
978.866
  0
SEQEND
  8
Unknown Area Type
  0
TEXT
  8
Unknown Area Type
 62
7
  1
PNOA-H_AMS_1956-57_33k_ES_PAN_2
 40
0.00045
  10
-5.6867186566266
  20
42.64654685844942
  0
POLYLINE
  8
Unknown Area Type
  70
9
  66
1
  0
VERTEX
  8
Unknown Area Type
  70
32
  10
-5.70399075054495
  20
42.66309244797481
  30
1065.727
  0
VERTEX
  8
Unknown Area Type
  70
32
  10
-5.6885432781198
  20
42.6666666666667
  30
1045.776
  0
VERTEX
  8
Unknown Area Type
  70
32
  10
-5.68749999999998
  20
42.6666666666667
  30
1044.497
  0
VERTEX
  8
Unknown Area Type
  70
32
  10
-5.67816858403311
  20
42.6666666666667
  30
1026.311
  0
VERTEX
  8
Unknown Area Type
  70
32
  10
-5.6750660650706
  20
42.66574859284335
  30
1018.211
  0
VERTEX
  8
Unknown Area Type
  70
32
  10
-5.66944598796213
  20
42.6266637426403
  30
950.999
  0
VERTEX
  8
Unknown Area Type
  70
32
  10
-5.69856009849674
  20
42.62555795198436
  30
964.093
  0
VERTEX
  8
Unknown Area Type
  70
32
  10
-5.70189960748868
  20
42.62678938916603
  30
978.866
  0
SEQEND
  8
Unknown Area Type
  0
TEXT
  8
Unknown Area Type
 62
7
  1
PNOA-H_AMS_1956-57_33k_ES_PAN_2
 40
0.00045
  10
-5.6867186566266
  20
42.64654685844942
  0
POLYLINE
  8
Unknown Area Type
  70
9
  66
1
  0
VERTEX
  8
Unknown Area Type
  70
32
  10
-5.68854255780048
  20
42.66666683333337
  30
1045.775
  0
VERTEX
  8
Unknown Area Type
  70
32
  10
-5.67816914726286
  20
42.66666683333337
  30
1026.313
  0
VERTEX
  8
Unknown Area Type
  70
32
  10
-5.67816858403311
  20
42.6666666666667
  30
1026.311
  0
VERTEX
  8
Unknown Area Type
  70
32
  10
-5.68749999999998
  20
42.6666666666667
  30
1044.497
  0
VERTEX
  8
Unknown Area Type
  70
32
  10
-5.6885432781198
  20
42.6666666666667
  30
1045.776
  0
SEQEND
  8
Unknown Area Type
  0
TEXT
  8
Unknown Area Type
 62
7
  1
PNOA-H_AMS_1956-57_33k_ES_PAN_2
 40
0.00045
  10
-5.68335593107645
  20
42.66666675000003
  0
POLYLINE
  8
Unknown Area Type
  70
9
  66
1
  0
VERTEX
  8
Unknown Area Type
  70
32
  10
-5.62046645249396
  20
42.6666666666667
  30
862.089
  0
VERTEX
  8
Unknown Area Type
  70
32
  10
-5.60593060247792
  20
42.6666666666667
  30
898.062
  0
VERTEX
  8
Unknown Area Type
  70
32
  10
-5.60319925791265
  20
42.62820724266739
  30
838.629
  0
VERTEX
  8
Unknown Area Type
  70
32
  10
-5.62485142221385
  20
42.62707352501928
  30
851.92
  0
SEQEND
  8
Unknown Area Type
  0
TEXT
  8
Unknown Area Type
 62
7
  1
PNOA-H_AMS_1956-57_33k_ES_PAN_2
 40
0.00045
  10
-5.61402543678554
  20
42.64877463293125
  0
POLYLINE
  8
Unknown Area Type
  70
9
  66
1
  0
VERTEX
  8
Unknown Area Type
  70
32
  10
-5.62046645249396
  20
42.6666666666667
  30
862.089
  0
VERTEX
  8
Unknown Area Type
  70
32
  10
-5.60593060247792
  20
42.6666666666667
  30
898.062
  0
VERTEX
  8
Unknown Area Type
  70
32
  10
-5.60319925791265
  20
42.62820724266739
  30
838.629
  0
VERTEX
  8
Unknown Area Type
  70
32
  10
-5.62485142221385
  20
42.62707352501928
  30
851.92
  0
SEQEND
  8
Unknown Area Type
  0
TEXT
  8
Unknown Area Type
 62
7
  1
PNOA-H_AMS_1956-57_33k_ES_PAN_2
 40
0.00045
  10
-5.61402543678554
  20
42.64877463293125
  0
POLYLINE
  8
Unknown Area Type
  70
9
  66
1
  0
VERTEX
  8
Unknown Area Type
  70
32
  10
-5.6204664340355
  20
42.66666683333337
  30
862.089
  0
VERTEX
  8
Unknown Area Type
  70
32
  10
-5.6059306143144
  20
42.66666683333337
  30
898.062
  0
VERTEX
  8
Unknown Area Type
  70
32
  10
-5.60593060247792
  20
42.6666666666667
  30
898.062
  0
VERTEX
  8
Unknown Area Type
  70
32
  10
-5.62046645249396
  20
42.6666666666667
  30
862.089
  0
SEQEND
  8
Unknown Area Type
  0
TEXT
  8
Unknown Area Type
 62
7
  1
PNOA-H_AMS_1956-57_33k_ES_PAN_2
 40
0.00045
  10
-5.61319852748594
  20
42.66666675000003
  0
POLYLINE
  8
Unknown Area Type
  70
9
  66
1
  0
VERTEX
  8
Unknown Area Type
  70
32
  10
-5.77030622016537
  20
42.66109251311178
  30
1074.333
  0
VERTEX
  8
Unknown Area Type
  70
32
  10
-5.75036130084655
  20
42.6655895986927
  30
1077.055
  0
VERTEX
  8
Unknown Area Type
  70
32
  10
-5.73813618907251
  20
42.66199712642936
  30
1064.71
  0
VERTEX
  8
Unknown Area Type
  70
32
  10
-5.73634953523369
  20
42.62627731002106
  30
1012.85
  0
VERTEX
  8
Unknown Area Type
  70
32
  10
-5.76589552730047
  20
42.62380683548809
  30
1015.886
  0
VERTEX
  8
Unknown Area Type
  70
32
  10
-5.77170151913284
  20
42.62577353357341
  30
1022.919
  0
VERTEX
  8
Unknown Area Type
  70
32
  10
-5.77181606676909
  20
42.66074980066349
  30
1067.269
  0
VERTEX
  8
Unknown Area Type
  70
32
  10
-5.77032430166109
  20
42.66108757313044
  30
1074.166
  0
VERTEX
  8
Unknown Area Type
  70
32
  10
-5.77030622016537
  20
42.66109251311178
  30
1074.333
  0
SEQEND
  8
Unknown Area Type
  0
TEXT
  8
Unknown Area Type
 62
7
  1
PNOA-H_AMS_1956-57_33k_ES_PAN_2
 40
0.00045
  10
-5.75408292217326
  20
42.64477096247677
  0
POLYLINE
  8
Unknown Area Type
  70
9
  66
1
  0
VERTEX
  8
Unknown Area Type
  70
32
  10
-5.77030622016537
  20
42.66109251311178
  30
1074.333
  0
VERTEX
  8
Unknown Area Type
  70
32
  10
-5.75036130084655
  20
42.6655895986927
  30
1077.055
  0
VERTEX
  8
Unknown Area Type
  70
32
  10
-5.73813618907251
  20
42.66199712642936
  30
1064.71
  0
VERTEX
  8
Unknown Area Type
  70
32
  10
-5.73634953523369
  20
42.62627731002106
  30
1012.85
  0
VERTEX
  8
Unknown Area Type
  70
32
  10
-5.76589552730047
  20
42.62380683548809
  30
1015.886
  0
VERTEX
  8
Unknown Area Type
  70
32
  10
-5.77170151913284
  20
42.62577353357341
  30
1022.919
  0
VERTEX
  8
Unknown Area Type
  70
32
  10
-5.77181606676909
  20
42.66074980066349
  30
1067.269
  0
VERTEX
  8
Unknown Area Type
  70
32
  10
-5.77032430166109
  20
42.66108757313044
  30
1074.166
  0
VERTEX
  8
Unknown Area Type
  70
32
  10
-5.77030622016537
  20
42.66109251311178
  30
1074.333
  0
SEQEND
  8
Unknown Area Type
  0
TEXT
  8
Unknown Area Type
 62
7
  1
PNOA-H_AMS_1956-57_33k_ES_PAN_2
 40
0.00045
  10
-5.75408292217326
  20
42.64477096247677
  0
POLYLINE
  8
Unknown Area Type
  70
9
  66
1
  0
VERTEX
  8
Unknown Area Type
  70
32
  10
-5.54992952768784
  20
42.6666666666667
  30
884.623
  0
VERTEX
  8
Unknown Area Type
  70
32
  10
-5.53773802810046
  20
42.6666666666667
  30
865.745
  0
VERTEX
  8
Unknown Area Type
  70
32
  10
-5.53398069430122
  20
42.62887768245694
  30
840.442
  0
VERTEX
  8
Unknown Area Type
  70
32
  10
-5.55803818746653
  20
42.62792847620808
  30
848.687
  0
SEQEND
  8
Unknown Area Type
  0
TEXT
  8
Unknown Area Type
 62
7
  1
PNOA-H_AMS_1956-57_33k_ES_PAN_2
 40
0.00045
  10
-5.54600954132828
  20
42.64982661038977
  0
POLYLINE
  8
Unknown Area Type
  70
9
  66
1
  0
VERTEX
  8
Unknown Area Type
  70
32
  10
-5.54992952768784
  20
42.6666666666667
  30
884.623
  0
VERTEX
  8
Unknown Area Type
  70
32
  10
-5.53773802810046
  20
42.6666666666667
  30
865.745
  0
VERTEX
  8
Unknown Area Type
  70
32
  10
-5.53398069430122
  20
42.62887768245694
  30
840.442
  0
VERTEX
  8
Unknown Area Type
  70
32
  10
-5.55803818746653
  20
42.62792847620808
  30
848.687
  0
SEQEND
  8
Unknown Area Type
  0
TEXT
  8
Unknown Area Type
 62
7
  1
PNOA-H_AMS_1956-57_33k_ES_PAN_2
 40
0.00045
  10
-5.54600954132828
  20
42.64982661038977
  0
POLYLINE
  8
Unknown Area Type
  70
9
  66
1
  0
VERTEX
  8
Unknown Area Type
  70
32
  10
-5.54992949280125
  20
42.66666683333337
  30
884.623
  0
VERTEX
  8
Unknown Area Type
  70
32
  10
-5.53773804467202
  20
42.66666683333337
  30
865.745
  0
VERTEX
  8
Unknown Area Type
  70
32
  10
-5.53773802810046
  20
42.6666666666667
  30
865.745
  0
VERTEX
  8
Unknown Area Type
  70
32
  10
-5.54992952768784
  20
42.6666666666667
  30
884.623
  0
SEQEND
  8
Unknown Area Type
  0
TEXT
  8
Unknown Area Type
 62
7
  1
PNOA-H_AMS_1956-57_33k_ES_PAN_2
 40
0.00045
  10
-5.54383377789415
  20
42.66666675000003
  0
ENDSEC
  0
EOF
