  0
SECTION
  2
HEADER
  9
$ACADVER
  1
AC1009
  9
$LUNITS
  70
2
  9
$DWGCODEPAGE
  3
UTF8
  9
$LIMMIN
  10
-6.18749999999997
  20
42.5
  9
$LIMMAX
  10
-5.85416666666668
  20
42.6666666666667
  9
$EXTMIN
  10
-6.18749999999997
  20
42.5
  9
$EXTMAX
  10
-5.85416666666668
  20
42.6666666666667
  999
Created by Global Mapper
  999
Projection: Geographic (Latitude/Longitude)
  999
Datum: ETRS89
  999
Ground Units: arc degrees
  999
CENTRAL LONGITUDE: 0
  0
ENDSEC
  0
SECTION
  2
TABLES
  0
ENDSEC
  0
SECTION
  2
BLOCKS
  0
ENDSEC
  0
SECTION
  2
ENTITIES
  0
POLYLINE
  8
Unknown Area Type
  70
9
  66
1
  0
VERTEX
  8
Unknown Area Type
  70
32
  10
-5.99150528136069
  20
42.6666666666667
  30
1082.721
  0
VERTEX
  8
Unknown Area Type
  70
32
  10
-5.97916666666665
  20
42.6666666666667
  30
1064.194
  0
VERTEX
  8
Unknown Area Type
  70
32
  10
-5.95844309516385
  20
42.6666666666667
  30
1055.079
  0
VERTEX
  8
Unknown Area Type
  70
32
  10
-5.95836559194058
  20
42.66404487623655
  30
1044.748
  0
VERTEX
  8
Unknown Area Type
  70
32
  10
-5.97868234738389
  20
42.65757488082937
  30
1057.428
  0
VERTEX
  8
Unknown Area Type
  70
32
  10
-5.991302080951
  20
42.66403973194434
  30
1078.391
  0
SEQEND
  8
Unknown Area Type
  0
TEXT
  8
Unknown Area Type
 62
7
  1
PNOA-H_AMS_1956-57_33k_ES_PAN_2
 40
0.00045
  10
-5.97493543665064
  20
42.66212077374804
  0
POLYLINE
  8
Unknown Area Type
  70
9
  66
1
  0
VERTEX
  8
Unknown Area Type
  70
32
  10
-5.99150528136069
  20
42.6666666666667
  30
1082.721
  0
VERTEX
  8
Unknown Area Type
  70
32
  10
-5.97916666666665
  20
42.6666666666667
  30
1064.194
  0
VERTEX
  8
Unknown Area Type
  70
32
  10
-5.95844309516385
  20
42.6666666666667
  30
1055.079
  0
VERTEX
  8
Unknown Area Type
  70
32
  10
-5.95836559194058
  20
42.66404487623655
  30
1044.748
  0
VERTEX
  8
Unknown Area Type
  70
32
  10
-5.97868234738389
  20
42.65757488082937
  30
1057.428
  0
VERTEX
  8
Unknown Area Type
  70
32
  10
-5.991302080951
  20
42.66403973194434
  30
1078.391
  0
SEQEND
  8
Unknown Area Type
  0
TEXT
  8
Unknown Area Type
 62
7
  1
PNOA-H_AMS_1956-57_33k_ES_PAN_2
 40
0.00045
  10
-5.97493543665064
  20
42.66212077374804
  0
POLYLINE
  8
Unknown Area Type
  70
9
  66
1
  0
VERTEX
  8
Unknown Area Type
  70
32
  10
-5.9915052942528
  20
42.66666683333337
  30
1082.721
  0
VERTEX
  8
Unknown Area Type
  70
32
  10
-5.95844310009071
  20
42.66666683333337
  30
1055.079
  0
VERTEX
  8
Unknown Area Type
  70
32
  10
-5.95844309516385
  20
42.6666666666667
  30
1055.079
  0
VERTEX
  8
Unknown Area Type
  70
32
  10
-5.97916666666665
  20
42.6666666666667
  30
1064.194
  0
VERTEX
  8
Unknown Area Type
  70
32
  10
-5.99150528136069
  20
42.6666666666667
  30
1082.721
  0
SEQEND
  8
Unknown Area Type
  0
TEXT
  8
Unknown Area Type
 62
7
  1
PNOA-H_AMS_1956-57_33k_ES_PAN_2
 40
0.00045
  10
-5.97497419470832
  20
42.66666675000003
  0
POLYLINE
  8
Unknown Area Type
  70
9
  66
1
  0
VERTEX
  8
Unknown Area Type
  70
32
  10
-5.95843824929159
  20
42.6666666666667
  30
1055.187
  0
VERTEX
  8
Unknown Area Type
  70
32
  10
-5.93750000000002
  20
42.6666666666667
  30
1057.747
  0
VERTEX
  8
Unknown Area Type
  70
32
  10
-5.91570466339583
  20
42.6666666666667
  30
1062.705
  0
VERTEX
  8
Unknown Area Type
  70
32
  10
-5.94352963796338
  20
42.65746680135202
  30
1055.684
  0
VERTEX
  8
Unknown Area Type
  70
32
  10
-5.94370419746819
  20
42.65741728877976
  30
1055.227
  0
VERTEX
  8
Unknown Area Type
  70
32
  10
-5.95835949888168
  20
42.66404503372802
  30
1044.884
  0
SEQEND
  8
Unknown Area Type
  0
TEXT
  8
Unknown Area Type
 62
7
  1
PNOA-H_AMS_1956-57_33k_ES_PAN_2
 40
0.00045
  10
-5.93707145634371
  20
42.66204197772323
  0
POLYLINE
  8
Unknown Area Type
  70
9
  66
1
  0
VERTEX
  8
Unknown Area Type
  70
32
  10
-5.95843824929159
  20
42.6666666666667
  30
1055.187
  0
VERTEX
  8
Unknown Area Type
  70
32
  10
-5.93750000000002
  20
42.6666666666667
  30
1057.747
  0
VERTEX
  8
Unknown Area Type
  70
32
  10
-5.91570466339583
  20
42.6666666666667
  30
1062.705
  0
VERTEX
  8
Unknown Area Type
  70
32
  10
-5.94352963796338
  20
42.65746680135202
  30
1055.684
  0
VERTEX
  8
Unknown Area Type
  70
32
  10
-5.94370419746819
  20
42.65741728877976
  30
1055.227
  0
VERTEX
  8
Unknown Area Type
  70
32
  10
-5.95835949888168
  20
42.66404503372802
  30
1044.884
  0
SEQEND
  8
Unknown Area Type
  0
TEXT
  8
Unknown Area Type
 62
7
  1
PNOA-H_AMS_1956-57_33k_ES_PAN_2
 40
0.00045
  10
-5.93707145634371
  20
42.66204197772323
  0
POLYLINE
  8
Unknown Area Type
  70
9
  66
1
  0
VERTEX
  8
Unknown Area Type
  70
32
  10
-5.95843825429804
  20
42.66666683333337
  30
1055.188
  0
VERTEX
  8
Unknown Area Type
  70
32
  10
-5.91570415931282
  20
42.66666683333337
  30
1062.705
  0
VERTEX
  8
Unknown Area Type
  70
32
  10
-5.91570466339583
  20
42.6666666666667
  30
1062.705
  0
VERTEX
  8
Unknown Area Type
  70
32
  10
-5.93750000000002
  20
42.6666666666667
  30
1057.747
  0
VERTEX
  8
Unknown Area Type
  70
32
  10
-5.95843824929159
  20
42.6666666666667
  30
1055.187
  0
SEQEND
  8
Unknown Area Type
  0
TEXT
  8
Unknown Area Type
 62
7
  1
PNOA-H_AMS_1956-57_33k_ES_PAN_2
 40
0.00045
  10
-5.93707120680543
  20
42.66666675000003
  0
POLYLINE
  8
Unknown Area Type
  70
9
  66
1
  0
VERTEX
  8
Unknown Area Type
  70
32
  10
-5.89321649691021
  20
42.66559319986733
  30
1064.638
  0
VERTEX
  8
Unknown Area Type
  70
32
  10
-5.89304074456248
  20
42.66588128938525
  30
1064.525
  0
VERTEX
  8
Unknown Area Type
  70
32
  10
-5.89255552976432
  20
42.6666666666667
  30
1067.111
  0
VERTEX
  8
Unknown Area Type
  70
32
  10
-5.85797860224505
  20
42.6666666666667
  30
942.654
  0
VERTEX
  8
Unknown Area Type
  70
32
  10
-5.85616343111098
  20
42.66392145026739
  30
931.23
  0
VERTEX
  8
Unknown Area Type
  70
32
  10
-5.87624425476189
  20
42.65924493351439
  30
1033.837
  0
VERTEX
  8
Unknown Area Type
  70
32
  10
-5.89320998591936
  20
42.66558435978106
  30
1064.627
  0
SEQEND
  8
Unknown Area Type
  0
TEXT
  8
Unknown Area Type
 62
7
  1
PNOA-H_AMS_1956-57_33k_ES_PAN_2
 40
0.00045
  10
-5.8746899640106
  20
42.66295580009054
  0
POLYLINE
  8
Unknown Area Type
  70
9
  66
1
  0
VERTEX
  8
Unknown Area Type
  70
32
  10
-5.89321649691021
  20
42.66559319986733
  30
1064.638
  0
VERTEX
  8
Unknown Area Type
  70
32
  10
-5.89304074456248
  20
42.66588128938525
  30
1064.525
  0
VERTEX
  8
Unknown Area Type
  70
32
  10
-5.89255552976432
  20
42.6666666666667
  30
1067.111
  0
VERTEX
  8
Unknown Area Type
  70
32
  10
-5.85797860224505
  20
42.6666666666667
  30
942.654
  0
VERTEX
  8
Unknown Area Type
  70
32
  10
-5.85616343111098
  20
42.66392145026739
  30
931.23
  0
VERTEX
  8
Unknown Area Type
  70
32
  10
-5.87624425476189
  20
42.65924493351439
  30
1033.837
  0
VERTEX
  8
Unknown Area Type
  70
32
  10
-5.89320998591936
  20
42.66558435978106
  30
1064.627
  0
SEQEND
  8
Unknown Area Type
  0
TEXT
  8
Unknown Area Type
 62
7
  1
PNOA-H_AMS_1956-57_33k_ES_PAN_2
 40
0.00045
  10
-5.8746899640106
  20
42.66295580009054
  0
POLYLINE
  8
Unknown Area Type
  70
9
  66
1
  0
VERTEX
  8
Unknown Area Type
  70
32
  10
-5.89255542679581
  20
42.66666683333337
  30
1067.112
  0
VERTEX
  8
Unknown Area Type
  70
32
  10
-5.85797871244712
  20
42.66666683333337
  30
942.655
  0
VERTEX
  8
Unknown Area Type
  70
32
  10
-5.85797860224505
  20
42.6666666666667
  30
942.654
  0
VERTEX
  8
Unknown Area Type
  70
32
  10
-5.89255552976432
  20
42.6666666666667
  30
1067.111
  0
SEQEND
  8
Unknown Area Type
  0
TEXT
  8
Unknown Area Type
 62
7
  1
PNOA-H_AMS_1956-57_33k_ES_PAN_2
 40
0.00045
  10
-5.87526706600469
  20
42.66666675000003
  0
POLYLINE
  8
Unknown Area Type
  70
9
  66
1
  0
VERTEX
  8
Unknown Area Type
  70
32
  10
-6.05930851538854
  20
42.6666666666667
  30
1036.926
  0
VERTEX
  8
Unknown Area Type
  70
32
  10
-6.02496303295428
  20
42.6666666666667
  30
1033.774
  0
VERTEX
  8
Unknown Area Type
  70
32
  10
-6.02471166057289
  20
42.66347681510555
  30
1014.677
  0
VERTEX
  8
Unknown Area Type
  70
32
  10
-6.04895032687859
  20
42.65639988851888
  30
1000.682
  0
VERTEX
  8
Unknown Area Type
  70
32
  10
-6.05918238111458
  20
42.66391579494345
  30
1029.98
  0
SEQEND
  8
Unknown Area Type
  0
TEXT
  8
Unknown Area Type
 62
7
  1
PNOA-H_AMS_1956-57_33k_ES_PAN_2
 40
0.00045
  10
-6.04201008798071
  20
42.66153327759279
  0
POLYLINE
  8
Unknown Area Type
  70
9
  66
1
  0
VERTEX
  8
Unknown Area Type
  70
32
  10
-6.05930851538854
  20
42.6666666666667
  30
1036.926
  0
VERTEX
  8
Unknown Area Type
  70
32
  10
-6.02496303295428
  20
42.6666666666667
  30
1033.774
  0
VERTEX
  8
Unknown Area Type
  70
32
  10
-6.02471166057289
  20
42.66347681510555
  30
1014.677
  0
VERTEX
  8
Unknown Area Type
  70
32
  10
-6.04895032687859
  20
42.65639988851888
  30
1000.682
  0
VERTEX
  8
Unknown Area Type
  70
32
  10
-6.05918238111458
  20
42.66391579494345
  30
1029.98
  0
SEQEND
  8
Unknown Area Type
  0
TEXT
  8
Unknown Area Type
 62
7
  1
PNOA-H_AMS_1956-57_33k_ES_PAN_2
 40
0.00045
  10
-6.04201008798071
  20
42.66153327759279
  0
POLYLINE
  8
Unknown Area Type
  70
9
  66
1
  0
VERTEX
  8
Unknown Area Type
  70
32
  10
-6.05930852303062
  20
42.66666683333337
  30
1036.926
  0
VERTEX
  8
Unknown Area Type
  70
32
  10
-6.02496304608824
  20
42.66666683333337
  30
1033.775
  0
VERTEX
  8
Unknown Area Type
  70
32
  10
-6.02496303295428
  20
42.6666666666667
  30
1033.774
  0
VERTEX
  8
Unknown Area Type
  70
32
  10
-6.05930851538854
  20
42.6666666666667
  30
1036.926
  0
SEQEND
  8
Unknown Area Type
  0
TEXT
  8
Unknown Area Type
 62
7
  1
PNOA-H_AMS_1956-57_33k_ES_PAN_2
 40
0.00045
  10
-6.04213577799245
  20
42.66666675000003
  0
POLYLINE
  8
Unknown Area Type
  70
9
  66
1
  0
VERTEX
  8
Unknown Area Type
  70
32
  10
-6.02495831883172
  20
42.6666666666667
  30
1033.802
  0
VERTEX
  8
Unknown Area Type
  70
32
  10
-6.02083333333337
  20
42.6666666666667
  30
1031.858
  0
VERTEX
  8
Unknown Area Type
  70
32
  10
-5.99150528136069
  20
42.6666666666667
  30
1082.721
  0
VERTEX
  8
Unknown Area Type
  70
32
  10
-5.991302080951
  20
42.66403973194434
  30
1078.391
  0
VERTEX
  8
Unknown Area Type
  70
32
  10
-6.01382458584628
  20
42.65708711809292
  30
1035.354
  0
VERTEX
  8
Unknown Area Type
  70
32
  10
-6.01405935093344
  20
42.65702240597799
  30
1038.141
  0
VERTEX
  8
Unknown Area Type
  70
32
  10
-6.02470556793887
  20
42.66347697612407
  30
1014.72
  0
SEQEND
  8
Unknown Area Type
  0
TEXT
  8
Unknown Area Type
 62
7
  1
PNOA-H_AMS_1956-57_33k_ES_PAN_2
 40
0.00045
  10
-6.00813019989136
  20
42.66184453632235
  0
POLYLINE
  8
Unknown Area Type
  70
9
  66
1
  0
VERTEX
  8
Unknown Area Type
  70
32
  10
-6.02495831883172
  20
42.6666666666667
  30
1033.802
  0
VERTEX
  8
Unknown Area Type
  70
32
  10
-6.02083333333337
  20
42.6666666666667
  30
1031.858
  0
VERTEX
  8
Unknown Area Type
  70
32
  10
-5.99150528136069
  20
42.6666666666667
  30
1082.721
  0
VERTEX
  8
Unknown Area Type
  70
32
  10
-5.991302080951
  20
42.66403973194434
  30
1078.391
  0
VERTEX
  8
Unknown Area Type
  70
32
  10
-6.01382458584628
  20
42.65708711809292
  30
1035.354
  0
VERTEX
  8
Unknown Area Type
  70
32
  10
-6.01405935093344
  20
42.65702240597799
  30
1038.141
  0
VERTEX
  8
Unknown Area Type
  70
32
  10
-6.02470556793887
  20
42.66347697612407
  30
1014.72
  0
SEQEND
  8
Unknown Area Type
  0
TEXT
  8
Unknown Area Type
 62
7
  1
PNOA-H_AMS_1956-57_33k_ES_PAN_2
 40
0.00045
  10
-6.00813019989136
  20
42.66184453632235
  0
POLYLINE
  8
Unknown Area Type
  70
9
  66
1
  0
VERTEX
  8
Unknown Area Type
  70
32
  10
-6.02495833203838
  20
42.66666683333337
  30
1033.803
  0
VERTEX
  8
Unknown Area Type
  70
32
  10
-5.9915052942528
  20
42.66666683333337
  30
1082.721
  0
VERTEX
  8
Unknown Area Type
  70
32
  10
-5.99150528136069
  20
42.6666666666667
  30
1082.721
  0
VERTEX
  8
Unknown Area Type
  70
32
  10
-6.02083333333337
  20
42.6666666666667
  30
1031.858
  0
VERTEX
  8
Unknown Area Type
  70
32
  10
-6.02495831883172
  20
42.6666666666667
  30
1033.802
  0
SEQEND
  8
Unknown Area Type
  0
TEXT
  8
Unknown Area Type
 62
7
  1
PNOA-H_AMS_1956-57_33k_ES_PAN_2
 40
0.00045
  10
-6.00823180669953
  20
42.66666675000003
  0
POLYLINE
  8
Unknown Area Type
  70
9
  66
1
  0
VERTEX
  8
Unknown Area Type
  70
32
  10
-6.09448841882906
  20
42.6666666666667
  30
1029.317
  0
VERTEX
  8
Unknown Area Type
  70
32
  10
-6.0625
  20
42.6666666666667
  30
1051.71
  0
VERTEX
  8
Unknown Area Type
  70
32
  10
-6.05931055472935
  20
42.6666666666667
  30
1051.547
  0
VERTEX
  8
Unknown Area Type
  70
32
  10
-6.05930074985924
  20
42.66645191609737
  30
1051.306
  0
VERTEX
  8
Unknown Area Type
  70
32
  10
-6.05922218735372
  20
42.66485120499487
  30
1046.041
  0
VERTEX
  8
Unknown Area Type
  70
32
  10
-6.05918238111458
  20
42.66391579494345
  30
1029.98
  0
VERTEX
  8
Unknown Area Type
  70
32
  10
-6.05919434541488
  20
42.66391097285499
  30
1029.789
  0
VERTEX
  8
Unknown Area Type
  70
32
  10
-6.08400090964289
  20
42.6563071893662
  30
1035.441
  0
VERTEX
  8
Unknown Area Type
  70
32
  10
-6.09442998851537
  20
42.66451245951524
  30
1012.595
  0
SEQEND
  8
Unknown Area Type
  0
TEXT
  8
Unknown Area Type
 62
7
  1
PNOA-H_AMS_1956-57_33k_ES_PAN_2
 40
0.00045
  10
-6.07683539997182
  20
42.66148692801644
  0
POLYLINE
  8
Unknown Area Type
  70
9
  66
1
  0
VERTEX
  8
Unknown Area Type
  70
32
  10
-6.09448841882906
  20
42.6666666666667
  30
1029.317
  0
VERTEX
  8
Unknown Area Type
  70
32
  10
-6.0625
  20
42.6666666666667
  30
1051.71
  0
VERTEX
  8
Unknown Area Type
  70
32
  10
-6.05931055472935
  20
42.6666666666667
  30
1051.547
  0
VERTEX
  8
Unknown Area Type
  70
32
  10
-6.05930074985924
  20
42.66645191609737
  30
1051.306
  0
VERTEX
  8
Unknown Area Type
  70
32
  10
-6.05922218735372
  20
42.66485120499487
  30
1046.041
  0
VERTEX
  8
Unknown Area Type
  70
32
  10
-6.05918238111458
  20
42.66391579494345
  30
1029.98
  0
VERTEX
  8
Unknown Area Type
  70
32
  10
-6.05919434541488
  20
42.66391097285499
  30
1029.789
  0
VERTEX
  8
Unknown Area Type
  70
32
  10
-6.08400090964289
  20
42.6563071893662
  30
1035.441
  0
VERTEX
  8
Unknown Area Type
  70
32
  10
-6.09442998851537
  20
42.66451245951524
  30
1012.595
  0
SEQEND
  8
Unknown Area Type
  0
TEXT
  8
Unknown Area Type
 62
7
  1
PNOA-H_AMS_1956-57_33k_ES_PAN_2
 40
0.00045
  10
-6.07683539997182
  20
42.66148692801644
  0
POLYLINE
  8
Unknown Area Type
  70
9
  66
1
  0
VERTEX
  8
Unknown Area Type
  70
32
  10
-6.0944884233497
  20
42.66666683333337
  30
1029.318
  0
VERTEX
  8
Unknown Area Type
  70
32
  10
-6.05931056233885
  20
42.66666683333337
  30
1051.547
  0
VERTEX
  8
Unknown Area Type
  70
32
  10
-6.05931055472935
  20
42.6666666666667
  30
1051.547
  0
VERTEX
  8
Unknown Area Type
  70
32
  10
-6.0625
  20
42.6666666666667
  30
1051.71
  0
VERTEX
  8
Unknown Area Type
  70
32
  10
-6.09448841882906
  20
42.6666666666667
  30
1029.317
  0
SEQEND
  8
Unknown Area Type
  0
TEXT
  8
Unknown Area Type
 62
7
  1
PNOA-H_AMS_1956-57_33k_ES_PAN_2
 40
0.00045
  10
-6.07689948903952
  20
42.66666675000003
  0
POLYLINE
  8
Unknown Area Type
  70
9
  66
1
  0
VERTEX
  8
Unknown Area Type
  70
32
  10
-6.13184766711807
  20
42.6666666666667
  30
1136.056
  0
VERTEX
  8
Unknown Area Type
  70
32
  10
-6.10416666666663
  20
42.6666666666667
  30
1073.161
  0
VERTEX
  8
Unknown Area Type
  70
32
  10
-6.09448850137951
  20
42.6666666666667
  30
1029.125
  0
VERTEX
  8
Unknown Area Type
  70
32
  10
-6.09443021172216
  20
42.66451695574698
  30
1012.394
  0
VERTEX
  8
Unknown Area Type
  70
32
  10
-6.09624581425424
  20
42.66385554127653
  30
1041.611
  0
VERTEX
  8
Unknown Area Type
  70
32
  10
-6.09626409104446
  20
42.6638550468022
  30
1041.65
  0
VERTEX
  8
Unknown Area Type
  70
32
  10
-6.11807370153902
  20
42.65593772990965
  30
1154.672
  0
SEQEND
  8
Unknown Area Type
  0
TEXT
  8
Unknown Area Type
 62
7
  1
PNOA-H_AMS_1956-57_33k_ES_PAN_2
 40
0.00045
  10
-6.11313893942012
  20
42.66130219828818
  0
POLYLINE
  8
Unknown Area Type
  70
9
  66
1
  0
VERTEX
  8
Unknown Area Type
  70
32
  10
-6.13184766711807
  20
42.6666666666667
  30
1136.056
  0
VERTEX
  8
Unknown Area Type
  70
32
  10
-6.10416666666663
  20
42.6666666666667
  30
1073.161
  0
VERTEX
  8
Unknown Area Type
  70
32
  10
-6.09448850137951
  20
42.6666666666667
  30
1029.125
  0
VERTEX
  8
Unknown Area Type
  70
32
  10
-6.09443021172216
  20
42.66451695574698
  30
1012.394
  0
VERTEX
  8
Unknown Area Type
  70
32
  10
-6.09624581425424
  20
42.66385554127653
  30
1041.611
  0
VERTEX
  8
Unknown Area Type
  70
32
  10
-6.09626409104446
  20
42.6638550468022
  30
1041.65
  0
VERTEX
  8
Unknown Area Type
  70
32
  10
-6.11807370153902
  20
42.65593772990965
  30
1154.672
  0
SEQEND
  8
Unknown Area Type
  0
TEXT
  8
Unknown Area Type
 62
7
  1
PNOA-H_AMS_1956-57_33k_ES_PAN_2
 40
0.00045
  10
-6.11313893942012
  20
42.66130219828818
  0
POLYLINE
  8
Unknown Area Type
  70
9
  66
1
  0
VERTEX
  8
Unknown Area Type
  70
32
  10
-6.13184788108717
  20
42.66666683333337
  30
1136.056
  0
VERTEX
  8
Unknown Area Type
  70
32
  10
-6.09448850589869
  20
42.66666683333337
  30
1029.126
  0
VERTEX
  8
Unknown Area Type
  70
32
  10
-6.09448850137951
  20
42.6666666666667
  30
1029.125
  0
VERTEX
  8
Unknown Area Type
  70
32
  10
-6.10416666666663
  20
42.6666666666667
  30
1073.161
  0
VERTEX
  8
Unknown Area Type
  70
32
  10
-6.13184766711807
  20
42.6666666666667
  30
1136.056
  0
SEQEND
  8
Unknown Area Type
  0
TEXT
  8
Unknown Area Type
 62
7
  1
PNOA-H_AMS_1956-57_33k_ES_PAN_2
 40
0.00045
  10
-6.11316819123334
  20
42.66666675000003
  0
POLYLINE
  8
Unknown Area Type
  70
9
  66
1
  0
VERTEX
  8
Unknown Area Type
  70
32
  10
-5.91157698083508
  20
42.62581318300506
  30
965.391
  0
VERTEX
  8
Unknown Area Type
  70
32
  10
-5.91151608498728
  20
42.62581473190605
  30
965.382
  0
VERTEX
  8
Unknown Area Type
  70
32
  10
-5.89922054429622
  20
42.62256994578418
  30
957.69
  0
VERTEX
  8
Unknown Area Type
  70
32
  10
-5.89783926403584
  20
42.58412767363559
  30
955.13
  0
VERTEX
  8
Unknown Area Type
  70
32
  10
-5.92138533547344
  20
42.58003540039412
  30
923.49
  0
VERTEX
  8
Unknown Area Type
  70
32
  10
-5.92150242274449
  20
42.58006392911791
  30
923.499
  0
VERTEX
  8
Unknown Area Type
  70
32
  10
-5.93098784205961
  20
42.58317574253793
  30
904.77
  0
VERTEX
  8
Unknown Area Type
  70
32
  10
-5.93213076823232
  20
42.62311840815634
  30
1009.578
  0
VERTEX
  8
Unknown Area Type
  70
32
  10
-5.91161939817777
  20
42.62580760173878
  30
965.398
  0
VERTEX
  8
Unknown Area Type
  70
32
  10
-5.91157698083508
  20
42.62581318300506
  30
965.391
  0
SEQEND
  8
Unknown Area Type
  0
TEXT
  8
Unknown Area Type
 62
7
  1
PNOA-H_AMS_1956-57_33k_ES_PAN_2
 40
0.00045
  10
-5.9149850861444
  20
42.60325526190027
  0
POLYLINE
  8
Unknown Area Type
  70
9
  66
1
  0
VERTEX
  8
Unknown Area Type
  70
32
  10
-5.91157698083508
  20
42.62581318300506
  30
965.391
  0
VERTEX
  8
Unknown Area Type
  70
32
  10
-5.91151608498728
  20
42.62581473190605
  30
965.382
  0
VERTEX
  8
Unknown Area Type
  70
32
  10
-5.89922054429622
  20
42.62256994578418
  30
957.69
  0
VERTEX
  8
Unknown Area Type
  70
32
  10
-5.89783926403584
  20
42.58412767363559
  30
955.13
  0
VERTEX
  8
Unknown Area Type
  70
32
  10
-5.92138533547344
  20
42.58003540039412
  30
923.49
  0
VERTEX
  8
Unknown Area Type
  70
32
  10
-5.92150242274449
  20
42.58006392911791
  30
923.499
  0
VERTEX
  8
Unknown Area Type
  70
32
  10
-5.93098784205961
  20
42.58317574253793
  30
904.77
  0
VERTEX
  8
Unknown Area Type
  70
32
  10
-5.93213076823232
  20
42.62311840815634
  30
1009.578
  0
VERTEX
  8
Unknown Area Type
  70
32
  10
-5.91161939817777
  20
42.62580760173878
  30
965.398
  0
VERTEX
  8
Unknown Area Type
  70
32
  10
-5.91157698083508
  20
42.62581318300506
  30
965.391
  0
SEQEND
  8
Unknown Area Type
  0
TEXT
  8
Unknown Area Type
 62
7
  1
PNOA-H_AMS_1956-57_33k_ES_PAN_2
 40
0.00045
  10
-5.9149850861444
  20
42.60325526190027
  0
POLYLINE
  8
Unknown Area Type
  70
9
  66
1
  0
VERTEX
  8
Unknown Area Type
  70
32
  10
-5.89349736448201
  20
42.62339010822396
  30
996.717
  0
VERTEX
  8
Unknown Area Type
  70
32
  10
-5.87689554063003
  20
42.62575357005473
  30
988.429
  0
VERTEX
  8
Unknown Area Type
  70
32
  10
-5.86480947939345
  20
42.6225178170229
  30
935.092
  0
VERTEX
  8
Unknown Area Type
  70
32
  10
-5.86407197786856
  20
42.58383380757024
  30
885.875
  0
VERTEX
  8
Unknown Area Type
  70
32
  10
-5.88459478454168
  20
42.58005882139229
  30
942.803
  0
VERTEX
  8
Unknown Area Type
  70
32
  10
-5.88478591787473
  20
42.58010803405563
  30
942.864
  0
VERTEX
  8
Unknown Area Type
  70
32
  10
-5.89783905558388
  20
42.58412317653143
  30
955.106
  0
VERTEX
  8
Unknown Area Type
  70
32
  10
-5.89922054429622
  20
42.62256994578418
  30
957.69
  0
VERTEX
  8
Unknown Area Type
  70
32
  10
-5.89353369272866
  20
42.62338468758548
  30
996.73
  0
VERTEX
  8
Unknown Area Type
  70
32
  10
-5.89349736448201
  20
42.62339010822396
  30
996.717
  0
SEQEND
  8
Unknown Area Type
  0
TEXT
  8
Unknown Area Type
 62
7
  1
PNOA-H_AMS_1956-57_33k_ES_PAN_2
 40
0.00045
  10
-5.8816462390234
  20
42.60283795466407
  0
POLYLINE
  8
Unknown Area Type
  70
9
  66
1
  0
VERTEX
  8
Unknown Area Type
  70
32
  10
-5.89349736448201
  20
42.62339010822396
  30
996.717
  0
VERTEX
  8
Unknown Area Type
  70
32
  10
-5.87689554063003
  20
42.62575357005473
  30
988.429
  0
VERTEX
  8
Unknown Area Type
  70
32
  10
-5.86480947939345
  20
42.6225178170229
  30
935.092
  0
VERTEX
  8
Unknown Area Type
  70
32
  10
-5.86407197786856
  20
42.58383380757024
  30
885.875
  0
VERTEX
  8
Unknown Area Type
  70
32
  10
-5.88459478454168
  20
42.58005882139229
  30
942.803
  0
VERTEX
  8
Unknown Area Type
  70
32
  10
-5.88478591787473
  20
42.58010803405563
  30
942.864
  0
VERTEX
  8
Unknown Area Type
  70
32
  10
-5.89783905558388
  20
42.58412317653143
  30
955.106
  0
VERTEX
  8
Unknown Area Type
  70
32
  10
-5.89922054429622
  20
42.62256994578418
  30
957.69
  0
VERTEX
  8
Unknown Area Type
  70
32
  10
-5.89353369272866
  20
42.62338468758548
  30
996.73
  0
VERTEX
  8
Unknown Area Type
  70
32
  10
-5.89349736448201
  20
42.62339010822396
  30
996.717
  0
SEQEND
  8
Unknown Area Type
  0
TEXT
  8
Unknown Area Type
 62
7
  1
PNOA-H_AMS_1956-57_33k_ES_PAN_2
 40
0.00045
  10
-5.8816462390234
  20
42.60283795466407
  0
POLYLINE
  8
Unknown Area Type
  70
9
  66
1
  0
VERTEX
  8
Unknown Area Type
  70
32
  10
-6.01419104415468
  20
42.62680395220559
  30
1025.288
  0
VERTEX
  8
Unknown Area Type
  70
32
  10
-5.99627797397848
  20
42.62361837861617
  30
1020.096
  0
VERTEX
  8
Unknown Area Type
  70
32
  10
-5.99676502264151
  20
42.58142324185127
  30
991.556
  0
VERTEX
  8
Unknown Area Type
  70
32
  10
-6.02984477426014
  20
42.5810027332334
  30
939.024
  0
VERTEX
  8
Unknown Area Type
  70
32
  10
-6.02999710639412
  20
42.58100320365281
  30
939.174
  0
VERTEX
  8
Unknown Area Type
  70
32
  10
-6.03018443809037
  20
42.58109729649651
  30
939.245
  0
VERTEX
  8
Unknown Area Type
  70
32
  10
-6.0283588066086
  20
42.62388617852339
  30
957.227
  0
VERTEX
  8
Unknown Area Type
  70
32
  10
-6.01422127259172
  20
42.62679865386009
  30
1025.317
  0
VERTEX
  8
Unknown Area Type
  70
32
  10
-6.01419104415468
  20
42.62680395220559
  30
1025.288
  0
SEQEND
  8
Unknown Area Type
  0
TEXT
  8
Unknown Area Type
 62
7
  1
PNOA-H_AMS_1956-57_33k_ES_PAN_2
 40
0.00045
  10
-6.01323114034195
  20
42.60392195794275
  0
POLYLINE
  8
Unknown Area Type
  70
9
  66
1
  0
VERTEX
  8
Unknown Area Type
  70
32
  10
-6.01419104415468
  20
42.62680395220559
  30
1025.288
  0
VERTEX
  8
Unknown Area Type
  70
32
  10
-5.99627797397848
  20
42.62361837861617
  30
1020.096
  0
VERTEX
  8
Unknown Area Type
  70
32
  10
-5.99676502264151
  20
42.58142324185127
  30
991.556
  0
VERTEX
  8
Unknown Area Type
  70
32
  10
-6.02984477426014
  20
42.5810027332334
  30
939.024
  0
VERTEX
  8
Unknown Area Type
  70
32
  10
-6.02999710639412
  20
42.58100320365281
  30
939.174
  0
VERTEX
  8
Unknown Area Type
  70
32
  10
-6.03018443809037
  20
42.58109729649651
  30
939.245
  0
VERTEX
  8
Unknown Area Type
  70
32
  10
-6.0283588066086
  20
42.62388617852339
  30
957.227
  0
VERTEX
  8
Unknown Area Type
  70
32
  10
-6.01422127259172
  20
42.62679865386009
  30
1025.317
  0
VERTEX
  8
Unknown Area Type
  70
32
  10
-6.01419104415468
  20
42.62680395220559
  30
1025.288
  0
SEQEND
  8
Unknown Area Type
  0
TEXT
  8
Unknown Area Type
 62
7
  1
PNOA-H_AMS_1956-57_33k_ES_PAN_2
 40
0.00045
  10
-6.01323114034195
  20
42.60392195794275
  0
POLYLINE
  8
Unknown Area Type
  70
9
  66
1
  0
VERTEX
  8
Unknown Area Type
  70
32
  10
-5.94353905599212
  20
42.6258691962128
  30
1010.794
  0
VERTEX
  8
Unknown Area Type
  70
32
  10
-5.93213076823232
  20
42.62311840815634
  30
1009.578
  0
VERTEX
  8
Unknown Area Type
  70
32
  10
-5.93098784205961
  20
42.58317574253793
  30
904.77
  0
VERTEX
  8
Unknown Area Type
  70
32
  10
-5.95667355683594
  20
42.57980932301044
  30
989.663
  0
VERTEX
  8
Unknown Area Type
  70
32
  10
-5.95718702444349
  20
42.57984558660377
  30
989.721
  0
VERTEX
  8
Unknown Area Type
  70
32
  10
-5.96326449603301
  20
42.582232269269
  30
991.85
  0
VERTEX
  8
Unknown Area Type
  70
32
  10
-5.96486831132628
  20
42.62322963597004
  30
996.663
  0
VERTEX
  8
Unknown Area Type
  70
32
  10
-5.9454137883224
  20
42.62632073140178
  30
1029.089
  0
VERTEX
  8
Unknown Area Type
  70
32
  10
-5.9435512348239
  20
42.62586888303068
  30
1010.84
  0
VERTEX
  8
Unknown Area Type
  70
32
  10
-5.94353905599212
  20
42.6258691962128
  30
1010.794
  0
SEQEND
  8
Unknown Area Type
  0
TEXT
  8
Unknown Area Type
 62
7
  1
PNOA-H_AMS_1956-57_33k_ES_PAN_2
 40
0.00045
  10
-5.9479280780834
  20
42.60343680668941
  0
POLYLINE
  8
Unknown Area Type
  70
9
  66
1
  0
VERTEX
  8
Unknown Area Type
  70
32
  10
-5.94353905599212
  20
42.6258691962128
  30
1010.794
  0
VERTEX
  8
Unknown Area Type
  70
32
  10
-5.93213076823232
  20
42.62311840815634
  30
1009.578
  0
VERTEX
  8
Unknown Area Type
  70
32
  10
-5.93098784205961
  20
42.58317574253793
  30
904.77
  0
VERTEX
  8
Unknown Area Type
  70
32
  10
-5.95667355683594
  20
42.57980932301044
  30
989.663
  0
VERTEX
  8
Unknown Area Type
  70
32
  10
-5.95718702444349
  20
42.57984558660377
  30
989.721
  0
VERTEX
  8
Unknown Area Type
  70
32
  10
-5.96326449603301
  20
42.582232269269
  30
991.85
  0
VERTEX
  8
Unknown Area Type
  70
32
  10
-5.96486831132628
  20
42.62322963597004
  30
996.663
  0
VERTEX
  8
Unknown Area Type
  70
32
  10
-5.9454137883224
  20
42.62632073140178
  30
1029.089
  0
VERTEX
  8
Unknown Area Type
  70
32
  10
-5.9435512348239
  20
42.62586888303068
  30
1010.84
  0
VERTEX
  8
Unknown Area Type
  70
32
  10
-5.94353905599212
  20
42.6258691962128
  30
1010.794
  0
SEQEND
  8
Unknown Area Type
  0
TEXT
  8
Unknown Area Type
 62
7
  1
PNOA-H_AMS_1956-57_33k_ES_PAN_2
 40
0.00045
  10
-5.9479280780834
  20
42.60343680668941
  0
POLYLINE
  8
Unknown Area Type
  70
9
  66
1
  0
VERTEX
  8
Unknown Area Type
  70
32
  10
-6.04344810980102
  20
42.6262683834932
  30
950.541
  0
VERTEX
  8
Unknown Area Type
  70
32
  10
-6.0283588066086
  20
42.62388617852339
  30
957.227
  0
VERTEX
  8
Unknown Area Type
  70
32
  10
-6.03018443809037
  20
42.58109729649651
  30
939.245
  0
VERTEX
  8
Unknown Area Type
  70
32
  10
-6.06310571265934
  20
42.58167987369312
  30
993.679
  0
VERTEX
  8
Unknown Area Type
  70
32
  10
-6.06048334821607
  20
42.62516582033288
  30
967.079
  0
VERTEX
  8
Unknown Area Type
  70
32
  10
-6.05064865368003
  20
42.62739587119163
  30
955.099
  0
VERTEX
  8
Unknown Area Type
  70
32
  10
-6.05060603090577
  20
42.62739700720084
  30
955.09
  0
VERTEX
  8
Unknown Area Type
  70
32
  10
-6.04974588536016
  20
42.62726234832559
  30
954.893
  0
VERTEX
  8
Unknown Area Type
  70
32
  10
-6.0434663764963
  20
42.62626789778563
  30
950.55
  0
VERTEX
  8
Unknown Area Type
  70
32
  10
-6.04344810980102
  20
42.6262683834932
  30
950.541
  0
SEQEND
  8
Unknown Area Type
  0
TEXT
  8
Unknown Area Type
 62
7
  1
PNOA-H_AMS_1956-57_33k_ES_PAN_2
 40
0.00045
  10
-6.04573239672183
  20
42.60399803592852
  0
POLYLINE
  8
Unknown Area Type
  70
9
  66
1
  0
VERTEX
  8
Unknown Area Type
  70
32
  10
-6.04344810980102
  20
42.6262683834932
  30
950.541
  0
VERTEX
  8
Unknown Area Type
  70
32
  10
-6.0283588066086
  20
42.62388617852339
  30
957.227
  0
VERTEX
  8
Unknown Area Type
  70
32
  10
-6.03018443809037
  20
42.58109729649651
  30
939.245
  0
VERTEX
  8
Unknown Area Type
  70
32
  10
-6.06310571265934
  20
42.58167987369312
  30
993.679
  0
VERTEX
  8
Unknown Area Type
  70
32
  10
-6.06048334821607
  20
42.62516582033288
  30
967.079
  0
VERTEX
  8
Unknown Area Type
  70
32
  10
-6.05064865368003
  20
42.62739587119163
  30
955.099
  0
VERTEX
  8
Unknown Area Type
  70
32
  10
-6.05060603090577
  20
42.62739700720084
  30
955.09
  0
VERTEX
  8
Unknown Area Type
  70
32
  10
-6.04974588536016
  20
42.62726234832559
  30
954.893
  0
VERTEX
  8
Unknown Area Type
  70
32
  10
-6.0434663764963
  20
42.62626789778563
  30
950.55
  0
VERTEX
  8
Unknown Area Type
  70
32
  10
-6.04344810980102
  20
42.6262683834932
  30
950.541
  0
SEQEND
  8
Unknown Area Type
  0
TEXT
  8
Unknown Area Type
 62
7
  1
PNOA-H_AMS_1956-57_33k_ES_PAN_2
 40
0.00045
  10
-6.04573239672183
  20
42.60399803592852
  0
POLYLINE
  8
Unknown Area Type
  70
9
  66
1
  0
VERTEX
  8
Unknown Area Type
  70
32
  10
-5.99340643787745
  20
42.62412573290238
  30
1027.769
  0
VERTEX
  8
Unknown Area Type
  70
32
  10
-5.98032905311304
  20
42.62642098905929
  30
1020.772
  0
VERTEX
  8
Unknown Area Type
  70
32
  10
-5.96486831132628
  20
42.62322963597004
  30
996.663
  0
VERTEX
  8
Unknown Area Type
  70
32
  10
-5.96326449603301
  20
42.582232269269
  30
991.85
  0
VERTEX
  8
Unknown Area Type
  70
32
  10
-5.99095168485335
  20
42.58012551753429
  30
989.594
  0
VERTEX
  8
Unknown Area Type
  70
32
  10
-5.99443503206185
  20
42.58034962011569
  30
990.335
  0
VERTEX
  8
Unknown Area Type
  70
32
  10
-5.99676480710019
  20
42.58141874514551
  30
991.549
  0
VERTEX
  8
Unknown Area Type
  70
32
  10
-5.99627797397848
  20
42.62361837861617
  30
1020.096
  0
VERTEX
  8
Unknown Area Type
  70
32
  10
-5.99343666710624
  20
42.62412044003255
  30
1027.744
  0
VERTEX
  8
Unknown Area Type
  70
32
  10
-5.99340643787745
  20
42.62412573290238
  30
1027.769
  0
SEQEND
  8
Unknown Area Type
  0
TEXT
  8
Unknown Area Type
 62
7
  1
PNOA-H_AMS_1956-57_33k_ES_PAN_2
 40
0.00045
  10
-5.98001466488864
  20
42.60365593111021
  0
POLYLINE
  8
Unknown Area Type
  70
9
  66
1
  0
VERTEX
  8
Unknown Area Type
  70
32
  10
-5.99340643787745
  20
42.62412573290238
  30
1027.769
  0
VERTEX
  8
Unknown Area Type
  70
32
  10
-5.98032905311304
  20
42.62642098905929
  30
1020.772
  0
VERTEX
  8
Unknown Area Type
  70
32
  10
-5.96486831132628
  20
42.62322963597004
  30
996.663
  0
VERTEX
  8
Unknown Area Type
  70
32
  10
-5.96326449603301
  20
42.582232269269
  30
991.85
  0
VERTEX
  8
Unknown Area Type
  70
32
  10
-5.99095168485335
  20
42.58012551753429
  30
989.594
  0
VERTEX
  8
Unknown Area Type
  70
32
  10
-5.99443503206185
  20
42.58034962011569
  30
990.335
  0
VERTEX
  8
Unknown Area Type
  70
32
  10
-5.99676480710019
  20
42.58141874514551
  30
991.549
  0
VERTEX
  8
Unknown Area Type
  70
32
  10
-5.99627797397848
  20
42.62361837861617
  30
1020.096
  0
VERTEX
  8
Unknown Area Type
  70
32
  10
-5.99343666710624
  20
42.62412044003255
  30
1027.744
  0
VERTEX
  8
Unknown Area Type
  70
32
  10
-5.99340643787745
  20
42.62412573290238
  30
1027.769
  0
SEQEND
  8
Unknown Area Type
  0
TEXT
  8
Unknown Area Type
 62
7
  1
PNOA-H_AMS_1956-57_33k_ES_PAN_2
 40
0.00045
  10
-5.98001466488864
  20
42.60365593111021
  0
POLYLINE
  8
Unknown Area Type
  70
9
  66
1
  0
VERTEX
  8
Unknown Area Type
  70
32
  10
-6.1521667460757
  20
42.6284629523105
  30
1000.591
  0
VERTEX
  8
Unknown Area Type
  70
32
  10
-6.12585877979123
  20
42.62652364193718
  30
1006.659
  0
VERTEX
  8
Unknown Area Type
  70
32
  10
-6.12606836654683
  20
42.58272865331857
  30
1118.969
  0
VERTEX
  8
Unknown Area Type
  70
32
  10
-6.13825687359714
  20
42.57915798752246
  30
1137.028
  0
VERTEX
  8
Unknown Area Type
  70
32
  10
-6.1385511410814
  20
42.57907338041621
  30
1136.43
  0
VERTEX
  8
Unknown Area Type
  70
32
  10
-6.13858764362947
  20
42.57907237956135
  30
1136.46
  0
VERTEX
  8
Unknown Area Type
  70
32
  10
-6.15766476151763
  20
42.58214054121358
  30
1172.903
  0
VERTEX
  8
Unknown Area Type
  70
32
  10
-6.15746938983704
  20
42.62686255422373
  30
1033.413
  0
VERTEX
  8
Unknown Area Type
  70
32
  10
-6.15217869596568
  20
42.62845812092401
  30
1000.727
  0
VERTEX
  8
Unknown Area Type
  70
32
  10
-6.1521667460757
  20
42.6284629523105
  30
1000.591
  0
SEQEND
  8
Unknown Area Type
  0
TEXT
  8
Unknown Area Type
 62
7
  1
PNOA-H_AMS_1956-57_33k_ES_PAN_2
 40
0.00045
  10
-6.14176205523934
  20
42.60363785798089
  0
POLYLINE
  8
Unknown Area Type
  70
9
  66
1
  0
VERTEX
  8
Unknown Area Type
  70
32
  10
-6.1521667460757
  20
42.6284629523105
  30
1000.591
  0
VERTEX
  8
Unknown Area Type
  70
32
  10
-6.12585877979123
  20
42.62652364193718
  30
1006.659
  0
VERTEX
  8
Unknown Area Type
  70
32
  10
-6.12606836654683
  20
42.58272865331857
  30
1118.969
  0
VERTEX
  8
Unknown Area Type
  70
32
  10
-6.13825687359714
  20
42.57915798752246
  30
1137.028
  0
VERTEX
  8
Unknown Area Type
  70
32
  10
-6.1385511410814
  20
42.57907338041621
  30
1136.43
  0
VERTEX
  8
Unknown Area Type
  70
32
  10
-6.13858764362947
  20
42.57907237956135
  30
1136.46
  0
VERTEX
  8
Unknown Area Type
  70
32
  10
-6.15766476151763
  20
42.58214054121358
  30
1172.903
  0
VERTEX
  8
Unknown Area Type
  70
32
  10
-6.15746938983704
  20
42.62686255422373
  30
1033.413
  0
VERTEX
  8
Unknown Area Type
  70
32
  10
-6.15217869596568
  20
42.62845812092401
  30
1000.727
  0
VERTEX
  8
Unknown Area Type
  70
32
  10
-6.1521667460757
  20
42.6284629523105
  30
1000.591
  0
SEQEND
  8
Unknown Area Type
  0
TEXT
  8
Unknown Area Type
 62
7
  1
PNOA-H_AMS_1956-57_33k_ES_PAN_2
 40
0.00045
  10
-6.14176205523934
  20
42.60363785798089
  0
POLYLINE
  8
Unknown Area Type
  70
9
  66
1
  0
VERTEX
  8
Unknown Area Type
  70
32
  10
-5.93101218337099
  20
42.58317511934133
  30
904.78
  0
VERTEX
  8
Unknown Area Type
  70
32
  10
-5.93097567140363
  20
42.58317605413429
  30
904.765
  0
VERTEX
  8
Unknown Area Type
  70
32
  10
-5.9214098858882
  20
42.58003927628736
  30
923.494
  0
VERTEX
  8
Unknown Area Type
  70
32
  10
-5.92133882979504
  20
42.57786644207101
  30
903.839
  0
VERTEX
  8
Unknown Area Type
  70
32
  10
-5.9355040676373
  20
42.54193078291263
  30
939.43
  0
VERTEX
  8
Unknown Area Type
  70
32
  10
-5.95667964169594
  20
42.5798091658576
  30
989.661
  0
VERTEX
  8
Unknown Area Type
  70
32
  10
-5.93105456983188
  20
42.58316953176294
  30
904.836
  0
VERTEX
  8
Unknown Area Type
  70
32
  10
-5.93101218337099
  20
42.58317511934133
  30
904.78
  0
SEQEND
  8
Unknown Area Type
  0
TEXT
  8
Unknown Area Type
 62
7
  1
PNOA-H_AMS_1956-57_33k_ES_PAN_2
 40
0.00045
  10
-5.93900906404362
  20
42.56516211822061
  0
POLYLINE
  8
Unknown Area Type
  70
9
  66
1
  0
VERTEX
  8
Unknown Area Type
  70
32
  10
-5.93101218337099
  20
42.58317511934133
  30
904.78
  0
VERTEX
  8
Unknown Area Type
  70
32
  10
-5.93097567140363
  20
42.58317605413429
  30
904.765
  0
VERTEX
  8
Unknown Area Type
  70
32
  10
-5.9214098858882
  20
42.58003927628736
  30
923.494
  0
VERTEX
  8
Unknown Area Type
  70
32
  10
-5.92133882979504
  20
42.57786644207101
  30
903.839
  0
VERTEX
  8
Unknown Area Type
  70
32
  10
-5.9355040676373
  20
42.54193078291263
  30
939.43
  0
VERTEX
  8
Unknown Area Type
  70
32
  10
-5.95667964169594
  20
42.5798091658576
  30
989.661
  0
VERTEX
  8
Unknown Area Type
  70
32
  10
-5.93105456983188
  20
42.58316953176294
  30
904.836
  0
VERTEX
  8
Unknown Area Type
  70
32
  10
-5.93101218337099
  20
42.58317511934133
  30
904.78
  0
SEQEND
  8
Unknown Area Type
  0
TEXT
  8
Unknown Area Type
 62
7
  1
PNOA-H_AMS_1956-57_33k_ES_PAN_2
 40
0.00045
  10
-5.93900906404362
  20
42.56516211822061
  0
POLYLINE
  8
Unknown Area Type
  70
9
  66
1
  0
VERTEX
  8
Unknown Area Type
  70
32
  10
-5.96536068052627
  20
42.55667208758724
  30
965.485
  0
VERTEX
  8
Unknown Area Type
  70
32
  10
-5.97005718858377
  20
42.54334938088007
  30
923.784
  0
VERTEX
  8
Unknown Area Type
  70
32
  10
-5.97013251223355
  20
42.5431403174109
  30
920.903
  0
VERTEX
  8
Unknown Area Type
  70
32
  10
-5.97014467468108
  20
42.54314000189335
  30
920.928
  0
VERTEX
  8
Unknown Area Type
  70
32
  10
-5.99093951545068
  20
42.58012583548154
  30
989.602
  0
VERTEX
  8
Unknown Area Type
  70
32
  10
-5.96325841097362
  20
42.58223242677872
  30
991.853
  0
VERTEX
  8
Unknown Area Type
  70
32
  10
-5.95718093958274
  20
42.57984574378368
  30
989.721
  0
VERTEX
  8
Unknown Area Type
  70
32
  10
-5.96535566346112
  20
42.5566947294017
  30
965.442
  0
VERTEX
  8
Unknown Area Type
  70
32
  10
-5.96536068052627
  20
42.55667208758724
  30
965.485
  0
SEQEND
  8
Unknown Area Type
  0
TEXT
  8
Unknown Area Type
 62
7
  1
PNOA-H_AMS_1956-57_33k_ES_PAN_2
 40
0.00045
  10
-5.97406015866662
  20
42.56575535937051
  0
POLYLINE
  8
Unknown Area Type
  70
9
  66
1
  0
VERTEX
  8
Unknown Area Type
  70
32
  10
-5.96536068052627
  20
42.55667208758724
  30
965.485
  0
VERTEX
  8
Unknown Area Type
  70
32
  10
-5.97005718858377
  20
42.54334938088007
  30
923.784
  0
VERTEX
  8
Unknown Area Type
  70
32
  10
-5.97013251223355
  20
42.5431403174109
  30
920.903
  0
VERTEX
  8
Unknown Area Type
  70
32
  10
-5.97014467468108
  20
42.54314000189335
  30
920.928
  0
VERTEX
  8
Unknown Area Type
  70
32
  10
-5.99093951545068
  20
42.58012583548154
  30
989.602
  0
VERTEX
  8
Unknown Area Type
  70
32
  10
-5.96325841097362
  20
42.58223242677872
  30
991.853
  0
VERTEX
  8
Unknown Area Type
  70
32
  10
-5.95718093958274
  20
42.57984574378368
  30
989.721
  0
VERTEX
  8
Unknown Area Type
  70
32
  10
-5.96535566346112
  20
42.5566947294017
  30
965.442
  0
VERTEX
  8
Unknown Area Type
  70
32
  10
-5.96536068052627
  20
42.55667208758724
  30
965.485
  0
SEQEND
  8
Unknown Area Type
  0
TEXT
  8
Unknown Area Type
 62
7
  1
PNOA-H_AMS_1956-57_33k_ES_PAN_2
 40
0.00045
  10
-5.97406015866662
  20
42.56575535937051
  0
POLYLINE
  8
Unknown Area Type
  70
9
  66
1
  0
VERTEX
  8
Unknown Area Type
  70
32
  10
-5.88461304036828
  20
42.5800583614142
  30
942.846
  0
VERTEX
  8
Unknown Area Type
  70
32
  10
-5.86406589211615
  20
42.58383395981649
  30
885.867
  0
VERTEX
  8
Unknown Area Type
  70
32
  10
-5.85416666666668
  20
42.58102645256349
  30
877.886
  0
VERTEX
  8
Unknown Area Type
  70
32
  10
-5.85416666666668
  20
42.56908881508656
  30
866.324
  0
VERTEX
  8
Unknown Area Type
  70
32
  10
-5.85997363857397
  20
42.55936666122896
  30
859.63
  0
VERTEX
  8
Unknown Area Type
  70
32
  10
-5.85997910531175
  20
42.55935301744989
  30
859.625
  0
VERTEX
  8
Unknown Area Type
  70
32
  10
-5.87352291357736
  20
42.53664592640839
  30
849.842
  0
VERTEX
  8
Unknown Area Type
  70
32
  10
-5.88729978546463
  20
42.53769059504351
  30
855.818
  0
SEQEND
  8
Unknown Area Type
  0
TEXT
  8
Unknown Area Type
 62
7
  1
PNOA-H_AMS_1956-57_33k_ES_PAN_2
 40
0.00045
  10
-5.86876666430953
  20
42.56379338953769
  0
POLYLINE
  8
Unknown Area Type
  70
9
  66
1
  0
VERTEX
  8
Unknown Area Type
  70
32
  10
-5.88461304036828
  20
42.5800583614142
  30
942.846
  0
VERTEX
  8
Unknown Area Type
  70
32
  10
-5.86406589211615
  20
42.58383395981649
  30
885.867
  0
VERTEX
  8
Unknown Area Type
  70
32
  10
-5.85416666666668
  20
42.58102645256349
  30
877.886
  0
VERTEX
  8
Unknown Area Type
  70
32
  10
-5.85416666666668
  20
42.56908881508656
  30
866.324
  0
VERTEX
  8
Unknown Area Type
  70
32
  10
-5.85997363857397
  20
42.55936666122896
  30
859.63
  0
VERTEX
  8
Unknown Area Type
  70
32
  10
-5.85997910531175
  20
42.55935301744989
  30
859.625
  0
VERTEX
  8
Unknown Area Type
  70
32
  10
-5.87352291357736
  20
42.53664592640839
  30
849.842
  0
VERTEX
  8
Unknown Area Type
  70
32
  10
-5.88729978546463
  20
42.53769059504351
  30
855.818
  0
SEQEND
  8
Unknown Area Type
  0
TEXT
  8
Unknown Area Type
 62
7
  1
PNOA-H_AMS_1956-57_33k_ES_PAN_2
 40
0.00045
  10
-5.86876666430953
  20
42.56379338953769
  0
POLYLINE
  8
Unknown Area Type
  70
9
  66
1
  0
VERTEX
  8
Unknown Area Type
  70
32
  10
-5.85416666666668
  20
42.58102645256349
  30
877.886
  0
VERTEX
  8
Unknown Area Type
  70
32
  10
-5.85416633333334
  20
42.58102635802723
  30
877.886
  0
VERTEX
  8
Unknown Area Type
  70
32
  10
-5.85416633333334
  20
42.56908937316021
  30
866.324
  0
VERTEX
  8
Unknown Area Type
  70
32
  10
-5.85416666666668
  20
42.56908881508656
  30
866.324
  0
SEQEND
  8
Unknown Area Type
  0
TEXT
  8
Unknown Area Type
 62
7
  1
PNOA-H_AMS_1956-57_33k_ES_PAN_2
 40
0.00045
  10
-5.85416650000001
  20
42.57505763382503
  0
POLYLINE
  8
Unknown Area Type
  70
9
  66
1
  0
VERTEX
  8
Unknown Area Type
  70
32
  10
-6.11902584976179
  20
42.62838490053522
  30
1000.547
  0
VERTEX
  8
Unknown Area Type
  70
32
  10
-6.09334977833208
  20
42.6258896038509
  30
987.089
  0
VERTEX
  8
Unknown Area Type
  70
32
  10
-6.09456502734809
  20
42.58262566237934
  30
1008.043
  0
VERTEX
  8
Unknown Area Type
  70
32
  10
-6.09961593762495
  20
42.58078713142765
  30
1025.818
  0
VERTEX
  8
Unknown Area Type
  70
32
  10
-6.1023030325656
  20
42.57993543902992
  30
1024.851
  0
VERTEX
  8
Unknown Area Type
  70
32
  10
-6.10241299173951
  20
42.57994146355448
  30
1025.326
  0
VERTEX
  8
Unknown Area Type
  70
32
  10
-6.12606836654683
  20
42.58272865331857
  30
1118.969
  0
VERTEX
  8
Unknown Area Type
  70
32
  10
-6.12585877979123
  20
42.62652364193718
  30
1006.659
  0
VERTEX
  8
Unknown Area Type
  70
32
  10
-6.1190438910799
  20
42.62837990660292
  30
1000.565
  0
VERTEX
  8
Unknown Area Type
  70
32
  10
-6.11902584976179
  20
42.62838490053522
  30
1000.547
  0
SEQEND
  8
Unknown Area Type
  0
TEXT
  8
Unknown Area Type
 62
7
  1
PNOA-H_AMS_1956-57_33k_ES_PAN_2
 40
0.00045
  10
-6.10970915122472
  20
42.60413881085898
  0
POLYLINE
  8
Unknown Area Type
  70
9
  66
1
  0
VERTEX
  8
Unknown Area Type
  70
32
  10
-6.11902584976179
  20
42.62838490053522
  30
1000.547
  0
VERTEX
  8
Unknown Area Type
  70
32
  10
-6.09334977833208
  20
42.6258896038509
  30
987.089
  0
VERTEX
  8
Unknown Area Type
  70
32
  10
-6.09456502734809
  20
42.58262566237934
  30
1008.043
  0
VERTEX
  8
Unknown Area Type
  70
32
  10
-6.09961593762495
  20
42.58078713142765
  30
1025.818
  0
VERTEX
  8
Unknown Area Type
  70
32
  10
-6.1023030325656
  20
42.57993543902992
  30
1024.851
  0
VERTEX
  8
Unknown Area Type
  70
32
  10
-6.10241299173951
  20
42.57994146355448
  30
1025.326
  0
VERTEX
  8
Unknown Area Type
  70
32
  10
-6.12606836654683
  20
42.58272865331857
  30
1118.969
  0
VERTEX
  8
Unknown Area Type
  70
32
  10
-6.12585877979123
  20
42.62652364193718
  30
1006.659
  0
VERTEX
  8
Unknown Area Type
  70
32
  10
-6.1190438910799
  20
42.62837990660292
  30
1000.565
  0
VERTEX
  8
Unknown Area Type
  70
32
  10
-6.11902584976179
  20
42.62838490053522
  30
1000.547
  0
SEQEND
  8
Unknown Area Type
  0
TEXT
  8
Unknown Area Type
 62
7
  1
PNOA-H_AMS_1956-57_33k_ES_PAN_2
 40
0.00045
  10
-6.10970915122472
  20
42.60413881085898
  0
POLYLINE
  8
Unknown Area Type
  70
9
  66
1
  0
VERTEX
  8
Unknown Area Type
  70
32
  10
-6.02999102182597
  20
42.58100336470267
  30
939.156
  0
VERTEX
  8
Unknown Area Type
  70
32
  10
-5.99676502264151
  20
42.58142324185127
  30
991.556
  0
VERTEX
  8
Unknown Area Type
  70
32
  10
-5.9944352474277
  20
42.58035411683188
  30
990.34
  0
VERTEX
  8
Unknown Area Type
  70
32
  10
-6.00113494923542
  20
42.54806786738552
  30
962.642
  0
VERTEX
  8
Unknown Area Type
  70
32
  10
-6.00121586744392
  20
42.54772356640325
  30
962.543
  0
VERTEX
  8
Unknown Area Type
  70
32
  10
-6.02989309392776
  20
42.57671973092687
  30
937.102
  0
VERTEX
  8
Unknown Area Type
  70
32
  10
-6.02998884257142
  20
42.58095839901709
  30
939.115
  0
VERTEX
  8
Unknown Area Type
  70
32
  10
-6.02999102182597
  20
42.58100336470267
  30
939.156
  0
SEQEND
  8
Unknown Area Type
  0
TEXT
  8
Unknown Area Type
 62
7
  1
PNOA-H_AMS_1956-57_33k_ES_PAN_2
 40
0.00045
  10
-6.01221320049511
  20
42.57003376431697
  0
POLYLINE
  8
Unknown Area Type
  70
9
  66
1
  0
VERTEX
  8
Unknown Area Type
  70
32
  10
-6.02999102182597
  20
42.58100336470267
  30
939.156
  0
VERTEX
  8
Unknown Area Type
  70
32
  10
-5.99676502264151
  20
42.58142324185127
  30
991.556
  0
VERTEX
  8
Unknown Area Type
  70
32
  10
-5.9944352474277
  20
42.58035411683188
  30
990.34
  0
VERTEX
  8
Unknown Area Type
  70
32
  10
-6.00113494923542
  20
42.54806786738552
  30
962.642
  0
VERTEX
  8
Unknown Area Type
  70
32
  10
-6.00121586744392
  20
42.54772356640325
  30
962.543
  0
VERTEX
  8
Unknown Area Type
  70
32
  10
-6.02989309392776
  20
42.57671973092687
  30
937.102
  0
VERTEX
  8
Unknown Area Type
  70
32
  10
-6.02998884257142
  20
42.58095839901709
  30
939.115
  0
VERTEX
  8
Unknown Area Type
  70
32
  10
-6.02999102182597
  20
42.58100336470267
  30
939.156
  0
SEQEND
  8
Unknown Area Type
  0
TEXT
  8
Unknown Area Type
 62
7
  1
PNOA-H_AMS_1956-57_33k_ES_PAN_2
 40
0.00045
  10
-6.01221320049511
  20
42.57003376431697
  0
POLYLINE
  8
Unknown Area Type
  70
9
  66
1
  0
VERTEX
  8
Unknown Area Type
  70
32
  10
-5.88596693606244
  20
42.55870090570406
  30
922.891
  0
VERTEX
  8
Unknown Area Type
  70
32
  10
-5.88729978546463
  20
42.53769059504351
  30
855.818
  0
VERTEX
  8
Unknown Area Type
  70
32
  10
-5.89354035264977
  20
42.53584915651872
  30
872.352
  0
VERTEX
  8
Unknown Area Type
  70
32
  10
-5.8953242999877
  20
42.53598415645897
  30
877.218
  0
VERTEX
  8
Unknown Area Type
  70
32
  10
-5.92133882979504
  20
42.57786644207101
  30
903.839
  0
VERTEX
  8
Unknown Area Type
  70
32
  10
-5.92140169140065
  20
42.57986389277076
  30
921.634
  0
VERTEX
  8
Unknown Area Type
  70
32
  10
-5.9214035906976
  20
42.58003493455465
  30
923.474
  0
VERTEX
  8
Unknown Area Type
  70
32
  10
-5.92138554558767
  20
42.5800398974074
  30
923.522
  0
VERTEX
  8
Unknown Area Type
  70
32
  10
-5.89784534963594
  20
42.5841275195947
  30
955.058
  0
VERTEX
  8
Unknown Area Type
  70
32
  10
-5.88461933311603
  20
42.58006270524739
  30
942.806
  0
VERTEX
  8
Unknown Area Type
  70
32
  10
-5.88461179553805
  20
42.58003137845474
  30
943.136
  0
VERTEX
  8
Unknown Area Type
  70
32
  10
-5.88596880279176
  20
42.55874138024591
  30
922.73
  0
VERTEX
  8
Unknown Area Type
  70
32
  10
-5.88596693606244
  20
42.55870090570406
  30
922.891
  0
SEQEND
  8
Unknown Area Type
  0
TEXT
  8
Unknown Area Type
 62
7
  1
PNOA-H_AMS_1956-57_33k_ES_PAN_2
 40
0.00045
  10
-5.90300763667695
  20
42.56579112259688
  0
POLYLINE
  8
Unknown Area Type
  70
9
  66
1
  0
VERTEX
  8
Unknown Area Type
  70
32
  10
-5.88596693606244
  20
42.55870090570406
  30
922.891
  0
VERTEX
  8
Unknown Area Type
  70
32
  10
-5.88729978546463
  20
42.53769059504351
  30
855.818
  0
VERTEX
  8
Unknown Area Type
  70
32
  10
-5.89354035264977
  20
42.53584915651872
  30
872.352
  0
VERTEX
  8
Unknown Area Type
  70
32
  10
-5.8953242999877
  20
42.53598415645897
  30
877.218
  0
VERTEX
  8
Unknown Area Type
  70
32
  10
-5.92133882979504
  20
42.57786644207101
  30
903.839
  0
VERTEX
  8
Unknown Area Type
  70
32
  10
-5.92140169140065
  20
42.57986389277076
  30
921.634
  0
VERTEX
  8
Unknown Area Type
  70
32
  10
-5.9214035906976
  20
42.58003493455465
  30
923.474
  0
VERTEX
  8
Unknown Area Type
  70
32
  10
-5.92138554558767
  20
42.5800398974074
  30
923.522
  0
VERTEX
  8
Unknown Area Type
  70
32
  10
-5.89784534963594
  20
42.5841275195947
  30
955.058
  0
VERTEX
  8
Unknown Area Type
  70
32
  10
-5.88461933311603
  20
42.58006270524739
  30
942.806
  0
VERTEX
  8
Unknown Area Type
  70
32
  10
-5.88461179553805
  20
42.58003137845474
  30
943.136
  0
VERTEX
  8
Unknown Area Type
  70
32
  10
-5.88596880279176
  20
42.55874138024591
  30
922.73
  0
VERTEX
  8
Unknown Area Type
  70
32
  10
-5.88596693606244
  20
42.55870090570406
  30
922.891
  0
SEQEND
  8
Unknown Area Type
  0
TEXT
  8
Unknown Area Type
 62
7
  1
PNOA-H_AMS_1956-57_33k_ES_PAN_2
 40
0.00045
  10
-5.90300763667695
  20
42.56579112259688
  0
POLYLINE
  8
Unknown Area Type
  70
9
  66
1
  0
VERTEX
  8
Unknown Area Type
  70
32
  10
-6.041257788163
  20
42.58129439995592
  30
954.474
  0
VERTEX
  8
Unknown Area Type
  70
32
  10
-6.03025767094699
  20
42.58109986031758
  30
939.334
  0
VERTEX
  8
Unknown Area Type
  70
32
  10
-6.03017835351412
  20
42.5810974575566
  30
939.233
  0
VERTEX
  8
Unknown Area Type
  70
32
  10
-6.02999102182597
  20
42.58100336470267
  30
939.156
  0
VERTEX
  8
Unknown Area Type
  70
32
  10
-6.02989244026991
  20
42.5767062412099
  30
937.103
  0
VERTEX
  8
Unknown Area Type
  70
32
  10
-6.03405472738162
  20
42.54521464417178
  30
897.156
  0
VERTEX
  8
Unknown Area Type
  70
32
  10
-6.03407318853335
  20
42.54521865727946
  30
897.201
  0
VERTEX
  8
Unknown Area Type
  70
32
  10
-6.03412445248151
  20
42.54527132695991
  30
897.174
  0
VERTEX
  8
Unknown Area Type
  70
32
  10
-6.06542391287541
  20
42.57826358686494
  30
966.545
  0
VERTEX
  8
Unknown Area Type
  70
32
  10
-6.06548167925645
  20
42.58068429078968
  30
970.632
  0
VERTEX
  8
Unknown Area Type
  70
32
  10
-6.06310571265934
  20
42.58167987369312
  30
993.679
  0
VERTEX
  8
Unknown Area Type
  70
32
  10
-6.04133688708646
  20
42.58129229849327
  30
954.467
  0
VERTEX
  8
Unknown Area Type
  70
32
  10
-6.041257788163
  20
42.58129439995592
  30
954.474
  0
SEQEND
  8
Unknown Area Type
  0
TEXT
  8
Unknown Area Type
 62
7
  1
PNOA-H_AMS_1956-57_33k_ES_PAN_2
 40
0.00045
  10
-6.04768719974513
  20
42.57048484893863
  0
POLYLINE
  8
Unknown Area Type
  70
9
  66
1
  0
VERTEX
  8
Unknown Area Type
  70
32
  10
-6.041257788163
  20
42.58129439995592
  30
954.474
  0
VERTEX
  8
Unknown Area Type
  70
32
  10
-6.03025767094699
  20
42.58109986031758
  30
939.334
  0
VERTEX
  8
Unknown Area Type
  70
32
  10
-6.03017835351412
  20
42.5810974575566
  30
939.233
  0
VERTEX
  8
Unknown Area Type
  70
32
  10
-6.02999102182597
  20
42.58100336470267
  30
939.156
  0
VERTEX
  8
Unknown Area Type
  70
32
  10
-6.02989244026991
  20
42.5767062412099
  30
937.103
  0
VERTEX
  8
Unknown Area Type
  70
32
  10
-6.03405472738162
  20
42.54521464417178
  30
897.156
  0
VERTEX
  8
Unknown Area Type
  70
32
  10
-6.03407318853335
  20
42.54521865727946
  30
897.201
  0
VERTEX
  8
Unknown Area Type
  70
32
  10
-6.03412445248151
  20
42.54527132695991
  30
897.174
  0
VERTEX
  8
Unknown Area Type
  70
32
  10
-6.06542391287541
  20
42.57826358686494
  30
966.545
  0
VERTEX
  8
Unknown Area Type
  70
32
  10
-6.06548167925645
  20
42.58068429078968
  30
970.632
  0
VERTEX
  8
Unknown Area Type
  70
32
  10
-6.06310571265934
  20
42.58167987369312
  30
993.679
  0
VERTEX
  8
Unknown Area Type
  70
32
  10
-6.04133688708646
  20
42.58129229849327
  30
954.467
  0
VERTEX
  8
Unknown Area Type
  70
32
  10
-6.041257788163
  20
42.58129439995592
  30
954.474
  0
SEQEND
  8
Unknown Area Type
  0
TEXT
  8
Unknown Area Type
 62
7
  1
PNOA-H_AMS_1956-57_33k_ES_PAN_2
 40
0.00045
  10
-6.04768719974513
  20
42.57048484893863
  0
POLYLINE
  8
Unknown Area Type
  70
9
  66
1
  0
VERTEX
  8
Unknown Area Type
  70
32
  10
-6.09457111170641
  20
42.58262549789551
  30
1008.098
  0
VERTEX
  8
Unknown Area Type
  70
32
  10
-6.06548167925645
  20
42.58068429078968
  30
970.632
  0
VERTEX
  8
Unknown Area Type
  70
32
  10
-6.0654232515238
  20
42.57825009759787
  30
966.604
  0
VERTEX
  8
Unknown Area Type
  70
32
  10
-6.06844710189136
  20
42.54029543895091
  30
893.86
  0
VERTEX
  8
Unknown Area Type
  70
32
  10
-6.0684592626839
  20
42.54029511301666
  30
893.897
  0
VERTEX
  8
Unknown Area Type
  70
32
  10
-6.06850469038609
  20
42.54035242594651
  30
893.824
  0
VERTEX
  8
Unknown Area Type
  70
32
  10
-6.09962179884818
  20
42.58078247040575
  30
1025.755
  0
VERTEX
  8
Unknown Area Type
  70
32
  10
-6.09956837903667
  20
42.58081093076557
  30
1026.237
  0
VERTEX
  8
Unknown Area Type
  70
32
  10
-6.09458305784337
  20
42.58262067263134
  30
1008.185
  0
VERTEX
  8
Unknown Area Type
  70
32
  10
-6.09457111170641
  20
42.58262549789551
  30
1008.098
  0
SEQEND
  8
Unknown Area Type
  0
TEXT
  8
Unknown Area Type
 62
7
  1
PNOA-H_AMS_1956-57_33k_ES_PAN_2
 40
0.00045
  10
-6.08252271077378
  20
42.57019217153087
  0
POLYLINE
  8
Unknown Area Type
  70
9
  66
1
  0
VERTEX
  8
Unknown Area Type
  70
32
  10
-6.09457111170641
  20
42.58262549789551
  30
1008.098
  0
VERTEX
  8
Unknown Area Type
  70
32
  10
-6.06548167925645
  20
42.58068429078968
  30
970.632
  0
VERTEX
  8
Unknown Area Type
  70
32
  10
-6.0654232515238
  20
42.57825009759787
  30
966.604
  0
VERTEX
  8
Unknown Area Type
  70
32
  10
-6.06844710189136
  20
42.54029543895091
  30
893.86
  0
VERTEX
  8
Unknown Area Type
  70
32
  10
-6.0684592626839
  20
42.54029511301666
  30
893.897
  0
VERTEX
  8
Unknown Area Type
  70
32
  10
-6.06850469038609
  20
42.54035242594651
  30
893.824
  0
VERTEX
  8
Unknown Area Type
  70
32
  10
-6.09962179884818
  20
42.58078247040575
  30
1025.755
  0
VERTEX
  8
Unknown Area Type
  70
32
  10
-6.09956837903667
  20
42.58081093076557
  30
1026.237
  0
VERTEX
  8
Unknown Area Type
  70
32
  10
-6.09458305784337
  20
42.58262067263134
  30
1008.185
  0
VERTEX
  8
Unknown Area Type
  70
32
  10
-6.09457111170641
  20
42.58262549789551
  30
1008.098
  0
SEQEND
  8
Unknown Area Type
  0
TEXT
  8
Unknown Area Type
 62
7
  1
PNOA-H_AMS_1956-57_33k_ES_PAN_2
 40
0.00045
  10
-6.08252271077378
  20
42.57019217153087
  0
POLYLINE
  8
Unknown Area Type
  70
9
  66
1
  0
VERTEX
  8
Unknown Area Type
  70
32
  10
-6.18749999999997
  20
42.58333333333335
  30
1162.791
  0
VERTEX
  8
Unknown Area Type
  70
32
  10
-6.18749999999997
  20
42.60416666666666
  30
1111.033
  0
VERTEX
  8
Unknown Area Type
  70
32
  10
-6.18749999999997
  20
42.62499999999998
  30
1059.275
  0
VERTEX
  8
Unknown Area Type
  70
32
  10
-6.18749999999997
  20
42.62778175113303
  30
1061.492
  0
VERTEX
  8
Unknown Area Type
  70
32
  10
-6.18646267627406
  20
42.62811654125922
  30
1065.689
  0
VERTEX
  8
Unknown Area Type
  70
32
  10
-6.18645072931943
  20
42.62812137613846
  30
1065.714
  0
VERTEX
  8
Unknown Area Type
  70
32
  10
-6.15746938983704
  20
42.62686255422373
  30
1033.413
  0
VERTEX
  8
Unknown Area Type
  70
32
  10
-6.15767084546212
  20
42.58214037338072
  30
1172.925
  0
VERTEX
  8
Unknown Area Type
  70
32
  10
-6.17359182165016
  20
42.57844941462361
  30
1276.854
  0
VERTEX
  8
Unknown Area Type
  70
32
  10
-6.18749999999997
  20
42.58096856054478
  30
1182.083
  0
SEQEND
  8
Unknown Area Type
  0
TEXT
  8
Unknown Area Type
 62
7
  1
PNOA-H_AMS_1956-57_33k_ES_PAN_2
 40
0.00045
  10
-6.1735367667939
  20
42.60300966091484
  0
POLYLINE
  8
Unknown Area Type
  70
9
  66
1
  0
VERTEX
  8
Unknown Area Type
  70
32
  10
-6.18749999999997
  20
42.58333333333335
  30
1162.791
  0
VERTEX
  8
Unknown Area Type
  70
32
  10
-6.18749999999997
  20
42.60416666666666
  30
1111.033
  0
VERTEX
  8
Unknown Area Type
  70
32
  10
-6.18749999999997
  20
42.62499999999998
  30
1059.275
  0
VERTEX
  8
Unknown Area Type
  70
32
  10
-6.18749999999997
  20
42.62778175113303
  30
1061.492
  0
VERTEX
  8
Unknown Area Type
  70
32
  10
-6.18646267627406
  20
42.62811654125922
  30
1065.689
  0
VERTEX
  8
Unknown Area Type
  70
32
  10
-6.18645072931943
  20
42.62812137613846
  30
1065.714
  0
VERTEX
  8
Unknown Area Type
  70
32
  10
-6.15746938983704
  20
42.62686255422373
  30
1033.413
  0
VERTEX
  8
Unknown Area Type
  70
32
  10
-6.15767084546212
  20
42.58214037338072
  30
1172.925
  0
VERTEX
  8
Unknown Area Type
  70
32
  10
-6.17359182165016
  20
42.57844941462361
  30
1276.854
  0
VERTEX
  8
Unknown Area Type
  70
32
  10
-6.18749999999997
  20
42.58096856054478
  30
1182.083
  0
SEQEND
  8
Unknown Area Type
  0
TEXT
  8
Unknown Area Type
 62
7
  1
PNOA-H_AMS_1956-57_33k_ES_PAN_2
 40
0.00045
  10
-6.1735367667939
  20
42.60300966091484
  0
POLYLINE
  8
Unknown Area Type
  70
9
  66
1
  0
VERTEX
  8
Unknown Area Type
  70
32
  10
-6.06254472793774
  20
42.59099668093326
  30
1001.002
  0
VERTEX
  8
Unknown Area Type
  70
32
  10
-6.06310549234899
  20
42.5816753772637
  30
993.674
  0
VERTEX
  8
Unknown Area Type
  70
32
  10
-6.06547559492033
  20
42.58068445372285
  30
970.719
  0
VERTEX
  8
Unknown Area Type
  70
32
  10
-6.09456502734809
  20
42.58262566237934
  30
1008.043
  0
VERTEX
  8
Unknown Area Type
  70
32
  10
-6.0933559391302
  20
42.62576787554217
  30
987.083
  0
VERTEX
  8
Unknown Area Type
  70
32
  10
-6.09334977833208
  20
42.6258896038509
  30
987.089
  0
VERTEX
  8
Unknown Area Type
  70
32
  10
-6.09331369252098
  20
42.62589958369649
  30
987.053
  0
VERTEX
  8
Unknown Area Type
  70
32
  10
-6.08468039167078
  20
42.62811359094616
  30
976.937
  0
VERTEX
  8
Unknown Area Type
  70
32
  10
-6.06048334821607
  20
42.62516582033288
  30
967.079
  0
VERTEX
  8
Unknown Area Type
  70
32
  10
-6.06254560930555
  20
42.591014666631
  30
1000.978
  0
VERTEX
  8
Unknown Area Type
  70
32
  10
-6.06254472793774
  20
42.59099668093326
  30
1001.002
  0
SEQEND
  8
Unknown Area Type
  0
TEXT
  8
Unknown Area Type
 62
7
  1
PNOA-H_AMS_1956-57_33k_ES_PAN_2
 40
0.00045
  10
-6.07752425609701
  20
42.60436370424081
  0
POLYLINE
  8
Unknown Area Type
  70
9
  66
1
  0
VERTEX
  8
Unknown Area Type
  70
32
  10
-6.06254472793774
  20
42.59099668093326
  30
1001.002
  0
VERTEX
  8
Unknown Area Type
  70
32
  10
-6.06310549234899
  20
42.5816753772637
  30
993.674
  0
VERTEX
  8
Unknown Area Type
  70
32
  10
-6.06547559492033
  20
42.58068445372285
  30
970.719
  0
VERTEX
  8
Unknown Area Type
  70
32
  10
-6.09456502734809
  20
42.58262566237934
  30
1008.043
  0
VERTEX
  8
Unknown Area Type
  70
32
  10
-6.0933559391302
  20
42.62576787554217
  30
987.083
  0
VERTEX
  8
Unknown Area Type
  70
32
  10
-6.09334977833208
  20
42.6258896038509
  30
987.089
  0
VERTEX
  8
Unknown Area Type
  70
32
  10
-6.09331369252098
  20
42.62589958369649
  30
987.053
  0
VERTEX
  8
Unknown Area Type
  70
32
  10
-6.08468039167078
  20
42.62811359094616
  30
976.937
  0
VERTEX
  8
Unknown Area Type
  70
32
  10
-6.06048334821607
  20
42.62516582033288
  30
967.079
  0
VERTEX
  8
Unknown Area Type
  70
32
  10
-6.06254560930555
  20
42.591014666631
  30
1000.978
  0
VERTEX
  8
Unknown Area Type
  70
32
  10
-6.06254472793774
  20
42.59099668093326
  30
1001.002
  0
SEQEND
  8
Unknown Area Type
  0
TEXT
  8
Unknown Area Type
 62
7
  1
PNOA-H_AMS_1956-57_33k_ES_PAN_2
 40
0.00045
  10
-6.07752425609701
  20
42.60436370424081
  0
POLYLINE
  8
Unknown Area Type
  70
9
  66
1
  0
VERTEX
  8
Unknown Area Type
  70
32
  10
-6.12608053491917
  20
42.58272832100428
  30
1118.896
  0
VERTEX
  8
Unknown Area Type
  70
32
  10
-6.10232128472201
  20
42.57993494436982
  30
1024.925
  0
VERTEX
  8
Unknown Area Type
  70
32
  10
-6.10257887492143
  20
42.53440496419171
  30
997.17
  0
VERTEX
  8
Unknown Area Type
  70
32
  10
-6.10258094454635
  20
42.53432386604181
  30
997.329
  0
VERTEX
  8
Unknown Area Type
  70
32
  10
-6.10325072057132
  20
42.53408059613577
  30
998.16
  0
VERTEX
  8
Unknown Area Type
  70
32
  10
-6.13489429241887
  20
42.53455567173826
  30
1002.295
  0
VERTEX
  8
Unknown Area Type
  70
32
  10
-6.13856330859763
  20
42.57907304679922
  30
1136.41
  0
VERTEX
  8
Unknown Area Type
  70
32
  10
-6.12609856263242
  20
42.5827233263696
  30
1118.964
  0
VERTEX
  8
Unknown Area Type
  70
32
  10
-6.12608053491917
  20
42.58272832100428
  30
1118.896
  0
SEQEND
  8
Unknown Area Type
  0
TEXT
  8
Unknown Area Type
 62
7
  1
PNOA-H_AMS_1956-57_33k_ES_PAN_2
 40
0.00045
  10
-6.12044241595037
  20
42.55820033170328
  0
POLYLINE
  8
Unknown Area Type
  70
9
  66
1
  0
VERTEX
  8
Unknown Area Type
  70
32
  10
-6.12608053491917
  20
42.58272832100428
  30
1118.896
  0
VERTEX
  8
Unknown Area Type
  70
32
  10
-6.10232128472201
  20
42.57993494436982
  30
1024.925
  0
VERTEX
  8
Unknown Area Type
  70
32
  10
-6.10257887492143
  20
42.53440496419171
  30
997.17
  0
VERTEX
  8
Unknown Area Type
  70
32
  10
-6.10258094454635
  20
42.53432386604181
  30
997.329
  0
VERTEX
  8
Unknown Area Type
  70
32
  10
-6.10325072057132
  20
42.53408059613577
  30
998.16
  0
VERTEX
  8
Unknown Area Type
  70
32
  10
-6.13489429241887
  20
42.53455567173826
  30
1002.295
  0
VERTEX
  8
Unknown Area Type
  70
32
  10
-6.13856330859763
  20
42.57907304679922
  30
1136.41
  0
VERTEX
  8
Unknown Area Type
  70
32
  10
-6.12609856263242
  20
42.5827233263696
  30
1118.964
  0
VERTEX
  8
Unknown Area Type
  70
32
  10
-6.12608053491917
  20
42.58272832100428
  30
1118.896
  0
SEQEND
  8
Unknown Area Type
  0
TEXT
  8
Unknown Area Type
 62
7
  1
PNOA-H_AMS_1956-57_33k_ES_PAN_2
 40
0.00045
  10
-6.12044241595037
  20
42.55820033170328
  0
POLYLINE
  8
Unknown Area Type
  70
9
  66
1
  0
VERTEX
  8
Unknown Area Type
  70
32
  10
-6.18749999999997
  20
42.54166666666663
  30
1116.434
  0
VERTEX
  8
Unknown Area Type
  70
32
  10
-6.18749999999997
  20
42.56250000000004
  30
1212.372
  0
VERTEX
  8
Unknown Area Type
  70
32
  10
-6.18749999999997
  20
42.58096737177627
  30
1182.084
  0
VERTEX
  8
Unknown Area Type
  70
32
  10
-6.17357334295215
  20
42.57844542466339
  30
1276.758
  0
VERTEX
  8
Unknown Area Type
  70
32
  10
-6.16922233901373
  20
42.53357448900373
  30
1076.949
  0
VERTEX
  8
Unknown Area Type
  70
32
  10
-6.16922188391002
  20
42.53356549697769
  30
1076.703
  0
VERTEX
  8
Unknown Area Type
  70
32
  10
-6.16925767620409
  20
42.53355099917938
  30
1075.998
  0
VERTEX
  8
Unknown Area Type
  70
32
  10
-6.17076298607041
  20
42.5329825460646
  30
1057.831
  0
VERTEX
  8
Unknown Area Type
  70
32
  10
-6.18749999999997
  20
42.53276413913017
  30
1116.844
  0
SEQEND
  8
Unknown Area Type
  0
TEXT
  8
Unknown Area Type
 62
7
  1
PNOA-H_AMS_1956-57_33k_ES_PAN_2
 40
0.00045
  10
-6.18715119960866
  20
42.55683485049926
  0
POLYLINE
  8
Unknown Area Type
  70
9
  66
1
  0
VERTEX
  8
Unknown Area Type
  70
32
  10
-6.18749999999997
  20
42.54166666666663
  30
1116.434
  0
VERTEX
  8
Unknown Area Type
  70
32
  10
-6.18749999999997
  20
42.56250000000004
  30
1212.372
  0
VERTEX
  8
Unknown Area Type
  70
32
  10
-6.18749999999997
  20
42.58096737177627
  30
1182.084
  0
VERTEX
  8
Unknown Area Type
  70
32
  10
-6.17357334295215
  20
42.57844542466339
  30
1276.758
  0
VERTEX
  8
Unknown Area Type
  70
32
  10
-6.16922233901373
  20
42.53357448900373
  30
1076.949
  0
VERTEX
  8
Unknown Area Type
  70
32
  10
-6.16922188391002
  20
42.53356549697769
  30
1076.703
  0
VERTEX
  8
Unknown Area Type
  70
32
  10
-6.16925767620409
  20
42.53355099917938
  30
1075.998
  0
VERTEX
  8
Unknown Area Type
  70
32
  10
-6.17076298607041
  20
42.5329825460646
  30
1057.831
  0
VERTEX
  8
Unknown Area Type
  70
32
  10
-6.18749999999997
  20
42.53276413913017
  30
1116.844
  0
SEQEND
  8
Unknown Area Type
  0
TEXT
  8
Unknown Area Type
 62
7
  1
PNOA-H_AMS_1956-57_33k_ES_PAN_2
 40
0.00045
  10
-6.18715119960866
  20
42.55683485049926
  0
POLYLINE
  8
Unknown Area Type
  70
9
  66
1
  0
VERTEX
  8
Unknown Area Type
  70
32
  10
-6.13736905710776
  20
42.53364594360594
  30
1003.736
  0
VERTEX
  8
Unknown Area Type
  70
32
  10
-6.1376795512065
  20
42.53352487608372
  30
1004.758
  0
VERTEX
  8
Unknown Area Type
  70
32
  10
-6.13784369338051
  20
42.53352037725602
  30
1005.325
  0
VERTEX
  8
Unknown Area Type
  70
32
  10
-6.16895394576893
  20
42.53356390949975
  30
1077.188
  0
VERTEX
  8
Unknown Area Type
  70
32
  10
-6.16922188391002
  20
42.53356549697769
  30
1076.703
  0
VERTEX
  8
Unknown Area Type
  70
32
  10
-6.16922841817424
  20
42.5335743207112
  30
1076.878
  0
VERTEX
  8
Unknown Area Type
  70
32
  10
-6.17357965466614
  20
42.57844975195628
  30
1276.797
  0
VERTEX
  8
Unknown Area Type
  70
32
  10
-6.15767107257092
  20
42.58214486940572
  30
1172.875
  0
VERTEX
  8
Unknown Area Type
  70
32
  10
-6.13856330859763
  20
42.57907304679922
  30
1136.41
  0
VERTEX
  8
Unknown Area Type
  70
32
  10
-6.13489429241887
  20
42.53455567173826
  30
1002.295
  0
VERTEX
  8
Unknown Area Type
  70
32
  10
-6.13735081904544
  20
42.53364644341292
  30
1003.677
  0
VERTEX
  8
Unknown Area Type
  70
32
  10
-6.13736905710776
  20
42.53364594360594
  30
1003.736
  0
SEQEND
  8
Unknown Area Type
  0
TEXT
  8
Unknown Area Type
 62
7
  1
PNOA-H_AMS_1956-57_33k_ES_PAN_2
 40
0.00045
  10
-6.15423711819469
  20
42.55756671615968
  0
POLYLINE
  8
Unknown Area Type
  70
9
  66
1
  0
VERTEX
  8
Unknown Area Type
  70
32
  10
-6.13736905710776
  20
42.53364594360594
  30
1003.736
  0
VERTEX
  8
Unknown Area Type
  70
32
  10
-6.1376795512065
  20
42.53352487608372
  30
1004.758
  0
VERTEX
  8
Unknown Area Type
  70
32
  10
-6.13784369338051
  20
42.53352037725602
  30
1005.325
  0
VERTEX
  8
Unknown Area Type
  70
32
  10
-6.16895394576893
  20
42.53356390949975
  30
1077.188
  0
VERTEX
  8
Unknown Area Type
  70
32
  10
-6.16922188391002
  20
42.53356549697769
  30
1076.703
  0
VERTEX
  8
Unknown Area Type
  70
32
  10
-6.16922841817424
  20
42.5335743207112
  30
1076.878
  0
VERTEX
  8
Unknown Area Type
  70
32
  10
-6.17357965466614
  20
42.57844975195628
  30
1276.797
  0
VERTEX
  8
Unknown Area Type
  70
32
  10
-6.15767107257092
  20
42.58214486940572
  30
1172.875
  0
VERTEX
  8
Unknown Area Type
  70
32
  10
-6.13856330859763
  20
42.57907304679922
  30
1136.41
  0
VERTEX
  8
Unknown Area Type
  70
32
  10
-6.13489429241887
  20
42.53455567173826
  30
1002.295
  0
VERTEX
  8
Unknown Area Type
  70
32
  10
-6.13735081904544
  20
42.53364644341292
  30
1003.677
  0
VERTEX
  8
Unknown Area Type
  70
32
  10
-6.13736905710776
  20
42.53364594360594
  30
1003.736
  0
SEQEND
  8
Unknown Area Type
  0
TEXT
  8
Unknown Area Type
 62
7
  1
PNOA-H_AMS_1956-57_33k_ES_PAN_2
 40
0.00045
  10
-6.15423711819469
  20
42.55756671615968
  0
POLYLINE
  8
Unknown Area Type
  70
9
  66
1
  0
VERTEX
  8
Unknown Area Type
  70
32
  10
-5.86480947939345
  20
42.6225178170229
  30
935.092
  0
VERTEX
  8
Unknown Area Type
  70
32
  10
-5.85416666666668
  20
42.62414363763818
  30
915.798
  0
VERTEX
  8
Unknown Area Type
  70
32
  10
-5.85416666666668
  20
42.60416666666666
  30
911.495
  0
VERTEX
  8
Unknown Area Type
  70
32
  10
-5.85416666666668
  20
42.58333333333335
  30
878.331
  0
VERTEX
  8
Unknown Area Type
  70
32
  10
-5.85416666666668
  20
42.58102212041055
  30
877.838
  0
VERTEX
  8
Unknown Area Type
  70
32
  10
-5.86407197786856
  20
42.58383380757024
  30
885.875
  0
SEQEND
  8
Unknown Area Type
  0
TEXT
  8
Unknown Area Type
 62
7
  1
PNOA-H_AMS_1956-57_33k_ES_PAN_2
 40
0.00045
  10
-5.85948807303006
  20
42.60258287902437
  0
POLYLINE
  8
Unknown Area Type
  70
9
  66
1
  0
VERTEX
  8
Unknown Area Type
  70
32
  10
-5.86480947939345
  20
42.6225178170229
  30
935.092
  0
VERTEX
  8
Unknown Area Type
  70
32
  10
-5.85416666666668
  20
42.62414363763818
  30
915.798
  0
VERTEX
  8
Unknown Area Type
  70
32
  10
-5.85416666666668
  20
42.60416666666666
  30
911.495
  0
VERTEX
  8
Unknown Area Type
  70
32
  10
-5.85416666666668
  20
42.58333333333335
  30
878.331
  0
VERTEX
  8
Unknown Area Type
  70
32
  10
-5.85416666666668
  20
42.58102212041055
  30
877.838
  0
VERTEX
  8
Unknown Area Type
  70
32
  10
-5.86407197786856
  20
42.58383380757024
  30
885.875
  0
SEQEND
  8
Unknown Area Type
  0
TEXT
  8
Unknown Area Type
 62
7
  1
PNOA-H_AMS_1956-57_33k_ES_PAN_2
 40
0.00045
  10
-5.85948807303006
  20
42.60258287902437
  0
POLYLINE
  8
Unknown Area Type
  70
9
  66
1
  0
VERTEX
  8
Unknown Area Type
  70
32
  10
-5.85416666666668
  20
42.58333333333335
  30
878.331
  0
VERTEX
  8
Unknown Area Type
  70
32
  10
-5.85416666666668
  20
42.60416666666666
  30
911.495
  0
VERTEX
  8
Unknown Area Type
  70
32
  10
-5.85416666666668
  20
42.62414363763818
  30
915.798
  0
VERTEX
  8
Unknown Area Type
  70
32
  10
-5.85416633333334
  20
42.62414368855896
  30
915.797
  0
VERTEX
  8
Unknown Area Type
  70
32
  10
-5.85416633333334
  20
42.58102202579171
  30
877.838
  0
VERTEX
  8
Unknown Area Type
  70
32
  10
-5.85416666666668
  20
42.58102212041055
  30
877.838
  0
SEQEND
  8
Unknown Area Type
  0
TEXT
  8
Unknown Area Type
 62
7
  1
PNOA-H_AMS_1956-57_33k_ES_PAN_2
 40
0.00045
  10
-5.85416650000001
  20
42.60258285717534
  0
POLYLINE
  8
Unknown Area Type
  70
9
  66
1
  0
VERTEX
  8
Unknown Area Type
  70
32
  10
-6.18749999999997
  20
42.52083333333331
  30
1117.061
  0
VERTEX
  8
Unknown Area Type
  70
32
  10
-6.18749999999997
  20
42.53276530120574
  30
1116.518
  0
VERTEX
  8
Unknown Area Type
  70
32
  10
-6.17076298607041
  20
42.5329825460646
  30
1057.831
  0
VERTEX
  8
Unknown Area Type
  70
32
  10
-6.17116930373258
  20
42.5
  30
1037.384
  0
VERTEX
  8
Unknown Area Type
  70
32
  10
-6.18749999999997
  20
42.5
  30
1035.704
  0
SEQEND
  8
Unknown Area Type
  0
TEXT
  8
Unknown Area Type
 62
7
  1
PNOA-H_AMS_1956-57_33k_ES_PAN_2
 40
0.00045
  10
-6.1871336019236
  20
42.5132086361443
  0
POLYLINE
  8
Unknown Area Type
  70
9
  66
1
  0
VERTEX
  8
Unknown Area Type
  70
32
  10
-6.18749999999997
  20
42.52083333333331
  30
1117.061
  0
VERTEX
  8
Unknown Area Type
  70
32
  10
-6.18749999999997
  20
42.53276530120574
  30
1116.518
  0
VERTEX
  8
Unknown Area Type
  70
32
  10
-6.17076298607041
  20
42.5329825460646
  30
1057.831
  0
VERTEX
  8
Unknown Area Type
  70
32
  10
-6.17116930373258
  20
42.5
  30
1037.384
  0
VERTEX
  8
Unknown Area Type
  70
32
  10
-6.18749999999997
  20
42.5
  30
1035.704
  0
SEQEND
  8
Unknown Area Type
  0
TEXT
  8
Unknown Area Type
 62
7
  1
PNOA-H_AMS_1956-57_33k_ES_PAN_2
 40
0.00045
  10
-6.1871336019236
  20
42.5132086361443
  0
POLYLINE
  8
Unknown Area Type
  70
9
  66
1
  0
VERTEX
  8
Unknown Area Type
  70
32
  10
-6.18749999999997
  20
42.5
  30
1035.704
  0
VERTEX
  8
Unknown Area Type
  70
32
  10
-6.17116930373258
  20
42.5
  30
1037.384
  0
VERTEX
  8
Unknown Area Type
  70
32
  10
-6.17116930578578
  20
42.49999983333333
  30
1037.384
  0
VERTEX
  8
Unknown Area Type
  70
32
  10
-6.18749999999997
  20
42.49999983333333
  30
1035.704
  0
SEQEND
  8
Unknown Area Type
  0
TEXT
  8
Unknown Area Type
 62
7
  1
PNOA-H_AMS_1956-57_33k_ES_PAN_2
 40
0.00045
  10
-6.17933465186628
  20
42.49999991666667
  0
POLYLINE
  8
Unknown Area Type
  70
9
  66
1
  0
VERTEX
  8
Unknown Area Type
  70
32
  10
-6.10256900808021
  20
42.53432869185947
  30
997.342
  0
VERTEX
  8
Unknown Area Type
  70
32
  10
-6.08904776292893
  20
42.53444669121345
  30
960.023
  0
VERTEX
  8
Unknown Area Type
  70
32
  10
-6.08885321214745
  20
42.53445194038568
  30
959.685
  0
VERTEX
  8
Unknown Area Type
  70
32
  10
-6.06877833546967
  20
42.5346316123527
  30
890.044
  0
VERTEX
  8
Unknown Area Type
  70
32
  10
-6.06706068455728
  20
42.5
  30
925.811
  0
VERTEX
  8
Unknown Area Type
  70
32
  10
-6.10255204664889
  20
42.5
  30
950.742
  0
VERTEX
  8
Unknown Area Type
  70
32
  10
-6.10326287975906
  20
42.53408026654681
  30
998.154
  0
SEQEND
  8
Unknown Area Type
  0
TEXT
  8
Unknown Area Type
 62
7
  1
PNOA-H_AMS_1956-57_33k_ES_PAN_2
 40
0.00045
  10
-6.0850765091751
  20
42.51418458639975
  0
POLYLINE
  8
Unknown Area Type
  70
9
  66
1
  0
VERTEX
  8
Unknown Area Type
  70
32
  10
-6.10256900808021
  20
42.53432869185947
  30
997.342
  0
VERTEX
  8
Unknown Area Type
  70
32
  10
-6.08904776292893
  20
42.53444669121345
  30
960.023
  0
VERTEX
  8
Unknown Area Type
  70
32
  10
-6.08885321214745
  20
42.53445194038568
  30
959.685
  0
VERTEX
  8
Unknown Area Type
  70
32
  10
-6.06877833546967
  20
42.5346316123527
  30
890.044
  0
VERTEX
  8
Unknown Area Type
  70
32
  10
-6.06706068455728
  20
42.5
  30
925.811
  0
VERTEX
  8
Unknown Area Type
  70
32
  10
-6.10255204664889
  20
42.5
  30
950.742
  0
VERTEX
  8
Unknown Area Type
  70
32
  10
-6.10326287975906
  20
42.53408026654681
  30
998.154
  0
SEQEND
  8
Unknown Area Type
  0
TEXT
  8
Unknown Area Type
 62
7
  1
PNOA-H_AMS_1956-57_33k_ES_PAN_2
 40
0.00045
  10
-6.0850765091751
  20
42.51418458639975
  0
POLYLINE
  8
Unknown Area Type
  70
9
  66
1
  0
VERTEX
  8
Unknown Area Type
  70
32
  10
-6.10255204664889
  20
42.5
  30
950.742
  0
VERTEX
  8
Unknown Area Type
  70
32
  10
-6.06706068455728
  20
42.5
  30
925.811
  0
VERTEX
  8
Unknown Area Type
  70
32
  10
-6.06706067629098
  20
42.49999983333333
  30
925.811
  0
VERTEX
  8
Unknown Area Type
  70
32
  10
-6.10255204317262
  20
42.49999983333333
  30
950.742
  0
SEQEND
  8
Unknown Area Type
  0
TEXT
  8
Unknown Area Type
 62
7
  1
PNOA-H_AMS_1956-57_33k_ES_PAN_2
 40
0.00045
  10
-6.08480636146994
  20
42.49999991666667
  0
POLYLINE
  8
Unknown Area Type
  70
9
  66
1
  0
VERTEX
  8
Unknown Area Type
  70
32
  10
-6.17076678858569
  20
42.53293741762459
  30
1057.891
  0
VERTEX
  8
Unknown Area Type
  70
32
  10
-6.17076321372814
  20
42.53298704207136
  30
1057.803
  0
VERTEX
  8
Unknown Area Type
  70
32
  10
-6.16924597299476
  20
42.53356032779293
  30
1076.332
  0
VERTEX
  8
Unknown Area Type
  70
32
  10
-6.16923404222925
  20
42.53356516039241
  30
1076.573
  0
VERTEX
  8
Unknown Area Type
  70
32
  10
-6.13769778922769
  20
42.53352437622556
  30
1004.824
  0
VERTEX
  8
Unknown Area Type
  70
32
  10
-6.1377486874769
  20
42.5
  30
990.325
  0
VERTEX
  8
Unknown Area Type
  70
32
  10
-6.14583333333334
  20
42.5
  30
1013.531
  0
VERTEX
  8
Unknown Area Type
  70
32
  10
-6.17116980357418
  20
42.5
  30
1037.397
  0
SEQEND
  8
Unknown Area Type
  0
TEXT
  8
Unknown Area Type
 62
7
  1
PNOA-H_AMS_1956-57_33k_ES_PAN_2
 40
0.00045
  10
-6.15447075596098
  20
42.51351227062813
  0
POLYLINE
  8
Unknown Area Type
  70
9
  66
1
  0
VERTEX
  8
Unknown Area Type
  70
32
  10
-6.17076678858569
  20
42.53293741762459
  30
1057.891
  0
VERTEX
  8
Unknown Area Type
  70
32
  10
-6.17076321372814
  20
42.53298704207136
  30
1057.803
  0
VERTEX
  8
Unknown Area Type
  70
32
  10
-6.16924597299476
  20
42.53356032779293
  30
1076.332
  0
VERTEX
  8
Unknown Area Type
  70
32
  10
-6.16923404222925
  20
42.53356516039241
  30
1076.573
  0
VERTEX
  8
Unknown Area Type
  70
32
  10
-6.13769778922769
  20
42.53352437622556
  30
1004.824
  0
VERTEX
  8
Unknown Area Type
  70
32
  10
-6.1377486874769
  20
42.5
  30
990.325
  0
VERTEX
  8
Unknown Area Type
  70
32
  10
-6.14583333333334
  20
42.5
  30
1013.531
  0
VERTEX
  8
Unknown Area Type
  70
32
  10
-6.17116980357418
  20
42.5
  30
1037.397
  0
SEQEND
  8
Unknown Area Type
  0
TEXT
  8
Unknown Area Type
 62
7
  1
PNOA-H_AMS_1956-57_33k_ES_PAN_2
 40
0.00045
  10
-6.15447075596098
  20
42.51351227062813
  0
POLYLINE
  8
Unknown Area Type
  70
9
  66
1
  0
VERTEX
  8
Unknown Area Type
  70
32
  10
-6.17116980357418
  20
42.5
  30
1037.397
  0
VERTEX
  8
Unknown Area Type
  70
32
  10
-6.14583333333334
  20
42.5
  30
1013.531
  0
VERTEX
  8
Unknown Area Type
  70
32
  10
-6.1377486874769
  20
42.5
  30
990.325
  0
VERTEX
  8
Unknown Area Type
  70
32
  10
-6.13774868772994
  20
42.49999983333333
  30
990.325
  0
VERTEX
  8
Unknown Area Type
  70
32
  10
-6.17116980561348
  20
42.49999983333333
  30
1037.397
  0
SEQEND
  8
Unknown Area Type
  0
TEXT
  8
Unknown Area Type
 62
7
  1
PNOA-H_AMS_1956-57_33k_ES_PAN_2
 40
0.00045
  10
-6.15445924654519
  20
42.49999991666667
  0
POLYLINE
  8
Unknown Area Type
  70
9
  66
1
  0
VERTEX
  8
Unknown Area Type
  70
32
  10
-6.13772374850712
  20
42.51435724783159
  30
1051.92
  0
VERTEX
  8
Unknown Area Type
  70
32
  10
-6.13772960219474
  20
42.51447414810898
  30
1050.577
  0
VERTEX
  8
Unknown Area Type
  70
32
  10
-6.13769778922769
  20
42.53352437622556
  30
1004.824
  0
VERTEX
  8
Unknown Area Type
  70
32
  10
-6.13490645133212
  20
42.53455533878886
  30
1002.22
  0
VERTEX
  8
Unknown Area Type
  70
32
  10
-6.13482133893504
  20
42.53455766940762
  30
1002.737
  0
VERTEX
  8
Unknown Area Type
  70
32
  10
-6.10326287975906
  20
42.53408026654681
  30
998.154
  0
VERTEX
  8
Unknown Area Type
  70
32
  10
-6.10254907784657
  20
42.5
  30
951.464
  0
VERTEX
  8
Unknown Area Type
  70
32
  10
-6.10416666666663
  20
42.5
  30
951.51
  0
VERTEX
  8
Unknown Area Type
  70
32
  10
-6.13775099012908
  20
42.5
  30
1007.034
  0
SEQEND
  8
Unknown Area Type
  0
TEXT
  8
Unknown Area Type
 62
7
  1
PNOA-H_AMS_1956-57_33k_ES_PAN_2
 40
0.00045
  10
-6.12010684354165
  20
42.51386670972828
  0
POLYLINE
  8
Unknown Area Type
  70
9
  66
1
  0
VERTEX
  8
Unknown Area Type
  70
32
  10
-6.13772374850712
  20
42.51435724783159
  30
1051.92
  0
VERTEX
  8
Unknown Area Type
  70
32
  10
-6.13772960219474
  20
42.51447414810898
  30
1050.577
  0
VERTEX
  8
Unknown Area Type
  70
32
  10
-6.13769778922769
  20
42.53352437622556
  30
1004.824
  0
VERTEX
  8
Unknown Area Type
  70
32
  10
-6.13490645133212
  20
42.53455533878886
  30
1002.22
  0
VERTEX
  8
Unknown Area Type
  70
32
  10
-6.13482133893504
  20
42.53455766940762
  30
1002.737
  0
VERTEX
  8
Unknown Area Type
  70
32
  10
-6.10326287975906
  20
42.53408026654681
  30
998.154
  0
VERTEX
  8
Unknown Area Type
  70
32
  10
-6.10254907784657
  20
42.5
  30
951.464
  0
VERTEX
  8
Unknown Area Type
  70
32
  10
-6.10416666666663
  20
42.5
  30
951.51
  0
VERTEX
  8
Unknown Area Type
  70
32
  10
-6.13775099012908
  20
42.5
  30
1007.034
  0
SEQEND
  8
Unknown Area Type
  0
TEXT
  8
Unknown Area Type
 62
7
  1
PNOA-H_AMS_1956-57_33k_ES_PAN_2
 40
0.00045
  10
-6.12010684354165
  20
42.51386670972828
  0
POLYLINE
  8
Unknown Area Type
  70
9
  66
1
  0
VERTEX
  8
Unknown Area Type
  70
32
  10
-6.13775099012908
  20
42.5
  30
1007.034
  0
VERTEX
  8
Unknown Area Type
  70
32
  10
-6.10416666666663
  20
42.5
  30
951.51
  0
VERTEX
  8
Unknown Area Type
  70
32
  10
-6.10254907784657
  20
42.5
  30
951.464
  0
VERTEX
  8
Unknown Area Type
  70
32
  10
-6.10254907435578
  20
42.49999983333333
  30
951.464
  0
VERTEX
  8
Unknown Area Type
  70
32
  10
-6.13775099044532
  20
42.49999983333333
  30
1007.033
  0
SEQEND
  8
Unknown Area Type
  0
TEXT
  8
Unknown Area Type
 62
7
  1
PNOA-H_AMS_1956-57_33k_ES_PAN_2
 40
0.00045
  10
-6.12015003240055
  20
42.49999991666667
  0
POLYLINE
  8
Unknown Area Type
  70
9
  66
1
  0
VERTEX
  8
Unknown Area Type
  70
32
  10
-5.99953498960552
  20
42.53424699882097
  30
961.392
  0
VERTEX
  8
Unknown Area Type
  70
32
  10
-5.97066394753145
  20
42.53522034762183
  30
905.436
  0
VERTEX
  8
Unknown Area Type
  70
32
  10
-5.96412012074219
  20
42.53304870498899
  30
898.623
  0
VERTEX
  8
Unknown Area Type
  70
32
  10
-5.96410774735231
  20
42.53304452292972
  30
898.596
  0
VERTEX
  8
Unknown Area Type
  70
32
  10
-5.96362561198678
  20
42.53289041529187
  30
898.392
  0
VERTEX
  8
Unknown Area Type
  70
32
  10
-5.96362284561169
  20
42.53283195585654
  30
898.316
  0
VERTEX
  8
Unknown Area Type
  70
32
  10
-5.96356081558226
  20
42.5
  30
936.288
  0
VERTEX
  8
Unknown Area Type
  70
32
  10
-5.97916666666665
  20
42.5
  30
933.443
  0
VERTEX
  8
Unknown Area Type
  70
32
  10
-5.99874216581189
  20
42.5
  30
944.644
  0
SEQEND
  8
Unknown Area Type
  0
TEXT
  8
Unknown Area Type
 62
7
  1
PNOA-H_AMS_1956-57_33k_ES_PAN_2
 40
0.00045
  10
-5.98154674106366
  20
42.51539527100527
  0
POLYLINE
  8
Unknown Area Type
  70
9
  66
1
  0
VERTEX
  8
Unknown Area Type
  70
32
  10
-5.99953498960552
  20
42.53424699882097
  30
961.392
  0
VERTEX
  8
Unknown Area Type
  70
32
  10
-5.97066394753145
  20
42.53522034762183
  30
905.436
  0
VERTEX
  8
Unknown Area Type
  70
32
  10
-5.96412012074219
  20
42.53304870498899
  30
898.623
  0
VERTEX
  8
Unknown Area Type
  70
32
  10
-5.96410774735231
  20
42.53304452292972
  30
898.596
  0
VERTEX
  8
Unknown Area Type
  70
32
  10
-5.96362561198678
  20
42.53289041529187
  30
898.392
  0
VERTEX
  8
Unknown Area Type
  70
32
  10
-5.96362284561169
  20
42.53283195585654
  30
898.316
  0
VERTEX
  8
Unknown Area Type
  70
32
  10
-5.96356081558226
  20
42.5
  30
936.288
  0
VERTEX
  8
Unknown Area Type
  70
32
  10
-5.97916666666665
  20
42.5
  30
933.443
  0
VERTEX
  8
Unknown Area Type
  70
32
  10
-5.99874216581189
  20
42.5
  30
944.644
  0
SEQEND
  8
Unknown Area Type
  0
TEXT
  8
Unknown Area Type
 62
7
  1
PNOA-H_AMS_1956-57_33k_ES_PAN_2
 40
0.00045
  10
-5.98154674106366
  20
42.51539527100527
  0
POLYLINE
  8
Unknown Area Type
  70
9
  66
1
  0
VERTEX
  8
Unknown Area Type
  70
32
  10
-5.99874216581189
  20
42.5
  30
944.644
  0
VERTEX
  8
Unknown Area Type
  70
32
  10
-5.97916666666665
  20
42.5
  30
933.443
  0
VERTEX
  8
Unknown Area Type
  70
32
  10
-5.96356081558226
  20
42.5
  30
936.288
  0
VERTEX
  8
Unknown Area Type
  70
32
  10
-5.96356081526738
  20
42.49999983333333
  30
936.289
  0
VERTEX
  8
Unknown Area Type
  70
32
  10
-5.99874216195353
  20
42.49999983333333
  30
944.644
  0
SEQEND
  8
Unknown Area Type
  0
TEXT
  8
Unknown Area Type
 62
7
  1
PNOA-H_AMS_1956-57_33k_ES_PAN_2
 40
0.00045
  10
-5.98115149053963
  20
42.49999991666667
  0
POLYLINE
  8
Unknown Area Type
  70
9
  66
1
  0
VERTEX
  8
Unknown Area Type
  70
32
  10
-5.92817277803127
  20
42.53319476180413
  30
903.264
  0
VERTEX
  8
Unknown Area Type
  70
32
  10
-5.89542746798115
  20
42.53597704521013
  30
877.754
  0
VERTEX
  8
Unknown Area Type
  70
32
  10
-5.89534862373521
  20
42.53598354138565
  30
877.339
  0
VERTEX
  8
Unknown Area Type
  70
32
  10
-5.89354643358321
  20
42.53584900284592
  30
872.365
  0
VERTEX
  8
Unknown Area Type
  70
32
  10
-5.89264283389708
  20
42.50019464883215
  30
831.93
  0
VERTEX
  8
Unknown Area Type
  70
32
  10
-5.89356655642473
  20
42.5
  30
836.921
  0
VERTEX
  8
Unknown Area Type
  70
32
  10
-5.89583333333331
  20
42.5
  30
848.648
  0
VERTEX
  8
Unknown Area Type
  70
32
  10
-5.9253871792548
  20
42.5
  30
923.202
  0
VERTEX
  8
Unknown Area Type
  70
32
  10
-5.92770544182006
  20
42.50039765304591
  30
924.408
  0
SEQEND
  8
Unknown Area Type
  0
TEXT
  8
Unknown Area Type
 62
7
  1
PNOA-H_AMS_1956-57_33k_ES_PAN_2
 40
0.00045
  10
-5.91040812389866
  20
42.51606589333868
  0
POLYLINE
  8
Unknown Area Type
  70
9
  66
1
  0
VERTEX
  8
Unknown Area Type
  70
32
  10
-5.92817277803127
  20
42.53319476180413
  30
903.264
  0
VERTEX
  8
Unknown Area Type
  70
32
  10
-5.89542746798115
  20
42.53597704521013
  30
877.754
  0
VERTEX
  8
Unknown Area Type
  70
32
  10
-5.89534862373521
  20
42.53598354138565
  30
877.339
  0
VERTEX
  8
Unknown Area Type
  70
32
  10
-5.89354643358321
  20
42.53584900284592
  30
872.365
  0
VERTEX
  8
Unknown Area Type
  70
32
  10
-5.89264283389708
  20
42.50019464883215
  30
831.93
  0
VERTEX
  8
Unknown Area Type
  70
32
  10
-5.89356655642473
  20
42.5
  30
836.921
  0
VERTEX
  8
Unknown Area Type
  70
32
  10
-5.89583333333331
  20
42.5
  30
848.648
  0
VERTEX
  8
Unknown Area Type
  70
32
  10
-5.9253871792548
  20
42.5
  30
923.202
  0
VERTEX
  8
Unknown Area Type
  70
32
  10
-5.92770544182006
  20
42.50039765304591
  30
924.408
  0
SEQEND
  8
Unknown Area Type
  0
TEXT
  8
Unknown Area Type
 62
7
  1
PNOA-H_AMS_1956-57_33k_ES_PAN_2
 40
0.00045
  10
-5.91040812389866
  20
42.51606589333868
  0
POLYLINE
  8
Unknown Area Type
  70
9
  66
1
  0
VERTEX
  8
Unknown Area Type
  70
32
  10
-5.9253871792548
  20
42.5
  30
923.202
  0
VERTEX
  8
Unknown Area Type
  70
32
  10
-5.89583333333331
  20
42.5
  30
848.648
  0
VERTEX
  8
Unknown Area Type
  70
32
  10
-5.89356655642473
  20
42.5
  30
836.921
  0
VERTEX
  8
Unknown Area Type
  70
32
  10
-5.89356734735552
  20
42.49999983333333
  30
836.925
  0
VERTEX
  8
Unknown Area Type
  70
32
  10
-5.92538620761107
  20
42.49999983333333
  30
923.201
  0
SEQEND
  8
Unknown Area Type
  0
TEXT
  8
Unknown Area Type
 62
7
  1
PNOA-H_AMS_1956-57_33k_ES_PAN_2
 40
0.00045
  10
-5.90947686783977
  20
42.49999991666667
  0
POLYLINE
  8
Unknown Area Type
  70
9
  66
1
  0
VERTEX
  8
Unknown Area Type
  70
32
  10
-6.06850492891298
  20
42.53551239622643
  30
890.551
  0
VERTEX
  8
Unknown Area Type
  70
32
  10
-6.06851522897157
  20
42.53472871146064
  30
889.94
  0
VERTEX
  8
Unknown Area Type
  70
32
  10
-6.06876617577964
  20
42.53463193828603
  30
890.03
  0
VERTEX
  8
Unknown Area Type
  70
32
  10
-6.10258116732394
  20
42.53432836234131
  30
997.339
  0
VERTEX
  8
Unknown Area Type
  70
32
  10
-6.10232128472201
  20
42.57993494436982
  30
1024.925
  0
VERTEX
  8
Unknown Area Type
  70
32
  10
-6.09963419007624
  20
42.58078663718766
  30
1025.82
  0
VERTEX
  8
Unknown Area Type
  70
32
  10
-6.09960287762036
  20
42.58076947581681
  30
1025.56
  0
VERTEX
  8
Unknown Area Type
  70
32
  10
-6.06845318228765
  20
42.54029527598395
  30
893.878
  0
VERTEX
  8
Unknown Area Type
  70
32
  10
-6.06850713233814
  20
42.53555736065621
  30
890.563
  0
VERTEX
  8
Unknown Area Type
  70
32
  10
-6.06850492891298
  20
42.53551239622643
  30
890.551
  0
SEQEND
  8
Unknown Area Type
  0
TEXT
  8
Unknown Area Type
 62
7
  1
PNOA-H_AMS_1956-57_33k_ES_PAN_2
 40
0.00045
  10
-6.08551760582645
  20
42.54847340587863
  0
POLYLINE
  8
Unknown Area Type
  70
9
  66
1
  0
VERTEX
  8
Unknown Area Type
  70
32
  10
-6.06850492891298
  20
42.53551239622643
  30
890.551
  0
VERTEX
  8
Unknown Area Type
  70
32
  10
-6.06851522897157
  20
42.53472871146064
  30
889.94
  0
VERTEX
  8
Unknown Area Type
  70
32
  10
-6.06876617577964
  20
42.53463193828603
  30
890.03
  0
VERTEX
  8
Unknown Area Type
  70
32
  10
-6.10258116732394
  20
42.53432836234131
  30
997.339
  0
VERTEX
  8
Unknown Area Type
  70
32
  10
-6.10232128472201
  20
42.57993494436982
  30
1024.925
  0
VERTEX
  8
Unknown Area Type
  70
32
  10
-6.09963419007624
  20
42.58078663718766
  30
1025.82
  0
VERTEX
  8
Unknown Area Type
  70
32
  10
-6.09960287762036
  20
42.58076947581681
  30
1025.56
  0
VERTEX
  8
Unknown Area Type
  70
32
  10
-6.06845318228765
  20
42.54029527598395
  30
893.878
  0
VERTEX
  8
Unknown Area Type
  70
32
  10
-6.06850713233814
  20
42.53555736065621
  30
890.563
  0
VERTEX
  8
Unknown Area Type
  70
32
  10
-6.06850492891298
  20
42.53551239622643
  30
890.551
  0
SEQEND
  8
Unknown Area Type
  0
TEXT
  8
Unknown Area Type
 62
7
  1
PNOA-H_AMS_1956-57_33k_ES_PAN_2
 40
0.00045
  10
-6.08551760582645
  20
42.54847340587863
  0
POLYLINE
  8
Unknown Area Type
  70
9
  66
1
  0
VERTEX
  8
Unknown Area Type
  70
32
  10
-5.96362561198678
  20
42.53289041529187
  30
898.392
  0
VERTEX
  8
Unknown Area Type
  70
32
  10
-5.93548713177128
  20
42.53546577902941
  30
907.568
  0
VERTEX
  8
Unknown Area Type
  70
32
  10
-5.92817298828852
  20
42.53319925882698
  30
903.217
  0
VERTEX
  8
Unknown Area Type
  70
32
  10
-5.92770544182006
  20
42.50039765304591
  30
924.408
  0
VERTEX
  8
Unknown Area Type
  70
32
  10
-5.92837570525148
  20
42.5
  30
924.371
  0
VERTEX
  8
Unknown Area Type
  70
32
  10
-5.93750000000002
  20
42.5
  30
925.143
  0
VERTEX
  8
Unknown Area Type
  70
32
  10
-5.9635609369283
  20
42.5
  30
938.825
  0
VERTEX
  8
Unknown Area Type
  70
32
  10
-5.96360167599479
  20
42.52222036861165
  30
951.288
  0
VERTEX
  8
Unknown Area Type
  70
32
  10
-5.96360805753505
  20
42.52235527525281
  30
951.112
  0
SEQEND
  8
Unknown Area Type
  0
TEXT
  8
Unknown Area Type
 62
7
  1
PNOA-H_AMS_1956-57_33k_ES_PAN_2
 40
0.00045
  10
-5.94566583598918
  20
42.51563411279298
  0
POLYLINE
  8
Unknown Area Type
  70
9
  66
1
  0
VERTEX
  8
Unknown Area Type
  70
32
  10
-5.96362561198678
  20
42.53289041529187
  30
898.392
  0
VERTEX
  8
Unknown Area Type
  70
32
  10
-5.93548713177128
  20
42.53546577902941
  30
907.568
  0
VERTEX
  8
Unknown Area Type
  70
32
  10
-5.92817298828852
  20
42.53319925882698
  30
903.217
  0
VERTEX
  8
Unknown Area Type
  70
32
  10
-5.92770544182006
  20
42.50039765304591
  30
924.408
  0
VERTEX
  8
Unknown Area Type
  70
32
  10
-5.92837570525148
  20
42.5
  30
924.371
  0
VERTEX
  8
Unknown Area Type
  70
32
  10
-5.93750000000002
  20
42.5
  30
925.143
  0
VERTEX
  8
Unknown Area Type
  70
32
  10
-5.9635609369283
  20
42.5
  30
938.825
  0
VERTEX
  8
Unknown Area Type
  70
32
  10
-5.96360167599479
  20
42.52222036861165
  30
951.288
  0
VERTEX
  8
Unknown Area Type
  70
32
  10
-5.96360805753505
  20
42.52235527525281
  30
951.112
  0
SEQEND
  8
Unknown Area Type
  0
TEXT
  8
Unknown Area Type
 62
7
  1
PNOA-H_AMS_1956-57_33k_ES_PAN_2
 40
0.00045
  10
-5.94566583598918
  20
42.51563411279298
  0
POLYLINE
  8
Unknown Area Type
  70
9
  66
1
  0
VERTEX
  8
Unknown Area Type
  70
32
  10
-5.9635609369283
  20
42.5
  30
938.825
  0
VERTEX
  8
Unknown Area Type
  70
32
  10
-5.93750000000002
  20
42.5
  30
925.143
  0
VERTEX
  8
Unknown Area Type
  70
32
  10
-5.92837570525148
  20
42.5
  30
924.371
  0
VERTEX
  8
Unknown Area Type
  70
32
  10
-5.92837598617619
  20
42.49999983333333
  30
924.371
  0
VERTEX
  8
Unknown Area Type
  70
32
  10
-5.96356093662273
  20
42.49999983333333
  30
938.825
  0
SEQEND
  8
Unknown Area Type
  0
TEXT
  8
Unknown Area Type
 62
7
  1
PNOA-H_AMS_1956-57_33k_ES_PAN_2
 40
0.00045
  10
-5.94596832108989
  20
42.49999991666667
  0
POLYLINE
  8
Unknown Area Type
  70
9
  66
1
  0
VERTEX
  8
Unknown Area Type
  70
32
  10
-6.00145239301123
  20
42.53728987967806
  30
951.514
  0
VERTEX
  8
Unknown Area Type
  70
32
  10
-6.0015031898915
  20
42.53492030009228
  30
959.103
  0
VERTEX
  8
Unknown Area Type
  70
32
  10
-6.0333029595003
  20
42.53459999290388
  30
890.749
  0
VERTEX
  8
Unknown Area Type
  70
32
  10
-6.03423891138105
  20
42.53494438559249
  30
890.586
  0
VERTEX
  8
Unknown Area Type
  70
32
  10
-6.03406080845022
  20
42.54521448301477
  30
897.176
  0
VERTEX
  8
Unknown Area Type
  70
32
  10
-6.02989309392776
  20
42.57671973092687
  30
937.102
  0
VERTEX
  8
Unknown Area Type
  70
32
  10
-6.00120978594764
  20
42.5477237258248
  30
962.549
  0
VERTEX
  8
Unknown Area Type
  70
32
  10
-6.00145347073787
  20
42.53731236328381
  30
951.75
  0
VERTEX
  8
Unknown Area Type
  70
32
  10
-6.00145239301123
  20
42.53728987967806
  30
951.514
  0
SEQEND
  8
Unknown Area Type
  0
TEXT
  8
Unknown Area Type
 62
7
  1
PNOA-H_AMS_1956-57_33k_ES_PAN_2
 40
0.00045
  10
-6.01772461529297
  20
42.54958589887693
  0
POLYLINE
  8
Unknown Area Type
  70
9
  66
1
  0
VERTEX
  8
Unknown Area Type
  70
32
  10
-6.00145239301123
  20
42.53728987967806
  30
951.514
  0
VERTEX
  8
Unknown Area Type
  70
32
  10
-6.0015031898915
  20
42.53492030009228
  30
959.103
  0
VERTEX
  8
Unknown Area Type
  70
32
  10
-6.0333029595003
  20
42.53459999290388
  30
890.749
  0
VERTEX
  8
Unknown Area Type
  70
32
  10
-6.03423891138105
  20
42.53494438559249
  30
890.586
  0
VERTEX
  8
Unknown Area Type
  70
32
  10
-6.03406080845022
  20
42.54521448301477
  30
897.176
  0
VERTEX
  8
Unknown Area Type
  70
32
  10
-6.02989309392776
  20
42.57671973092687
  30
937.102
  0
VERTEX
  8
Unknown Area Type
  70
32
  10
-6.00120978594764
  20
42.5477237258248
  30
962.549
  0
VERTEX
  8
Unknown Area Type
  70
32
  10
-6.00145347073787
  20
42.53731236328381
  30
951.75
  0
VERTEX
  8
Unknown Area Type
  70
32
  10
-6.00145239301123
  20
42.53728987967806
  30
951.514
  0
SEQEND
  8
Unknown Area Type
  0
TEXT
  8
Unknown Area Type
 62
7
  1
PNOA-H_AMS_1956-57_33k_ES_PAN_2
 40
0.00045
  10
-6.01772461529297
  20
42.54958589887693
  0
POLYLINE
  8
Unknown Area Type
  70
9
  66
1
  0
VERTEX
  8
Unknown Area Type
  70
32
  10
-6.06853932805602
  20
42.53472356320129
  30
889.933
  0
VERTEX
  8
Unknown Area Type
  70
32
  10
-6.06852130882743
  20
42.53472854850716
  30
889.934
  0
VERTEX
  8
Unknown Area Type
  70
32
  10
-6.03436681075145
  20
42.5349454982638
  30
890.428
  0
VERTEX
  8
Unknown Area Type
  70
32
  10
-6.03423283130995
  20
42.53494454672776
  30
890.589
  0
VERTEX
  8
Unknown Area Type
  70
32
  10
-6.03330317731023
  20
42.53460448949512
  30
890.762
  0
VERTEX
  8
Unknown Area Type
  70
32
  10
-6.03295851929562
  20
42.5
  30
900.333
  0
VERTEX
  8
Unknown Area Type
  70
32
  10
-6.0625
  20
42.5
  30
909.147
  0
VERTEX
  8
Unknown Area Type
  70
32
  10
-6.06706068736565
  20
42.5
  30
925.877
  0
VERTEX
  8
Unknown Area Type
  70
32
  10
-6.06877833546967
  20
42.5346316123527
  30
890.044
  0
SEQEND
  8
Unknown Area Type
  0
TEXT
  8
Unknown Area Type
 62
7
  1
PNOA-H_AMS_1956-57_33k_ES_PAN_2
 40
0.00045
  10
-6.0508558757378
  20
42.51472147398415
  0
POLYLINE
  8
Unknown Area Type
  70
9
  66
1
  0
VERTEX
  8
Unknown Area Type
  70
32
  10
-6.06853932805602
  20
42.53472356320129
  30
889.933
  0
VERTEX
  8
Unknown Area Type
  70
32
  10
-6.06852130882743
  20
42.53472854850716
  30
889.934
  0
VERTEX
  8
Unknown Area Type
  70
32
  10
-6.03436681075145
  20
42.5349454982638
  30
890.428
  0
VERTEX
  8
Unknown Area Type
  70
32
  10
-6.03423283130995
  20
42.53494454672776
  30
890.589
  0
VERTEX
  8
Unknown Area Type
  70
32
  10
-6.03330317731023
  20
42.53460448949512
  30
890.762
  0
VERTEX
  8
Unknown Area Type
  70
32
  10
-6.03295851929562
  20
42.5
  30
900.333
  0
VERTEX
  8
Unknown Area Type
  70
32
  10
-6.0625
  20
42.5
  30
909.147
  0
VERTEX
  8
Unknown Area Type
  70
32
  10
-6.06706068736565
  20
42.5
  30
925.877
  0
VERTEX
  8
Unknown Area Type
  70
32
  10
-6.06877833546967
  20
42.5346316123527
  30
890.044
  0
SEQEND
  8
Unknown Area Type
  0
TEXT
  8
Unknown Area Type
 62
7
  1
PNOA-H_AMS_1956-57_33k_ES_PAN_2
 40
0.00045
  10
-6.0508558757378
  20
42.51472147398415
  0
POLYLINE
  8
Unknown Area Type
  70
9
  66
1
  0
VERTEX
  8
Unknown Area Type
  70
32
  10
-6.06706068736565
  20
42.5
  30
925.877
  0
VERTEX
  8
Unknown Area Type
  70
32
  10
-6.0625
  20
42.5
  30
909.147
  0
VERTEX
  8
Unknown Area Type
  70
32
  10
-6.03295851929562
  20
42.5
  30
900.333
  0
VERTEX
  8
Unknown Area Type
  70
32
  10
-6.03295851763563
  20
42.49999983333333
  30
900.333
  0
VERTEX
  8
Unknown Area Type
  70
32
  10
-6.06706067909936
  20
42.49999983333333
  30
925.877
  0
SEQEND
  8
Unknown Area Type
  0
TEXT
  8
Unknown Area Type
 62
7
  1
PNOA-H_AMS_1956-57_33k_ES_PAN_2
 40
0.00045
  10
-6.05000960250064
  20
42.49999991666667
  0
POLYLINE
  8
Unknown Area Type
  70
9
  66
1
  0
VERTEX
  8
Unknown Area Type
  70
32
  10
-6.0333029595003
  20
42.53459999290388
  30
890.749
  0
VERTEX
  8
Unknown Area Type
  70
32
  10
-6.01431804811399
  20
42.53479073932701
  30
976.452
  0
VERTEX
  8
Unknown Area Type
  70
32
  10
-6.01406268101106
  20
42.53479746232048
  30
976.23
  0
VERTEX
  8
Unknown Area Type
  70
32
  10
-6.00149710963924
  20
42.53492045949062
  30
959.093
  0
VERTEX
  8
Unknown Area Type
  70
32
  10
-5.99953520499025
  20
42.53425149555242
  30
961.377
  0
VERTEX
  8
Unknown Area Type
  70
32
  10
-5.99874217596217
  20
42.5
  30
944.642
  0
VERTEX
  8
Unknown Area Type
  70
32
  10
-6.02083333333337
  20
42.5
  30
940.466
  0
VERTEX
  8
Unknown Area Type
  70
32
  10
-6.03295850721203
  20
42.5
  30
900.332
  0
SEQEND
  8
Unknown Area Type
  0
TEXT
  8
Unknown Area Type
 62
7
  1
PNOA-H_AMS_1956-57_33k_ES_PAN_2
 40
0.00045
  10
-6.01598302046553
  20
42.51486351933228
  0
POLYLINE
  8
Unknown Area Type
  70
9
  66
1
  0
VERTEX
  8
Unknown Area Type
  70
32
  10
-6.0333029595003
  20
42.53459999290388
  30
890.749
  0
VERTEX
  8
Unknown Area Type
  70
32
  10
-6.01431804811399
  20
42.53479073932701
  30
976.452
  0
VERTEX
  8
Unknown Area Type
  70
32
  10
-6.01406268101106
  20
42.53479746232048
  30
976.23
  0
VERTEX
  8
Unknown Area Type
  70
32
  10
-6.00149710963924
  20
42.53492045949062
  30
959.093
  0
VERTEX
  8
Unknown Area Type
  70
32
  10
-5.99953520499025
  20
42.53425149555242
  30
961.377
  0
VERTEX
  8
Unknown Area Type
  70
32
  10
-5.99874217596217
  20
42.5
  30
944.642
  0
VERTEX
  8
Unknown Area Type
  70
32
  10
-6.02083333333337
  20
42.5
  30
940.466
  0
VERTEX
  8
Unknown Area Type
  70
32
  10
-6.03295850721203
  20
42.5
  30
900.332
  0
SEQEND
  8
Unknown Area Type
  0
TEXT
  8
Unknown Area Type
 62
7
  1
PNOA-H_AMS_1956-57_33k_ES_PAN_2
 40
0.00045
  10
-6.01598302046553
  20
42.51486351933228
  0
POLYLINE
  8
Unknown Area Type
  70
9
  66
1
  0
VERTEX
  8
Unknown Area Type
  70
32
  10
-6.03295850721203
  20
42.5
  30
900.332
  0
VERTEX
  8
Unknown Area Type
  70
32
  10
-6.02083333333337
  20
42.5
  30
940.466
  0
VERTEX
  8
Unknown Area Type
  70
32
  10
-5.99874217596217
  20
42.5
  30
944.642
  0
VERTEX
  8
Unknown Area Type
  70
32
  10
-5.99874217210331
  20
42.49999983333333
  30
944.642
  0
VERTEX
  8
Unknown Area Type
  70
32
  10
-6.03295850555281
  20
42.49999983333333
  30
900.332
  0
SEQEND
  8
Unknown Area Type
  0
TEXT
  8
Unknown Area Type
 62
7
  1
PNOA-H_AMS_1956-57_33k_ES_PAN_2
 40
0.00045
  10
-6.01585033965767
  20
42.49999991666667
  0
POLYLINE
  8
Unknown Area Type
  70
9
  66
1
  0
VERTEX
  8
Unknown Area Type
  70
32
  10
-5.89354643358321
  20
42.53584900284592
  30
872.365
  0
VERTEX
  8
Unknown Area Type
  70
32
  10
-5.8895163330046
  20
42.53704036116418
  30
857.648
  0
VERTEX
  8
Unknown Area Type
  70
32
  10
-5.8894982973029
  20
42.53704531872474
  30
857.646
  0
VERTEX
  8
Unknown Area Type
  70
32
  10
-5.88732998383266
  20
42.53768533112299
  30
855.818
  0
VERTEX
  8
Unknown Area Type
  70
32
  10
-5.88727546088169
  20
42.53769120842814
  30
855.795
  0
VERTEX
  8
Unknown Area Type
  70
32
  10
-5.87352899469533
  20
42.53664577379552
  30
849.844
  0
VERTEX
  8
Unknown Area Type
  70
32
  10
-5.85674884180607
  20
42.53194640485771
  30
844.931
  0
VERTEX
  8
Unknown Area Type
  70
32
  10
-5.85751691763221
  20
42.5
  30
841.099
  0
VERTEX
  8
Unknown Area Type
  70
32
  10
-5.89226742542955
  20
42.5
  30
831.88
  0
VERTEX
  8
Unknown Area Type
  70
32
  10
-5.89264283389708
  20
42.50019464883215
  30
831.93
  0
SEQEND
  8
Unknown Area Type
  0
TEXT
  8
Unknown Area Type
 62
7
  1
PNOA-H_AMS_1956-57_33k_ES_PAN_2
 40
0.00045
  10
-5.87514762757427
  20
42.51731862664033
  0
POLYLINE
  8
Unknown Area Type
  70
9
  66
1
  0
VERTEX
  8
Unknown Area Type
  70
32
  10
-5.89354643358321
  20
42.53584900284592
  30
872.365
  0
VERTEX
  8
Unknown Area Type
  70
32
  10
-5.8895163330046
  20
42.53704036116418
  30
857.648
  0
VERTEX
  8
Unknown Area Type
  70
32
  10
-5.8894982973029
  20
42.53704531872474
  30
857.646
  0
VERTEX
  8
Unknown Area Type
  70
32
  10
-5.88732998383266
  20
42.53768533112299
  30
855.818
  0
VERTEX
  8
Unknown Area Type
  70
32
  10
-5.88727546088169
  20
42.53769120842814
  30
855.795
  0
VERTEX
  8
Unknown Area Type
  70
32
  10
-5.87352899469533
  20
42.53664577379552
  30
849.844
  0
VERTEX
  8
Unknown Area Type
  70
32
  10
-5.85674884180607
  20
42.53194640485771
  30
844.931
  0
VERTEX
  8
Unknown Area Type
  70
32
  10
-5.85751691763221
  20
42.5
  30
841.099
  0
VERTEX
  8
Unknown Area Type
  70
32
  10
-5.89226742542955
  20
42.5
  30
831.88
  0
VERTEX
  8
Unknown Area Type
  70
32
  10
-5.89264283389708
  20
42.50019464883215
  30
831.93
  0
SEQEND
  8
Unknown Area Type
  0
TEXT
  8
Unknown Area Type
 62
7
  1
PNOA-H_AMS_1956-57_33k_ES_PAN_2
 40
0.00045
  10
-5.87514762757427
  20
42.51731862664033
  0
POLYLINE
  8
Unknown Area Type
  70
9
  66
1
  0
VERTEX
  8
Unknown Area Type
  70
32
  10
-5.89226742542955
  20
42.5
  30
831.88
  0
VERTEX
  8
Unknown Area Type
  70
32
  10
-5.85751691763221
  20
42.5
  30
841.099
  0
VERTEX
  8
Unknown Area Type
  70
32
  10
-5.85751692163932
  20
42.49999983333333
  30
841.099
  0
VERTEX
  8
Unknown Area Type
  70
32
  10
-5.89226710398874
  20
42.49999983333333
  30
831.88
  0
SEQEND
  8
Unknown Area Type
  0
TEXT
  8
Unknown Area Type
 62
7
  1
PNOA-H_AMS_1956-57_33k_ES_PAN_2
 40
0.00045
  10
-5.87489217153088
  20
42.49999991666667
  0
POLYLINE
  8
Unknown Area Type
  70
9
  66
1
  0
VERTEX
  8
Unknown Area Type
  70
32
  10
-5.99443503206185
  20
42.58034962011569
  30
990.335
  0
VERTEX
  8
Unknown Area Type
  70
32
  10
-5.99114747090872
  20
42.5801429138522
  30
989.528
  0
VERTEX
  8
Unknown Area Type
  70
32
  10
-5.99093321563678
  20
42.58012149772392
  30
989.595
  0
VERTEX
  8
Unknown Area Type
  70
32
  10
-5.97013859345734
  20
42.54314015965228
  30
920.916
  0
VERTEX
  8
Unknown Area Type
  70
32
  10
-5.97067002798383
  20
42.53522018985856
  30
905.436
  0
VERTEX
  8
Unknown Area Type
  70
32
  10
-5.99953498960552
  20
42.53424699882097
  30
961.392
  0
VERTEX
  8
Unknown Area Type
  70
32
  10
-6.0015031898915
  20
42.53492030009228
  30
959.103
  0
VERTEX
  8
Unknown Area Type
  70
32
  10
-6.00121043276726
  20
42.54773721596663
  30
962.547
  0
VERTEX
  8
Unknown Area Type
  70
32
  10
-5.99443438596462
  20
42.58033612996714
  30
990.32
  0
VERTEX
  8
Unknown Area Type
  70
32
  10
-5.99443503206185
  20
42.58034962011569
  30
990.335
  0
SEQEND
  8
Unknown Area Type
  0
TEXT
  8
Unknown Area Type
 62
7
  1
PNOA-H_AMS_1956-57_33k_ES_PAN_2
 40
0.00045
  10
-5.98582116077094
  20
42.55286807709825
  0
POLYLINE
  8
Unknown Area Type
  70
9
  66
1
  0
VERTEX
  8
Unknown Area Type
  70
32
  10
-5.99443503206185
  20
42.58034962011569
  30
990.335
  0
VERTEX
  8
Unknown Area Type
  70
32
  10
-5.99114747090872
  20
42.5801429138522
  30
989.528
  0
VERTEX
  8
Unknown Area Type
  70
32
  10
-5.99093321563678
  20
42.58012149772392
  30
989.595
  0
VERTEX
  8
Unknown Area Type
  70
32
  10
-5.97013859345734
  20
42.54314015965228
  30
920.916
  0
VERTEX
  8
Unknown Area Type
  70
32
  10
-5.97067002798383
  20
42.53522018985856
  30
905.436
  0
VERTEX
  8
Unknown Area Type
  70
32
  10
-5.99953498960552
  20
42.53424699882097
  30
961.392
  0
VERTEX
  8
Unknown Area Type
  70
32
  10
-6.0015031898915
  20
42.53492030009228
  30
959.103
  0
VERTEX
  8
Unknown Area Type
  70
32
  10
-6.00121043276726
  20
42.54773721596663
  30
962.547
  0
VERTEX
  8
Unknown Area Type
  70
32
  10
-5.99443438596462
  20
42.58033612996714
  30
990.32
  0
VERTEX
  8
Unknown Area Type
  70
32
  10
-5.99443503206185
  20
42.58034962011569
  30
990.335
  0
SEQEND
  8
Unknown Area Type
  0
TEXT
  8
Unknown Area Type
 62
7
  1
PNOA-H_AMS_1956-57_33k_ES_PAN_2
 40
0.00045
  10
-5.98582116077094
  20
42.55286807709825
  0
POLYLINE
  8
Unknown Area Type
  70
9
  66
1
  0
VERTEX
  8
Unknown Area Type
  70
32
  10
-6.06582542960358
  20
42.57328226522368
  30
948.979
  0
VERTEX
  8
Unknown Area Type
  70
32
  10
-6.06543321521242
  20
42.57820480752838
  30
967.12
  0
VERTEX
  8
Unknown Area Type
  70
32
  10
-6.06542933562354
  20
42.57824993467494
  30
966.741
  0
VERTEX
  8
Unknown Area Type
  70
32
  10
-6.06542391287541
  20
42.57826358686494
  30
966.545
  0
VERTEX
  8
Unknown Area Type
  70
32
  10
-6.06541152422344
  20
42.57825941628758
  30
966.298
  0
VERTEX
  8
Unknown Area Type
  70
32
  10
-6.03406080845022
  20
42.54521448301477
  30
897.176
  0
VERTEX
  8
Unknown Area Type
  70
32
  10
-6.03423891138105
  20
42.53494438559249
  30
890.586
  0
VERTEX
  8
Unknown Area Type
  70
32
  10
-6.06851522897157
  20
42.53472871146064
  30
889.94
  0
VERTEX
  8
Unknown Area Type
  70
32
  10
-6.06845318228765
  20
42.54029527598395
  30
893.878
  0
VERTEX
  8
Unknown Area Type
  70
32
  10
-6.06582300475505
  20
42.57323280455311
  30
951.173
  0
VERTEX
  8
Unknown Area Type
  70
32
  10
-6.06582542960358
  20
42.57328226522368
  30
948.979
  0
SEQEND
  8
Unknown Area Type
  0
TEXT
  8
Unknown Area Type
 62
7
  1
PNOA-H_AMS_1956-57_33k_ES_PAN_2
 40
0.00045
  10
-6.05128841355295
  20
42.54910379155288
  0
POLYLINE
  8
Unknown Area Type
  70
9
  66
1
  0
VERTEX
  8
Unknown Area Type
  70
32
  10
-6.06582542960358
  20
42.57328226522368
  30
948.979
  0
VERTEX
  8
Unknown Area Type
  70
32
  10
-6.06543321521242
  20
42.57820480752838
  30
967.12
  0
VERTEX
  8
Unknown Area Type
  70
32
  10
-6.06542933562354
  20
42.57824993467494
  30
966.741
  0
VERTEX
  8
Unknown Area Type
  70
32
  10
-6.06542391287541
  20
42.57826358686494
  30
966.545
  0
VERTEX
  8
Unknown Area Type
  70
32
  10
-6.06541152422344
  20
42.57825941628758
  30
966.298
  0
VERTEX
  8
Unknown Area Type
  70
32
  10
-6.03406080845022
  20
42.54521448301477
  30
897.176
  0
VERTEX
  8
Unknown Area Type
  70
32
  10
-6.03423891138105
  20
42.53494438559249
  30
890.586
  0
VERTEX
  8
Unknown Area Type
  70
32
  10
-6.06851522897157
  20
42.53472871146064
  30
889.94
  0
VERTEX
  8
Unknown Area Type
  70
32
  10
-6.06845318228765
  20
42.54029527598395
  30
893.878
  0
VERTEX
  8
Unknown Area Type
  70
32
  10
-6.06582300475505
  20
42.57323280455311
  30
951.173
  0
VERTEX
  8
Unknown Area Type
  70
32
  10
-6.06582542960358
  20
42.57328226522368
  30
948.979
  0
SEQEND
  8
Unknown Area Type
  0
TEXT
  8
Unknown Area Type
 62
7
  1
PNOA-H_AMS_1956-57_33k_ES_PAN_2
 40
0.00045
  10
-6.05128841355295
  20
42.54910379155288
  0
POLYLINE
  8
Unknown Area Type
  70
9
  66
1
  0
VERTEX
  8
Unknown Area Type
  70
32
  10
-5.89779131855436
  20
42.53996040645784
  30
882.701
  0
VERTEX
  8
Unknown Area Type
  70
32
  10
-5.89534462202216
  20
42.53602866667408
  30
877.156
  0
VERTEX
  8
Unknown Area Type
  70
32
  10
-5.8953242999877
  20
42.53598415645897
  30
877.218
  0
VERTEX
  8
Unknown Area Type
  70
32
  10
-5.89534841581267
  20
42.53597904423371
  30
877.354
  0
VERTEX
  8
Unknown Area Type
  70
32
  10
-5.92817277803127
  20
42.53319476180413
  30
903.264
  0
VERTEX
  8
Unknown Area Type
  70
32
  10
-5.93549321244044
  20
42.53546562313191
  30
907.582
  0
VERTEX
  8
Unknown Area Type
  70
32
  10
-5.93551014893367
  20
42.54193062699525
  30
939.443
  0
VERTEX
  8
Unknown Area Type
  70
32
  10
-5.92134491465917
  20
42.57786628680032
  30
903.831
  0
VERTEX
  8
Unknown Area Type
  70
32
  10
-5.92132623987862
  20
42.577857758581
  30
903.799
  0
VERTEX
  8
Unknown Area Type
  70
32
  10
-5.92112206326964
  20
42.57752979259747
  30
903.671
  0
VERTEX
  8
Unknown Area Type
  70
32
  10
-5.89779173480803
  20
42.53996940073606
  30
882.617
  0
VERTEX
  8
Unknown Area Type
  70
32
  10
-5.89779131855436
  20
42.53996040645784
  30
882.701
  0
SEQEND
  8
Unknown Area Type
  0
TEXT
  8
Unknown Area Type
 62
7
  1
PNOA-H_AMS_1956-57_33k_ES_PAN_2
 40
0.00045
  10
-5.91541752822997
  20
42.55131007685479
  0
POLYLINE
  8
Unknown Area Type
  70
9
  66
1
  0
VERTEX
  8
Unknown Area Type
  70
32
  10
-5.89779131855436
  20
42.53996040645784
  30
882.701
  0
VERTEX
  8
Unknown Area Type
  70
32
  10
-5.89534462202216
  20
42.53602866667408
  30
877.156
  0
VERTEX
  8
Unknown Area Type
  70
32
  10
-5.8953242999877
  20
42.53598415645897
  30
877.218
  0
VERTEX
  8
Unknown Area Type
  70
32
  10
-5.89534841581267
  20
42.53597904423371
  30
877.354
  0
VERTEX
  8
Unknown Area Type
  70
32
  10
-5.92817277803127
  20
42.53319476180413
  30
903.264
  0
VERTEX
  8
Unknown Area Type
  70
32
  10
-5.93549321244044
  20
42.53546562313191
  30
907.582
  0
VERTEX
  8
Unknown Area Type
  70
32
  10
-5.93551014893367
  20
42.54193062699525
  30
939.443
  0
VERTEX
  8
Unknown Area Type
  70
32
  10
-5.92134491465917
  20
42.57786628680032
  30
903.831
  0
VERTEX
  8
Unknown Area Type
  70
32
  10
-5.92132623987862
  20
42.577857758581
  30
903.799
  0
VERTEX
  8
Unknown Area Type
  70
32
  10
-5.92112206326964
  20
42.57752979259747
  30
903.671
  0
VERTEX
  8
Unknown Area Type
  70
32
  10
-5.89779173480803
  20
42.53996940073606
  30
882.617
  0
VERTEX
  8
Unknown Area Type
  70
32
  10
-5.89779131855436
  20
42.53996040645784
  30
882.701
  0
SEQEND
  8
Unknown Area Type
  0
TEXT
  8
Unknown Area Type
 62
7
  1
PNOA-H_AMS_1956-57_33k_ES_PAN_2
 40
0.00045
  10
-5.91541752822997
  20
42.55131007685479
  0
POLYLINE
  8
Unknown Area Type
  70
9
  66
1
  0
VERTEX
  8
Unknown Area Type
  70
32
  10
-5.85674863668214
  20
42.53194190755006
  30
844.973
  0
VERTEX
  8
Unknown Area Type
  70
32
  10
-5.85416666666668
  20
42.53232917832162
  30
847.712
  0
VERTEX
  8
Unknown Area Type
  70
32
  10
-5.85416666666668
  20
42.52083333333331
  30
843.594
  0
VERTEX
  8
Unknown Area Type
  70
32
  10
-5.85416666666668
  20
42.5
  30
840.287
  0
VERTEX
  8
Unknown Area Type
  70
32
  10
-5.85751715595131
  20
42.5
  30
840.982
  0
SEQEND
  8
Unknown Area Type
  0
TEXT
  8
Unknown Area Type
 62
7
  1
PNOA-H_AMS_1956-57_33k_ES_PAN_2
 40
0.00045
  10
-5.85584191130899
  20
42.51616458916081
  0
POLYLINE
  8
Unknown Area Type
  70
9
  66
1
  0
VERTEX
  8
Unknown Area Type
  70
32
  10
-5.85674863668214
  20
42.53194190755006
  30
844.973
  0
VERTEX
  8
Unknown Area Type
  70
32
  10
-5.85416666666668
  20
42.53232917832162
  30
847.712
  0
VERTEX
  8
Unknown Area Type
  70
32
  10
-5.85416666666668
  20
42.52083333333331
  30
843.594
  0
VERTEX
  8
Unknown Area Type
  70
32
  10
-5.85416666666668
  20
42.5
  30
840.287
  0
VERTEX
  8
Unknown Area Type
  70
32
  10
-5.85751715595131
  20
42.5
  30
840.982
  0
SEQEND
  8
Unknown Area Type
  0
TEXT
  8
Unknown Area Type
 62
7
  1
PNOA-H_AMS_1956-57_33k_ES_PAN_2
 40
0.00045
  10
-5.85584191130899
  20
42.51616458916081
  0
POLYLINE
  8
Unknown Area Type
  70
9
  66
1
  0
VERTEX
  8
Unknown Area Type
  70
32
  10
-5.85416666666668
  20
42.52083333333331
  30
843.594
  0
VERTEX
  8
Unknown Area Type
  70
32
  10
-5.85416666666668
  20
42.53232917832162
  30
847.712
  0
VERTEX
  8
Unknown Area Type
  70
32
  10
-5.85416633333334
  20
42.53232922831843
  30
847.713
  0
VERTEX
  8
Unknown Area Type
  70
32
  10
-5.85416633333334
  20
42.5
  30
840.287
  0
VERTEX
  8
Unknown Area Type
  70
32
  10
-5.85416666666668
  20
42.5
  30
840.287
  0
SEQEND
  8
Unknown Area Type
  0
TEXT
  8
Unknown Area Type
 62
7
  1
PNOA-H_AMS_1956-57_33k_ES_PAN_2
 40
0.00045
  10
-5.85416650000001
  20
42.51616461415922
  0
POLYLINE
  8
Unknown Area Type
  70
9
  66
1
  0
VERTEX
  8
Unknown Area Type
  70
32
  10
-5.85751715595131
  20
42.5
  30
840.982
  0
VERTEX
  8
Unknown Area Type
  70
32
  10
-5.85416666666668
  20
42.5
  30
840.287
  0
VERTEX
  8
Unknown Area Type
  70
32
  10
-5.85416666666668
  20
42.49999983333333
  30
840.287
  0
VERTEX
  8
Unknown Area Type
  70
32
  10
-5.85751715996129
  20
42.49999983333333
  30
840.982
  0
SEQEND
  8
Unknown Area Type
  0
TEXT
  8
Unknown Area Type
 62
7
  1
PNOA-H_AMS_1956-57_33k_ES_PAN_2
 40
0.00045
  10
-5.85584191331398
  20
42.49999991666667
  0
POLYLINE
  8
Unknown Area Type
  70
9
  66
1
  0
VERTEX
  8
Unknown Area Type
  70
32
  10
-5.85416666666668
  20
42.5
  30
840.287
  0
VERTEX
  8
Unknown Area Type
  70
32
  10
-5.85416633333334
  20
42.5
  30
840.287
  0
VERTEX
  8
Unknown Area Type
  70
32
  10
-5.85416633333334
  20
42.49999983333333
  30
840.287
  0
VERTEX
  8
Unknown Area Type
  70
32
  10
-5.85416666666668
  20
42.49999983333333
  30
840.287
  0
SEQEND
  8
Unknown Area Type
  0
TEXT
  8
Unknown Area Type
 62
7
  1
PNOA-H_AMS_1956-57_33k_ES_PAN_2
 40
0.00045
  10
-5.85416650000001
  20
42.49999991666667
  0
POLYLINE
  8
Unknown Area Type
  70
9
  66
1
  0
VERTEX
  8
Unknown Area Type
  70
32
  10
-5.96524828934686
  20
42.55699916947089
  30
966.13
  0
VERTEX
  8
Unknown Area Type
  70
32
  10
-5.95719727998949
  20
42.57980480042363
  30
989.712
  0
VERTEX
  8
Unknown Area Type
  70
32
  10
-5.95718093958274
  20
42.57984574378368
  30
989.721
  0
VERTEX
  8
Unknown Area Type
  70
32
  10
-5.9571626850002
  20
42.57984621532145
  30
989.718
  0
VERTEX
  8
Unknown Area Type
  70
32
  10
-5.95667964169594
  20
42.5798091658576
  30
989.661
  0
VERTEX
  8
Unknown Area Type
  70
32
  10
-5.935510781478
  20
42.5419441179545
  30
939.401
  0
VERTEX
  8
Unknown Area Type
  70
32
  10
-5.93548966135935
  20
42.53551974292834
  30
906.922
  0
VERTEX
  8
Unknown Area Type
  70
32
  10
-5.93549321244044
  20
42.53546562313191
  30
907.582
  0
VERTEX
  8
Unknown Area Type
  70
32
  10
-5.93551732431569
  20
42.53546050254727
  30
907.632
  0
VERTEX
  8
Unknown Area Type
  70
32
  10
-5.96363777251704
  20
42.53289010052574
  30
898.388
  0
VERTEX
  8
Unknown Area Type
  70
32
  10
-5.97066373421077
  20
42.53521585077274
  30
905.444
  0
VERTEX
  8
Unknown Area Type
  70
32
  10
-5.97013859345734
  20
42.54314015965228
  30
920.916
  0
VERTEX
  8
Unknown Area Type
  70
32
  10
-5.96524743696955
  20
42.55698118205472
  30
966.376
  0
VERTEX
  8
Unknown Area Type
  70
32
  10
-5.96524828934686
  20
42.55699916947089
  30
966.13
  0
SEQEND
  8
Unknown Area Type
  0
TEXT
  8
Unknown Area Type
 62
7
  1
PNOA-H_AMS_1956-57_33k_ES_PAN_2
 40
0.00045
  10
-5.95307694291477
  20
42.55360859825444
  0
POLYLINE
  8
Unknown Area Type
  70
9
  66
1
  0
VERTEX
  8
Unknown Area Type
  70
32
  10
-5.96524828934686
  20
42.55699916947089
  30
966.13
  0
VERTEX
  8
Unknown Area Type
  70
32
  10
-5.95719727998949
  20
42.57980480042363
  30
989.712
  0
VERTEX
  8
Unknown Area Type
  70
32
  10
-5.95718093958274
  20
42.57984574378368
  30
989.721
  0
VERTEX
  8
Unknown Area Type
  70
32
  10
-5.9571626850002
  20
42.57984621532145
  30
989.718
  0
VERTEX
  8
Unknown Area Type
  70
32
  10
-5.95667964169594
  20
42.5798091658576
  30
989.661
  0
VERTEX
  8
Unknown Area Type
  70
32
  10
-5.935510781478
  20
42.5419441179545
  30
939.401
  0
VERTEX
  8
Unknown Area Type
  70
32
  10
-5.93548966135935
  20
42.53551974292834
  30
906.922
  0
VERTEX
  8
Unknown Area Type
  70
32
  10
-5.93549321244044
  20
42.53546562313191
  30
907.582
  0
VERTEX
  8
Unknown Area Type
  70
32
  10
-5.93551732431569
  20
42.53546050254727
  30
907.632
  0
VERTEX
  8
Unknown Area Type
  70
32
  10
-5.96363777251704
  20
42.53289010052574
  30
898.388
  0
VERTEX
  8
Unknown Area Type
  70
32
  10
-5.97066373421077
  20
42.53521585077274
  30
905.444
  0
VERTEX
  8
Unknown Area Type
  70
32
  10
-5.97013859345734
  20
42.54314015965228
  30
920.916
  0
VERTEX
  8
Unknown Area Type
  70
32
  10
-5.96524743696955
  20
42.55698118205472
  30
966.376
  0
VERTEX
  8
Unknown Area Type
  70
32
  10
-5.96524828934686
  20
42.55699916947089
  30
966.13
  0
SEQEND
  8
Unknown Area Type
  0
TEXT
  8
Unknown Area Type
 62
7
  1
PNOA-H_AMS_1956-57_33k_ES_PAN_2
 40
0.00045
  10
-5.95307694291477
  20
42.55360859825444
  0
POLYLINE
  8
Unknown Area Type
  70
9
  66
1
  0
VERTEX
  8
Unknown Area Type
  70
32
  10
-5.87352878833361
  20
42.53664127655761
  30
849.842
  0
VERTEX
  8
Unknown Area Type
  70
32
  10
-5.85416666666668
  20
42.56908773313076
  30
867.291
  0
VERTEX
  8
Unknown Area Type
  70
32
  10
-5.85416666666668
  20
42.56250000000004
  30
864.679
  0
VERTEX
  8
Unknown Area Type
  70
32
  10
-5.85416666666668
  20
42.54166666666663
  30
849.163
  0
VERTEX
  8
Unknown Area Type
  70
32
  10
-5.85416666666668
  20
42.53232898753475
  30
847.711
  0
VERTEX
  8
Unknown Area Type
  70
32
  10
-5.85674863668214
  20
42.53194190755006
  30
844.973
  0
SEQEND
  8
Unknown Area Type
  0
TEXT
  8
Unknown Area Type
 62
7
  1
PNOA-H_AMS_1956-57_33k_ES_PAN_2
 40
0.00045
  10
-5.8543938854603
  20
42.55049952084163
  0
POLYLINE
  8
Unknown Area Type
  70
9
  66
1
  0
VERTEX
  8
Unknown Area Type
  70
32
  10
-5.87352878833361
  20
42.53664127655761
  30
849.842
  0
VERTEX
  8
Unknown Area Type
  70
32
  10
-5.85416666666668
  20
42.56908773313076
  30
867.291
  0
VERTEX
  8
Unknown Area Type
  70
32
  10
-5.85416666666668
  20
42.56250000000004
  30
864.679
  0
VERTEX
  8
Unknown Area Type
  70
32
  10
-5.85416666666668
  20
42.54166666666663
  30
849.163
  0
VERTEX
  8
Unknown Area Type
  70
32
  10
-5.85416666666668
  20
42.53232898753475
  30
847.711
  0
VERTEX
  8
Unknown Area Type
  70
32
  10
-5.85674863668214
  20
42.53194190755006
  30
844.973
  0
SEQEND
  8
Unknown Area Type
  0
TEXT
  8
Unknown Area Type
 62
7
  1
PNOA-H_AMS_1956-57_33k_ES_PAN_2
 40
0.00045
  10
-5.8543938854603
  20
42.55049952084163
  0
POLYLINE
  8
Unknown Area Type
  70
9
  66
1
  0
VERTEX
  8
Unknown Area Type
  70
32
  10
-5.85416666666668
  20
42.54166666666663
  30
849.163
  0
VERTEX
  8
Unknown Area Type
  70
32
  10
-5.85416666666668
  20
42.56250000000004
  30
864.679
  0
VERTEX
  8
Unknown Area Type
  70
32
  10
-5.85416666666668
  20
42.56908773313076
  30
867.291
  0
VERTEX
  8
Unknown Area Type
  70
32
  10
-5.85416633333334
  20
42.56908829172066
  30
867.292
  0
VERTEX
  8
Unknown Area Type
  70
32
  10
-5.85416633333334
  20
42.53232903750694
  30
847.712
  0
VERTEX
  8
Unknown Area Type
  70
32
  10
-5.85416666666668
  20
42.53232898753475
  30
847.711
  0
SEQEND
  8
Unknown Area Type
  0
TEXT
  8
Unknown Area Type
 62
7
  1
PNOA-H_AMS_1956-57_33k_ES_PAN_2
 40
0.00045
  10
-5.85416650000001
  20
42.55070863962771
  0
POLYLINE
  8
Unknown Area Type
  70
9
  66
1
  0
VERTEX
  8
Unknown Area Type
  70
32
  10
-5.89263675641484
  20
42.50019480235373
  30
831.995
  0
VERTEX
  8
Unknown Area Type
  70
32
  10
-5.89226105191506
  20
42.5
  30
831.941
  0
VERTEX
  8
Unknown Area Type
  70
32
  10
-5.8935608728599
  20
42.5
  30
836.988
  0
SEQEND
  8
Unknown Area Type
  0
TEXT
  8
Unknown Area Type
 62
7
  1
PNOA-H_AMS_1956-57_33k_ES_PAN_2
 40
0.00045
  10
-5.89291096238748
  20
42.50009740117687
  0
POLYLINE
  8
Unknown Area Type
  70
9
  66
1
  0
VERTEX
  8
Unknown Area Type
  70
32
  10
-5.89263675641484
  20
42.50019480235373
  30
831.995
  0
VERTEX
  8
Unknown Area Type
  70
32
  10
-5.89226105191506
  20
42.5
  30
831.941
  0
VERTEX
  8
Unknown Area Type
  70
32
  10
-5.8935608728599
  20
42.5
  30
836.988
  0
SEQEND
  8
Unknown Area Type
  0
TEXT
  8
Unknown Area Type
 62
7
  1
PNOA-H_AMS_1956-57_33k_ES_PAN_2
 40
0.00045
  10
-5.89291096238748
  20
42.50009740117687
  0
POLYLINE
  8
Unknown Area Type
  70
9
  66
1
  0
VERTEX
  8
Unknown Area Type
  70
32
  10
-5.8935608728599
  20
42.5
  30
836.988
  0
VERTEX
  8
Unknown Area Type
  70
32
  10
-5.89226105191506
  20
42.5
  30
831.941
  0
VERTEX
  8
Unknown Area Type
  70
32
  10
-5.8922607304743
  20
42.49999983333333
  30
831.941
  0
VERTEX
  8
Unknown Area Type
  70
32
  10
-5.89356166350438
  20
42.49999983333333
  30
836.993
  0
SEQEND
  8
Unknown Area Type
  0
TEXT
  8
Unknown Area Type
 62
7
  1
PNOA-H_AMS_1956-57_33k_ES_PAN_2
 40
0.00045
  10
-5.89291119698934
  20
42.49999991666667
  0
POLYLINE
  8
Unknown Area Type
  70
9
  66
1
  0
VERTEX
  8
Unknown Area Type
  70
32
  10
-5.91193983155807
  20
42.6666666666667
  30
1063.922
  0
VERTEX
  8
Unknown Area Type
  70
32
  10
-5.89583333333331
  20
42.6666666666667
  30
1064.757
  0
VERTEX
  8
Unknown Area Type
  70
32
  10
-5.8925498481318
  20
42.6666666666667
  30
1064.317
  0
VERTEX
  8
Unknown Area Type
  70
32
  10
-5.8932104033453
  20
42.66559335389796
  30
1064.673
  0
VERTEX
  8
Unknown Area Type
  70
32
  10
-5.90847211537379
  20
42.66515252803753
  30
1065.172
  0
VERTEX
  8
Unknown Area Type
  70
32
  10
-5.90871606274181
  20
42.66515083113546
  30
1065.288
  0
SEQEND
  8
Unknown Area Type
  0
TEXT
  8
Unknown Area Type
 62
7
  1
PNOA-H_AMS_1956-57_33k_ES_PAN_2
 40
0.00045
  10
-5.90224483984494
  20
42.66590874890107
  0
POLYLINE
  8
Unknown Area Type
  70
9
  66
1
  0
VERTEX
  8
Unknown Area Type
  70
32
  10
-5.91193983155807
  20
42.6666666666667
  30
1063.922
  0
VERTEX
  8
Unknown Area Type
  70
32
  10
-5.89583333333331
  20
42.6666666666667
  30
1064.757
  0
VERTEX
  8
Unknown Area Type
  70
32
  10
-5.8925498481318
  20
42.6666666666667
  30
1064.317
  0
VERTEX
  8
Unknown Area Type
  70
32
  10
-5.8932104033453
  20
42.66559335389796
  30
1064.673
  0
VERTEX
  8
Unknown Area Type
  70
32
  10
-5.90847211537379
  20
42.66515252803753
  30
1065.172
  0
VERTEX
  8
Unknown Area Type
  70
32
  10
-5.90871606274181
  20
42.66515083113546
  30
1065.288
  0
SEQEND
  8
Unknown Area Type
  0
TEXT
  8
Unknown Area Type
 62
7
  1
PNOA-H_AMS_1956-57_33k_ES_PAN_2
 40
0.00045
  10
-5.90224483984494
  20
42.66590874890107
  0
POLYLINE
  8
Unknown Area Type
  70
9
  66
1
  0
VERTEX
  8
Unknown Area Type
  70
32
  10
-5.91194018601261
  20
42.66666683333337
  30
1063.922
  0
VERTEX
  8
Unknown Area Type
  70
32
  10
-5.89254974555915
  20
42.66666683333337
  30
1064.317
  0
VERTEX
  8
Unknown Area Type
  70
32
  10
-5.8925498481318
  20
42.6666666666667
  30
1064.317
  0
VERTEX
  8
Unknown Area Type
  70
32
  10
-5.89583333333331
  20
42.6666666666667
  30
1064.757
  0
VERTEX
  8
Unknown Area Type
  70
32
  10
-5.91193983155807
  20
42.6666666666667
  30
1063.922
  0
SEQEND
  8
Unknown Area Type
  0
TEXT
  8
Unknown Area Type
 62
7
  1
PNOA-H_AMS_1956-57_33k_ES_PAN_2
 40
0.00045
  10
-5.90224496578588
  20
42.66666675000003
  0
POLYLINE
  8
Unknown Area Type
  70
9
  66
1
  0
VERTEX
  8
Unknown Area Type
  70
32
  10
-5.85798527286663
  20
42.6666666666667
  30
942.567
  0
VERTEX
  8
Unknown Area Type
  70
32
  10
-5.85416666666668
  20
42.6666666666667
  30
930.95
  0
VERTEX
  8
Unknown Area Type
  70
32
  10
-5.85416666666668
  20
42.66392044120137
  30
922.009
  0
VERTEX
  8
Unknown Area Type
  70
32
  10
-5.85616322508035
  20
42.66391695306132
  30
931.273
  0
VERTEX
  8
Unknown Area Type
  70
32
  10
-5.85617603037383
  20
42.66393014056877
  30
931.206
  0
SEQEND
  8
Unknown Area Type
  0
TEXT
  8
Unknown Area Type
 62
7
  1
PNOA-H_AMS_1956-57_33k_ES_PAN_2
 40
0.00045
  10
-5.85607596976665
  20
42.66529180986402
  0
POLYLINE
  8
Unknown Area Type
  70
9
  66
1
  0
VERTEX
  8
Unknown Area Type
  70
32
  10
-5.85798527286663
  20
42.6666666666667
  30
942.567
  0
VERTEX
  8
Unknown Area Type
  70
32
  10
-5.85416666666668
  20
42.6666666666667
  30
930.95
  0
VERTEX
  8
Unknown Area Type
  70
32
  10
-5.85416666666668
  20
42.66392044120137
  30
922.009
  0
VERTEX
  8
Unknown Area Type
  70
32
  10
-5.85616322508035
  20
42.66391695306132
  30
931.273
  0
VERTEX
  8
Unknown Area Type
  70
32
  10
-5.85617603037383
  20
42.66393014056877
  30
931.206
  0
SEQEND
  8
Unknown Area Type
  0
TEXT
  8
Unknown Area Type
 62
7
  1
PNOA-H_AMS_1956-57_33k_ES_PAN_2
 40
0.00045
  10
-5.85607596976665
  20
42.66529180986402
  0
POLYLINE
  8
Unknown Area Type
  70
9
  66
1
  0
VERTEX
  8
Unknown Area Type
  70
32
  10
-5.85416666666668
  20
42.6666666666667
  30
930.95
  0
VERTEX
  8
Unknown Area Type
  70
32
  10
-5.85416633333334
  20
42.6666666666667
  30
930.95
  0
VERTEX
  8
Unknown Area Type
  70
32
  10
-5.85416633333334
  20
42.66392044178372
  30
922.007
  0
VERTEX
  8
Unknown Area Type
  70
32
  10
-5.85416666666668
  20
42.66392044120137
  30
922.009
  0
SEQEND
  8
Unknown Area Type
  0
TEXT
  8
Unknown Area Type
 62
7
  1
PNOA-H_AMS_1956-57_33k_ES_PAN_2
 40
0.00045
  10
-5.85416650000001
  20
42.66529355393403
  0
POLYLINE
  8
Unknown Area Type
  70
9
  66
1
  0
VERTEX
  8
Unknown Area Type
  70
32
  10
-5.85798538305758
  20
42.66666683333337
  30
942.567
  0
VERTEX
  8
Unknown Area Type
  70
32
  10
-5.85416666666668
  20
42.66666683333337
  30
930.95
  0
VERTEX
  8
Unknown Area Type
  70
32
  10
-5.85416666666668
  20
42.6666666666667
  30
930.95
  0
VERTEX
  8
Unknown Area Type
  70
32
  10
-5.85798527286663
  20
42.6666666666667
  30
942.567
  0
SEQEND
  8
Unknown Area Type
  0
TEXT
  8
Unknown Area Type
 62
7
  1
PNOA-H_AMS_1956-57_33k_ES_PAN_2
 40
0.00045
  10
-5.85607602486213
  20
42.66666675000003
  0
POLYLINE
  8
Unknown Area Type
  70
9
  66
1
  0
VERTEX
  8
Unknown Area Type
  70
32
  10
-5.85416666666668
  20
42.66666683333337
  30
930.95
  0
VERTEX
  8
Unknown Area Type
  70
32
  10
-5.85416633333334
  20
42.66666683333337
  30
930.951
  0
VERTEX
  8
Unknown Area Type
  70
32
  10
-5.85416633333334
  20
42.6666666666667
  30
930.95
  0
VERTEX
  8
Unknown Area Type
  70
32
  10
-5.85416666666668
  20
42.6666666666667
  30
930.95
  0
SEQEND
  8
Unknown Area Type
  0
TEXT
  8
Unknown Area Type
 62
7
  1
PNOA-H_AMS_1956-57_33k_ES_PAN_2
 40
0.00045
  10
-5.85416650000001
  20
42.66666675000003
  0
POLYLINE
  8
Unknown Area Type
  70
9
  66
1
  0
VERTEX
  8
Unknown Area Type
  70
32
  10
-5.92771759644484
  20
42.50039734228204
  30
924.382
  0
VERTEX
  8
Unknown Area Type
  70
32
  10
-5.92540033028686
  20
42.5
  30
923.185
  0
VERTEX
  8
Unknown Area Type
  70
32
  10
-5.92838700882694
  20
42.5
  30
924.354
  0
SEQEND
  8
Unknown Area Type
  0
TEXT
  8
Unknown Area Type
 62
7
  1
PNOA-H_AMS_1956-57_33k_ES_PAN_2
 40
0.00045
  10
-5.9268936695569
  20
42.50019867114102
  0
POLYLINE
  8
Unknown Area Type
  70
9
  66
1
  0
VERTEX
  8
Unknown Area Type
  70
32
  10
-5.92771759644484
  20
42.50039734228204
  30
924.382
  0
VERTEX
  8
Unknown Area Type
  70
32
  10
-5.92540033028686
  20
42.5
  30
923.185
  0
VERTEX
  8
Unknown Area Type
  70
32
  10
-5.92838700882694
  20
42.5
  30
924.354
  0
SEQEND
  8
Unknown Area Type
  0
TEXT
  8
Unknown Area Type
 62
7
  1
PNOA-H_AMS_1956-57_33k_ES_PAN_2
 40
0.00045
  10
-5.9268936695569
  20
42.50019867114102
  0
POLYLINE
  8
Unknown Area Type
  70
9
  66
1
  0
VERTEX
  8
Unknown Area Type
  70
32
  10
-5.92838700882694
  20
42.5
  30
924.354
  0
VERTEX
  8
Unknown Area Type
  70
32
  10
-5.92540033028686
  20
42.5
  30
923.185
  0
VERTEX
  8
Unknown Area Type
  70
32
  10
-5.92539935830114
  20
42.49999983333333
  30
923.185
  0
VERTEX
  8
Unknown Area Type
  70
32
  10
-5.9283872896144
  20
42.49999983333333
  30
924.354
  0
SEQEND
  8
Unknown Area Type
  0
TEXT
  8
Unknown Area Type
 62
7
  1
PNOA-H_AMS_1956-57_33k_ES_PAN_2
 40
0.00045
  10
-5.92689332395777
  20
42.49999991666667
  0
POLYLINE
  8
Unknown Area Type
  70
9
  66
1
  0
VERTEX
  8
Unknown Area Type
  70
32
  10
-6.09528125743305
  20
42.66421029847825
  30
1024.744
  0
VERTEX
  8
Unknown Area Type
  70
32
  10
-6.09446631933361
  20
42.66450697489929
  30
1013.177
  0
VERTEX
  8
Unknown Area Type
  70
32
  10
-6.09443021172216
  20
42.66451695574698
  30
1012.394
  0
VERTEX
  8
Unknown Area Type
  70
32
  10
-6.0944049495478
  20
42.66449962973606
  30
1013.089
  0
VERTEX
  8
Unknown Area Type
  70
32
  10
-6.08399481804584
  20
42.65630735351586
  30
1035.39
  0
VERTEX
  8
Unknown Area Type
  70
32
  10
-6.08468625829249
  20
42.62810893054517
  30
976.952
  0
VERTEX
  8
Unknown Area Type
  70
32
  10
-6.09328933820878
  20
42.62590024189811
  30
987.027
  0
VERTEX
  8
Unknown Area Type
  70
32
  10
-6.09338630979177
  20
42.62588861652747
  30
987.122
  0
VERTEX
  8
Unknown Area Type
  70
32
  10
-6.11902584976179
  20
42.62838490053522
  30
1000.547
  0
VERTEX
  8
Unknown Area Type
  70
32
  10
-6.11807370153902
  20
42.65593772990965
  30
1154.672
  0
VERTEX
  8
Unknown Area Type
  70
32
  10
-6.09529321877371
  20
42.66420547270108
  30
1024.978
  0
VERTEX
  8
Unknown Area Type
  70
32
  10
-6.09528125743305
  20
42.66421029847825
  30
1024.744
  0
SEQEND
  8
Unknown Area Type
  0
TEXT
  8
Unknown Area Type
 62
7
  1
PNOA-H_AMS_1956-57_33k_ES_PAN_2
 40
0.00045
  10
-6.10151062512968
  20
42.64431257106958
  0
POLYLINE
  8
Unknown Area Type
  70
9
  66
1
  0
VERTEX
  8
Unknown Area Type
  70
32
  10
-6.09528125743305
  20
42.66421029847825
  30
1024.744
  0
VERTEX
  8
Unknown Area Type
  70
32
  10
-6.09446631933361
  20
42.66450697489929
  30
1013.177
  0
VERTEX
  8
Unknown Area Type
  70
32
  10
-6.09443021172216
  20
42.66451695574698
  30
1012.394
  0
VERTEX
  8
Unknown Area Type
  70
32
  10
-6.0944049495478
  20
42.66449962973606
  30
1013.089
  0
VERTEX
  8
Unknown Area Type
  70
32
  10
-6.08399481804584
  20
42.65630735351586
  30
1035.39
  0
VERTEX
  8
Unknown Area Type
  70
32
  10
-6.08468625829249
  20
42.62810893054517
  30
976.952
  0
VERTEX
  8
Unknown Area Type
  70
32
  10
-6.09328933820878
  20
42.62590024189811
  30
987.027
  0
VERTEX
  8
Unknown Area Type
  70
32
  10
-6.09338630979177
  20
42.62588861652747
  30
987.122
  0
VERTEX
  8
Unknown Area Type
  70
32
  10
-6.11902584976179
  20
42.62838490053522
  30
1000.547
  0
VERTEX
  8
Unknown Area Type
  70
32
  10
-6.11807370153902
  20
42.65593772990965
  30
1154.672
  0
VERTEX
  8
Unknown Area Type
  70
32
  10
-6.09529321877371
  20
42.66420547270108
  30
1024.978
  0
VERTEX
  8
Unknown Area Type
  70
32
  10
-6.09528125743305
  20
42.66421029847825
  30
1024.744
  0
SEQEND
  8
Unknown Area Type
  0
TEXT
  8
Unknown Area Type
 62
7
  1
PNOA-H_AMS_1956-57_33k_ES_PAN_2
 40
0.00045
  10
-6.10151062512968
  20
42.64431257106958
  0
POLYLINE
  8
Unknown Area Type
  70
9
  66
1
  0
VERTEX
  8
Unknown Area Type
  70
32
  10
-6.18598384025891
  20
42.6666666666667
  30
1203.888
  0
VERTEX
  8
Unknown Area Type
  70
32
  10
-6.15225637270911
  20
42.6666666666667
  30
1176.628
  0
VERTEX
  8
Unknown Area Type
  70
32
  10
-6.15216065758977
  20
42.62846311999707
  30
1000.536
  0
VERTEX
  8
Unknown Area Type
  70
32
  10
-6.1574572132393
  20
42.62686289015007
  30
1033.335
  0
VERTEX
  8
Unknown Area Type
  70
32
  10
-6.18643855281834
  20
42.62812171515305
  30
1065.771
  0
SEQEND
  8
Unknown Area Type
  0
TEXT
  8
Unknown Area Type
 62
7
  1
PNOA-H_AMS_1956-57_33k_ES_PAN_2
 40
0.00045
  10
-6.16929983148132
  20
42.64924288509887
  0
POLYLINE
  8
Unknown Area Type
  70
9
  66
1
  0
VERTEX
  8
Unknown Area Type
  70
32
  10
-6.18598384025891
  20
42.6666666666667
  30
1203.888
  0
VERTEX
  8
Unknown Area Type
  70
32
  10
-6.15225637270911
  20
42.6666666666667
  30
1176.628
  0
VERTEX
  8
Unknown Area Type
  70
32
  10
-6.15216065758977
  20
42.62846311999707
  30
1000.536
  0
VERTEX
  8
Unknown Area Type
  70
32
  10
-6.1574572132393
  20
42.62686289015007
  30
1033.335
  0
VERTEX
  8
Unknown Area Type
  70
32
  10
-6.18643855281834
  20
42.62812171515305
  30
1065.771
  0
SEQEND
  8
Unknown Area Type
  0
TEXT
  8
Unknown Area Type
 62
7
  1
PNOA-H_AMS_1956-57_33k_ES_PAN_2
 40
0.00045
  10
-6.16929983148132
  20
42.64924288509887
  0
POLYLINE
  8
Unknown Area Type
  70
9
  66
1
  0
VERTEX
  8
Unknown Area Type
  70
32
  10
-6.18598383829275
  20
42.66666683333337
  30
1203.889
  0
VERTEX
  8
Unknown Area Type
  70
32
  10
-6.15225637312667
  20
42.66666683333337
  30
1176.629
  0
VERTEX
  8
Unknown Area Type
  70
32
  10
-6.15225637270911
  20
42.6666666666667
  30
1176.628
  0
VERTEX
  8
Unknown Area Type
  70
32
  10
-6.18598384025891
  20
42.6666666666667
  30
1203.888
  0
SEQEND
  8
Unknown Area Type
  0
TEXT
  8
Unknown Area Type
 62
7
  1
PNOA-H_AMS_1956-57_33k_ES_PAN_2
 40
0.00045
  10
-6.16912010648401
  20
42.66666675000003
  0
POLYLINE
  8
Unknown Area Type
  70
9
  66
1
  0
VERTEX
  8
Unknown Area Type
  70
32
  10
-6.04499329042031
  20
42.65755877126937
  30
1005.536
  0
VERTEX
  8
Unknown Area Type
  70
32
  10
-6.02470578611311
  20
42.66348147264968
  30
1014.762
  0
VERTEX
  8
Unknown Area Type
  70
32
  10
-6.01404716680591
  20
42.65702272684276
  30
1037.989
  0
VERTEX
  8
Unknown Area Type
  70
32
  10
-6.01419082701683
  20
42.6267994556075
  30
1025.286
  0
VERTEX
  8
Unknown Area Type
  70
32
  10
-6.02837098411163
  20
42.623885856337
  30
957.052
  0
VERTEX
  8
Unknown Area Type
  70
32
  10
-6.05062429780932
  20
42.62739652034169
  30
955.094
  0
VERTEX
  8
Unknown Area Type
  70
32
  10
-6.04895032687859
  20
42.65639988851888
  30
1000.682
  0
VERTEX
  8
Unknown Area Type
  70
32
  10
-6.04501134665299
  20
42.65755378858423
  30
1005.592
  0
VERTEX
  8
Unknown Area Type
  70
32
  10
-6.04499329042031
  20
42.65755877126937
  30
1005.536
  0
SEQEND
  8
Unknown Area Type
  0
TEXT
  8
Unknown Area Type
 62
7
  1
PNOA-H_AMS_1956-57_33k_ES_PAN_2
 40
0.00045
  10
-6.03233587778506
  20
42.64288171966845
  0
POLYLINE
  8
Unknown Area Type
  70
9
  66
1
  0
VERTEX
  8
Unknown Area Type
  70
32
  10
-6.04499329042031
  20
42.65755877126937
  30
1005.536
  0
VERTEX
  8
Unknown Area Type
  70
32
  10
-6.02470578611311
  20
42.66348147264968
  30
1014.762
  0
VERTEX
  8
Unknown Area Type
  70
32
  10
-6.01404716680591
  20
42.65702272684276
  30
1037.989
  0
VERTEX
  8
Unknown Area Type
  70
32
  10
-6.01419082701683
  20
42.6267994556075
  30
1025.286
  0
VERTEX
  8
Unknown Area Type
  70
32
  10
-6.02837098411163
  20
42.623885856337
  30
957.052
  0
VERTEX
  8
Unknown Area Type
  70
32
  10
-6.05062429780932
  20
42.62739652034169
  30
955.094
  0
VERTEX
  8
Unknown Area Type
  70
32
  10
-6.04895032687859
  20
42.65639988851888
  30
1000.682
  0
VERTEX
  8
Unknown Area Type
  70
32
  10
-6.04501134665299
  20
42.65755378858423
  30
1005.592
  0
VERTEX
  8
Unknown Area Type
  70
32
  10
-6.04499329042031
  20
42.65755877126937
  30
1005.536
  0
SEQEND
  8
Unknown Area Type
  0
TEXT
  8
Unknown Area Type
 62
7
  1
PNOA-H_AMS_1956-57_33k_ES_PAN_2
 40
0.00045
  10
-6.03233587778506
  20
42.64288171966845
  0
POLYLINE
  8
Unknown Area Type
  70
9
  66
1
  0
VERTEX
  8
Unknown Area Type
  70
32
  10
-6.18749999999997
  20
42.64583333333339
  30
1128.757
  0
VERTEX
  8
Unknown Area Type
  70
32
  10
-6.18749999999997
  20
42.6666666666667
  30
1203.943
  0
VERTEX
  8
Unknown Area Type
  70
32
  10
-6.18597815350033
  20
42.6666666666667
  30
1204.008
  0
VERTEX
  8
Unknown Area Type
  70
32
  10
-6.18643544864541
  20
42.62818033088502
  30
1065.095
  0
VERTEX
  8
Unknown Area Type
  70
32
  10
-6.18643855281834
  20
42.62812171515305
  30
1065.771
  0
VERTEX
  8
Unknown Area Type
  70
32
  10
-6.18646244672786
  20
42.62811204539583
  30
1065.721
  0
VERTEX
  8
Unknown Area Type
  70
32
  10
-6.18749999999997
  20
42.62777688282212
  30
1061.524
  0
SEQEND
  8
Unknown Area Type
  0
TEXT
  8
Unknown Area Type
 62
7
  1
PNOA-H_AMS_1956-57_33k_ES_PAN_2
 40
0.00045
  10
-6.18673907675015
  20
42.64722177474441
  0
POLYLINE
  8
Unknown Area Type
  70
9
  66
1
  0
VERTEX
  8
Unknown Area Type
  70
32
  10
-6.18749999999997
  20
42.64583333333339
  30
1128.757
  0
VERTEX
  8
Unknown Area Type
  70
32
  10
-6.18749999999997
  20
42.6666666666667
  30
1203.943
  0
VERTEX
  8
Unknown Area Type
  70
32
  10
-6.18597815350033
  20
42.6666666666667
  30
1204.008
  0
VERTEX
  8
Unknown Area Type
  70
32
  10
-6.18643544864541
  20
42.62818033088502
  30
1065.095
  0
VERTEX
  8
Unknown Area Type
  70
32
  10
-6.18643855281834
  20
42.62812171515305
  30
1065.771
  0
VERTEX
  8
Unknown Area Type
  70
32
  10
-6.18646244672786
  20
42.62811204539583
  30
1065.721
  0
VERTEX
  8
Unknown Area Type
  70
32
  10
-6.18749999999997
  20
42.62777688282212
  30
1061.524
  0
SEQEND
  8
Unknown Area Type
  0
TEXT
  8
Unknown Area Type
 62
7
  1
PNOA-H_AMS_1956-57_33k_ES_PAN_2
 40
0.00045
  10
-6.18673907675015
  20
42.64722177474441
  0
POLYLINE
  8
Unknown Area Type
  70
9
  66
1
  0
VERTEX
  8
Unknown Area Type
  70
32
  10
-6.18749999999997
  20
42.66666683333337
  30
1203.943
  0
VERTEX
  8
Unknown Area Type
  70
32
  10
-6.18597815152
  20
42.66666683333337
  30
1204.008
  0
VERTEX
  8
Unknown Area Type
  70
32
  10
-6.18597815350033
  20
42.6666666666667
  30
1204.008
  0
VERTEX
  8
Unknown Area Type
  70
32
  10
-6.18749999999997
  20
42.6666666666667
  30
1203.943
  0
SEQEND
  8
Unknown Area Type
  0
TEXT
  8
Unknown Area Type
 62
7
  1
PNOA-H_AMS_1956-57_33k_ES_PAN_2
 40
0.00045
  10
-6.18673907575999
  20
42.66666675000003
  0
POLYLINE
  8
Unknown Area Type
  70
9
  66
1
  0
VERTEX
  8
Unknown Area Type
  70
32
  10
-6.05919456607784
  20
42.66391546923614
  30
1029.879
  0
VERTEX
  8
Unknown Area Type
  70
32
  10
-6.05917628863287
  20
42.66391595779662
  30
1030.03
  0
VERTEX
  8
Unknown Area Type
  70
32
  10
-6.05914472292683
  20
42.66389429015079
  30
1029.685
  0
VERTEX
  8
Unknown Area Type
  70
32
  10
-6.04895054674558
  20
42.65640438494894
  30
1000.706
  0
VERTEX
  8
Unknown Area Type
  70
32
  10
-6.05062429780932
  20
42.62739652034169
  30
955.094
  0
VERTEX
  8
Unknown Area Type
  70
32
  10
-6.06050161429887
  20
42.62516533191933
  30
967.099
  0
VERTEX
  8
Unknown Area Type
  70
32
  10
-6.08468648051408
  20
42.62811342684694
  30
976.947
  0
VERTEX
  8
Unknown Area Type
  70
32
  10
-6.08399481804584
  20
42.65630735351586
  30
1035.39
  0
VERTEX
  8
Unknown Area Type
  70
32
  10
-6.05921262285808
  20
42.66391048429167
  30
1029.628
  0
VERTEX
  8
Unknown Area Type
  70
32
  10
-6.05919456607784
  20
42.66391546923614
  30
1029.879
  0
SEQEND
  8
Unknown Area Type
  0
TEXT
  8
Unknown Area Type
 62
7
  1
PNOA-H_AMS_1956-57_33k_ES_PAN_2
 40
0.00045
  10
-6.06681867437956
  20
42.64375453405441
  0
POLYLINE
  8
Unknown Area Type
  70
9
  66
1
  0
VERTEX
  8
Unknown Area Type
  70
32
  10
-6.05919456607784
  20
42.66391546923614
  30
1029.879
  0
VERTEX
  8
Unknown Area Type
  70
32
  10
-6.05917628863287
  20
42.66391595779662
  30
1030.03
  0
VERTEX
  8
Unknown Area Type
  70
32
  10
-6.05914472292683
  20
42.66389429015079
  30
1029.685
  0
VERTEX
  8
Unknown Area Type
  70
32
  10
-6.04895054674558
  20
42.65640438494894
  30
1000.706
  0
VERTEX
  8
Unknown Area Type
  70
32
  10
-6.05062429780932
  20
42.62739652034169
  30
955.094
  0
VERTEX
  8
Unknown Area Type
  70
32
  10
-6.06050161429887
  20
42.62516533191933
  30
967.099
  0
VERTEX
  8
Unknown Area Type
  70
32
  10
-6.08468648051408
  20
42.62811342684694
  30
976.947
  0
VERTEX
  8
Unknown Area Type
  70
32
  10
-6.08399481804584
  20
42.65630735351586
  30
1035.39
  0
VERTEX
  8
Unknown Area Type
  70
32
  10
-6.05921262285808
  20
42.66391048429167
  30
1029.628
  0
VERTEX
  8
Unknown Area Type
  70
32
  10
-6.05919456607784
  20
42.66391546923614
  30
1029.879
  0
SEQEND
  8
Unknown Area Type
  0
TEXT
  8
Unknown Area Type
 62
7
  1
PNOA-H_AMS_1956-57_33k_ES_PAN_2
 40
0.00045
  10
-6.06681867437956
  20
42.64375453405441
  0
POLYLINE
  8
Unknown Area Type
  70
9
  66
1
  0
VERTEX
  8
Unknown Area Type
  70
32
  10
-6.15225637270911
  20
42.6666666666667
  30
1176.628
  0
VERTEX
  8
Unknown Area Type
  70
32
  10
-6.14583333333334
  20
42.6666666666667
  30
1164.935
  0
VERTEX
  8
Unknown Area Type
  70
32
  10
-6.13183850272257
  20
42.6666666666667
  30
1136.066
  0
VERTEX
  8
Unknown Area Type
  70
32
  10
-6.11807392638219
  20
42.65594222604727
  30
1154.614
  0
VERTEX
  8
Unknown Area Type
  70
32
  10
-6.11902562506666
  20
42.62838040438
  30
1000.549
  0
VERTEX
  8
Unknown Area Type
  70
32
  10
-6.12571423309761
  20
42.62655910552148
  30
1006.241
  0
VERTEX
  8
Unknown Area Type
  70
32
  10
-6.1258466028901
  20
42.62652397450165
  30
1006.638
  0
VERTEX
  8
Unknown Area Type
  70
32
  10
-6.12588922204318
  20
42.62652281052034
  30
1006.71
  0
VERTEX
  8
Unknown Area Type
  70
32
  10
-6.15216065758977
  20
42.62846311999707
  30
1000.536
  0
SEQEND
  8
Unknown Area Type
  0
TEXT
  8
Unknown Area Type
 62
7
  1
PNOA-H_AMS_1956-57_33k_ES_PAN_2
 40
0.00045
  10
-6.13516723274683
  20
42.64823243105324
  0
POLYLINE
  8
Unknown Area Type
  70
9
  66
1
  0
VERTEX
  8
Unknown Area Type
  70
32
  10
-6.15225637270911
  20
42.6666666666667
  30
1176.628
  0
VERTEX
  8
Unknown Area Type
  70
32
  10
-6.14583333333334
  20
42.6666666666667
  30
1164.935
  0
VERTEX
  8
Unknown Area Type
  70
32
  10
-6.13183850272257
  20
42.6666666666667
  30
1136.066
  0
VERTEX
  8
Unknown Area Type
  70
32
  10
-6.11807392638219
  20
42.65594222604727
  30
1154.614
  0
VERTEX
  8
Unknown Area Type
  70
32
  10
-6.11902562506666
  20
42.62838040438
  30
1000.549
  0
VERTEX
  8
Unknown Area Type
  70
32
  10
-6.12571423309761
  20
42.62655910552148
  30
1006.241
  0
VERTEX
  8
Unknown Area Type
  70
32
  10
-6.1258466028901
  20
42.62652397450165
  30
1006.638
  0
VERTEX
  8
Unknown Area Type
  70
32
  10
-6.12588922204318
  20
42.62652281052034
  30
1006.71
  0
VERTEX
  8
Unknown Area Type
  70
32
  10
-6.15216065758977
  20
42.62846311999707
  30
1000.536
  0
SEQEND
  8
Unknown Area Type
  0
TEXT
  8
Unknown Area Type
 62
7
  1
PNOA-H_AMS_1956-57_33k_ES_PAN_2
 40
0.00045
  10
-6.13516723274683
  20
42.64823243105324
  0
POLYLINE
  8
Unknown Area Type
  70
9
  66
1
  0
VERTEX
  8
Unknown Area Type
  70
32
  10
-6.15225637312667
  20
42.66666683333337
  30
1176.629
  0
VERTEX
  8
Unknown Area Type
  70
32
  10
-6.13183871663546
  20
42.66666683333337
  30
1136.066
  0
VERTEX
  8
Unknown Area Type
  70
32
  10
-6.13183850272257
  20
42.6666666666667
  30
1136.066
  0
VERTEX
  8
Unknown Area Type
  70
32
  10
-6.14583333333334
  20
42.6666666666667
  30
1164.935
  0
VERTEX
  8
Unknown Area Type
  70
32
  10
-6.15225637270911
  20
42.6666666666667
  30
1176.628
  0
SEQEND
  8
Unknown Area Type
  0
TEXT
  8
Unknown Area Type
 62
7
  1
PNOA-H_AMS_1956-57_33k_ES_PAN_2
 40
0.00045
  10
-6.14204743792462
  20
42.66666675000003
  0
POLYLINE
  8
Unknown Area Type
  70
9
  66
1
  0
VERTEX
  8
Unknown Area Type
  70
32
  10
-5.99131426670291
  20
42.66403941345681
  30
1078.425
  0
VERTEX
  8
Unknown Area Type
  70
32
  10
-5.99128358655286
  20
42.66403571300994
  30
1078.253
  0
VERTEX
  8
Unknown Area Type
  70
32
  10
-5.99108974500017
  20
42.66393722609612
  30
1077.683
  0
VERTEX
  8
Unknown Area Type
  70
32
  10
-5.97868256219711
  20
42.6575793775494
  30
1057.441
  0
VERTEX
  8
Unknown Area Type
  70
32
  10
-5.98032905311304
  20
42.62642098905929
  30
1020.772
  0
VERTEX
  8
Unknown Area Type
  70
32
  10
-5.99628406288368
  20
42.62361821922892
  30
1020.064
  0
VERTEX
  8
Unknown Area Type
  70
32
  10
-6.01419104415468
  20
42.62680395220559
  30
1025.288
  0
VERTEX
  8
Unknown Area Type
  70
32
  10
-6.01405282415479
  20
42.65701357326078
  30
1038.123
  0
VERTEX
  8
Unknown Area Type
  70
32
  10
-6.01403520003441
  20
42.65702754428118
  30
1037.803
  0
VERTEX
  8
Unknown Area Type
  70
32
  10
-6.01378281069986
  20
42.65710622733166
  30
1034.952
  0
VERTEX
  8
Unknown Area Type
  70
32
  10
-5.99132623668167
  20
42.66403459830487
  30
1078.391
  0
VERTEX
  8
Unknown Area Type
  70
32
  10
-5.99131426670291
  20
42.66403941345681
  30
1078.425
  0
SEQEND
  8
Unknown Area Type
  0
TEXT
  8
Unknown Area Type
 62
7
  1
PNOA-H_AMS_1956-57_33k_ES_PAN_2
 40
0.00045
  10
-5.99643704002347
  20
42.64304993427363
  0
POLYLINE
  8
Unknown Area Type
  70
9
  66
1
  0
VERTEX
  8
Unknown Area Type
  70
32
  10
-5.99131426670291
  20
42.66403941345681
  30
1078.425
  0
VERTEX
  8
Unknown Area Type
  70
32
  10
-5.99128358655286
  20
42.66403571300994
  30
1078.253
  0
VERTEX
  8
Unknown Area Type
  70
32
  10
-5.99108974500017
  20
42.66393722609612
  30
1077.683
  0
VERTEX
  8
Unknown Area Type
  70
32
  10
-5.97868256219711
  20
42.6575793775494
  30
1057.441
  0
VERTEX
  8
Unknown Area Type
  70
32
  10
-5.98032905311304
  20
42.62642098905929
  30
1020.772
  0
VERTEX
  8
Unknown Area Type
  70
32
  10
-5.99628406288368
  20
42.62361821922892
  30
1020.064
  0
VERTEX
  8
Unknown Area Type
  70
32
  10
-6.01419104415468
  20
42.62680395220559
  30
1025.288
  0
VERTEX
  8
Unknown Area Type
  70
32
  10
-6.01405282415479
  20
42.65701357326078
  30
1038.123
  0
VERTEX
  8
Unknown Area Type
  70
32
  10
-6.01403520003441
  20
42.65702754428118
  30
1037.803
  0
VERTEX
  8
Unknown Area Type
  70
32
  10
-6.01378281069986
  20
42.65710622733166
  30
1034.952
  0
VERTEX
  8
Unknown Area Type
  70
32
  10
-5.99132623668167
  20
42.66403459830487
  30
1078.391
  0
VERTEX
  8
Unknown Area Type
  70
32
  10
-5.99131426670291
  20
42.66403941345681
  30
1078.425
  0
SEQEND
  8
Unknown Area Type
  0
TEXT
  8
Unknown Area Type
 62
7
  1
PNOA-H_AMS_1956-57_33k_ES_PAN_2
 40
0.00045
  10
-5.99643704002347
  20
42.64304993427363
  0
POLYLINE
  8
Unknown Area Type
  70
9
  66
1
  0
VERTEX
  8
Unknown Area Type
  70
32
  10
-5.97015618707623
  20
42.66029524024998
  30
1041.05
  0
VERTEX
  8
Unknown Area Type
  70
32
  10
-5.95835971227884
  20
42.66404953052582
  30
1044.944
  0
VERTEX
  8
Unknown Area Type
  70
32
  10
-5.94369810497585
  20
42.65741744547191
  30
1055.241
  0
VERTEX
  8
Unknown Area Type
  70
32
  10
-5.94541357613836
  20
42.62631623452178
  30
1029.089
  0
VERTEX
  8
Unknown Area Type
  70
32
  10
-5.96487440036774
  20
42.62322947825329
  30
996.683
  0
VERTEX
  8
Unknown Area Type
  70
32
  10
-5.98032883841523
  20
42.62641649232148
  30
1020.762
  0
VERTEX
  8
Unknown Area Type
  70
32
  10
-5.97868234738389
  20
42.65757488082937
  30
1057.428
  0
VERTEX
  8
Unknown Area Type
  70
32
  10
-5.97016815811145
  20
42.6602904272814
  30
1041.121
  0
VERTEX
  8
Unknown Area Type
  70
32
  10
-5.97015618707623
  20
42.66029524024998
  30
1041.05
  0
SEQEND
  8
Unknown Area Type
  0
TEXT
  8
Unknown Area Type
 62
7
  1
PNOA-H_AMS_1956-57_33k_ES_PAN_2
 40
0.00045
  10
-5.96201376904935
  20
42.64328295568336
  0
POLYLINE
  8
Unknown Area Type
  70
9
  66
1
  0
VERTEX
  8
Unknown Area Type
  70
32
  10
-5.97015618707623
  20
42.66029524024998
  30
1041.05
  0
VERTEX
  8
Unknown Area Type
  70
32
  10
-5.95835971227884
  20
42.66404953052582
  30
1044.944
  0
VERTEX
  8
Unknown Area Type
  70
32
  10
-5.94369810497585
  20
42.65741744547191
  30
1055.241
  0
VERTEX
  8
Unknown Area Type
  70
32
  10
-5.94541357613836
  20
42.62631623452178
  30
1029.089
  0
VERTEX
  8
Unknown Area Type
  70
32
  10
-5.96487440036774
  20
42.62322947825329
  30
996.683
  0
VERTEX
  8
Unknown Area Type
  70
32
  10
-5.98032883841523
  20
42.62641649232148
  30
1020.762
  0
VERTEX
  8
Unknown Area Type
  70
32
  10
-5.97868234738389
  20
42.65757488082937
  30
1057.428
  0
VERTEX
  8
Unknown Area Type
  70
32
  10
-5.97016815811145
  20
42.6602904272814
  30
1041.121
  0
VERTEX
  8
Unknown Area Type
  70
32
  10
-5.97015618707623
  20
42.66029524024998
  30
1041.05
  0
SEQEND
  8
Unknown Area Type
  0
TEXT
  8
Unknown Area Type
 62
7
  1
PNOA-H_AMS_1956-57_33k_ES_PAN_2
 40
0.00045
  10
-5.96201376904935
  20
42.64328295568336
  0
POLYLINE
  8
Unknown Area Type
  70
9
  66
1
  0
VERTEX
  8
Unknown Area Type
  70
32
  10
-5.94441536808409
  20
42.64431523686822
  30
990.788
  0
VERTEX
  8
Unknown Area Type
  70
32
  10
-5.94441833952882
  20
42.64437819304611
  30
990.945
  0
VERTEX
  8
Unknown Area Type
  70
32
  10
-5.94369810497585
  20
42.65741744547191
  30
1055.241
  0
VERTEX
  8
Unknown Area Type
  70
32
  10
-5.91572170641694
  20
42.6666666666667
  30
1062.545
  0
VERTEX
  8
Unknown Area Type
  70
32
  10
-5.91192821339133
  20
42.6666666666667
  30
1064.194
  0
VERTEX
  8
Unknown Area Type
  70
32
  10
-5.90870387586573
  20
42.66515114084276
  30
1065.292
  0
VERTEX
  8
Unknown Area Type
  70
32
  10
-5.91153435374212
  20
42.62581426723914
  30
965.383
  0
VERTEX
  8
Unknown Area Type
  70
32
  10
-5.93214294665262
  20
42.62311809620309
  30
1009.426
  0
VERTEX
  8
Unknown Area Type
  70
32
  10
-5.9454074866891
  20
42.62631639121331
  30
1029.064
  0
SEQEND
  8
Unknown Area Type
  0
TEXT
  8
Unknown Area Type
 62
7
  1
PNOA-H_AMS_1956-57_33k_ES_PAN_2
 40
0.00045
  10
-5.92705568019067
  20
42.64335028179057
  0
POLYLINE
  8
Unknown Area Type
  70
9
  66
1
  0
VERTEX
  8
Unknown Area Type
  70
32
  10
-5.94441536808409
  20
42.64431523686822
  30
990.788
  0
VERTEX
  8
Unknown Area Type
  70
32
  10
-5.94441833952882
  20
42.64437819304611
  30
990.945
  0
VERTEX
  8
Unknown Area Type
  70
32
  10
-5.94369810497585
  20
42.65741744547191
  30
1055.241
  0
VERTEX
  8
Unknown Area Type
  70
32
  10
-5.91572170641694
  20
42.6666666666667
  30
1062.545
  0
VERTEX
  8
Unknown Area Type
  70
32
  10
-5.91192821339133
  20
42.6666666666667
  30
1064.194
  0
VERTEX
  8
Unknown Area Type
  70
32
  10
-5.90870387586573
  20
42.66515114084276
  30
1065.292
  0
VERTEX
  8
Unknown Area Type
  70
32
  10
-5.91153435374212
  20
42.62581426723914
  30
965.383
  0
VERTEX
  8
Unknown Area Type
  70
32
  10
-5.93214294665262
  20
42.62311809620309
  30
1009.426
  0
VERTEX
  8
Unknown Area Type
  70
32
  10
-5.9454074866891
  20
42.62631639121331
  30
1029.064
  0
SEQEND
  8
Unknown Area Type
  0
TEXT
  8
Unknown Area Type
 62
7
  1
PNOA-H_AMS_1956-57_33k_ES_PAN_2
 40
0.00045
  10
-5.92705568019067
  20
42.64335028179057
  0
POLYLINE
  8
Unknown Area Type
  70
9
  66
1
  0
VERTEX
  8
Unknown Area Type
  70
32
  10
-5.91572120229524
  20
42.66666683333337
  30
1062.545
  0
VERTEX
  8
Unknown Area Type
  70
32
  10
-5.91192856798086
  20
42.66666683333337
  30
1064.194
  0
VERTEX
  8
Unknown Area Type
  70
32
  10
-5.91192821339133
  20
42.6666666666667
  30
1064.194
  0
VERTEX
  8
Unknown Area Type
  70
32
  10
-5.91572170641694
  20
42.6666666666667
  30
1062.545
  0
SEQEND
  8
Unknown Area Type
  0
TEXT
  8
Unknown Area Type
 62
7
  1
PNOA-H_AMS_1956-57_33k_ES_PAN_2
 40
0.00045
  10
-5.91382495990413
  20
42.66666675000003
  0
POLYLINE
  8
Unknown Area Type
  70
9
  66
1
  0
VERTEX
  8
Unknown Area Type
  70
32
  10
-5.89414250944082
  20
42.66556528639363
  30
1064.158
  0
VERTEX
  8
Unknown Area Type
  70
32
  10
-5.8932101946323
  20
42.66558885683951
  30
1064.65
  0
VERTEX
  8
Unknown Area Type
  70
32
  10
-5.89316061127729
  20
42.66557210083806
  30
1064.9
  0
VERTEX
  8
Unknown Area Type
  70
32
  10
-5.87623816172576
  20
42.65924508662396
  30
1033.81
  0
VERTEX
  8
Unknown Area Type
  70
32
  10
-5.87690772016084
  20
42.6257532639579
  30
988.459
  0
VERTEX
  8
Unknown Area Type
  70
32
  10
-5.89920227629029
  20
42.62257040845931
  30
957.493
  0
VERTEX
  8
Unknown Area Type
  70
32
  10
-5.89936856791087
  20
42.62260671788857
  30
959.199
  0
VERTEX
  8
Unknown Area Type
  70
32
  10
-5.91153435374212
  20
42.62581426723914
  30
965.383
  0
VERTEX
  8
Unknown Area Type
  70
32
  10
-5.9087089201697
  20
42.6651285010041
  30
1065.259
  0
VERTEX
  8
Unknown Area Type
  70
32
  10
-5.90870366603925
  20
42.66514664384572
  30
1065.286
  0
VERTEX
  8
Unknown Area Type
  70
32
  10
-5.90847232518362
  20
42.66515702503548
  30
1065.181
  0
VERTEX
  8
Unknown Area Type
  70
32
  10
-5.89557428517253
  20
42.66552457161495
  30
1068.089
  0
VERTEX
  8
Unknown Area Type
  70
32
  10
-5.89414250944082
  20
42.66556528639363
  30
1064.158
  0
SEQEND
  8
Unknown Area Type
  0
TEXT
  8
Unknown Area Type
 62
7
  1
PNOA-H_AMS_1956-57_33k_ES_PAN_2
 40
0.00045
  10
-5.89388625453106
  20
42.64444977420611
  0
POLYLINE
  8
Unknown Area Type
  70
9
  66
1
  0
VERTEX
  8
Unknown Area Type
  70
32
  10
-5.89414250944082
  20
42.66556528639363
  30
1064.158
  0
VERTEX
  8
Unknown Area Type
  70
32
  10
-5.8932101946323
  20
42.66558885683951
  30
1064.65
  0
VERTEX
  8
Unknown Area Type
  70
32
  10
-5.89316061127729
  20
42.66557210083806
  30
1064.9
  0
VERTEX
  8
Unknown Area Type
  70
32
  10
-5.87623816172576
  20
42.65924508662396
  30
1033.81
  0
VERTEX
  8
Unknown Area Type
  70
32
  10
-5.87690772016084
  20
42.6257532639579
  30
988.459
  0
VERTEX
  8
Unknown Area Type
  70
32
  10
-5.89920227629029
  20
42.62257040845931
  30
957.493
  0
VERTEX
  8
Unknown Area Type
  70
32
  10
-5.89936856791087
  20
42.62260671788857
  30
959.199
  0
VERTEX
  8
Unknown Area Type
  70
32
  10
-5.91153435374212
  20
42.62581426723914
  30
965.383
  0
VERTEX
  8
Unknown Area Type
  70
32
  10
-5.9087089201697
  20
42.6651285010041
  30
1065.259
  0
VERTEX
  8
Unknown Area Type
  70
32
  10
-5.90870366603925
  20
42.66514664384572
  30
1065.286
  0
VERTEX
  8
Unknown Area Type
  70
32
  10
-5.90847232518362
  20
42.66515702503548
  30
1065.181
  0
VERTEX
  8
Unknown Area Type
  70
32
  10
-5.89557428517253
  20
42.66552457161495
  30
1068.089
  0
VERTEX
  8
Unknown Area Type
  70
32
  10
-5.89414250944082
  20
42.66556528639363
  30
1064.158
  0
SEQEND
  8
Unknown Area Type
  0
TEXT
  8
Unknown Area Type
 62
7
  1
PNOA-H_AMS_1956-57_33k_ES_PAN_2
 40
0.00045
  10
-5.89388625453106
  20
42.64444977420611
  0
POLYLINE
  8
Unknown Area Type
  70
9
  66
1
  0
VERTEX
  8
Unknown Area Type
  70
32
  10
-5.87624321754214
  20
42.65922244786094
  30
1033.646
  0
VERTEX
  8
Unknown Area Type
  70
32
  10
-5.87623816172576
  20
42.65924508662396
  30
1033.81
  0
VERTEX
  8
Unknown Area Type
  70
32
  10
-5.87620811142738
  20
42.65925484642858
  30
1033.744
  0
VERTEX
  8
Unknown Area Type
  70
32
  10
-5.87024509662535
  20
42.66064267631916
  30
997.451
  0
VERTEX
  8
Unknown Area Type
  70
32
  10
-5.87022702403172
  20
42.66064763185498
  30
997.413
  0
VERTEX
  8
Unknown Area Type
  70
32
  10
-5.85618759947778
  20
42.66391634483883
  30
931.352
  0
VERTEX
  8
Unknown Area Type
  70
32
  10
-5.85416666666668
  20
42.6639240116771
  30
921.99
  0
VERTEX
  8
Unknown Area Type
  70
32
  10
-5.85416666666668
  20
42.64583333333339
  30
905.705
  0
VERTEX
  8
Unknown Area Type
  70
32
  10
-5.85416666666668
  20
42.62499999999998
  30
915.598
  0
VERTEX
  8
Unknown Area Type
  70
32
  10
-5.85416666666668
  20
42.62414246790014
  30
915.828
  0
VERTEX
  8
Unknown Area Type
  70
32
  10
-5.86482165842263
  20
42.62251751222947
  30
935.026
  0
VERTEX
  8
Unknown Area Type
  70
32
  10
-5.87690772016084
  20
42.6257532639579
  30
988.459
  0
SEQEND
  8
Unknown Area Type
  0
TEXT
  8
Unknown Area Type
 62
7
  1
PNOA-H_AMS_1956-57_33k_ES_PAN_2
 40
0.00045
  10
-5.85933146305853
  20
42.64326802166718
  0
POLYLINE
  8
Unknown Area Type
  70
9
  66
1
  0
VERTEX
  8
Unknown Area Type
  70
32
  10
-5.87624321754214
  20
42.65922244786094
  30
1033.646
  0
VERTEX
  8
Unknown Area Type
  70
32
  10
-5.87623816172576
  20
42.65924508662396
  30
1033.81
  0
VERTEX
  8
Unknown Area Type
  70
32
  10
-5.87620811142738
  20
42.65925484642858
  30
1033.744
  0
VERTEX
  8
Unknown Area Type
  70
32
  10
-5.87024509662535
  20
42.66064267631916
  30
997.451
  0
VERTEX
  8
Unknown Area Type
  70
32
  10
-5.87022702403172
  20
42.66064763185498
  30
997.413
  0
VERTEX
  8
Unknown Area Type
  70
32
  10
-5.85618759947778
  20
42.66391634483883
  30
931.352
  0
VERTEX
  8
Unknown Area Type
  70
32
  10
-5.85416666666668
  20
42.6639240116771
  30
921.99
  0
VERTEX
  8
Unknown Area Type
  70
32
  10
-5.85416666666668
  20
42.64583333333339
  30
905.705
  0
VERTEX
  8
Unknown Area Type
  70
32
  10
-5.85416666666668
  20
42.62499999999998
  30
915.598
  0
VERTEX
  8
Unknown Area Type
  70
32
  10
-5.85416666666668
  20
42.62414246790014
  30
915.828
  0
VERTEX
  8
Unknown Area Type
  70
32
  10
-5.86482165842263
  20
42.62251751222947
  30
935.026
  0
VERTEX
  8
Unknown Area Type
  70
32
  10
-5.87690772016084
  20
42.6257532639579
  30
988.459
  0
SEQEND
  8
Unknown Area Type
  0
TEXT
  8
Unknown Area Type
 62
7
  1
PNOA-H_AMS_1956-57_33k_ES_PAN_2
 40
0.00045
  10
-5.85933146305853
  20
42.64326802166718
  0
POLYLINE
  8
Unknown Area Type
  70
9
  66
1
  0
VERTEX
  8
Unknown Area Type
  70
32
  10
-5.85416666666668
  20
42.62499999999998
  30
915.598
  0
VERTEX
  8
Unknown Area Type
  70
32
  10
-5.85416666666668
  20
42.64583333333339
  30
905.705
  0
VERTEX
  8
Unknown Area Type
  70
32
  10
-5.85416666666668
  20
42.6639240116771
  30
921.99
  0
VERTEX
  8
Unknown Area Type
  70
32
  10
-5.85416633333334
  20
42.66392401294168
  30
921.989
  0
VERTEX
  8
Unknown Area Type
  70
32
  10
-5.85416633333334
  20
42.62414251873565
  30
915.828
  0
VERTEX
  8
Unknown Area Type
  70
32
  10
-5.85416666666668
  20
42.62414246790014
  30
915.828
  0
SEQEND
  8
Unknown Area Type
  0
TEXT
  8
Unknown Area Type
 62
7
  1
PNOA-H_AMS_1956-57_33k_ES_PAN_2
 40
0.00045
  10
-5.85416650000001
  20
42.64403324042091
  0
ENDSEC
  0
EOF
