  0
SECTION
  2
HEADER
  9
$ACADVER
  1
AC1009
  9
$LUNITS
  70
2
  9
$DWGCODEPAGE
  3
UTF8
  9
$LIMMIN
  10
-5.18749999999999
  20
42.6666666666667
  9
$LIMMAX
  10
-4.8541666666667
  20
42.83333333333339
  9
$EXTMIN
  10
-5.18749999999999
  20
42.6666666666667
  9
$EXTMAX
  10
-4.8541666666667
  20
42.83333333333339
  999
Created by Global Mapper
  999
Projection: Geographic (Latitude/Longitude)
  999
Datum: ETRS89
  999
Ground Units: arc degrees
  999
CENTRAL LONGITUDE: 0
  0
ENDSEC
  0
SECTION
  2
TABLES
  0
ENDSEC
  0
SECTION
  2
BLOCKS
  0
ENDSEC
  0
SECTION
  2
ENTITIES
  0
POLYLINE
  8
Unknown Area Type
  70
9
  66
1
  0
VERTEX
  8
Unknown Area Type
  70
32
  10
-5.03837144329685
  20
42.66947158564792
  30
924.549
  0
VERTEX
  8
Unknown Area Type
  70
32
  10
-5.02804278463668
  20
42.67363075480458
  30
900.853
  0
VERTEX
  8
Unknown Area Type
  70
32
  10
-5.02803073438164
  20
42.67363547080019
  30
900.838
  0
VERTEX
  8
Unknown Area Type
  70
32
  10
-5.01401415518959
  20
42.6711588070706
  30
916.903
  0
VERTEX
  8
Unknown Area Type
  70
32
  10
-5.00378869528815
  20
42.66814587474418
  30
928.36
  0
VERTEX
  8
Unknown Area Type
  70
32
  10
-5.0038500851602
  20
42.6666666666667
  30
929.258
  0
VERTEX
  8
Unknown Area Type
  70
32
  10
-5.0208333333333
  20
42.6666666666667
  30
910.206
  0
VERTEX
  8
Unknown Area Type
  70
32
  10
-5.03839691208006
  20
42.6666666666667
  30
922.463
  0
SEQEND
  8
Unknown Area Type
  0
TEXT
  8
Unknown Area Type
 62
7
  1
PNOA-H_AMS_1956-57_33k_ES_PAN_2
 40
0.00045
  10
-5.02109280368411
  20
42.67015106873345
  0
POLYLINE
  8
Unknown Area Type
  70
9
  66
1
  0
VERTEX
  8
Unknown Area Type
  70
32
  10
-5.03839691208006
  20
42.6666666666667
  30
922.463
  0
VERTEX
  8
Unknown Area Type
  70
32
  10
-5.0208333333333
  20
42.6666666666667
  30
910.206
  0
VERTEX
  8
Unknown Area Type
  70
32
  10
-5.0038500851602
  20
42.6666666666667
  30
929.258
  0
VERTEX
  8
Unknown Area Type
  70
32
  10
-5.00385009207717
  20
42.66666650000003
  30
929.258
  0
VERTEX
  8
Unknown Area Type
  70
32
  10
-5.0383969135934
  20
42.66666650000003
  30
922.463
  0
SEQEND
  8
Unknown Area Type
  0
TEXT
  8
Unknown Area Type
 62
7
  1
PNOA-H_AMS_1956-57_33k_ES_PAN_2
 40
0.00045
  10
-5.0211234993768
  20
42.66666658333337
  0
POLYLINE
  8
Unknown Area Type
  70
9
  66
1
  0
VERTEX
  8
Unknown Area Type
  70
32
  10
-5.03837144329685
  20
42.66947158564792
  30
924.549
  0
VERTEX
  8
Unknown Area Type
  70
32
  10
-5.02804278463668
  20
42.67363075480458
  30
900.853
  0
VERTEX
  8
Unknown Area Type
  70
32
  10
-5.02803073438164
  20
42.67363547080019
  30
900.838
  0
VERTEX
  8
Unknown Area Type
  70
32
  10
-5.01401415518959
  20
42.6711588070706
  30
916.903
  0
VERTEX
  8
Unknown Area Type
  70
32
  10
-5.00378869528815
  20
42.66814587474418
  30
928.36
  0
VERTEX
  8
Unknown Area Type
  70
32
  10
-5.0038500851602
  20
42.6666666666667
  30
929.258
  0
VERTEX
  8
Unknown Area Type
  70
32
  10
-5.0208333333333
  20
42.6666666666667
  30
910.206
  0
VERTEX
  8
Unknown Area Type
  70
32
  10
-5.03839691208006
  20
42.6666666666667
  30
922.463
  0
SEQEND
  8
Unknown Area Type
  0
TEXT
  8
Unknown Area Type
 62
7
  1
PNOA-H_AMS_1956-57_33k_ES_PAN_2
 40
0.00045
  10
-5.02109280368411
  20
42.67015106873345
  0
POLYLINE
  8
Unknown Area Type
  70
9
  66
1
  0
VERTEX
  8
Unknown Area Type
  70
32
  10
-4.91412418522503
  20
42.78193757891749
  30
1161.273
  0
VERTEX
  8
Unknown Area Type
  70
32
  10
-4.91443909741578
  20
42.78184226259877
  30
1156.96
  0
VERTEX
  8
Unknown Area Type
  70
32
  10
-4.91447575345884
  20
42.78184164958255
  30
1156.328
  0
VERTEX
  8
Unknown Area Type
  70
32
  10
-4.93968961849403
  20
42.78379453057755
  30
1064.335
  0
VERTEX
  8
Unknown Area Type
  70
32
  10
-4.93949359116524
  20
42.82017804854785
  30
1104.295
  0
VERTEX
  8
Unknown Area Type
  70
32
  10
-4.92215247946307
  20
42.82407705560909
  30
1252.952
  0
VERTEX
  8
Unknown Area Type
  70
32
  10
-4.90675210681333
  20
42.82034092013409
  30
1469.47
  0
VERTEX
  8
Unknown Area Type
  70
32
  10
-4.90690705751323
  20
42.78398510407948
  30
1109.437
  0
VERTEX
  8
Unknown Area Type
  70
32
  10
-4.91410585717158
  20
42.78193788537134
  30
1161.535
  0
VERTEX
  8
Unknown Area Type
  70
32
  10
-4.91412418522503
  20
42.78193757891749
  30
1161.273
  0
SEQEND
  8
Unknown Area Type
  0
TEXT
  8
Unknown Area Type
 62
7
  1
PNOA-H_AMS_1956-57_33k_ES_PAN_2
 40
0.00045
  10
-4.92322101573859
  20
42.80317699668082
  0
POLYLINE
  8
Unknown Area Type
  70
9
  66
1
  0
VERTEX
  8
Unknown Area Type
  70
32
  10
-4.91412418522503
  20
42.78193757891749
  30
1161.273
  0
VERTEX
  8
Unknown Area Type
  70
32
  10
-4.91443909741578
  20
42.78184226259877
  30
1156.96
  0
VERTEX
  8
Unknown Area Type
  70
32
  10
-4.91447575345884
  20
42.78184164958255
  30
1156.328
  0
VERTEX
  8
Unknown Area Type
  70
32
  10
-4.93968961849403
  20
42.78379453057755
  30
1064.335
  0
VERTEX
  8
Unknown Area Type
  70
32
  10
-4.93949359116524
  20
42.82017804854785
  30
1104.295
  0
VERTEX
  8
Unknown Area Type
  70
32
  10
-4.92215247946307
  20
42.82407705560909
  30
1252.952
  0
VERTEX
  8
Unknown Area Type
  70
32
  10
-4.90675210681333
  20
42.82034092013409
  30
1469.47
  0
VERTEX
  8
Unknown Area Type
  70
32
  10
-4.90690705751323
  20
42.78398510407948
  30
1109.437
  0
VERTEX
  8
Unknown Area Type
  70
32
  10
-4.91410585717158
  20
42.78193788537134
  30
1161.535
  0
VERTEX
  8
Unknown Area Type
  70
32
  10
-4.91412418522503
  20
42.78193757891749
  30
1161.273
  0
SEQEND
  8
Unknown Area Type
  0
TEXT
  8
Unknown Area Type
 62
7
  1
PNOA-H_AMS_1956-57_33k_ES_PAN_2
 40
0.00045
  10
-4.92322101573859
  20
42.80317699668082
  0
POLYLINE
  8
Unknown Area Type
  70
9
  66
1
  0
VERTEX
  8
Unknown Area Type
  70
32
  10
-4.9507996775789
  20
42.82378151287387
  30
1031.064
  0
VERTEX
  8
Unknown Area Type
  70
32
  10
-4.93949373186903
  20
42.82018254865062
  30
1104.317
  0
VERTEX
  8
Unknown Area Type
  70
32
  10
-4.93968961849403
  20
42.78379453057755
  30
1064.335
  0
VERTEX
  8
Unknown Area Type
  70
32
  10
-4.94552328567949
  20
42.78191254074117
  30
1104.833
  0
VERTEX
  8
Unknown Area Type
  70
32
  10
-4.94558381420698
  20
42.78189350199029
  30
1104.016
  0
VERTEX
  8
Unknown Area Type
  70
32
  10
-4.94565101577374
  20
42.78189235984092
  30
1102.882
  0
VERTEX
  8
Unknown Area Type
  70
32
  10
-4.97271071378473
  20
42.78342385853128
  30
988.689
  0
VERTEX
  8
Unknown Area Type
  70
32
  10
-4.97271646767452
  20
42.78379746732501
  30
987.307
  0
VERTEX
  8
Unknown Area Type
  70
32
  10
-4.97221962708637
  20
42.82069044720087
  30
1192.537
  0
VERTEX
  8
Unknown Area Type
  70
32
  10
-4.95103382463441
  20
42.82383605432891
  30
1023.88
  0
VERTEX
  8
Unknown Area Type
  70
32
  10
-4.95096046453001
  20
42.82383730473276
  30
1026.45
  0
VERTEX
  8
Unknown Area Type
  70
32
  10
-4.95081815913354
  20
42.82378570037307
  30
1030.507
  0
VERTEX
  8
Unknown Area Type
  70
32
  10
-4.9507996775789
  20
42.82378151287387
  30
1031.064
  0
SEQEND
  8
Unknown Area Type
  0
TEXT
  8
Unknown Area Type
 62
7
  1
PNOA-H_AMS_1956-57_33k_ES_PAN_2
 40
0.00045
  10
-4.9561052576468
  20
42.80278177025458
  0
POLYLINE
  8
Unknown Area Type
  70
9
  66
1
  0
VERTEX
  8
Unknown Area Type
  70
32
  10
-4.9507996775789
  20
42.82378151287387
  30
1031.064
  0
VERTEX
  8
Unknown Area Type
  70
32
  10
-4.93949373186903
  20
42.82018254865062
  30
1104.317
  0
VERTEX
  8
Unknown Area Type
  70
32
  10
-4.93968961849403
  20
42.78379453057755
  30
1064.335
  0
VERTEX
  8
Unknown Area Type
  70
32
  10
-4.94552328567949
  20
42.78191254074117
  30
1104.833
  0
VERTEX
  8
Unknown Area Type
  70
32
  10
-4.94558381420698
  20
42.78189350199029
  30
1104.016
  0
VERTEX
  8
Unknown Area Type
  70
32
  10
-4.94565101577374
  20
42.78189235984092
  30
1102.882
  0
VERTEX
  8
Unknown Area Type
  70
32
  10
-4.97271071378473
  20
42.78342385853128
  30
988.689
  0
VERTEX
  8
Unknown Area Type
  70
32
  10
-4.97271646767452
  20
42.78379746732501
  30
987.307
  0
VERTEX
  8
Unknown Area Type
  70
32
  10
-4.97221962708637
  20
42.82069044720087
  30
1192.537
  0
VERTEX
  8
Unknown Area Type
  70
32
  10
-4.95103382463441
  20
42.82383605432891
  30
1023.88
  0
VERTEX
  8
Unknown Area Type
  70
32
  10
-4.95096046453001
  20
42.82383730473276
  30
1026.45
  0
VERTEX
  8
Unknown Area Type
  70
32
  10
-4.95081815913354
  20
42.82378570037307
  30
1030.507
  0
VERTEX
  8
Unknown Area Type
  70
32
  10
-4.9507996775789
  20
42.82378151287387
  30
1031.064
  0
SEQEND
  8
Unknown Area Type
  0
TEXT
  8
Unknown Area Type
 62
7
  1
PNOA-H_AMS_1956-57_33k_ES_PAN_2
 40
0.00045
  10
-4.9561052576468
  20
42.80278177025458
  0
POLYLINE
  8
Unknown Area Type
  70
9
  66
1
  0
VERTEX
  8
Unknown Area Type
  70
32
  10
-5.01239368686602
  20
42.82434057287546
  30
1039.961
  0
VERTEX
  8
Unknown Area Type
  70
32
  10
-5.01233226320442
  20
42.82433264784687
  30
1040.271
  0
VERTEX
  8
Unknown Area Type
  70
32
  10
-5.00470439054408
  20
42.82129225718786
  30
1158.514
  0
VERTEX
  8
Unknown Area Type
  70
32
  10
-5.00478295311434
  20
42.78359157021577
  30
1085.05
  0
VERTEX
  8
Unknown Area Type
  70
32
  10
-5.00925293855149
  20
42.78213093217308
  30
1044.608
  0
VERTEX
  8
Unknown Area Type
  70
32
  10
-5.03762974916379
  20
42.78351588047142
  30
1160.197
  0
VERTEX
  8
Unknown Area Type
  70
32
  10
-5.03806652342788
  20
42.82195926776284
  30
1240.514
  0
VERTEX
  8
Unknown Area Type
  70
32
  10
-5.01245467249415
  20
42.8243349981665
  30
1038.911
  0
VERTEX
  8
Unknown Area Type
  70
32
  10
-5.01239368686602
  20
42.82434057287546
  30
1039.961
  0
SEQEND
  8
Unknown Area Type
  0
TEXT
  8
Unknown Area Type
 62
7
  1
PNOA-H_AMS_1956-57_33k_ES_PAN_2
 40
0.00045
  10
-5.02138576157639
  20
42.80311371286508
  0
POLYLINE
  8
Unknown Area Type
  70
9
  66
1
  0
VERTEX
  8
Unknown Area Type
  70
32
  10
-5.01239368686602
  20
42.82434057287546
  30
1039.961
  0
VERTEX
  8
Unknown Area Type
  70
32
  10
-5.01233226320442
  20
42.82433264784687
  30
1040.271
  0
VERTEX
  8
Unknown Area Type
  70
32
  10
-5.00470439054408
  20
42.82129225718786
  30
1158.514
  0
VERTEX
  8
Unknown Area Type
  70
32
  10
-5.00478295311434
  20
42.78359157021577
  30
1085.05
  0
VERTEX
  8
Unknown Area Type
  70
32
  10
-5.00925293855149
  20
42.78213093217308
  30
1044.608
  0
VERTEX
  8
Unknown Area Type
  70
32
  10
-5.03762974916379
  20
42.78351588047142
  30
1160.197
  0
VERTEX
  8
Unknown Area Type
  70
32
  10
-5.03806652342788
  20
42.82195926776284
  30
1240.514
  0
VERTEX
  8
Unknown Area Type
  70
32
  10
-5.01245467249415
  20
42.8243349981665
  30
1038.911
  0
VERTEX
  8
Unknown Area Type
  70
32
  10
-5.01239368686602
  20
42.82434057287546
  30
1039.961
  0
SEQEND
  8
Unknown Area Type
  0
TEXT
  8
Unknown Area Type
 62
7
  1
PNOA-H_AMS_1956-57_33k_ES_PAN_2
 40
0.00045
  10
-5.02138576157639
  20
42.80311371286508
  0
POLYLINE
  8
Unknown Area Type
  70
9
  66
1
  0
VERTEX
  8
Unknown Area Type
  70
32
  10
-4.93412078924338
  20
42.66883049937146
  30
1086.802
  0
VERTEX
  8
Unknown Area Type
  70
32
  10
-4.93410929072624
  20
42.6688532065533
  30
1086.816
  0
VERTEX
  8
Unknown Area Type
  70
32
  10
-4.9271704963157
  20
42.67156819066577
  30
1088.896
  0
VERTEX
  8
Unknown Area Type
  70
32
  10
-4.92157899165983
  20
42.67089671611859
  30
1092.412
  0
VERTEX
  8
Unknown Area Type
  70
32
  10
-4.9030256769227
  20
42.6666666666667
  30
1079.835
  0
VERTEX
  8
Unknown Area Type
  70
32
  10
-4.93421938231107
  20
42.6666666666667
  30
1082.2
  0
SEQEND
  8
Unknown Area Type
  0
TEXT
  8
Unknown Area Type
 62
7
  1
PNOA-H_AMS_1956-57_33k_ES_PAN_2
 40
0.00045
  10
-4.91862252961689
  20
42.66911742866624
  0
POLYLINE
  8
Unknown Area Type
  70
9
  66
1
  0
VERTEX
  8
Unknown Area Type
  70
32
  10
-4.93421938231107
  20
42.6666666666667
  30
1082.2
  0
VERTEX
  8
Unknown Area Type
  70
32
  10
-4.9030256769227
  20
42.6666666666667
  30
1079.835
  0
VERTEX
  8
Unknown Area Type
  70
32
  10
-4.90302494591018
  20
42.66666650000003
  30
1079.835
  0
VERTEX
  8
Unknown Area Type
  70
32
  10
-4.93421938990508
  20
42.66666650000003
  30
1082.2
  0
SEQEND
  8
Unknown Area Type
  0
TEXT
  8
Unknown Area Type
 62
7
  1
PNOA-H_AMS_1956-57_33k_ES_PAN_2
 40
0.00045
  10
-4.91862216790763
  20
42.66666658333337
  0
POLYLINE
  8
Unknown Area Type
  70
9
  66
1
  0
VERTEX
  8
Unknown Area Type
  70
32
  10
-4.93412078924338
  20
42.66883049937146
  30
1086.802
  0
VERTEX
  8
Unknown Area Type
  70
32
  10
-4.93410929072624
  20
42.6688532065533
  30
1086.816
  0
VERTEX
  8
Unknown Area Type
  70
32
  10
-4.9271704963157
  20
42.67156819066577
  30
1088.896
  0
VERTEX
  8
Unknown Area Type
  70
32
  10
-4.92157899165983
  20
42.67089671611859
  30
1092.412
  0
VERTEX
  8
Unknown Area Type
  70
32
  10
-4.9030256769227
  20
42.6666666666667
  30
1079.835
  0
VERTEX
  8
Unknown Area Type
  70
32
  10
-4.93421938231107
  20
42.6666666666667
  30
1082.2
  0
SEQEND
  8
Unknown Area Type
  0
TEXT
  8
Unknown Area Type
 62
7
  1
PNOA-H_AMS_1956-57_33k_ES_PAN_2
 40
0.00045
  10
-4.91862252961689
  20
42.66911742866624
  0
POLYLINE
  8
Unknown Area Type
  70
9
  66
1
  0
VERTEX
  8
Unknown Area Type
  70
32
  10
-4.87554170582008
  20
42.82057740275885
  30
1259.186
  0
VERTEX
  8
Unknown Area Type
  70
32
  10
-4.87546780208333
  20
42.82056060364275
  30
1258.649
  0
VERTEX
  8
Unknown Area Type
  70
32
  10
-4.87546208748984
  20
42.82037159228734
  30
1252.434
  0
VERTEX
  8
Unknown Area Type
  70
32
  10
-4.87509540251381
  20
42.7839477700031
  30
1214.985
  0
VERTEX
  8
Unknown Area Type
  70
32
  10
-4.88302801369317
  20
42.78167436128672
  30
1191.974
  0
VERTEX
  8
Unknown Area Type
  70
32
  10
-4.90690705751323
  20
42.78398510407948
  30
1109.437
  0
VERTEX
  8
Unknown Area Type
  70
32
  10
-4.90675210681333
  20
42.82034092013409
  30
1469.47
  0
VERTEX
  8
Unknown Area Type
  70
32
  10
-4.89347864902318
  20
42.82391111219049
  30
1492.412
  0
VERTEX
  8
Unknown Area Type
  70
32
  10
-4.89326020942303
  20
42.82396875530328
  30
1478.654
  0
VERTEX
  8
Unknown Area Type
  70
32
  10
-4.89321741448688
  20
42.82396946312159
  30
1476.011
  0
VERTEX
  8
Unknown Area Type
  70
32
  10
-4.8755600456911
  20
42.82057710226026
  30
1259.189
  0
VERTEX
  8
Unknown Area Type
  70
32
  10
-4.87554170582008
  20
42.82057740275885
  30
1259.186
  0
SEQEND
  8
Unknown Area Type
  0
TEXT
  8
Unknown Area Type
 62
7
  1
PNOA-H_AMS_1956-57_33k_ES_PAN_2
 40
0.00045
  10
-4.89100139183972
  20
42.80299305750762
  0
POLYLINE
  8
Unknown Area Type
  70
9
  66
1
  0
VERTEX
  8
Unknown Area Type
  70
32
  10
-4.87554170582008
  20
42.82057740275885
  30
1259.186
  0
VERTEX
  8
Unknown Area Type
  70
32
  10
-4.87546780208333
  20
42.82056060364275
  30
1258.649
  0
VERTEX
  8
Unknown Area Type
  70
32
  10
-4.87546208748984
  20
42.82037159228734
  30
1252.434
  0
VERTEX
  8
Unknown Area Type
  70
32
  10
-4.87509540251381
  20
42.7839477700031
  30
1214.985
  0
VERTEX
  8
Unknown Area Type
  70
32
  10
-4.88302801369317
  20
42.78167436128672
  30
1191.974
  0
VERTEX
  8
Unknown Area Type
  70
32
  10
-4.90690705751323
  20
42.78398510407948
  30
1109.437
  0
VERTEX
  8
Unknown Area Type
  70
32
  10
-4.90675210681333
  20
42.82034092013409
  30
1469.47
  0
VERTEX
  8
Unknown Area Type
  70
32
  10
-4.89347864902318
  20
42.82391111219049
  30
1492.412
  0
VERTEX
  8
Unknown Area Type
  70
32
  10
-4.89326020942303
  20
42.82396875530328
  30
1478.654
  0
VERTEX
  8
Unknown Area Type
  70
32
  10
-4.89321741448688
  20
42.82396946312159
  30
1476.011
  0
VERTEX
  8
Unknown Area Type
  70
32
  10
-4.8755600456911
  20
42.82057710226026
  30
1259.189
  0
VERTEX
  8
Unknown Area Type
  70
32
  10
-4.87554170582008
  20
42.82057740275885
  30
1259.186
  0
SEQEND
  8
Unknown Area Type
  0
TEXT
  8
Unknown Area Type
 62
7
  1
PNOA-H_AMS_1956-57_33k_ES_PAN_2
 40
0.00045
  10
-4.89100139183972
  20
42.80299305750762
  0
POLYLINE
  8
Unknown Area Type
  70
9
  66
1
  0
VERTEX
  8
Unknown Area Type
  70
32
  10
-4.96860394969593
  20
42.66761251111802
  30
1006.826
  0
VERTEX
  8
Unknown Area Type
  70
32
  10
-4.95549720473124
  20
42.67185339529541
  30
1077.422
  0
VERTEX
  8
Unknown Area Type
  70
32
  10
-4.93411524934595
  20
42.6688486033171
  30
1086.828
  0
VERTEX
  8
Unknown Area Type
  70
32
  10
-4.93421498358895
  20
42.6666666666667
  30
1082.195
  0
VERTEX
  8
Unknown Area Type
  70
32
  10
-4.93749999999995
  20
42.6666666666667
  30
1085.5
  0
VERTEX
  8
Unknown Area Type
  70
32
  10
-4.9686438758323
  20
42.6666666666667
  30
1006.239
  0
SEQEND
  8
Unknown Area Type
  0
TEXT
  8
Unknown Area Type
 62
7
  1
PNOA-H_AMS_1956-57_33k_ES_PAN_2
 40
0.00045
  10
-4.95137956258912
  20
42.66926003098106
  0
POLYLINE
  8
Unknown Area Type
  70
9
  66
1
  0
VERTEX
  8
Unknown Area Type
  70
32
  10
-4.9686438758323
  20
42.6666666666667
  30
1006.239
  0
VERTEX
  8
Unknown Area Type
  70
32
  10
-4.93749999999995
  20
42.6666666666667
  30
1085.5
  0
VERTEX
  8
Unknown Area Type
  70
32
  10
-4.93421498358895
  20
42.6666666666667
  30
1082.195
  0
VERTEX
  8
Unknown Area Type
  70
32
  10
-4.93421499120712
  20
42.66666650000003
  30
1082.194
  0
VERTEX
  8
Unknown Area Type
  70
32
  10
-4.96864388286766
  20
42.66666650000003
  30
1006.239
  0
SEQEND
  8
Unknown Area Type
  0
TEXT
  8
Unknown Area Type
 62
7
  1
PNOA-H_AMS_1956-57_33k_ES_PAN_2
 40
0.00045
  10
-4.9514294332283
  20
42.66666658333337
  0
POLYLINE
  8
Unknown Area Type
  70
9
  66
1
  0
VERTEX
  8
Unknown Area Type
  70
32
  10
-4.96860394969593
  20
42.66761251111802
  30
1006.826
  0
VERTEX
  8
Unknown Area Type
  70
32
  10
-4.95549720473124
  20
42.67185339529541
  30
1077.422
  0
VERTEX
  8
Unknown Area Type
  70
32
  10
-4.93411524934595
  20
42.6688486033171
  30
1086.828
  0
VERTEX
  8
Unknown Area Type
  70
32
  10
-4.93421498358895
  20
42.6666666666667
  30
1082.195
  0
VERTEX
  8
Unknown Area Type
  70
32
  10
-4.93749999999995
  20
42.6666666666667
  30
1085.5
  0
VERTEX
  8
Unknown Area Type
  70
32
  10
-4.9686438758323
  20
42.6666666666667
  30
1006.239
  0
SEQEND
  8
Unknown Area Type
  0
TEXT
  8
Unknown Area Type
 62
7
  1
PNOA-H_AMS_1956-57_33k_ES_PAN_2
 40
0.00045
  10
-4.95137956258912
  20
42.66926003098106
  0
POLYLINE
  8
Unknown Area Type
  70
9
  66
1
  0
VERTEX
  8
Unknown Area Type
  70
32
  10
-4.87546182485631
  20
42.8205652040746
  30
1258.829
  0
VERTEX
  8
Unknown Area Type
  70
32
  10
-4.86549312406578
  20
42.82364571927302
  30
1194.898
  0
VERTEX
  8
Unknown Area Type
  70
32
  10
-4.8541666666667
  20
42.82215098863338
  30
1176.066
  0
VERTEX
  8
Unknown Area Type
  70
32
  10
-4.8541666666667
  20
42.81249999999999
  30
1173.984
  0
VERTEX
  8
Unknown Area Type
  70
32
  10
-4.8541666666667
  20
42.79166666666667
  30
1120.864
  0
VERTEX
  8
Unknown Area Type
  70
32
  10
-4.8541666666667
  20
42.78212280776505
  30
1116.997
  0
VERTEX
  8
Unknown Area Type
  70
32
  10
-4.87509540251381
  20
42.7839477700031
  30
1214.985
  0
SEQEND
  8
Unknown Area Type
  0
TEXT
  8
Unknown Area Type
 62
7
  1
PNOA-H_AMS_1956-57_33k_ES_PAN_2
 40
0.00045
  10
-4.85946131307858
  20
42.80271547786823
  0
POLYLINE
  8
Unknown Area Type
  70
9
  66
1
  0
VERTEX
  8
Unknown Area Type
  70
32
  10
-4.87546182485631
  20
42.8205652040746
  30
1258.829
  0
VERTEX
  8
Unknown Area Type
  70
32
  10
-4.86549312406578
  20
42.82364571927302
  30
1194.898
  0
VERTEX
  8
Unknown Area Type
  70
32
  10
-4.8541666666667
  20
42.82215098863338
  30
1176.066
  0
VERTEX
  8
Unknown Area Type
  70
32
  10
-4.8541666666667
  20
42.81249999999999
  30
1173.984
  0
VERTEX
  8
Unknown Area Type
  70
32
  10
-4.8541666666667
  20
42.79166666666667
  30
1120.864
  0
VERTEX
  8
Unknown Area Type
  70
32
  10
-4.8541666666667
  20
42.78212280776505
  30
1116.997
  0
VERTEX
  8
Unknown Area Type
  70
32
  10
-4.87509540251381
  20
42.7839477700031
  30
1214.985
  0
SEQEND
  8
Unknown Area Type
  0
TEXT
  8
Unknown Area Type
 62
7
  1
PNOA-H_AMS_1956-57_33k_ES_PAN_2
 40
0.00045
  10
-4.85946131307858
  20
42.80271547786823
  0
POLYLINE
  8
Unknown Area Type
  70
9
  66
1
  0
VERTEX
  8
Unknown Area Type
  70
32
  10
-5.00086647092071
  20
42.82176913599775
  30
1143.517
  0
VERTEX
  8
Unknown Area Type
  70
32
  10
-4.9815111467878
  20
42.82416347410176
  30
1149.372
  0
VERTEX
  8
Unknown Area Type
  70
32
  10
-4.97221977016596
  20
42.82069494721528
  30
1192.488
  0
VERTEX
  8
Unknown Area Type
  70
32
  10
-4.97271682306957
  20
42.78342375325101
  30
988.643
  0
VERTEX
  8
Unknown Area Type
  70
32
  10
-4.97710393192647
  20
42.78202433020653
  30
976.963
  0
VERTEX
  8
Unknown Area Type
  70
32
  10
-5.00478295311434
  20
42.78359157021577
  30
1085.05
  0
VERTEX
  8
Unknown Area Type
  70
32
  10
-5.00470439054408
  20
42.82129225718786
  30
1158.514
  0
VERTEX
  8
Unknown Area Type
  70
32
  10
-5.0009091164352
  20
42.82176388804434
  30
1144.26
  0
VERTEX
  8
Unknown Area Type
  70
32
  10
-5.00086647092071
  20
42.82176913599775
  30
1143.517
  0
SEQEND
  8
Unknown Area Type
  0
TEXT
  8
Unknown Area Type
 62
7
  1
PNOA-H_AMS_1956-57_33k_ES_PAN_2
 40
0.00045
  10
-4.98850160953783
  20
42.80298264327797
  0
POLYLINE
  8
Unknown Area Type
  70
9
  66
1
  0
VERTEX
  8
Unknown Area Type
  70
32
  10
-5.00086647092071
  20
42.82176913599775
  30
1143.517
  0
VERTEX
  8
Unknown Area Type
  70
32
  10
-4.9815111467878
  20
42.82416347410176
  30
1149.372
  0
VERTEX
  8
Unknown Area Type
  70
32
  10
-4.97221977016596
  20
42.82069494721528
  30
1192.488
  0
VERTEX
  8
Unknown Area Type
  70
32
  10
-4.97271682306957
  20
42.78342375325101
  30
988.643
  0
VERTEX
  8
Unknown Area Type
  70
32
  10
-4.97710393192647
  20
42.78202433020653
  30
976.963
  0
VERTEX
  8
Unknown Area Type
  70
32
  10
-5.00478295311434
  20
42.78359157021577
  30
1085.05
  0
VERTEX
  8
Unknown Area Type
  70
32
  10
-5.00470439054408
  20
42.82129225718786
  30
1158.514
  0
VERTEX
  8
Unknown Area Type
  70
32
  10
-5.0009091164352
  20
42.82176388804434
  30
1144.26
  0
VERTEX
  8
Unknown Area Type
  70
32
  10
-5.00086647092071
  20
42.82176913599775
  30
1143.517
  0
SEQEND
  8
Unknown Area Type
  0
TEXT
  8
Unknown Area Type
 62
7
  1
PNOA-H_AMS_1956-57_33k_ES_PAN_2
 40
0.00045
  10
-4.98850160953783
  20
42.80298264327797
  0
POLYLINE
  8
Unknown Area Type
  70
9
  66
1
  0
VERTEX
  8
Unknown Area Type
  70
32
  10
-4.89593833840091
  20
42.66722674592553
  30
1092.785
  0
VERTEX
  8
Unknown Area Type
  70
32
  10
-4.89592627887107
  20
42.66723144819209
  30
1092.769
  0
VERTEX
  8
Unknown Area Type
  70
32
  10
-4.88970914015448
  20
42.66964855119486
  30
1091.817
  0
VERTEX
  8
Unknown Area Type
  70
32
  10
-4.88911207575779
  20
42.66987903005729
  30
1094.157
  0
VERTEX
  8
Unknown Area Type
  70
32
  10
-4.88907548503549
  20
42.66987963368831
  30
1094.412
  0
VERTEX
  8
Unknown Area Type
  70
32
  10
-4.88398132216105
  20
42.66949528622252
  30
1096.783
  0
VERTEX
  8
Unknown Area Type
  70
32
  10
-4.86766797939613
  20
42.6666666666667
  30
1092
  0
VERTEX
  8
Unknown Area Type
  70
32
  10
-4.89583333333333
  20
42.6666666666667
  30
1092.355
  0
VERTEX
  8
Unknown Area Type
  70
32
  10
-4.89737464149446
  20
42.6666666666667
  30
1086.517
  0
SEQEND
  8
Unknown Area Type
  0
TEXT
  8
Unknown Area Type
 62
7
  1
PNOA-H_AMS_1956-57_33k_ES_PAN_2
 40
0.00045
  10
-4.8825213104453
  20
42.66827315017751
  0
POLYLINE
  8
Unknown Area Type
  70
9
  66
1
  0
VERTEX
  8
Unknown Area Type
  70
32
  10
-4.89737464149446
  20
42.6666666666667
  30
1086.517
  0
VERTEX
  8
Unknown Area Type
  70
32
  10
-4.89583333333333
  20
42.6666666666667
  30
1092.355
  0
VERTEX
  8
Unknown Area Type
  70
32
  10
-4.86766797939613
  20
42.6666666666667
  30
1092
  0
VERTEX
  8
Unknown Area Type
  70
32
  10
-4.86766701818859
  20
42.66666650000003
  30
1092
  0
VERTEX
  8
Unknown Area Type
  70
32
  10
-4.89737506890512
  20
42.66666650000003
  30
1086.515
  0
SEQEND
  8
Unknown Area Type
  0
TEXT
  8
Unknown Area Type
 62
7
  1
PNOA-H_AMS_1956-57_33k_ES_PAN_2
 40
0.00045
  10
-4.88252104354686
  20
42.66666658333337
  0
POLYLINE
  8
Unknown Area Type
  70
9
  66
1
  0
VERTEX
  8
Unknown Area Type
  70
32
  10
-4.89593833840091
  20
42.66722674592553
  30
1092.785
  0
VERTEX
  8
Unknown Area Type
  70
32
  10
-4.89592627887107
  20
42.66723144819209
  30
1092.769
  0
VERTEX
  8
Unknown Area Type
  70
32
  10
-4.88970914015448
  20
42.66964855119486
  30
1091.817
  0
VERTEX
  8
Unknown Area Type
  70
32
  10
-4.88911207575779
  20
42.66987903005729
  30
1094.157
  0
VERTEX
  8
Unknown Area Type
  70
32
  10
-4.88907548503549
  20
42.66987963368831
  30
1094.412
  0
VERTEX
  8
Unknown Area Type
  70
32
  10
-4.88398132216105
  20
42.66949528622252
  30
1096.783
  0
VERTEX
  8
Unknown Area Type
  70
32
  10
-4.86766797939613
  20
42.6666666666667
  30
1092
  0
VERTEX
  8
Unknown Area Type
  70
32
  10
-4.89583333333333
  20
42.6666666666667
  30
1092.355
  0
VERTEX
  8
Unknown Area Type
  70
32
  10
-4.89737464149446
  20
42.6666666666667
  30
1086.517
  0
SEQEND
  8
Unknown Area Type
  0
TEXT
  8
Unknown Area Type
 62
7
  1
PNOA-H_AMS_1956-57_33k_ES_PAN_2
 40
0.00045
  10
-4.8825213104453
  20
42.66827315017751
  0
POLYLINE
  8
Unknown Area Type
  70
9
  66
1
  0
VERTEX
  8
Unknown Area Type
  70
32
  10
-5.00378869528815
  20
42.66814587474418
  30
928.36
  0
VERTEX
  8
Unknown Area Type
  70
32
  10
-4.99600197449912
  20
42.6705781863346
  30
936.529
  0
VERTEX
  8
Unknown Area Type
  70
32
  10
-4.99598992227387
  20
42.67058289899754
  30
936.518
  0
VERTEX
  8
Unknown Area Type
  70
32
  10
-4.98954378483246
  20
42.67259516922801
  30
942.407
  0
VERTEX
  8
Unknown Area Type
  70
32
  10
-4.98940481485037
  20
42.67263810693635
  30
942.829
  0
VERTEX
  8
Unknown Area Type
  70
32
  10
-4.98936212632114
  20
42.6726388485834
  30
943.032
  0
VERTEX
  8
Unknown Area Type
  70
32
  10
-4.98392860996969
  20
42.6717785704505
  30
978.643
  0
VERTEX
  8
Unknown Area Type
  70
32
  10
-4.96860409175112
  20
42.66761701126293
  30
1006.795
  0
VERTEX
  8
Unknown Area Type
  70
32
  10
-4.96864403804302
  20
42.6666666666667
  30
1006.667
  0
VERTEX
  8
Unknown Area Type
  70
32
  10
-4.97916666666667
  20
42.6666666666667
  30
989.165
  0
VERTEX
  8
Unknown Area Type
  70
32
  10
-5.00384981929531
  20
42.6666666666667
  30
929.256
  0
SEQEND
  8
Unknown Area Type
  0
TEXT
  8
Unknown Area Type
 62
7
  1
PNOA-H_AMS_1956-57_33k_ES_PAN_2
 40
0.00045
  10
-4.98622695552322
  20
42.66965275762505
  0
POLYLINE
  8
Unknown Area Type
  70
9
  66
1
  0
VERTEX
  8
Unknown Area Type
  70
32
  10
-5.00384981929531
  20
42.6666666666667
  30
929.256
  0
VERTEX
  8
Unknown Area Type
  70
32
  10
-4.97916666666667
  20
42.6666666666667
  30
989.165
  0
VERTEX
  8
Unknown Area Type
  70
32
  10
-4.96864403804302
  20
42.6666666666667
  30
1006.667
  0
VERTEX
  8
Unknown Area Type
  70
32
  10
-4.9686440450486
  20
42.66666650000003
  30
1006.667
  0
VERTEX
  8
Unknown Area Type
  70
32
  10
-5.00384982618233
  20
42.66666650000003
  30
929.256
  0
SEQEND
  8
Unknown Area Type
  0
TEXT
  8
Unknown Area Type
 62
7
  1
PNOA-H_AMS_1956-57_33k_ES_PAN_2
 40
0.00045
  10
-4.98624693211268
  20
42.66666658333337
  0
POLYLINE
  8
Unknown Area Type
  70
9
  66
1
  0
VERTEX
  8
Unknown Area Type
  70
32
  10
-5.00378869528815
  20
42.66814587474418
  30
928.36
  0
VERTEX
  8
Unknown Area Type
  70
32
  10
-4.99600197449912
  20
42.6705781863346
  30
936.529
  0
VERTEX
  8
Unknown Area Type
  70
32
  10
-4.99598992227387
  20
42.67058289899754
  30
936.518
  0
VERTEX
  8
Unknown Area Type
  70
32
  10
-4.98954378483246
  20
42.67259516922801
  30
942.407
  0
VERTEX
  8
Unknown Area Type
  70
32
  10
-4.98940481485037
  20
42.67263810693635
  30
942.829
  0
VERTEX
  8
Unknown Area Type
  70
32
  10
-4.98936212632114
  20
42.6726388485834
  30
943.032
  0
VERTEX
  8
Unknown Area Type
  70
32
  10
-4.98392860996969
  20
42.6717785704505
  30
978.643
  0
VERTEX
  8
Unknown Area Type
  70
32
  10
-4.96860409175112
  20
42.66761701126293
  30
1006.795
  0
VERTEX
  8
Unknown Area Type
  70
32
  10
-4.96864403804302
  20
42.6666666666667
  30
1006.667
  0
VERTEX
  8
Unknown Area Type
  70
32
  10
-4.97916666666667
  20
42.6666666666667
  30
989.165
  0
VERTEX
  8
Unknown Area Type
  70
32
  10
-5.00384981929531
  20
42.6666666666667
  30
929.256
  0
SEQEND
  8
Unknown Area Type
  0
TEXT
  8
Unknown Area Type
 62
7
  1
PNOA-H_AMS_1956-57_33k_ES_PAN_2
 40
0.00045
  10
-4.98622695552322
  20
42.66965275762505
  0
POLYLINE
  8
Unknown Area Type
  70
9
  66
1
  0
VERTEX
  8
Unknown Area Type
  70
32
  10
-4.85624064078888
  20
42.66938098866521
  30
1075.595
  0
VERTEX
  8
Unknown Area Type
  70
32
  10
-4.8541666666667
  20
42.66907749525461
  30
1075.424
  0
VERTEX
  8
Unknown Area Type
  70
32
  10
-4.8541666666667
  20
42.6666666666667
  30
1075.396
  0
VERTEX
  8
Unknown Area Type
  70
32
  10
-4.86329514922558
  20
42.6666666666667
  30
1087.584
  0
SEQEND
  8
Unknown Area Type
  0
TEXT
  8
Unknown Area Type
 62
7
  1
PNOA-H_AMS_1956-57_33k_ES_PAN_2
 40
0.00045
  10
-4.85873090794614
  20
42.66802382766596
  0
POLYLINE
  8
Unknown Area Type
  70
9
  66
1
  0
VERTEX
  8
Unknown Area Type
  70
32
  10
-4.86329514922558
  20
42.6666666666667
  30
1087.584
  0
VERTEX
  8
Unknown Area Type
  70
32
  10
-4.8541666666667
  20
42.6666666666667
  30
1075.396
  0
VERTEX
  8
Unknown Area Type
  70
32
  10
-4.8541666666667
  20
42.66666650000003
  30
1075.396
  0
VERTEX
  8
Unknown Area Type
  70
32
  10
-4.86329558239135
  20
42.66666650000003
  30
1087.585
  0
SEQEND
  8
Unknown Area Type
  0
TEXT
  8
Unknown Area Type
 62
7
  1
PNOA-H_AMS_1956-57_33k_ES_PAN_2
 40
0.00045
  10
-4.85873112452902
  20
42.66666658333337
  0
POLYLINE
  8
Unknown Area Type
  70
9
  66
1
  0
VERTEX
  8
Unknown Area Type
  70
32
  10
-4.85624064078888
  20
42.66938098866521
  30
1075.595
  0
VERTEX
  8
Unknown Area Type
  70
32
  10
-4.8541666666667
  20
42.66907749525461
  30
1075.424
  0
VERTEX
  8
Unknown Area Type
  70
32
  10
-4.8541666666667
  20
42.6666666666667
  30
1075.396
  0
VERTEX
  8
Unknown Area Type
  70
32
  10
-4.86329514922558
  20
42.6666666666667
  30
1087.584
  0
SEQEND
  8
Unknown Area Type
  0
TEXT
  8
Unknown Area Type
 62
7
  1
PNOA-H_AMS_1956-57_33k_ES_PAN_2
 40
0.00045
  10
-4.85873090794614
  20
42.66802382766596
  0
POLYLINE
  8
Unknown Area Type
  70
9
  66
1
  0
VERTEX
  8
Unknown Area Type
  70
32
  10
-4.90691316709137
  20
42.78398500230867
  30
1109.515
  0
VERTEX
  8
Unknown Area Type
  70
32
  10
-4.88303412312851
  20
42.7816742607942
  30
1192.022
  0
VERTEX
  8
Unknown Area Type
  70
32
  10
-4.88296167940447
  20
42.7393425678957
  30
1153.836
  0
VERTEX
  8
Unknown Area Type
  70
32
  10
-4.88401077680131
  20
42.73888856144677
  30
1152.751
  0
VERTEX
  8
Unknown Area Type
  70
32
  10
-4.91379897030609
  20
42.73982181332782
  30
1156.795
  0
VERTEX
  8
Unknown Area Type
  70
32
  10
-4.91445131609693
  20
42.78184205826133
  30
1156.749
  0
VERTEX
  8
Unknown Area Type
  70
32
  10
-4.90692524808051
  20
42.78398029854868
  30
1109.704
  0
VERTEX
  8
Unknown Area Type
  70
32
  10
-4.90691316709137
  20
42.78398500230867
  30
1109.515
  0
SEQEND
  8
Unknown Area Type
  0
TEXT
  8
Unknown Area Type
 62
7
  1
PNOA-H_AMS_1956-57_33k_ES_PAN_2
 40
0.00045
  10
-4.89870661799651
  20
42.76126854607942
  0
POLYLINE
  8
Unknown Area Type
  70
9
  66
1
  0
VERTEX
  8
Unknown Area Type
  70
32
  10
-4.90691316709137
  20
42.78398500230867
  30
1109.515
  0
VERTEX
  8
Unknown Area Type
  70
32
  10
-4.88303412312851
  20
42.7816742607942
  30
1192.022
  0
VERTEX
  8
Unknown Area Type
  70
32
  10
-4.88296167940447
  20
42.7393425678957
  30
1153.836
  0
VERTEX
  8
Unknown Area Type
  70
32
  10
-4.88401077680131
  20
42.73888856144677
  30
1152.751
  0
VERTEX
  8
Unknown Area Type
  70
32
  10
-4.91379897030609
  20
42.73982181332782
  30
1156.795
  0
VERTEX
  8
Unknown Area Type
  70
32
  10
-4.91445131609693
  20
42.78184205826133
  30
1156.749
  0
VERTEX
  8
Unknown Area Type
  70
32
  10
-4.90692524808051
  20
42.78398029854868
  30
1109.704
  0
VERTEX
  8
Unknown Area Type
  70
32
  10
-4.90691316709137
  20
42.78398500230867
  30
1109.515
  0
SEQEND
  8
Unknown Area Type
  0
TEXT
  8
Unknown Area Type
 62
7
  1
PNOA-H_AMS_1956-57_33k_ES_PAN_2
 40
0.00045
  10
-4.89870661799651
  20
42.76126854607942
  0
POLYLINE
  8
Unknown Area Type
  70
9
  66
1
  0
VERTEX
  8
Unknown Area Type
  70
32
  10
-5.00478906229669
  20
42.78359146322422
  30
1085.107
  0
VERTEX
  8
Unknown Area Type
  70
32
  10
-4.97711004105752
  20
42.78202422469466
  30
976.966
  0
VERTEX
  8
Unknown Area Type
  70
32
  10
-4.97733338869068
  20
42.74006138191672
  30
1097.66
  0
VERTEX
  8
Unknown Area Type
  70
32
  10
-4.9885992328217
  20
42.7368765697366
  30
1025.571
  0
VERTEX
  8
Unknown Area Type
  70
32
  10
-4.98866624017367
  20
42.73687090329211
  30
1025.975
  0
VERTEX
  8
Unknown Area Type
  70
32
  10
-5.00919454441532
  20
42.73987136788232
  30
940.387
  0
VERTEX
  8
Unknown Area Type
  70
32
  10
-5.00926515659546
  20
42.7821307177186
  30
1044.603
  0
VERTEX
  8
Unknown Area Type
  70
32
  10
-5.00480724458923
  20
42.78358664229299
  30
1085.201
  0
VERTEX
  8
Unknown Area Type
  70
32
  10
-5.00478906229669
  20
42.78359146322422
  30
1085.107
  0
SEQEND
  8
Unknown Area Type
  0
TEXT
  8
Unknown Area Type
 62
7
  1
PNOA-H_AMS_1956-57_33k_ES_PAN_2
 40
0.00045
  10
-4.99318775518278
  20
42.76023175892301
  0
POLYLINE
  8
Unknown Area Type
  70
9
  66
1
  0
VERTEX
  8
Unknown Area Type
  70
32
  10
-5.00478906229669
  20
42.78359146322422
  30
1085.107
  0
VERTEX
  8
Unknown Area Type
  70
32
  10
-4.97711004105752
  20
42.78202422469466
  30
976.966
  0
VERTEX
  8
Unknown Area Type
  70
32
  10
-4.97733338869068
  20
42.74006138191672
  30
1097.66
  0
VERTEX
  8
Unknown Area Type
  70
32
  10
-4.9885992328217
  20
42.7368765697366
  30
1025.571
  0
VERTEX
  8
Unknown Area Type
  70
32
  10
-4.98866624017367
  20
42.73687090329211
  30
1025.975
  0
VERTEX
  8
Unknown Area Type
  70
32
  10
-5.00919454441532
  20
42.73987136788232
  30
940.387
  0
VERTEX
  8
Unknown Area Type
  70
32
  10
-5.00926515659546
  20
42.7821307177186
  30
1044.603
  0
VERTEX
  8
Unknown Area Type
  70
32
  10
-5.00480724458923
  20
42.78358664229299
  30
1085.201
  0
VERTEX
  8
Unknown Area Type
  70
32
  10
-5.00478906229669
  20
42.78359146322422
  30
1085.107
  0
SEQEND
  8
Unknown Area Type
  0
TEXT
  8
Unknown Area Type
 62
7
  1
PNOA-H_AMS_1956-57_33k_ES_PAN_2
 40
0.00045
  10
-4.99318775518278
  20
42.76023175892301
  0
POLYLINE
  8
Unknown Area Type
  70
9
  66
1
  0
VERTEX
  8
Unknown Area Type
  70
32
  10
-4.88303412312851
  20
42.7816742607942
  30
1192.022
  0
VERTEX
  8
Unknown Area Type
  70
32
  10
-4.875113595711
  20
42.78394296948133
  30
1215.153
  0
VERTEX
  8
Unknown Area Type
  70
32
  10
-4.87510151220049
  20
42.78394766992952
  30
1215.037
  0
VERTEX
  8
Unknown Area Type
  70
32
  10
-4.8541666666667
  20
42.78212331998301
  30
1116.918
  0
VERTEX
  8
Unknown Area Type
  70
32
  10
-4.8541666666667
  20
42.77083333333336
  30
1111.78
  0
VERTEX
  8
Unknown Area Type
  70
32
  10
-4.8541666666667
  20
42.75000000000004
  30
1121.276
  0
VERTEX
  8
Unknown Area Type
  70
32
  10
-4.8541666666667
  20
42.73966826297088
  30
1126.802
  0
VERTEX
  8
Unknown Area Type
  70
32
  10
-4.88296167940447
  20
42.7393425678957
  30
1153.836
  0
SEQEND
  8
Unknown Area Type
  0
TEXT
  8
Unknown Area Type
 62
7
  1
PNOA-H_AMS_1956-57_33k_ES_PAN_2
 40
0.00045
  10
-4.86750934802523
  20
42.76140027299803
  0
POLYLINE
  8
Unknown Area Type
  70
9
  66
1
  0
VERTEX
  8
Unknown Area Type
  70
32
  10
-4.88303412312851
  20
42.7816742607942
  30
1192.022
  0
VERTEX
  8
Unknown Area Type
  70
32
  10
-4.875113595711
  20
42.78394296948133
  30
1215.153
  0
VERTEX
  8
Unknown Area Type
  70
32
  10
-4.87510151220049
  20
42.78394766992952
  30
1215.037
  0
VERTEX
  8
Unknown Area Type
  70
32
  10
-4.8541666666667
  20
42.78212331998301
  30
1116.918
  0
VERTEX
  8
Unknown Area Type
  70
32
  10
-4.8541666666667
  20
42.77083333333336
  30
1111.78
  0
VERTEX
  8
Unknown Area Type
  70
32
  10
-4.8541666666667
  20
42.75000000000004
  30
1121.276
  0
VERTEX
  8
Unknown Area Type
  70
32
  10
-4.8541666666667
  20
42.73966826297088
  30
1126.802
  0
VERTEX
  8
Unknown Area Type
  70
32
  10
-4.88296167940447
  20
42.7393425678957
  30
1153.836
  0
SEQEND
  8
Unknown Area Type
  0
TEXT
  8
Unknown Area Type
 62
7
  1
PNOA-H_AMS_1956-57_33k_ES_PAN_2
 40
0.00045
  10
-4.86750934802523
  20
42.76140027299803
  0
POLYLINE
  8
Unknown Area Type
  70
9
  66
1
  0
VERTEX
  8
Unknown Area Type
  70
32
  10
-5.03763585821485
  20
42.78351577172779
  30
1160.21
  0
VERTEX
  8
Unknown Area Type
  70
32
  10
-5.00926515659546
  20
42.7821307177186
  30
1044.603
  0
VERTEX
  8
Unknown Area Type
  70
32
  10
-5.00919439906559
  20
42.73986686790531
  30
940.504
  0
VERTEX
  8
Unknown Area Type
  70
32
  10
-5.02398541160439
  20
42.73600881459037
  30
1086.151
  0
VERTEX
  8
Unknown Area Type
  70
32
  10
-5.04120783345942
  20
42.73948516360755
  30
1003.773
  0
VERTEX
  8
Unknown Area Type
  70
32
  10
-5.04152674211732
  20
42.78212721622022
  30
1114.786
  0
VERTEX
  8
Unknown Area Type
  70
32
  10
-5.0415218164636
  20
42.78216332399838
  30
1115.561
  0
VERTEX
  8
Unknown Area Type
  70
32
  10
-5.04150974656197
  20
42.78216804174815
  30
1116.089
  0
VERTEX
  8
Unknown Area Type
  70
32
  10
-5.03764792868455
  20
42.78351105437604
  30
1160.194
  0
VERTEX
  8
Unknown Area Type
  70
32
  10
-5.03763585821485
  20
42.78351577172779
  30
1160.21
  0
SEQEND
  8
Unknown Area Type
  0
TEXT
  8
Unknown Area Type
 62
7
  1
PNOA-H_AMS_1956-57_33k_ES_PAN_2
 40
0.00045
  10
-5.02536062433704
  20
42.75959978625922
  0
POLYLINE
  8
Unknown Area Type
  70
9
  66
1
  0
VERTEX
  8
Unknown Area Type
  70
32
  10
-5.03763585821485
  20
42.78351577172779
  30
1160.21
  0
VERTEX
  8
Unknown Area Type
  70
32
  10
-5.00926515659546
  20
42.7821307177186
  30
1044.603
  0
VERTEX
  8
Unknown Area Type
  70
32
  10
-5.00919439906559
  20
42.73986686790531
  30
940.504
  0
VERTEX
  8
Unknown Area Type
  70
32
  10
-5.02398541160439
  20
42.73600881459037
  30
1086.151
  0
VERTEX
  8
Unknown Area Type
  70
32
  10
-5.04120783345942
  20
42.73948516360755
  30
1003.773
  0
VERTEX
  8
Unknown Area Type
  70
32
  10
-5.04152674211732
  20
42.78212721622022
  30
1114.786
  0
VERTEX
  8
Unknown Area Type
  70
32
  10
-5.0415218164636
  20
42.78216332399838
  30
1115.561
  0
VERTEX
  8
Unknown Area Type
  70
32
  10
-5.04150974656197
  20
42.78216804174815
  30
1116.089
  0
VERTEX
  8
Unknown Area Type
  70
32
  10
-5.03764792868455
  20
42.78351105437604
  30
1160.194
  0
VERTEX
  8
Unknown Area Type
  70
32
  10
-5.03763585821485
  20
42.78351577172779
  30
1160.21
  0
SEQEND
  8
Unknown Area Type
  0
TEXT
  8
Unknown Area Type
 62
7
  1
PNOA-H_AMS_1956-57_33k_ES_PAN_2
 40
0.00045
  10
-5.02536062433704
  20
42.75959978625922
  0
POLYLINE
  8
Unknown Area Type
  70
9
  66
1
  0
VERTEX
  8
Unknown Area Type
  70
32
  10
-4.9731746289199
  20
42.73951628593507
  30
1110.624
  0
VERTEX
  8
Unknown Area Type
  70
32
  10
-4.95431389391111
  20
42.73704371589509
  30
1025.409
  0
VERTEX
  8
Unknown Area Type
  70
32
  10
-4.95331946314201
  20
42.7045837692141
  30
1060.249
  0
VERTEX
  8
Unknown Area Type
  70
32
  10
-4.95833549226483
  20
42.7019901587506
  30
1067.543
  0
VERTEX
  8
Unknown Area Type
  70
32
  10
-4.96435324981061
  20
42.70194560941523
  30
1057.942
  0
VERTEX
  8
Unknown Area Type
  70
32
  10
-4.98762692242709
  20
42.70433104171291
  30
1045.406
  0
VERTEX
  8
Unknown Area Type
  70
32
  10
-4.98863571690265
  20
42.73687143348269
  30
1025.793
  0
VERTEX
  8
Unknown Area Type
  70
32
  10
-4.97733949369966
  20
42.74006127647538
  30
1097.68
  0
VERTEX
  8
Unknown Area Type
  70
32
  10
-4.97318683886148
  20
42.73951607549757
  30
1110.549
  0
VERTEX
  8
Unknown Area Type
  70
32
  10
-4.9731746289199
  20
42.73951628593507
  30
1110.624
  0
SEQEND
  8
Unknown Area Type
  0
TEXT
  8
Unknown Area Type
 62
7
  1
PNOA-H_AMS_1956-57_33k_ES_PAN_2
 40
0.00045
  10
-4.97097767917179
  20
42.72092501975082
  0
POLYLINE
  8
Unknown Area Type
  70
9
  66
1
  0
VERTEX
  8
Unknown Area Type
  70
32
  10
-4.9731746289199
  20
42.73951628593507
  30
1110.624
  0
VERTEX
  8
Unknown Area Type
  70
32
  10
-4.95431389391111
  20
42.73704371589509
  30
1025.409
  0
VERTEX
  8
Unknown Area Type
  70
32
  10
-4.95331946314201
  20
42.7045837692141
  30
1060.249
  0
VERTEX
  8
Unknown Area Type
  70
32
  10
-4.95833549226483
  20
42.7019901587506
  30
1067.543
  0
VERTEX
  8
Unknown Area Type
  70
32
  10
-4.96435324981061
  20
42.70194560941523
  30
1057.942
  0
VERTEX
  8
Unknown Area Type
  70
32
  10
-4.98762692242709
  20
42.70433104171291
  30
1045.406
  0
VERTEX
  8
Unknown Area Type
  70
32
  10
-4.98863571690265
  20
42.73687143348269
  30
1025.793
  0
VERTEX
  8
Unknown Area Type
  70
32
  10
-4.97733949369966
  20
42.74006127647538
  30
1097.68
  0
VERTEX
  8
Unknown Area Type
  70
32
  10
-4.97318683886148
  20
42.73951607549757
  30
1110.549
  0
VERTEX
  8
Unknown Area Type
  70
32
  10
-4.9731746289199
  20
42.73951628593507
  30
1110.624
  0
SEQEND
  8
Unknown Area Type
  0
TEXT
  8
Unknown Area Type
 62
7
  1
PNOA-H_AMS_1956-57_33k_ES_PAN_2
 40
0.00045
  10
-4.97097767917179
  20
42.72092501975082
  0
POLYLINE
  8
Unknown Area Type
  70
9
  66
1
  0
VERTEX
  8
Unknown Area Type
  70
32
  10
-4.93970183737755
  20
42.78379432353848
  30
1064.085
  0
VERTEX
  8
Unknown Area Type
  70
32
  10
-4.91445131609693
  20
42.78184205826133
  30
1156.749
  0
VERTEX
  8
Unknown Area Type
  70
32
  10
-4.91379897030609
  20
42.73982181332782
  30
1156.795
  0
VERTEX
  8
Unknown Area Type
  70
32
  10
-4.91917456606576
  20
42.73784976416273
  30
1150.408
  0
VERTEX
  8
Unknown Area Type
  70
32
  10
-4.91923561609654
  20
42.73784874077849
  30
1150.593
  0
VERTEX
  8
Unknown Area Type
  70
32
  10
-4.94490055654949
  20
42.74014417370919
  30
1093.481
  0
VERTEX
  8
Unknown Area Type
  70
32
  10
-4.94560087328662
  20
42.78185268944879
  30
1104.403
  0
VERTEX
  8
Unknown Area Type
  70
32
  10
-4.94559603267396
  20
42.7818932943297
  30
1103.823
  0
VERTEX
  8
Unknown Area Type
  70
32
  10
-4.94557187765154
  20
42.78190270988304
  30
1104.089
  0
VERTEX
  8
Unknown Area Type
  70
32
  10
-4.93971391572004
  20
42.78378961636723
  30
1063.808
  0
VERTEX
  8
Unknown Area Type
  70
32
  10
-4.93970183737755
  20
42.78379432353848
  30
1064.085
  0
SEQEND
  8
Unknown Area Type
  0
TEXT
  8
Unknown Area Type
 62
7
  1
PNOA-H_AMS_1956-57_33k_ES_PAN_2
 40
0.00045
  10
-4.92970000510112
  20
42.76090147958358
  0
POLYLINE
  8
Unknown Area Type
  70
9
  66
1
  0
VERTEX
  8
Unknown Area Type
  70
32
  10
-4.93970183737755
  20
42.78379432353848
  30
1064.085
  0
VERTEX
  8
Unknown Area Type
  70
32
  10
-4.91445131609693
  20
42.78184205826133
  30
1156.749
  0
VERTEX
  8
Unknown Area Type
  70
32
  10
-4.91379897030609
  20
42.73982181332782
  30
1156.795
  0
VERTEX
  8
Unknown Area Type
  70
32
  10
-4.91917456606576
  20
42.73784976416273
  30
1150.408
  0
VERTEX
  8
Unknown Area Type
  70
32
  10
-4.91923561609654
  20
42.73784874077849
  30
1150.593
  0
VERTEX
  8
Unknown Area Type
  70
32
  10
-4.94490055654949
  20
42.74014417370919
  30
1093.481
  0
VERTEX
  8
Unknown Area Type
  70
32
  10
-4.94560087328662
  20
42.78185268944879
  30
1104.403
  0
VERTEX
  8
Unknown Area Type
  70
32
  10
-4.94559603267396
  20
42.7818932943297
  30
1103.823
  0
VERTEX
  8
Unknown Area Type
  70
32
  10
-4.94557187765154
  20
42.78190270988304
  30
1104.089
  0
VERTEX
  8
Unknown Area Type
  70
32
  10
-4.93971391572004
  20
42.78378961636723
  30
1063.808
  0
VERTEX
  8
Unknown Area Type
  70
32
  10
-4.93970183737755
  20
42.78379432353848
  30
1064.085
  0
SEQEND
  8
Unknown Area Type
  0
TEXT
  8
Unknown Area Type
 62
7
  1
PNOA-H_AMS_1956-57_33k_ES_PAN_2
 40
0.00045
  10
-4.92970000510112
  20
42.76090147958358
  0
POLYLINE
  8
Unknown Area Type
  70
9
  66
1
  0
VERTEX
  8
Unknown Area Type
  70
32
  10
-4.89810995002573
  20
42.73933106719576
  30
1135.28
  0
VERTEX
  8
Unknown Area Type
  70
32
  10
-4.88401688203108
  20
42.73888846098223
  30
1152.743
  0
VERTEX
  8
Unknown Area Type
  70
32
  10
-4.88360530456967
  20
42.70470723805465
  30
1115.893
  0
VERTEX
  8
Unknown Area Type
  70
32
  10
-4.89309177508157
  20
42.70087218142486
  30
1103.427
  0
VERTEX
  8
Unknown Area Type
  70
32
  10
-4.89332417812548
  20
42.70088634915288
  30
1104.962
  0
VERTEX
  8
Unknown Area Type
  70
32
  10
-4.9184304359886
  20
42.70479543132689
  30
1118.535
  0
VERTEX
  8
Unknown Area Type
  70
32
  10
-4.91919288107533
  20
42.73784945715087
  30
1150.436
  0
VERTEX
  8
Unknown Area Type
  70
32
  10
-4.91381118073783
  20
42.73982160921913
  30
1156.789
  0
VERTEX
  8
Unknown Area Type
  70
32
  10
-4.89813437091947
  20
42.73933066232605
  30
1135.369
  0
VERTEX
  8
Unknown Area Type
  70
32
  10
-4.89810995002573
  20
42.73933106719576
  30
1135.28
  0
SEQEND
  8
Unknown Area Type
  0
TEXT
  8
Unknown Area Type
 62
7
  1
PNOA-H_AMS_1956-57_33k_ES_PAN_2
 40
0.00045
  10
-4.90139921542243
  20
42.72078654721373
  0
POLYLINE
  8
Unknown Area Type
  70
9
  66
1
  0
VERTEX
  8
Unknown Area Type
  70
32
  10
-4.89810995002573
  20
42.73933106719576
  30
1135.28
  0
VERTEX
  8
Unknown Area Type
  70
32
  10
-4.88401688203108
  20
42.73888846098223
  30
1152.743
  0
VERTEX
  8
Unknown Area Type
  70
32
  10
-4.88360530456967
  20
42.70470723805465
  30
1115.893
  0
VERTEX
  8
Unknown Area Type
  70
32
  10
-4.89309177508157
  20
42.70087218142486
  30
1103.427
  0
VERTEX
  8
Unknown Area Type
  70
32
  10
-4.89332417812548
  20
42.70088634915288
  30
1104.962
  0
VERTEX
  8
Unknown Area Type
  70
32
  10
-4.9184304359886
  20
42.70479543132689
  30
1118.535
  0
VERTEX
  8
Unknown Area Type
  70
32
  10
-4.91919288107533
  20
42.73784945715087
  30
1150.436
  0
VERTEX
  8
Unknown Area Type
  70
32
  10
-4.91381118073783
  20
42.73982160921913
  30
1156.789
  0
VERTEX
  8
Unknown Area Type
  70
32
  10
-4.89813437091947
  20
42.73933066232605
  30
1135.369
  0
VERTEX
  8
Unknown Area Type
  70
32
  10
-4.89810995002573
  20
42.73933106719576
  30
1135.28
  0
SEQEND
  8
Unknown Area Type
  0
TEXT
  8
Unknown Area Type
 62
7
  1
PNOA-H_AMS_1956-57_33k_ES_PAN_2
 40
0.00045
  10
-4.90139921542243
  20
42.72078654721373
  0
POLYLINE
  8
Unknown Area Type
  70
9
  66
1
  0
VERTEX
  8
Unknown Area Type
  70
32
  10
-5.02311935455408
  20
42.73623574102768
  30
1068.045
  0
VERTEX
  8
Unknown Area Type
  70
32
  10
-5.00919454441532
  20
42.73987136788232
  30
940.387
  0
VERTEX
  8
Unknown Area Type
  70
32
  10
-4.98863571690265
  20
42.73687143348269
  30
1025.793
  0
VERTEX
  8
Unknown Area Type
  70
32
  10
-4.98762692242709
  20
42.70433104171291
  30
1045.406
  0
VERTEX
  8
Unknown Area Type
  70
32
  10
-4.99248382270057
  20
42.701770218426
  30
1017.984
  0
VERTEX
  8
Unknown Area Type
  70
32
  10
-5.00306525663934
  20
42.70183773496898
  30
944.359
  0
VERTEX
  8
Unknown Area Type
  70
32
  10
-5.02246529234132
  20
42.70427026904251
  30
923.948
  0
VERTEX
  8
Unknown Area Type
  70
32
  10
-5.02397320272936
  20
42.7360090304291
  30
1086.097
  0
VERTEX
  8
Unknown Area Type
  70
32
  10
-5.02313752160355
  20
42.736230917463
  30
1068.311
  0
VERTEX
  8
Unknown Area Type
  70
32
  10
-5.02311935455408
  20
42.73623574102768
  30
1068.045
  0
SEQEND
  8
Unknown Area Type
  0
TEXT
  8
Unknown Area Type
 62
7
  1
PNOA-H_AMS_1956-57_33k_ES_PAN_2
 40
0.00045
  10
-5.00580011081163
  20
42.72077762639778
  0
POLYLINE
  8
Unknown Area Type
  70
9
  66
1
  0
VERTEX
  8
Unknown Area Type
  70
32
  10
-5.02311935455408
  20
42.73623574102768
  30
1068.045
  0
VERTEX
  8
Unknown Area Type
  70
32
  10
-5.00919454441532
  20
42.73987136788232
  30
940.387
  0
VERTEX
  8
Unknown Area Type
  70
32
  10
-4.98863571690265
  20
42.73687143348269
  30
1025.793
  0
VERTEX
  8
Unknown Area Type
  70
32
  10
-4.98762692242709
  20
42.70433104171291
  30
1045.406
  0
VERTEX
  8
Unknown Area Type
  70
32
  10
-4.99248382270057
  20
42.701770218426
  30
1017.984
  0
VERTEX
  8
Unknown Area Type
  70
32
  10
-5.00306525663934
  20
42.70183773496898
  30
944.359
  0
VERTEX
  8
Unknown Area Type
  70
32
  10
-5.02246529234132
  20
42.70427026904251
  30
923.948
  0
VERTEX
  8
Unknown Area Type
  70
32
  10
-5.02397320272936
  20
42.7360090304291
  30
1086.097
  0
VERTEX
  8
Unknown Area Type
  70
32
  10
-5.02313752160355
  20
42.736230917463
  30
1068.311
  0
VERTEX
  8
Unknown Area Type
  70
32
  10
-5.02311935455408
  20
42.73623574102768
  30
1068.045
  0
SEQEND
  8
Unknown Area Type
  0
TEXT
  8
Unknown Area Type
 62
7
  1
PNOA-H_AMS_1956-57_33k_ES_PAN_2
 40
0.00045
  10
-5.00580011081163
  20
42.72077762639778
  0
POLYLINE
  8
Unknown Area Type
  70
9
  66
1
  0
VERTEX
  8
Unknown Area Type
  70
32
  10
-4.94814729939597
  20
42.73907590097599
  30
1055.775
  0
VERTEX
  8
Unknown Area Type
  70
32
  10
-4.94505177780545
  20
42.74009657928372
  30
1093.691
  0
VERTEX
  8
Unknown Area Type
  70
32
  10
-4.94488224114232
  20
42.74014448484531
  30
1093.523
  0
VERTEX
  8
Unknown Area Type
  70
32
  10
-4.91919288107533
  20
42.73784945715087
  30
1150.436
  0
VERTEX
  8
Unknown Area Type
  70
32
  10
-4.9184304359886
  20
42.70479543132689
  30
1118.535
  0
VERTEX
  8
Unknown Area Type
  70
32
  10
-4.92621589123579
  20
42.70129679915859
  30
1105.679
  0
VERTEX
  8
Unknown Area Type
  70
32
  10
-4.95331946314201
  20
42.7045837692141
  30
1060.249
  0
VERTEX
  8
Unknown Area Type
  70
32
  10
-4.95431389391111
  20
42.73704371589509
  30
1025.409
  0
VERTEX
  8
Unknown Area Type
  70
32
  10
-4.94816547352054
  20
42.7390710891804
  30
1055.712
  0
VERTEX
  8
Unknown Area Type
  70
32
  10
-4.94814729939597
  20
42.73907590097599
  30
1055.775
  0
SEQEND
  8
Unknown Area Type
  0
TEXT
  8
Unknown Area Type
 62
7
  1
PNOA-H_AMS_1956-57_33k_ES_PAN_2
 40
0.00045
  10
-4.93637232944671
  20
42.7209548890621
  0
POLYLINE
  8
Unknown Area Type
  70
9
  66
1
  0
VERTEX
  8
Unknown Area Type
  70
32
  10
-4.94814729939597
  20
42.73907590097599
  30
1055.775
  0
VERTEX
  8
Unknown Area Type
  70
32
  10
-4.94505177780545
  20
42.74009657928372
  30
1093.691
  0
VERTEX
  8
Unknown Area Type
  70
32
  10
-4.94488224114232
  20
42.74014448484531
  30
1093.523
  0
VERTEX
  8
Unknown Area Type
  70
32
  10
-4.91919288107533
  20
42.73784945715087
  30
1150.436
  0
VERTEX
  8
Unknown Area Type
  70
32
  10
-4.9184304359886
  20
42.70479543132689
  30
1118.535
  0
VERTEX
  8
Unknown Area Type
  70
32
  10
-4.92621589123579
  20
42.70129679915859
  30
1105.679
  0
VERTEX
  8
Unknown Area Type
  70
32
  10
-4.95331946314201
  20
42.7045837692141
  30
1060.249
  0
VERTEX
  8
Unknown Area Type
  70
32
  10
-4.95431389391111
  20
42.73704371589509
  30
1025.409
  0
VERTEX
  8
Unknown Area Type
  70
32
  10
-4.94816547352054
  20
42.7390710891804
  30
1055.712
  0
VERTEX
  8
Unknown Area Type
  70
32
  10
-4.94814729939597
  20
42.73907590097599
  30
1055.775
  0
SEQEND
  8
Unknown Area Type
  0
TEXT
  8
Unknown Area Type
 62
7
  1
PNOA-H_AMS_1956-57_33k_ES_PAN_2
 40
0.00045
  10
-4.93637232944671
  20
42.7209548890621
  0
POLYLINE
  8
Unknown Area Type
  70
9
  66
1
  0
VERTEX
  8
Unknown Area Type
  70
32
  10
-4.88401688203108
  20
42.73888846098223
  30
1152.743
  0
VERTEX
  8
Unknown Area Type
  70
32
  10
-4.88297388996043
  20
42.73934236707644
  30
1153.832
  0
VERTEX
  8
Unknown Area Type
  70
32
  10
-4.87347865412372
  20
42.73944860758436
  30
1146.555
  0
VERTEX
  8
Unknown Area Type
  70
32
  10
-4.87309401880003
  20
42.73945490089104
  30
1146.616
  0
VERTEX
  8
Unknown Area Type
  70
32
  10
-4.8541666666667
  20
42.73966829529714
  30
1126.893
  0
VERTEX
  8
Unknown Area Type
  70
32
  10
-4.8541666666667
  20
42.72916666666664
  30
1114.952
  0
VERTEX
  8
Unknown Area Type
  70
32
  10
-4.8541666666667
  20
42.70833333333333
  30
1101.244
  0
VERTEX
  8
Unknown Area Type
  70
32
  10
-4.8541666666667
  20
42.70082612810121
  30
1098.536
  0
VERTEX
  8
Unknown Area Type
  70
32
  10
-4.85519910603078
  20
42.70040276670968
  30
1098.685
  0
VERTEX
  8
Unknown Area Type
  70
32
  10
-4.86491852129507
  20
42.7012534595729
  30
1121.494
  0
VERTEX
  8
Unknown Area Type
  70
32
  10
-4.88360544066997
  20
42.70471173839525
  30
1115.897
  0
SEQEND
  8
Unknown Area Type
  0
TEXT
  8
Unknown Area Type
 62
7
  1
PNOA-H_AMS_1956-57_33k_ES_PAN_2
 40
0.00045
  10
-4.86627581338975
  20
42.72051722236988
  0
POLYLINE
  8
Unknown Area Type
  70
9
  66
1
  0
VERTEX
  8
Unknown Area Type
  70
32
  10
-4.88401688203108
  20
42.73888846098223
  30
1152.743
  0
VERTEX
  8
Unknown Area Type
  70
32
  10
-4.88297388996043
  20
42.73934236707644
  30
1153.832
  0
VERTEX
  8
Unknown Area Type
  70
32
  10
-4.87347865412372
  20
42.73944860758436
  30
1146.555
  0
VERTEX
  8
Unknown Area Type
  70
32
  10
-4.87309401880003
  20
42.73945490089104
  30
1146.616
  0
VERTEX
  8
Unknown Area Type
  70
32
  10
-4.8541666666667
  20
42.73966829529714
  30
1126.893
  0
VERTEX
  8
Unknown Area Type
  70
32
  10
-4.8541666666667
  20
42.72916666666664
  30
1114.952
  0
VERTEX
  8
Unknown Area Type
  70
32
  10
-4.8541666666667
  20
42.70833333333333
  30
1101.244
  0
VERTEX
  8
Unknown Area Type
  70
32
  10
-4.8541666666667
  20
42.70082612810121
  30
1098.536
  0
VERTEX
  8
Unknown Area Type
  70
32
  10
-4.85519910603078
  20
42.70040276670968
  30
1098.685
  0
VERTEX
  8
Unknown Area Type
  70
32
  10
-4.86491852129507
  20
42.7012534595729
  30
1121.494
  0
VERTEX
  8
Unknown Area Type
  70
32
  10
-4.88360544066997
  20
42.70471173839525
  30
1115.897
  0
SEQEND
  8
Unknown Area Type
  0
TEXT
  8
Unknown Area Type
 62
7
  1
PNOA-H_AMS_1956-57_33k_ES_PAN_2
 40
0.00045
  10
-4.86627581338975
  20
42.72051722236988
  0
POLYLINE
  8
Unknown Area Type
  70
9
  66
1
  0
VERTEX
  8
Unknown Area Type
  70
32
  10
-4.94949039669648
  20
42.78211069887281
  30
1124.795
  0
VERTEX
  8
Unknown Area Type
  70
32
  10
-4.94559603267396
  20
42.7818932943297
  30
1103.823
  0
VERTEX
  8
Unknown Area Type
  70
32
  10
-4.94490055654949
  20
42.74014417370919
  30
1093.481
  0
VERTEX
  8
Unknown Area Type
  70
32
  10
-4.95430778911378
  20
42.73704382010318
  30
1025.492
  0
VERTEX
  8
Unknown Area Type
  70
32
  10
-4.97733338869068
  20
42.74006138191672
  30
1097.66
  0
VERTEX
  8
Unknown Area Type
  70
32
  10
-4.97711004105752
  20
42.78202422469466
  30
976.966
  0
VERTEX
  8
Unknown Area Type
  70
32
  10
-4.97271085671364
  20
42.78342835857375
  30
988.666
  0
VERTEX
  8
Unknown Area Type
  70
32
  10
-4.94950261517778
  20
42.78211049079457
  30
1124.781
  0
VERTEX
  8
Unknown Area Type
  70
32
  10
-4.94949039669648
  20
42.78211069887281
  30
1124.795
  0
SEQEND
  8
Unknown Area Type
  0
TEXT
  8
Unknown Area Type
 62
7
  1
PNOA-H_AMS_1956-57_33k_ES_PAN_2
 40
0.00045
  10
-4.96111686521375
  20
42.76035153463749
  0
POLYLINE
  8
Unknown Area Type
  70
9
  66
1
  0
VERTEX
  8
Unknown Area Type
  70
32
  10
-4.94949039669648
  20
42.78211069887281
  30
1124.795
  0
VERTEX
  8
Unknown Area Type
  70
32
  10
-4.94559603267396
  20
42.7818932943297
  30
1103.823
  0
VERTEX
  8
Unknown Area Type
  70
32
  10
-4.94490055654949
  20
42.74014417370919
  30
1093.481
  0
VERTEX
  8
Unknown Area Type
  70
32
  10
-4.95430778911378
  20
42.73704382010318
  30
1025.492
  0
VERTEX
  8
Unknown Area Type
  70
32
  10
-4.97733338869068
  20
42.74006138191672
  30
1097.66
  0
VERTEX
  8
Unknown Area Type
  70
32
  10
-4.97711004105752
  20
42.78202422469466
  30
976.966
  0
VERTEX
  8
Unknown Area Type
  70
32
  10
-4.97271085671364
  20
42.78342835857375
  30
988.666
  0
VERTEX
  8
Unknown Area Type
  70
32
  10
-4.94950261517778
  20
42.78211049079457
  30
1124.781
  0
VERTEX
  8
Unknown Area Type
  70
32
  10
-4.94949039669648
  20
42.78211069887281
  30
1124.795
  0
SEQEND
  8
Unknown Area Type
  0
TEXT
  8
Unknown Area Type
 62
7
  1
PNOA-H_AMS_1956-57_33k_ES_PAN_2
 40
0.00045
  10
-4.96111686521375
  20
42.76035153463749
  0
POLYLINE
  8
Unknown Area Type
  70
9
  66
1
  0
VERTEX
  8
Unknown Area Type
  70
32
  10
-4.92215663314566
  20
42.83333333333339
  30
1287.781
  0
VERTEX
  8
Unknown Area Type
  70
32
  10
-4.89583333333333
  20
42.83333333333339
  30
1462.527
  0
VERTEX
  8
Unknown Area Type
  70
32
  10
-4.89327417162002
  20
42.83333333333339
  30
1462.541
  0
VERTEX
  8
Unknown Area Type
  70
32
  10
-4.8932418687363
  20
42.82396905865593
  30
1477.521
  0
VERTEX
  8
Unknown Area Type
  70
32
  10
-4.90649715224743
  20
42.82040369923626
  30
1470.771
  0
VERTEX
  8
Unknown Area Type
  70
32
  10
-4.90673376734242
  20
42.82034122562708
  30
1469.635
  0
VERTEX
  8
Unknown Area Type
  70
32
  10
-4.90677044628395
  20
42.82034061463818
  30
1469.344
  0
VERTEX
  8
Unknown Area Type
  70
32
  10
-4.92214622652832
  20
42.824072658124
  30
1253.104
  0
SEQEND
  8
Unknown Area Type
  0
TEXT
  8
Unknown Area Type
 62
7
  1
PNOA-H_AMS_1956-57_33k_ES_PAN_2
 40
0.00045
  10
-4.90769925094098
  20
42.82683697398578
  0
POLYLINE
  8
Unknown Area Type
  70
9
  66
1
  0
VERTEX
  8
Unknown Area Type
  70
32
  10
-4.92215663333295
  20
42.83333350000005
  30
1287.782
  0
VERTEX
  8
Unknown Area Type
  70
32
  10
-4.89327417219495
  20
42.83333350000005
  30
1462.541
  0
VERTEX
  8
Unknown Area Type
  70
32
  10
-4.89327417162002
  20
42.83333333333339
  30
1462.541
  0
VERTEX
  8
Unknown Area Type
  70
32
  10
-4.89583333333333
  20
42.83333333333339
  30
1462.527
  0
VERTEX
  8
Unknown Area Type
  70
32
  10
-4.92215663314566
  20
42.83333333333339
  30
1287.781
  0
SEQEND
  8
Unknown Area Type
  0
TEXT
  8
Unknown Area Type
 62
7
  1
PNOA-H_AMS_1956-57_33k_ES_PAN_2
 40
0.00045
  10
-4.90771540247648
  20
42.83333341666672
  0
POLYLINE
  8
Unknown Area Type
  70
9
  66
1
  0
VERTEX
  8
Unknown Area Type
  70
32
  10
-4.92215663314566
  20
42.83333333333339
  30
1287.781
  0
VERTEX
  8
Unknown Area Type
  70
32
  10
-4.89583333333333
  20
42.83333333333339
  30
1462.527
  0
VERTEX
  8
Unknown Area Type
  70
32
  10
-4.89327417162002
  20
42.83333333333339
  30
1462.541
  0
VERTEX
  8
Unknown Area Type
  70
32
  10
-4.8932418687363
  20
42.82396905865593
  30
1477.521
  0
VERTEX
  8
Unknown Area Type
  70
32
  10
-4.90649715224743
  20
42.82040369923626
  30
1470.771
  0
VERTEX
  8
Unknown Area Type
  70
32
  10
-4.90673376734242
  20
42.82034122562708
  30
1469.635
  0
VERTEX
  8
Unknown Area Type
  70
32
  10
-4.90677044628395
  20
42.82034061463818
  30
1469.344
  0
VERTEX
  8
Unknown Area Type
  70
32
  10
-4.92214622652832
  20
42.824072658124
  30
1253.104
  0
SEQEND
  8
Unknown Area Type
  0
TEXT
  8
Unknown Area Type
 62
7
  1
PNOA-H_AMS_1956-57_33k_ES_PAN_2
 40
0.00045
  10
-4.90769925094098
  20
42.82683697398578
  0
POLYLINE
  8
Unknown Area Type
  70
9
  66
1
  0
VERTEX
  8
Unknown Area Type
  70
32
  10
-4.98112618973415
  20
42.83333333333339
  30
1191.946
  0
VERTEX
  8
Unknown Area Type
  70
32
  10
-4.97916666666667
  20
42.83333333333339
  30
1192.334
  0
VERTEX
  8
Unknown Area Type
  70
32
  10
-4.95106958967823
  20
42.83333333333339
  30
1034.511
  0
VERTEX
  8
Unknown Area Type
  70
32
  10
-4.95098505945389
  20
42.82384138800587
  30
1025.678
  0
VERTEX
  8
Unknown Area Type
  70
32
  10
-4.97221962708637
  20
42.82069044720087
  30
1192.537
  0
VERTEX
  8
Unknown Area Type
  70
32
  10
-4.98151726005002
  20
42.82416336827156
  30
1149.248
  0
SEQEND
  8
Unknown Area Type
  0
TEXT
  8
Unknown Area Type
 62
7
  1
PNOA-H_AMS_1956-57_33k_ES_PAN_2
 40
0.00045
  10
-4.96625115975195
  20
42.82701189026713
  0
POLYLINE
  8
Unknown Area Type
  70
9
  66
1
  0
VERTEX
  8
Unknown Area Type
  70
32
  10
-4.98112618262634
  20
42.83333350000005
  30
1191.947
  0
VERTEX
  8
Unknown Area Type
  70
32
  10
-4.95106959116248
  20
42.83333350000005
  30
1034.511
  0
VERTEX
  8
Unknown Area Type
  70
32
  10
-4.95106958967823
  20
42.83333333333339
  30
1034.511
  0
VERTEX
  8
Unknown Area Type
  70
32
  10
-4.97916666666667
  20
42.83333333333339
  30
1192.334
  0
VERTEX
  8
Unknown Area Type
  70
32
  10
-4.98112618973415
  20
42.83333333333339
  30
1191.946
  0
SEQEND
  8
Unknown Area Type
  0
TEXT
  8
Unknown Area Type
 62
7
  1
PNOA-H_AMS_1956-57_33k_ES_PAN_2
 40
0.00045
  10
-4.96609788970619
  20
42.83333341666672
  0
POLYLINE
  8
Unknown Area Type
  70
9
  66
1
  0
VERTEX
  8
Unknown Area Type
  70
32
  10
-4.98112618973415
  20
42.83333333333339
  30
1191.946
  0
VERTEX
  8
Unknown Area Type
  70
32
  10
-4.97916666666667
  20
42.83333333333339
  30
1192.334
  0
VERTEX
  8
Unknown Area Type
  70
32
  10
-4.95106958967823
  20
42.83333333333339
  30
1034.511
  0
VERTEX
  8
Unknown Area Type
  70
32
  10
-4.95098505945389
  20
42.82384138800587
  30
1025.678
  0
VERTEX
  8
Unknown Area Type
  70
32
  10
-4.97221962708637
  20
42.82069044720087
  30
1192.537
  0
VERTEX
  8
Unknown Area Type
  70
32
  10
-4.98151726005002
  20
42.82416336827156
  30
1149.248
  0
SEQEND
  8
Unknown Area Type
  0
TEXT
  8
Unknown Area Type
 62
7
  1
PNOA-H_AMS_1956-57_33k_ES_PAN_2
 40
0.00045
  10
-4.96625115975195
  20
42.82701189026713
  0
POLYLINE
  8
Unknown Area Type
  70
9
  66
1
  0
VERTEX
  8
Unknown Area Type
  70
32
  10
-5.01191721256642
  20
42.83333333333339
  30
1100.995
  0
VERTEX
  8
Unknown Area Type
  70
32
  10
-4.98112400070279
  20
42.83333333333339
  30
1191.712
  0
VERTEX
  8
Unknown Area Type
  70
32
  10
-4.98151244072659
  20
42.82420397397969
  30
1149.107
  0
VERTEX
  8
Unknown Area Type
  70
32
  10
-4.98151726005002
  20
42.82416336827156
  30
1149.248
  0
VERTEX
  8
Unknown Area Type
  70
32
  10
-4.98154156932556
  20
42.82415844496112
  30
1148.783
  0
VERTEX
  8
Unknown Area Type
  70
32
  10
-5.00467382607826
  20
42.82129279249641
  30
1159.076
  0
VERTEX
  8
Unknown Area Type
  70
32
  10
-5.00472287466289
  20
42.82129643592396
  30
1158.294
  0
VERTEX
  8
Unknown Area Type
  70
32
  10
-5.01236312104272
  20
42.82434111026699
  30
1040.228
  0
SEQEND
  8
Unknown Area Type
  0
TEXT
  8
Unknown Area Type
 62
7
  1
PNOA-H_AMS_1956-57_33k_ES_PAN_2
 40
0.00045
  10
-4.99674356087276
  20
42.8273130629149
  0
POLYLINE
  8
Unknown Area Type
  70
9
  66
1
  0
VERTEX
  8
Unknown Area Type
  70
32
  10
-5.01191720430171
  20
42.83333350000005
  30
1100.996
  0
VERTEX
  8
Unknown Area Type
  70
32
  10
-4.98112399361139
  20
42.83333350000005
  30
1191.712
  0
VERTEX
  8
Unknown Area Type
  70
32
  10
-4.98112400070279
  20
42.83333333333339
  30
1191.712
  0
VERTEX
  8
Unknown Area Type
  70
32
  10
-5.01191721256642
  20
42.83333333333339
  30
1100.995
  0
SEQEND
  8
Unknown Area Type
  0
TEXT
  8
Unknown Area Type
 62
7
  1
PNOA-H_AMS_1956-57_33k_ES_PAN_2
 40
0.00045
  10
-4.9965206030889
  20
42.83333341666672
  0
POLYLINE
  8
Unknown Area Type
  70
9
  66
1
  0
VERTEX
  8
Unknown Area Type
  70
32
  10
-5.01191721256642
  20
42.83333333333339
  30
1100.995
  0
VERTEX
  8
Unknown Area Type
  70
32
  10
-4.98112400070279
  20
42.83333333333339
  30
1191.712
  0
VERTEX
  8
Unknown Area Type
  70
32
  10
-4.98151244072659
  20
42.82420397397969
  30
1149.107
  0
VERTEX
  8
Unknown Area Type
  70
32
  10
-4.98151726005002
  20
42.82416336827156
  30
1149.248
  0
VERTEX
  8
Unknown Area Type
  70
32
  10
-4.98154156932556
  20
42.82415844496112
  30
1148.783
  0
VERTEX
  8
Unknown Area Type
  70
32
  10
-5.00467382607826
  20
42.82129279249641
  30
1159.076
  0
VERTEX
  8
Unknown Area Type
  70
32
  10
-5.00472287466289
  20
42.82129643592396
  30
1158.294
  0
VERTEX
  8
Unknown Area Type
  70
32
  10
-5.01236312104272
  20
42.82434111026699
  30
1040.228
  0
SEQEND
  8
Unknown Area Type
  0
TEXT
  8
Unknown Area Type
 62
7
  1
PNOA-H_AMS_1956-57_33k_ES_PAN_2
 40
0.00045
  10
-4.99674356087276
  20
42.8273130629149
  0
POLYLINE
  8
Unknown Area Type
  70
9
  66
1
  0
VERTEX
  8
Unknown Area Type
  70
32
  10
-4.99835803563038
  20
42.66984369600687
  30
934.527
  0
VERTEX
  8
Unknown Area Type
  70
32
  10
-5.00379479315673
  20
42.66814576803655
  30
928.346
  0
VERTEX
  8
Unknown Area Type
  70
32
  10
-5.01400181359201
  20
42.67115452156775
  30
916.914
  0
VERTEX
  8
Unknown Area Type
  70
32
  10
-5.00304085196989
  20
42.7018381619118
  30
944.43
  0
VERTEX
  8
Unknown Area Type
  70
32
  10
-4.99248992390062
  20
42.70177011225324
  30
1017.977
  0
VERTEX
  8
Unknown Area Type
  70
32
  10
-4.98938651976661
  20
42.67263842478703
  30
942.916
  0
VERTEX
  8
Unknown Area Type
  70
32
  10
-4.99833974146588
  20
42.66984401527073
  30
934.558
  0
VERTEX
  8
Unknown Area Type
  70
32
  10
-4.99835803563038
  20
42.66984369600687
  30
934.527
  0
SEQEND
  8
Unknown Area Type
  0
TEXT
  8
Unknown Area Type
 62
7
  1
PNOA-H_AMS_1956-57_33k_ES_PAN_2
 40
0.00045
  10
-5.00169446428151
  20
42.68531519633804
  0
POLYLINE
  8
Unknown Area Type
  70
9
  66
1
  0
VERTEX
  8
Unknown Area Type
  70
32
  10
-4.99835803563038
  20
42.66984369600687
  30
934.527
  0
VERTEX
  8
Unknown Area Type
  70
32
  10
-5.00379479315673
  20
42.66814576803655
  30
928.346
  0
VERTEX
  8
Unknown Area Type
  70
32
  10
-5.01400181359201
  20
42.67115452156775
  30
916.914
  0
VERTEX
  8
Unknown Area Type
  70
32
  10
-5.00304085196989
  20
42.7018381619118
  30
944.43
  0
VERTEX
  8
Unknown Area Type
  70
32
  10
-4.99248992390062
  20
42.70177011225324
  30
1017.977
  0
VERTEX
  8
Unknown Area Type
  70
32
  10
-4.98938651976661
  20
42.67263842478703
  30
942.916
  0
VERTEX
  8
Unknown Area Type
  70
32
  10
-4.99833974146588
  20
42.66984401527073
  30
934.558
  0
VERTEX
  8
Unknown Area Type
  70
32
  10
-4.99835803563038
  20
42.66984369600687
  30
934.527
  0
SEQEND
  8
Unknown Area Type
  0
TEXT
  8
Unknown Area Type
 62
7
  1
PNOA-H_AMS_1956-57_33k_ES_PAN_2
 40
0.00045
  10
-5.00169446428151
  20
42.68531519633804
  0
POLYLINE
  8
Unknown Area Type
  70
9
  66
1
  0
VERTEX
  8
Unknown Area Type
  70
32
  10
-4.96434104716871
  20
42.70194581876368
  30
1057.95
  0
VERTEX
  8
Unknown Area Type
  70
32
  10
-4.95834159361209
  20
42.70199005439635
  30
1067.64
  0
VERTEX
  8
Unknown Area Type
  70
32
  10
-4.95548500791313
  20
42.67185360358287
  30
1077.486
  0
VERTEX
  8
Unknown Area Type
  70
32
  10
-4.96860394969593
  20
42.66761251111802
  30
1006.826
  0
VERTEX
  8
Unknown Area Type
  70
32
  10
-4.98392846678828
  20
42.6717740703505
  30
978.627
  0
VERTEX
  8
Unknown Area Type
  70
32
  10
-4.9837952213813
  20
42.67199700530028
  30
980.207
  0
VERTEX
  8
Unknown Area Type
  70
32
  10
-4.96434076333291
  20
42.70193681850498
  30
1058.246
  0
VERTEX
  8
Unknown Area Type
  70
32
  10
-4.96434104716871
  20
42.70194581876368
  30
1057.95
  0
SEQEND
  8
Unknown Area Type
  0
TEXT
  8
Unknown Area Type
 62
7
  1
PNOA-H_AMS_1956-57_33k_ES_PAN_2
 40
0.00045
  10
-4.96970706553189
  20
42.68079389592052
  0
POLYLINE
  8
Unknown Area Type
  70
9
  66
1
  0
VERTEX
  8
Unknown Area Type
  70
32
  10
-4.96434104716871
  20
42.70194581876368
  30
1057.95
  0
VERTEX
  8
Unknown Area Type
  70
32
  10
-4.95834159361209
  20
42.70199005439635
  30
1067.64
  0
VERTEX
  8
Unknown Area Type
  70
32
  10
-4.95548500791313
  20
42.67185360358287
  30
1077.486
  0
VERTEX
  8
Unknown Area Type
  70
32
  10
-4.96860394969593
  20
42.66761251111802
  30
1006.826
  0
VERTEX
  8
Unknown Area Type
  70
32
  10
-4.98392846678828
  20
42.6717740703505
  30
978.627
  0
VERTEX
  8
Unknown Area Type
  70
32
  10
-4.9837952213813
  20
42.67199700530028
  30
980.207
  0
VERTEX
  8
Unknown Area Type
  70
32
  10
-4.96434076333291
  20
42.70193681850498
  30
1058.246
  0
VERTEX
  8
Unknown Area Type
  70
32
  10
-4.96434104716871
  20
42.70194581876368
  30
1057.95
  0
SEQEND
  8
Unknown Area Type
  0
TEXT
  8
Unknown Area Type
 62
7
  1
PNOA-H_AMS_1956-57_33k_ES_PAN_2
 40
0.00045
  10
-4.96970706553189
  20
42.68079389592052
  0
POLYLINE
  8
Unknown Area Type
  70
9
  66
1
  0
VERTEX
  8
Unknown Area Type
  70
32
  10
-4.8839750877674
  20
42.66949088618722
  30
1096.77
  0
VERTEX
  8
Unknown Area Type
  70
32
  10
-4.86491215021963
  20
42.70124455816637
  30
1121.479
  0
VERTEX
  8
Unknown Area Type
  70
32
  10
-4.86491241968724
  20
42.70125355894933
  30
1121.491
  0
VERTEX
  8
Unknown Area Type
  70
32
  10
-4.85521130914712
  20
42.70040256899449
  30
1098.709
  0
VERTEX
  8
Unknown Area Type
  70
32
  10
-4.85622844374971
  20
42.66938118637504
  30
1075.564
  0
VERTEX
  8
Unknown Area Type
  70
32
  10
-4.86328545503663
  20
42.6666666666667
  30
1088.62
  0
VERTEX
  8
Unknown Area Type
  70
32
  10
-4.86767660377961
  20
42.6666666666667
  30
1092.024
  0
SEQEND
  8
Unknown Area Type
  0
TEXT
  8
Unknown Area Type
 62
7
  1
PNOA-H_AMS_1956-57_33k_ES_PAN_2
 40
0.00045
  10
-4.86959331180796
  20
42.68022176038236
  0
POLYLINE
  8
Unknown Area Type
  70
9
  66
1
  0
VERTEX
  8
Unknown Area Type
  70
32
  10
-4.86767660377961
  20
42.6666666666667
  30
1092.024
  0
VERTEX
  8
Unknown Area Type
  70
32
  10
-4.86328545503663
  20
42.6666666666667
  30
1088.62
  0
VERTEX
  8
Unknown Area Type
  70
32
  10
-4.86328588832453
  20
42.66666650000003
  30
1088.62
  0
VERTEX
  8
Unknown Area Type
  70
32
  10
-4.86767564195142
  20
42.66666650000003
  30
1092.024
  0
SEQEND
  8
Unknown Area Type
  0
TEXT
  8
Unknown Area Type
 62
7
  1
PNOA-H_AMS_1956-57_33k_ES_PAN_2
 40
0.00045
  10
-4.86548102940812
  20
42.66666658333337
  0
POLYLINE
  8
Unknown Area Type
  70
9
  66
1
  0
VERTEX
  8
Unknown Area Type
  70
32
  10
-4.8839750877674
  20
42.66949088618722
  30
1096.77
  0
VERTEX
  8
Unknown Area Type
  70
32
  10
-4.86491215021963
  20
42.70124455816637
  30
1121.479
  0
VERTEX
  8
Unknown Area Type
  70
32
  10
-4.86491241968724
  20
42.70125355894933
  30
1121.491
  0
VERTEX
  8
Unknown Area Type
  70
32
  10
-4.85521130914712
  20
42.70040256899449
  30
1098.709
  0
VERTEX
  8
Unknown Area Type
  70
32
  10
-4.85622844374971
  20
42.66938118637504
  30
1075.564
  0
VERTEX
  8
Unknown Area Type
  70
32
  10
-4.86328545503663
  20
42.6666666666667
  30
1088.62
  0
VERTEX
  8
Unknown Area Type
  70
32
  10
-4.86767660377961
  20
42.6666666666667
  30
1092.024
  0
SEQEND
  8
Unknown Area Type
  0
TEXT
  8
Unknown Area Type
 62
7
  1
PNOA-H_AMS_1956-57_33k_ES_PAN_2
 40
0.00045
  10
-4.86959331180796
  20
42.68022176038236
  0
POLYLINE
  8
Unknown Area Type
  70
9
  66
1
  0
VERTEX
  8
Unknown Area Type
  70
32
  10
-4.92104704637213
  20
42.67145495793181
  30
1092.478
  0
VERTEX
  8
Unknown Area Type
  70
32
  10
-4.92104136380664
  20
42.67146856104781
  30
1092.491
  0
VERTEX
  8
Unknown Area Type
  70
32
  10
-4.89336984379929
  20
42.70078203470892
  30
1104.541
  0
VERTEX
  8
Unknown Area Type
  70
32
  10
-4.89327509278413
  20
42.70087815561752
  30
1104.495
  0
VERTEX
  8
Unknown Area Type
  70
32
  10
-4.89320187512024
  20
42.70087936623075
  30
1104.015
  0
VERTEX
  8
Unknown Area Type
  70
32
  10
-4.89310397802524
  20
42.70087197967099
  30
1103.488
  0
VERTEX
  8
Unknown Area Type
  70
32
  10
-4.89309760301831
  20
42.70086307991008
  30
1103.385
  0
VERTEX
  8
Unknown Area Type
  70
32
  10
-4.88910597730416
  20
42.66987913066328
  30
1094.205
  0
VERTEX
  8
Unknown Area Type
  70
32
  10
-4.89737315701351
  20
42.6666666666667
  30
1080.75
  0
VERTEX
  8
Unknown Area Type
  70
32
  10
-4.90303432590521
  20
42.6666666666667
  30
1079.775
  0
VERTEX
  8
Unknown Area Type
  70
32
  10
-4.92157885298081
  20
42.6708922158506
  30
1092.406
  0
SEQEND
  8
Unknown Area Type
  0
TEXT
  8
Unknown Area Type
 62
7
  1
PNOA-H_AMS_1956-57_33k_ES_PAN_2
 40
0.00045
  10
-4.90534271049907
  20
42.67764398292823
  0
POLYLINE
  8
Unknown Area Type
  70
9
  66
1
  0
VERTEX
  8
Unknown Area Type
  70
32
  10
-4.90303432590521
  20
42.6666666666667
  30
1079.775
  0
VERTEX
  8
Unknown Area Type
  70
32
  10
-4.89737315701351
  20
42.6666666666667
  30
1080.75
  0
VERTEX
  8
Unknown Area Type
  70
32
  10
-4.89737358592517
  20
42.66666650000003
  30
1080.749
  0
VERTEX
  8
Unknown Area Type
  70
32
  10
-4.90303359446077
  20
42.66666650000003
  30
1079.774
  0
SEQEND
  8
Unknown Area Type
  0
TEXT
  8
Unknown Area Type
 62
7
  1
PNOA-H_AMS_1956-57_33k_ES_PAN_2
 40
0.00045
  10
-4.90020374145936
  20
42.66666658333337
  0
POLYLINE
  8
Unknown Area Type
  70
9
  66
1
  0
VERTEX
  8
Unknown Area Type
  70
32
  10
-4.92104704637213
  20
42.67145495793181
  30
1092.478
  0
VERTEX
  8
Unknown Area Type
  70
32
  10
-4.92104136380664
  20
42.67146856104781
  30
1092.491
  0
VERTEX
  8
Unknown Area Type
  70
32
  10
-4.89336984379929
  20
42.70078203470892
  30
1104.541
  0
VERTEX
  8
Unknown Area Type
  70
32
  10
-4.89327509278413
  20
42.70087815561752
  30
1104.495
  0
VERTEX
  8
Unknown Area Type
  70
32
  10
-4.89320187512024
  20
42.70087936623075
  30
1104.015
  0
VERTEX
  8
Unknown Area Type
  70
32
  10
-4.89310397802524
  20
42.70087197967099
  30
1103.488
  0
VERTEX
  8
Unknown Area Type
  70
32
  10
-4.89309760301831
  20
42.70086307991008
  30
1103.385
  0
VERTEX
  8
Unknown Area Type
  70
32
  10
-4.88910597730416
  20
42.66987913066328
  30
1094.205
  0
VERTEX
  8
Unknown Area Type
  70
32
  10
-4.89737315701351
  20
42.6666666666667
  30
1080.75
  0
VERTEX
  8
Unknown Area Type
  70
32
  10
-4.90303432590521
  20
42.6666666666667
  30
1079.775
  0
VERTEX
  8
Unknown Area Type
  70
32
  10
-4.92157885298081
  20
42.6708922158506
  30
1092.406
  0
SEQEND
  8
Unknown Area Type
  0
TEXT
  8
Unknown Area Type
 62
7
  1
PNOA-H_AMS_1956-57_33k_ES_PAN_2
 40
0.00045
  10
-4.90534271049907
  20
42.67764398292823
  0
POLYLINE
  8
Unknown Area Type
  70
9
  66
1
  0
VERTEX
  8
Unknown Area Type
  70
32
  10
-4.88259281384005
  20
42.67180544441014
  30
1097.718
  0
VERTEX
  8
Unknown Area Type
  70
32
  10
-4.8839750877674
  20
42.66949088618722
  30
1096.77
  0
VERTEX
  8
Unknown Area Type
  70
32
  10
-4.88910597730416
  20
42.66987913066328
  30
1094.205
  0
VERTEX
  8
Unknown Area Type
  70
32
  10
-4.89310397802524
  20
42.70087197967099
  30
1103.488
  0
VERTEX
  8
Unknown Area Type
  70
32
  10
-4.88359323690747
  20
42.70471193915164
  30
1115.879
  0
VERTEX
  8
Unknown Area Type
  70
32
  10
-4.86491241968724
  20
42.70125355894933
  30
1121.491
  0
VERTEX
  8
Unknown Area Type
  70
32
  10
-4.88258698691591
  20
42.67181454541105
  30
1097.725
  0
VERTEX
  8
Unknown Area Type
  70
32
  10
-4.88259281384005
  20
42.67180544441014
  30
1097.718
  0
SEQEND
  8
Unknown Area Type
  0
TEXT
  8
Unknown Area Type
 62
7
  1
PNOA-H_AMS_1956-57_33k_ES_PAN_2
 40
0.00045
  10
-4.87900822511209
  20
42.69081781666083
  0
POLYLINE
  8
Unknown Area Type
  70
9
  66
1
  0
VERTEX
  8
Unknown Area Type
  70
32
  10
-4.88259281384005
  20
42.67180544441014
  30
1097.718
  0
VERTEX
  8
Unknown Area Type
  70
32
  10
-4.8839750877674
  20
42.66949088618722
  30
1096.77
  0
VERTEX
  8
Unknown Area Type
  70
32
  10
-4.88910597730416
  20
42.66987913066328
  30
1094.205
  0
VERTEX
  8
Unknown Area Type
  70
32
  10
-4.89310397802524
  20
42.70087197967099
  30
1103.488
  0
VERTEX
  8
Unknown Area Type
  70
32
  10
-4.88359323690747
  20
42.70471193915164
  30
1115.879
  0
VERTEX
  8
Unknown Area Type
  70
32
  10
-4.86491241968724
  20
42.70125355894933
  30
1121.491
  0
VERTEX
  8
Unknown Area Type
  70
32
  10
-4.88258698691591
  20
42.67181454541105
  30
1097.725
  0
VERTEX
  8
Unknown Area Type
  70
32
  10
-4.88259281384005
  20
42.67180544441014
  30
1097.718
  0
SEQEND
  8
Unknown Area Type
  0
TEXT
  8
Unknown Area Type
 62
7
  1
PNOA-H_AMS_1956-57_33k_ES_PAN_2
 40
0.00045
  10
-4.87900822511209
  20
42.69081781666083
  0
POLYLINE
  8
Unknown Area Type
  70
9
  66
1
  0
VERTEX
  8
Unknown Area Type
  70
32
  10
-5.051004367884
  20
42.82348862771865
  30
1328.256
  0
VERTEX
  8
Unknown Area Type
  70
32
  10
-5.04198775277224
  20
42.82364984248452
  30
1256.433
  0
VERTEX
  8
Unknown Area Type
  70
32
  10
-5.03806652342788
  20
42.82195926776284
  30
1240.514
  0
VERTEX
  8
Unknown Area Type
  70
32
  10
-5.03762974916379
  20
42.78351588047142
  30
1160.197
  0
VERTEX
  8
Unknown Area Type
  70
32
  10
-5.04152166855773
  20
42.78215882414467
  30
1115.487
  0
VERTEX
  8
Unknown Area Type
  70
32
  10
-5.07012885893008
  20
42.78309935879884
  30
1126.256
  0
VERTEX
  8
Unknown Area Type
  70
32
  10
-5.06993581048857
  20
42.82314332284204
  30
1271.62
  0
VERTEX
  8
Unknown Area Type
  70
32
  10
-5.0608950506166
  20
42.82331096730653
  30
1346.106
  0
VERTEX
  8
Unknown Area Type
  70
32
  10
-5.051004367884
  20
42.82348862771865
  30
1328.256
  0
SEQEND
  8
Unknown Area Type
  0
TEXT
  8
Unknown Area Type
 62
7
  1
PNOA-H_AMS_1956-57_33k_ES_PAN_2
 40
0.00045
  10
-5.05387931145535
  20
42.80299980865296
  0
POLYLINE
  8
Unknown Area Type
  70
9
  66
1
  0
VERTEX
  8
Unknown Area Type
  70
32
  10
-5.051004367884
  20
42.82348862771865
  30
1328.256
  0
VERTEX
  8
Unknown Area Type
  70
32
  10
-5.04198775277224
  20
42.82364984248452
  30
1256.433
  0
VERTEX
  8
Unknown Area Type
  70
32
  10
-5.03806652342788
  20
42.82195926776284
  30
1240.514
  0
VERTEX
  8
Unknown Area Type
  70
32
  10
-5.03762974916379
  20
42.78351588047142
  30
1160.197
  0
VERTEX
  8
Unknown Area Type
  70
32
  10
-5.04152166855773
  20
42.78215882414467
  30
1115.487
  0
VERTEX
  8
Unknown Area Type
  70
32
  10
-5.07012885893008
  20
42.78309935879884
  30
1126.256
  0
VERTEX
  8
Unknown Area Type
  70
32
  10
-5.06993581048857
  20
42.82314332284204
  30
1271.62
  0
VERTEX
  8
Unknown Area Type
  70
32
  10
-5.0608950506166
  20
42.82331096730653
  30
1346.106
  0
VERTEX
  8
Unknown Area Type
  70
32
  10
-5.051004367884
  20
42.82348862771865
  30
1328.256
  0
SEQEND
  8
Unknown Area Type
  0
TEXT
  8
Unknown Area Type
 62
7
  1
PNOA-H_AMS_1956-57_33k_ES_PAN_2
 40
0.00045
  10
-5.05387931145535
  20
42.80299980865296
  0
POLYLINE
  8
Unknown Area Type
  70
9
  66
1
  0
VERTEX
  8
Unknown Area Type
  70
32
  10
-4.97200893982147
  20
42.70273253459978
  30
963.274
  0
VERTEX
  8
Unknown Area Type
  70
32
  10
-4.96439014157852
  20
42.70195398162052
  30
1057.55
  0
VERTEX
  8
Unknown Area Type
  70
32
  10
-4.96435339172945
  20
42.70195010954455
  30
1057.788
  0
VERTEX
  8
Unknown Area Type
  70
32
  10
-4.96434076333291
  20
42.70193681850498
  30
1058.246
  0
VERTEX
  8
Unknown Area Type
  70
32
  10
-4.98392860996969
  20
42.6717785704505
  30
978.643
  0
VERTEX
  8
Unknown Area Type
  70
32
  10
-4.98938651976661
  20
42.67263842478703
  30
942.916
  0
VERTEX
  8
Unknown Area Type
  70
32
  10
-4.99248992390062
  20
42.70177011225324
  30
1017.977
  0
VERTEX
  8
Unknown Area Type
  70
32
  10
-4.9876330238959
  20
42.70433093579377
  30
1045.53
  0
VERTEX
  8
Unknown Area Type
  70
32
  10
-4.97202724393102
  20
42.70273221934664
  30
963.075
  0
VERTEX
  8
Unknown Area Type
  70
32
  10
-4.97200893982147
  20
42.70273253459978
  30
963.274
  0
SEQEND
  8
Unknown Area Type
  0
TEXT
  8
Unknown Area Type
 62
7
  1
PNOA-H_AMS_1956-57_33k_ES_PAN_2
 40
0.00045
  10
-4.97841547684628
  20
42.69182507534114
  0
POLYLINE
  8
Unknown Area Type
  70
9
  66
1
  0
VERTEX
  8
Unknown Area Type
  70
32
  10
-4.97200893982147
  20
42.70273253459978
  30
963.274
  0
VERTEX
  8
Unknown Area Type
  70
32
  10
-4.96439014157852
  20
42.70195398162052
  30
1057.55
  0
VERTEX
  8
Unknown Area Type
  70
32
  10
-4.96435339172945
  20
42.70195010954455
  30
1057.788
  0
VERTEX
  8
Unknown Area Type
  70
32
  10
-4.96434076333291
  20
42.70193681850498
  30
1058.246
  0
VERTEX
  8
Unknown Area Type
  70
32
  10
-4.98392860996969
  20
42.6717785704505
  30
978.643
  0
VERTEX
  8
Unknown Area Type
  70
32
  10
-4.98938651976661
  20
42.67263842478703
  30
942.916
  0
VERTEX
  8
Unknown Area Type
  70
32
  10
-4.99248992390062
  20
42.70177011225324
  30
1017.977
  0
VERTEX
  8
Unknown Area Type
  70
32
  10
-4.9876330238959
  20
42.70433093579377
  30
1045.53
  0
VERTEX
  8
Unknown Area Type
  70
32
  10
-4.97202724393102
  20
42.70273221934664
  30
963.075
  0
VERTEX
  8
Unknown Area Type
  70
32
  10
-4.97200893982147
  20
42.70273253459978
  30
963.274
  0
SEQEND
  8
Unknown Area Type
  0
TEXT
  8
Unknown Area Type
 62
7
  1
PNOA-H_AMS_1956-57_33k_ES_PAN_2
 40
0.00045
  10
-4.97841547684628
  20
42.69182507534114
  0
POLYLINE
  8
Unknown Area Type
  70
9
  66
1
  0
VERTEX
  8
Unknown Area Type
  70
32
  10
-4.92133089960625
  20
42.67116202954163
  30
1092.441
  0
VERTEX
  8
Unknown Area Type
  70
32
  10
-4.92157289322189
  20
42.67089681845494
  30
1092.406
  0
VERTEX
  8
Unknown Area Type
  70
32
  10
-4.92160948384907
  20
42.67089620443199
  30
1092.446
  0
VERTEX
  8
Unknown Area Type
  70
32
  10
-4.92715829934857
  20
42.67156839593608
  30
1088.919
  0
VERTEX
  8
Unknown Area Type
  70
32
  10
-4.92622199263137
  20
42.70129669651658
  30
1105.637
  0
VERTEX
  8
Unknown Area Type
  70
32
  10
-4.91846066758208
  20
42.70478591965463
  30
1118.513
  0
VERTEX
  8
Unknown Area Type
  70
32
  10
-4.91840602892403
  20
42.70479584025964
  30
1118.549
  0
VERTEX
  8
Unknown Area Type
  70
32
  10
-4.91814226699547
  20
42.70475523345504
  30
1118.229
  0
VERTEX
  8
Unknown Area Type
  70
32
  10
-4.89326899131231
  20
42.70087825650374
  30
1104.442
  0
VERTEX
  8
Unknown Area Type
  70
32
  10
-4.92131884133825
  20
42.67116673445707
  30
1092.438
  0
VERTEX
  8
Unknown Area Type
  70
32
  10
-4.92133089960625
  20
42.67116202954163
  30
1092.441
  0
SEQEND
  8
Unknown Area Type
  0
TEXT
  8
Unknown Area Type
 62
7
  1
PNOA-H_AMS_1956-57_33k_ES_PAN_2
 40
0.00045
  10
-4.91610873190266
  20
42.68784514073644
  0
POLYLINE
  8
Unknown Area Type
  70
9
  66
1
  0
VERTEX
  8
Unknown Area Type
  70
32
  10
-4.92133089960625
  20
42.67116202954163
  30
1092.441
  0
VERTEX
  8
Unknown Area Type
  70
32
  10
-4.92157289322189
  20
42.67089681845494
  30
1092.406
  0
VERTEX
  8
Unknown Area Type
  70
32
  10
-4.92160948384907
  20
42.67089620443199
  30
1092.446
  0
VERTEX
  8
Unknown Area Type
  70
32
  10
-4.92715829934857
  20
42.67156839593608
  30
1088.919
  0
VERTEX
  8
Unknown Area Type
  70
32
  10
-4.92622199263137
  20
42.70129669651658
  30
1105.637
  0
VERTEX
  8
Unknown Area Type
  70
32
  10
-4.91846066758208
  20
42.70478591965463
  30
1118.513
  0
VERTEX
  8
Unknown Area Type
  70
32
  10
-4.91840602892403
  20
42.70479584025964
  30
1118.549
  0
VERTEX
  8
Unknown Area Type
  70
32
  10
-4.91814226699547
  20
42.70475523345504
  30
1118.229
  0
VERTEX
  8
Unknown Area Type
  70
32
  10
-4.89326899131231
  20
42.70087825650374
  30
1104.442
  0
VERTEX
  8
Unknown Area Type
  70
32
  10
-4.92131884133825
  20
42.67116673445707
  30
1092.438
  0
VERTEX
  8
Unknown Area Type
  70
32
  10
-4.92133089960625
  20
42.67116202954163
  30
1092.441
  0
SEQEND
  8
Unknown Area Type
  0
TEXT
  8
Unknown Area Type
 62
7
  1
PNOA-H_AMS_1956-57_33k_ES_PAN_2
 40
0.00045
  10
-4.91610873190266
  20
42.68784514073644
  0
POLYLINE
  8
Unknown Area Type
  70
9
  66
1
  0
VERTEX
  8
Unknown Area Type
  70
32
  10
-5.02246529234132
  20
42.70427026904251
  30
923.948
  0
VERTEX
  8
Unknown Area Type
  70
32
  10
-5.00304085196989
  20
42.7018381619118
  30
944.43
  0
VERTEX
  8
Unknown Area Type
  70
32
  10
-5.01400181359201
  20
42.67115452156775
  30
916.914
  0
VERTEX
  8
Unknown Area Type
  70
32
  10
-5.02802463606738
  20
42.67363557880903
  30
900.829
  0
VERTEX
  8
Unknown Area Type
  70
32
  10
-5.0289425156254
  20
42.70052211395753
  30
979.905
  0
VERTEX
  8
Unknown Area Type
  70
32
  10
-5.02247110141841
  20
42.70426116133113
  30
923.948
  0
VERTEX
  8
Unknown Area Type
  70
32
  10
-5.02246529234132
  20
42.70427026904251
  30
923.948
  0
SEQEND
  8
Unknown Area Type
  0
TEXT
  8
Unknown Area Type
 62
7
  1
PNOA-H_AMS_1956-57_33k_ES_PAN_2
 40
0.00045
  10
-5.01599182092443
  20
42.68748153403649
  0
POLYLINE
  8
Unknown Area Type
  70
9
  66
1
  0
VERTEX
  8
Unknown Area Type
  70
32
  10
-5.02246529234132
  20
42.70427026904251
  30
923.948
  0
VERTEX
  8
Unknown Area Type
  70
32
  10
-5.00304085196989
  20
42.7018381619118
  30
944.43
  0
VERTEX
  8
Unknown Area Type
  70
32
  10
-5.01400181359201
  20
42.67115452156775
  30
916.914
  0
VERTEX
  8
Unknown Area Type
  70
32
  10
-5.02802463606738
  20
42.67363557880903
  30
900.829
  0
VERTEX
  8
Unknown Area Type
  70
32
  10
-5.0289425156254
  20
42.70052211395753
  30
979.905
  0
VERTEX
  8
Unknown Area Type
  70
32
  10
-5.02247110141841
  20
42.70426116133113
  30
923.948
  0
VERTEX
  8
Unknown Area Type
  70
32
  10
-5.02246529234132
  20
42.70427026904251
  30
923.948
  0
SEQEND
  8
Unknown Area Type
  0
TEXT
  8
Unknown Area Type
 62
7
  1
PNOA-H_AMS_1956-57_33k_ES_PAN_2
 40
0.00045
  10
-5.01599182092443
  20
42.68748153403649
  0
POLYLINE
  8
Unknown Area Type
  70
9
  66
1
  0
VERTEX
  8
Unknown Area Type
  70
32
  10
-5.18749999999999
  20
42.79166666666667
  30
1149.753
  0
VERTEX
  8
Unknown Area Type
  70
32
  10
-5.18749999999999
  20
42.81249999999999
  30
1203.508
  0
VERTEX
  8
Unknown Area Type
  70
32
  10
-5.18749999999999
  20
42.82416398937821
  30
1226.232
  0
VERTEX
  8
Unknown Area Type
  70
32
  10
-5.17631286859212
  20
42.82380847888358
  30
1191.353
  0
VERTEX
  8
Unknown Area Type
  70
32
  10
-5.17628230623484
  20
42.82380906002268
  30
1192.406
  0
VERTEX
  8
Unknown Area Type
  70
32
  10
-5.16615431249586
  20
42.82348791499974
  30
1205.119
  0
VERTEX
  8
Unknown Area Type
  70
32
  10
-5.16466568919569
  20
42.78275090249408
  30
1045.574
  0
VERTEX
  8
Unknown Area Type
  70
32
  10
-5.16807144016513
  20
42.78155632696865
  30
1036.601
  0
VERTEX
  8
Unknown Area Type
  70
32
  10
-5.18749999999999
  20
42.78207971136902
  30
1097.846
  0
SEQEND
  8
Unknown Area Type
  0
TEXT
  8
Unknown Area Type
 62
7
  1
PNOA-H_AMS_1956-57_33k_ES_PAN_2
 40
0.00045
  10
-5.18123930592228
  20
42.8029363760588
  0
POLYLINE
  8
Unknown Area Type
  70
9
  66
1
  0
VERTEX
  8
Unknown Area Type
  70
32
  10
-5.18750033333333
  20
42.82416399997105
  30
1226.233
  0
VERTEX
  8
Unknown Area Type
  70
32
  10
-5.18749999999999
  20
42.82416398937821
  30
1226.232
  0
VERTEX
  8
Unknown Area Type
  70
32
  10
-5.18749999999999
  20
42.81249999999999
  30
1203.508
  0
VERTEX
  8
Unknown Area Type
  70
32
  10
-5.18749999999999
  20
42.79166666666667
  30
1149.753
  0
VERTEX
  8
Unknown Area Type
  70
32
  10
-5.18749999999999
  20
42.78207971136902
  30
1097.846
  0
VERTEX
  8
Unknown Area Type
  70
32
  10
-5.18750033333333
  20
42.78207972034866
  30
1097.847
  0
SEQEND
  8
Unknown Area Type
  0
TEXT
  8
Unknown Area Type
 62
7
  1
PNOA-H_AMS_1956-57_33k_ES_PAN_2
 40
0.00045
  10
-5.18750016666666
  20
42.80312185567004
  0
POLYLINE
  8
Unknown Area Type
  70
9
  66
1
  0
VERTEX
  8
Unknown Area Type
  70
32
  10
-5.18749999999999
  20
42.79166666666667
  30
1149.753
  0
VERTEX
  8
Unknown Area Type
  70
32
  10
-5.18749999999999
  20
42.81249999999999
  30
1203.508
  0
VERTEX
  8
Unknown Area Type
  70
32
  10
-5.18749999999999
  20
42.82416398937821
  30
1226.232
  0
VERTEX
  8
Unknown Area Type
  70
32
  10
-5.17631286859212
  20
42.82380847888358
  30
1191.353
  0
VERTEX
  8
Unknown Area Type
  70
32
  10
-5.17628230623484
  20
42.82380906002268
  30
1192.406
  0
VERTEX
  8
Unknown Area Type
  70
32
  10
-5.16615431249586
  20
42.82348791499974
  30
1205.119
  0
VERTEX
  8
Unknown Area Type
  70
32
  10
-5.16466568919569
  20
42.78275090249408
  30
1045.574
  0
VERTEX
  8
Unknown Area Type
  70
32
  10
-5.16807144016513
  20
42.78155632696865
  30
1036.601
  0
VERTEX
  8
Unknown Area Type
  70
32
  10
-5.18749999999999
  20
42.78207971136902
  30
1097.846
  0
SEQEND
  8
Unknown Area Type
  0
TEXT
  8
Unknown Area Type
 62
7
  1
PNOA-H_AMS_1956-57_33k_ES_PAN_2
 40
0.00045
  10
-5.18123930592228
  20
42.8029363760588
  0
POLYLINE
  8
Unknown Area Type
  70
9
  66
1
  0
VERTEX
  8
Unknown Area Type
  70
32
  10
-5.0590246234864
  20
42.70290273566636
  30
1055.382
  0
VERTEX
  8
Unknown Area Type
  70
32
  10
-5.0289425156254
  20
42.70052211395753
  30
979.905
  0
VERTEX
  8
Unknown Area Type
  70
32
  10
-5.02802463606738
  20
42.67363557880903
  30
900.829
  0
VERTEX
  8
Unknown Area Type
  70
32
  10
-5.03838349193487
  20
42.66946686859388
  30
924.597
  0
VERTEX
  8
Unknown Area Type
  70
32
  10
-5.06148498491218
  20
42.67320465691728
  30
997.862
  0
VERTEX
  8
Unknown Area Type
  70
32
  10
-5.06188417071814
  20
42.70113580636706
  30
1045.765
  0
VERTEX
  8
Unknown Area Type
  70
32
  10
-5.05903042702408
  20
42.70289362621329
  30
1055.36
  0
VERTEX
  8
Unknown Area Type
  70
32
  10
-5.0590246234864
  20
42.70290273566636
  30
1055.382
  0
SEQEND
  8
Unknown Area Type
  0
TEXT
  8
Unknown Area Type
 62
7
  1
PNOA-H_AMS_1956-57_33k_ES_PAN_2
 40
0.00045
  10
-5.04506195884914
  20
42.6861832752925
  0
POLYLINE
  8
Unknown Area Type
  70
9
  66
1
  0
VERTEX
  8
Unknown Area Type
  70
32
  10
-5.0590246234864
  20
42.70290273566636
  30
1055.382
  0
VERTEX
  8
Unknown Area Type
  70
32
  10
-5.0289425156254
  20
42.70052211395753
  30
979.905
  0
VERTEX
  8
Unknown Area Type
  70
32
  10
-5.02802463606738
  20
42.67363557880903
  30
900.829
  0
VERTEX
  8
Unknown Area Type
  70
32
  10
-5.03838349193487
  20
42.66946686859388
  30
924.597
  0
VERTEX
  8
Unknown Area Type
  70
32
  10
-5.06148498491218
  20
42.67320465691728
  30
997.862
  0
VERTEX
  8
Unknown Area Type
  70
32
  10
-5.06188417071814
  20
42.70113580636706
  30
1045.765
  0
VERTEX
  8
Unknown Area Type
  70
32
  10
-5.05903042702408
  20
42.70289362621329
  30
1055.36
  0
VERTEX
  8
Unknown Area Type
  70
32
  10
-5.0590246234864
  20
42.70290273566636
  30
1055.382
  0
SEQEND
  8
Unknown Area Type
  0
TEXT
  8
Unknown Area Type
 62
7
  1
PNOA-H_AMS_1956-57_33k_ES_PAN_2
 40
0.00045
  10
-5.04506195884914
  20
42.6861832752925
  0
POLYLINE
  8
Unknown Area Type
  70
9
  66
1
  0
VERTEX
  8
Unknown Area Type
  70
32
  10
-4.94703813476482
  20
42.70382175926207
  30
1039.62
  0
VERTEX
  8
Unknown Area Type
  70
32
  10
-4.92622199263137
  20
42.70129669651658
  30
1105.637
  0
VERTEX
  8
Unknown Area Type
  70
32
  10
-4.92715829934857
  20
42.67156839593608
  30
1088.919
  0
VERTEX
  8
Unknown Area Type
  70
32
  10
-4.93410915115322
  20
42.66884870631688
  30
1086.817
  0
VERTEX
  8
Unknown Area Type
  70
32
  10
-4.95548500791313
  20
42.67185360358287
  30
1077.486
  0
VERTEX
  8
Unknown Area Type
  70
32
  10
-4.95834159361209
  20
42.70199005439635
  30
1067.64
  0
VERTEX
  8
Unknown Area Type
  70
32
  10
-4.95332556476151
  20
42.70458366512198
  30
1060.403
  0
VERTEX
  8
Unknown Area Type
  70
32
  10
-4.94705033790019
  20
42.70382155174966
  30
1039.793
  0
VERTEX
  8
Unknown Area Type
  70
32
  10
-4.94703813476482
  20
42.70382175926207
  30
1039.62
  0
SEQEND
  8
Unknown Area Type
  0
TEXT
  8
Unknown Area Type
 62
7
  1
PNOA-H_AMS_1956-57_33k_ES_PAN_2
 40
0.00045
  10
-4.94228193048358
  20
42.68661948066848
  0
POLYLINE
  8
Unknown Area Type
  70
9
  66
1
  0
VERTEX
  8
Unknown Area Type
  70
32
  10
-4.94703813476482
  20
42.70382175926207
  30
1039.62
  0
VERTEX
  8
Unknown Area Type
  70
32
  10
-4.92622199263137
  20
42.70129669651658
  30
1105.637
  0
VERTEX
  8
Unknown Area Type
  70
32
  10
-4.92715829934857
  20
42.67156839593608
  30
1088.919
  0
VERTEX
  8
Unknown Area Type
  70
32
  10
-4.93410915115322
  20
42.66884870631688
  30
1086.817
  0
VERTEX
  8
Unknown Area Type
  70
32
  10
-4.95548500791313
  20
42.67185360358287
  30
1077.486
  0
VERTEX
  8
Unknown Area Type
  70
32
  10
-4.95834159361209
  20
42.70199005439635
  30
1067.64
  0
VERTEX
  8
Unknown Area Type
  70
32
  10
-4.95332556476151
  20
42.70458366512198
  30
1060.403
  0
VERTEX
  8
Unknown Area Type
  70
32
  10
-4.94705033790019
  20
42.70382155174966
  30
1039.793
  0
VERTEX
  8
Unknown Area Type
  70
32
  10
-4.94703813476482
  20
42.70382175926207
  30
1039.62
  0
SEQEND
  8
Unknown Area Type
  0
TEXT
  8
Unknown Area Type
 62
7
  1
PNOA-H_AMS_1956-57_33k_ES_PAN_2
 40
0.00045
  10
-4.94228193048358
  20
42.68661948066848
  0
POLYLINE
  8
Unknown Area Type
  70
9
  66
1
  0
VERTEX
  8
Unknown Area Type
  70
32
  10
-5.09471930433496
  20
42.70128720259444
  30
1074.572
  0
VERTEX
  8
Unknown Area Type
  70
32
  10
-5.06188417071814
  20
42.70113580636706
  30
1045.765
  0
VERTEX
  8
Unknown Area Type
  70
32
  10
-5.06147903555078
  20
42.67320926658952
  30
997.807
  0
VERTEX
  8
Unknown Area Type
  70
32
  10
-5.07085083539382
  20
42.66951915353697
  30
990.276
  0
VERTEX
  8
Unknown Area Type
  70
32
  10
-5.09427576651219
  20
42.6735641446872
  30
1038.48
  0
VERTEX
  8
Unknown Area Type
  70
32
  10
-5.09507763096219
  20
42.70105101695663
  30
1071.251
  0
VERTEX
  8
Unknown Area Type
  70
32
  10
-5.09472510243798
  20
42.70127809144469
  30
1074.521
  0
VERTEX
  8
Unknown Area Type
  70
32
  10
-5.09471930433496
  20
42.70128720259444
  30
1074.572
  0
SEQEND
  8
Unknown Area Type
  0
TEXT
  8
Unknown Area Type
 62
7
  1
PNOA-H_AMS_1956-57_33k_ES_PAN_2
 40
0.00045
  10
-5.07813881564732
  20
42.6854019456474
  0
POLYLINE
  8
Unknown Area Type
  70
9
  66
1
  0
VERTEX
  8
Unknown Area Type
  70
32
  10
-5.09471930433496
  20
42.70128720259444
  30
1074.572
  0
VERTEX
  8
Unknown Area Type
  70
32
  10
-5.06188417071814
  20
42.70113580636706
  30
1045.765
  0
VERTEX
  8
Unknown Area Type
  70
32
  10
-5.06147903555078
  20
42.67320926658952
  30
997.807
  0
VERTEX
  8
Unknown Area Type
  70
32
  10
-5.07085083539382
  20
42.66951915353697
  30
990.276
  0
VERTEX
  8
Unknown Area Type
  70
32
  10
-5.09427576651219
  20
42.6735641446872
  30
1038.48
  0
VERTEX
  8
Unknown Area Type
  70
32
  10
-5.09507763096219
  20
42.70105101695663
  30
1071.251
  0
VERTEX
  8
Unknown Area Type
  70
32
  10
-5.09472510243798
  20
42.70127809144469
  30
1074.521
  0
VERTEX
  8
Unknown Area Type
  70
32
  10
-5.09471930433496
  20
42.70128720259444
  30
1074.572
  0
SEQEND
  8
Unknown Area Type
  0
TEXT
  8
Unknown Area Type
 62
7
  1
PNOA-H_AMS_1956-57_33k_ES_PAN_2
 40
0.00045
  10
-5.07813881564732
  20
42.6854019456474
  0
POLYLINE
  8
Unknown Area Type
  70
9
  66
1
  0
VERTEX
  8
Unknown Area Type
  70
32
  10
-5.11250277714019
  20
42.82302745065936
  30
1247.3
  0
VERTEX
  8
Unknown Area Type
  70
32
  10
-5.11249039857653
  20
42.82302317668112
  30
1247.452
  0
VERTEX
  8
Unknown Area Type
  70
32
  10
-5.11244011803779
  20
42.82298358265871
  30
1253.238
  0
VERTEX
  8
Unknown Area Type
  70
32
  10
-5.11244469808021
  20
42.82293847364981
  30
1263.782
  0
VERTEX
  8
Unknown Area Type
  70
32
  10
-5.11266519457609
  20
42.8227678132948
  30
1293.144
  0
VERTEX
  8
Unknown Area Type
  70
32
  10
-5.11274450539901
  20
42.8227618468742
  30
1293.639
  0
VERTEX
  8
Unknown Area Type
  70
32
  10
-5.11279798615435
  20
42.82271583518067
  30
1292.358
  0
VERTEX
  8
Unknown Area Type
  70
32
  10
-5.11286522494979
  20
42.82271459396718
  30
1286.412
  0
VERTEX
  8
Unknown Area Type
  70
32
  10
-5.11291870557393
  20
42.82266858221968
  30
1286.349
  0
VERTEX
  8
Unknown Area Type
  70
32
  10
-5.11304707043559
  20
42.82266621246282
  30
1275.795
  0
VERTEX
  8
Unknown Area Type
  70
32
  10
-5.1131005508811
  20
42.82262020063376
  30
1276.978
  0
VERTEX
  8
Unknown Area Type
  70
32
  10
-5.11339395599314
  20
42.82261478337432
  30
1256.878
  0
VERTEX
  8
Unknown Area Type
  70
32
  10
-5.1134505027568
  20
42.82265876371944
  30
1247.496
  0
VERTEX
  8
Unknown Area Type
  70
32
  10
-5.11353012001814
  20
42.82266179599151
  30
1239.37
  0
VERTEX
  8
Unknown Area Type
  70
32
  10
-5.11358040096477
  20
42.82270138952765
  30
1224.138
  0
VERTEX
  8
Unknown Area Type
  70
32
  10
-5.11358316111286
  20
42.82278238261605
  30
1209.38
  0
VERTEX
  8
Unknown Area Type
  70
32
  10
-5.11352356827317
  20
42.8228285075397
  30
1207.479
  0
VERTEX
  8
Unknown Area Type
  70
32
  10
-5.11333407684408
  20
42.82283200650077
  30
1217.179
  0
VERTEX
  8
Unknown Area Type
  70
32
  10
-5.11328059639976
  20
42.82287801843759
  30
1219.202
  0
VERTEX
  8
Unknown Area Type
  70
32
  10
-5.11302997845672
  20
42.82288264550143
  30
1232.423
  0
VERTEX
  8
Unknown Area Type
  70
32
  10
-5.11298856971574
  20
42.82292393199173
  30
1234.354
  0
VERTEX
  8
Unknown Area Type
  70
32
  10
-5.11290925871631
  20
42.82292989858531
  30
1237.914
  0
VERTEX
  8
Unknown Area Type
  70
32
  10
-5.11285577786729
  20
42.82297591033144
  30
1238.914
  0
VERTEX
  8
Unknown Area Type
  70
32
  10
-5.11278853878827
  20
42.82297715154544
  30
1241.694
  0
VERTEX
  8
Unknown Area Type
  70
32
  10
-5.11273505780805
  20
42.8230231632376
  30
1241.822
  0
VERTEX
  8
Unknown Area Type
  70
32
  10
-5.11250277714019
  20
42.82302745065936
  30
1247.3
  0
SEQEND
  8
Unknown Area Type
  0
TEXT
  8
Unknown Area Type
 62
7
  1
PNOA-H_AMS_1956-57_33k_ES_PAN_2
 40
0.00045
  10
-5.11306491444669
  20
42.82281911783241
  0
POLYLINE
  8
Unknown Area Type
  70
9
  66
1
  0
VERTEX
  8
Unknown Area Type
  70
32
  10
-5.11250277714019
  20
42.82302745065936
  30
1247.3
  0
VERTEX
  8
Unknown Area Type
  70
32
  10
-5.11249039857653
  20
42.82302317668112
  30
1247.452
  0
VERTEX
  8
Unknown Area Type
  70
32
  10
-5.11244011803779
  20
42.82298358265871
  30
1253.238
  0
VERTEX
  8
Unknown Area Type
  70
32
  10
-5.11244469808021
  20
42.82293847364981
  30
1263.782
  0
VERTEX
  8
Unknown Area Type
  70
32
  10
-5.11266519457609
  20
42.8227678132948
  30
1293.144
  0
VERTEX
  8
Unknown Area Type
  70
32
  10
-5.11274450539901
  20
42.8227618468742
  30
1293.639
  0
VERTEX
  8
Unknown Area Type
  70
32
  10
-5.11279798615435
  20
42.82271583518067
  30
1292.358
  0
VERTEX
  8
Unknown Area Type
  70
32
  10
-5.11286522494979
  20
42.82271459396718
  30
1286.412
  0
VERTEX
  8
Unknown Area Type
  70
32
  10
-5.11291870557393
  20
42.82266858221968
  30
1286.349
  0
VERTEX
  8
Unknown Area Type
  70
32
  10
-5.11304707043559
  20
42.82266621246282
  30
1275.795
  0
VERTEX
  8
Unknown Area Type
  70
32
  10
-5.1131005508811
  20
42.82262020063376
  30
1276.978
  0
VERTEX
  8
Unknown Area Type
  70
32
  10
-5.11339395599314
  20
42.82261478337432
  30
1256.878
  0
VERTEX
  8
Unknown Area Type
  70
32
  10
-5.1134505027568
  20
42.82265876371944
  30
1247.496
  0
VERTEX
  8
Unknown Area Type
  70
32
  10
-5.11353012001814
  20
42.82266179599151
  30
1239.37
  0
VERTEX
  8
Unknown Area Type
  70
32
  10
-5.11358040096477
  20
42.82270138952765
  30
1224.138
  0
VERTEX
  8
Unknown Area Type
  70
32
  10
-5.11358316111286
  20
42.82278238261605
  30
1209.38
  0
VERTEX
  8
Unknown Area Type
  70
32
  10
-5.11352356827317
  20
42.8228285075397
  30
1207.479
  0
VERTEX
  8
Unknown Area Type
  70
32
  10
-5.11333407684408
  20
42.82283200650077
  30
1217.179
  0
VERTEX
  8
Unknown Area Type
  70
32
  10
-5.11328059639976
  20
42.82287801843759
  30
1219.202
  0
VERTEX
  8
Unknown Area Type
  70
32
  10
-5.11302997845672
  20
42.82288264550143
  30
1232.423
  0
VERTEX
  8
Unknown Area Type
  70
32
  10
-5.11298856971574
  20
42.82292393199173
  30
1234.354
  0
VERTEX
  8
Unknown Area Type
  70
32
  10
-5.11290925871631
  20
42.82292989858531
  30
1237.914
  0
VERTEX
  8
Unknown Area Type
  70
32
  10
-5.11285577786729
  20
42.82297591033144
  30
1238.914
  0
VERTEX
  8
Unknown Area Type
  70
32
  10
-5.11278853878827
  20
42.82297715154544
  30
1241.694
  0
VERTEX
  8
Unknown Area Type
  70
32
  10
-5.11273505780805
  20
42.8230231632376
  30
1241.822
  0
VERTEX
  8
Unknown Area Type
  70
32
  10
-5.11250277714019
  20
42.82302745065936
  30
1247.3
  0
SEQEND
  8
Unknown Area Type
  0
TEXT
  8
Unknown Area Type
 62
7
  1
PNOA-H_AMS_1956-57_33k_ES_PAN_2
 40
0.00045
  10
-5.11306491444669
  20
42.82281911783241
  0
POLYLINE
  8
Unknown Area Type
  70
9
  66
1
  0
VERTEX
  8
Unknown Area Type
  70
32
  10
-5.11384449201136
  20
42.82291262991431
  30
1188.042
  0
VERTEX
  8
Unknown Area Type
  70
32
  10
-5.11383211338423
  20
42.82290835608264
  30
1188.859
  0
VERTEX
  8
Unknown Area Type
  70
32
  10
-5.11366293188367
  20
42.82278991440796
  30
1205.205
  0
VERTEX
  8
Unknown Area Type
  70
32
  10
-5.11366109171378
  20
42.82273591901868
  30
1213.931
  0
VERTEX
  8
Unknown Area Type
  70
32
  10
-5.11371487845218
  20
42.82269890614303
  30
1222.883
  0
VERTEX
  8
Unknown Area Type
  70
32
  10
-5.11382490547465
  20
42.82269687416551
  30
1221.088
  0
VERTEX
  8
Unknown Area Type
  70
32
  10
-5.11388145261271
  20
42.82274085428886
  30
1214.46
  0
VERTEX
  8
Unknown Area Type
  70
32
  10
-5.11396106998876
  20
42.8227438862583
  30
1209.856
  0
VERTEX
  8
Unknown Area Type
  70
32
  10
-5.11401135127171
  20
42.82278347959718
  30
1202.039
  0
VERTEX
  8
Unknown Area Type
  70
32
  10
-5.11400830610875
  20
42.82287358479213
  30
1181.589
  0
VERTEX
  8
Unknown Area Type
  70
32
  10
-5.11395451940361
  20
42.82291059780413
  30
1182.439
  0
VERTEX
  8
Unknown Area Type
  70
32
  10
-5.11384449201136
  20
42.82291262991431
  30
1188.042
  0
SEQEND
  8
Unknown Area Type
  0
TEXT
  8
Unknown Area Type
 62
7
  1
PNOA-H_AMS_1956-57_33k_ES_PAN_2
 40
0.00045
  10
-5.11384757090848
  20
42.82280270102196
  0
POLYLINE
  8
Unknown Area Type
  70
9
  66
1
  0
VERTEX
  8
Unknown Area Type
  70
32
  10
-5.11384449201136
  20
42.82291262991431
  30
1188.042
  0
VERTEX
  8
Unknown Area Type
  70
32
  10
-5.11383211338423
  20
42.82290835608264
  30
1188.859
  0
VERTEX
  8
Unknown Area Type
  70
32
  10
-5.11366293188367
  20
42.82278991440796
  30
1205.205
  0
VERTEX
  8
Unknown Area Type
  70
32
  10
-5.11366109171378
  20
42.82273591901868
  30
1213.931
  0
VERTEX
  8
Unknown Area Type
  70
32
  10
-5.11371487845218
  20
42.82269890614303
  30
1222.883
  0
VERTEX
  8
Unknown Area Type
  70
32
  10
-5.11382490547465
  20
42.82269687416551
  30
1221.088
  0
VERTEX
  8
Unknown Area Type
  70
32
  10
-5.11388145261271
  20
42.82274085428886
  30
1214.46
  0
VERTEX
  8
Unknown Area Type
  70
32
  10
-5.11396106998876
  20
42.8227438862583
  30
1209.856
  0
VERTEX
  8
Unknown Area Type
  70
32
  10
-5.11401135127171
  20
42.82278347959718
  30
1202.039
  0
VERTEX
  8
Unknown Area Type
  70
32
  10
-5.11400830610875
  20
42.82287358479213
  30
1181.589
  0
VERTEX
  8
Unknown Area Type
  70
32
  10
-5.11395451940361
  20
42.82291059780413
  30
1182.439
  0
VERTEX
  8
Unknown Area Type
  70
32
  10
-5.11384449201136
  20
42.82291262991431
  30
1188.042
  0
SEQEND
  8
Unknown Area Type
  0
TEXT
  8
Unknown Area Type
 62
7
  1
PNOA-H_AMS_1956-57_33k_ES_PAN_2
 40
0.00045
  10
-5.11384757090848
  20
42.82280270102196
  0
POLYLINE
  8
Unknown Area Type
  70
9
  66
1
  0
VERTEX
  8
Unknown Area Type
  70
32
  10
-5.11645449506581
  20
42.82232410324561
  30
1130.531
  0
VERTEX
  8
Unknown Area Type
  70
32
  10
-5.11644211638912
  20
42.82231982969723
  30
1131.192
  0
VERTEX
  8
Unknown Area Type
  70
32
  10
-5.11639183398428
  20
42.8222802374489
  30
1138.141
  0
VERTEX
  8
Unknown Area Type
  70
32
  10
-5.11639487568609
  20
42.82219013225716
  30
1159.853
  0
VERTEX
  8
Unknown Area Type
  70
32
  10
-5.11644866028091
  20
42.82215311813857
  30
1165.668
  0
VERTEX
  8
Unknown Area Type
  70
32
  10
-5.11657106479138
  20
42.82215535709138
  30
1157.389
  0
VERTEX
  8
Unknown Area Type
  70
32
  10
-5.11662134720309
  20
42.82219494926148
  30
1141.792
  0
VERTEX
  8
Unknown Area Type
  70
32
  10
-5.11661830583067
  20
42.82228505445207
  30
1125.922
  0
VERTEX
  8
Unknown Area Type
  70
32
  10
-5.11656452122899
  20
42.82232206864989
  30
1126.044
  0
VERTEX
  8
Unknown Area Type
  70
32
  10
-5.11645449506581
  20
42.82232410324561
  30
1130.531
  0
SEQEND
  8
Unknown Area Type
  0
TEXT
  8
Unknown Area Type
 62
7
  1
PNOA-H_AMS_1956-57_33k_ES_PAN_2
 40
0.00045
  10
-5.11650675143703
  20
42.82223644774746
  0
POLYLINE
  8
Unknown Area Type
  70
9
  66
1
  0
VERTEX
  8
Unknown Area Type
  70
32
  10
-5.11645449506581
  20
42.82232410324561
  30
1130.531
  0
VERTEX
  8
Unknown Area Type
  70
32
  10
-5.11644211638912
  20
42.82231982969723
  30
1131.192
  0
VERTEX
  8
Unknown Area Type
  70
32
  10
-5.11639183398428
  20
42.8222802374489
  30
1138.141
  0
VERTEX
  8
Unknown Area Type
  70
32
  10
-5.11639487568609
  20
42.82219013225716
  30
1159.853
  0
VERTEX
  8
Unknown Area Type
  70
32
  10
-5.11644866028091
  20
42.82215311813857
  30
1165.668
  0
VERTEX
  8
Unknown Area Type
  70
32
  10
-5.11657106479138
  20
42.82215535709138
  30
1157.389
  0
VERTEX
  8
Unknown Area Type
  70
32
  10
-5.11662134720309
  20
42.82219494926148
  30
1141.792
  0
VERTEX
  8
Unknown Area Type
  70
32
  10
-5.11661830583067
  20
42.82228505445207
  30
1125.922
  0
VERTEX
  8
Unknown Area Type
  70
32
  10
-5.11656452122899
  20
42.82232206864989
  30
1126.044
  0
VERTEX
  8
Unknown Area Type
  70
32
  10
-5.11645449506581
  20
42.82232410324561
  30
1130.531
  0
SEQEND
  8
Unknown Area Type
  0
TEXT
  8
Unknown Area Type
 62
7
  1
PNOA-H_AMS_1956-57_33k_ES_PAN_2
 40
0.00045
  10
-5.11650675143703
  20
42.82223644774746
  0
POLYLINE
  8
Unknown Area Type
  70
9
  66
1
  0
VERTEX
  8
Unknown Area Type
  70
32
  10
-5.11412865026123
  20
42.82227703886999
  30
1216.013
  0
VERTEX
  8
Unknown Area Type
  70
32
  10
-5.11411627174436
  20
42.82227276506633
  30
1216.677
  0
VERTEX
  8
Unknown Area Type
  70
32
  10
-5.11407210338877
  20
42.82223305886015
  30
1221.22
  0
VERTEX
  8
Unknown Area Type
  70
32
  10
-5.1138826138452
  20
42.82223655869008
  30
1229.332
  0
VERTEX
  8
Unknown Area Type
  70
32
  10
-5.11382606718049
  20
42.82219257855378
  30
1234.774
  0
VERTEX
  8
Unknown Area Type
  70
32
  10
-5.11374645051629
  20
42.82218954647473
  30
1238.316
  0
VERTEX
  8
Unknown Area Type
  70
32
  10
-5.11357727119027
  20
42.82207110461368
  30
1253.309
  0
VERTEX
  8
Unknown Area Type
  70
32
  10
-5.11356962526868
  20
42.82202622132354
  30
1257.547
  0
VERTEX
  8
Unknown Area Type
  70
32
  10
-5.11368880929439
  20
42.82193397142145
  30
1282.263
  0
VERTEX
  8
Unknown Area Type
  70
32
  10
-5.11417796555601
  20
42.82192943945675
  30
1286.073
  0
VERTEX
  8
Unknown Area Type
  70
32
  10
-5.11440980503503
  20
42.82209174737034
  30
1233.615
  0
VERTEX
  8
Unknown Area Type
  70
32
  10
-5.11442051955792
  20
42.82222662287123
  30
1205.828
  0
VERTEX
  8
Unknown Area Type
  70
32
  10
-5.11436092787621
  20
42.8222727482102
  30
1205.505
  0
VERTEX
  8
Unknown Area Type
  70
32
  10
-5.11412865026123
  20
42.82227703886999
  30
1216.013
  0
SEQEND
  8
Unknown Area Type
  0
TEXT
  8
Unknown Area Type
 62
7
  1
PNOA-H_AMS_1956-57_33k_ES_PAN_2
 40
0.00045
  10
-5.11401713403898
  20
42.82210116899255
  0
POLYLINE
  8
Unknown Area Type
  70
9
  66
1
  0
VERTEX
  8
Unknown Area Type
  70
32
  10
-5.11412865026123
  20
42.82227703886999
  30
1216.013
  0
VERTEX
  8
Unknown Area Type
  70
32
  10
-5.11411627174436
  20
42.82227276506633
  30
1216.677
  0
VERTEX
  8
Unknown Area Type
  70
32
  10
-5.11407210338877
  20
42.82223305886015
  30
1221.22
  0
VERTEX
  8
Unknown Area Type
  70
32
  10
-5.1138826138452
  20
42.82223655869008
  30
1229.332
  0
VERTEX
  8
Unknown Area Type
  70
32
  10
-5.11382606718049
  20
42.82219257855378
  30
1234.774
  0
VERTEX
  8
Unknown Area Type
  70
32
  10
-5.11374645051629
  20
42.82218954647473
  30
1238.316
  0
VERTEX
  8
Unknown Area Type
  70
32
  10
-5.11357727119027
  20
42.82207110461368
  30
1253.309
  0
VERTEX
  8
Unknown Area Type
  70
32
  10
-5.11356962526868
  20
42.82202622132354
  30
1257.547
  0
VERTEX
  8
Unknown Area Type
  70
32
  10
-5.11368880929439
  20
42.82193397142145
  30
1282.263
  0
VERTEX
  8
Unknown Area Type
  70
32
  10
-5.11417796555601
  20
42.82192943945675
  30
1286.073
  0
VERTEX
  8
Unknown Area Type
  70
32
  10
-5.11440980503503
  20
42.82209174737034
  30
1233.615
  0
VERTEX
  8
Unknown Area Type
  70
32
  10
-5.11442051955792
  20
42.82222662287123
  30
1205.828
  0
VERTEX
  8
Unknown Area Type
  70
32
  10
-5.11436092787621
  20
42.8222727482102
  30
1205.505
  0
VERTEX
  8
Unknown Area Type
  70
32
  10
-5.11412865026123
  20
42.82227703886999
  30
1216.013
  0
SEQEND
  8
Unknown Area Type
  0
TEXT
  8
Unknown Area Type
 62
7
  1
PNOA-H_AMS_1956-57_33k_ES_PAN_2
 40
0.00045
  10
-5.11401713403898
  20
42.82210116899255
  0
POLYLINE
  8
Unknown Area Type
  70
9
  66
1
  0
VERTEX
  8
Unknown Area Type
  70
32
  10
-5.12618875660378
  20
42.8241968031187
  30
1031.471
  0
VERTEX
  8
Unknown Area Type
  70
32
  10
-5.10305221677299
  20
42.82427307136878
  30
1157.986
  0
VERTEX
  8
Unknown Area Type
  70
32
  10
-5.10297855789223
  20
42.82426541987999
  30
1158.657
  0
VERTEX
  8
Unknown Area Type
  70
32
  10
-5.10142458753968
  20
42.82353304751064
  30
1163.079
  0
VERTEX
  8
Unknown Area Type
  70
32
  10
-5.10170072022575
  20
42.7832939631388
  30
1054.512
  0
VERTEX
  8
Unknown Area Type
  70
32
  10
-5.10486771020466
  20
42.78223171913869
  30
1058.613
  0
VERTEX
  8
Unknown Area Type
  70
32
  10
-5.13347750353482
  20
42.78304379376062
  30
925.077
  0
VERTEX
  8
Unknown Area Type
  70
32
  10
-5.13392748899551
  20
42.82352149327428
  30
1151.004
  0
VERTEX
  8
Unknown Area Type
  70
32
  10
-5.13244529032964
  20
42.82417495776514
  30
1148.955
  0
VERTEX
  8
Unknown Area Type
  70
32
  10
-5.12626822184232
  20
42.82419532689235
  30
1034.525
  0
VERTEX
  8
Unknown Area Type
  70
32
  10
-5.12618875660378
  20
42.8241968031187
  30
1031.471
  0
SEQEND
  8
Unknown Area Type
  0
TEXT
  8
Unknown Area Type
 62
7
  1
PNOA-H_AMS_1956-57_33k_ES_PAN_2
 40
0.00045
  10
-5.11767633108337
  20
42.80340859852723
  0
POLYLINE
  8
Unknown Area Type
  70
9
  66
1
  0
VERTEX
  8
Unknown Area Type
  70
32
  10
-5.12618875660378
  20
42.8241968031187
  30
1031.471
  0
VERTEX
  8
Unknown Area Type
  70
32
  10
-5.10305221677299
  20
42.82427307136878
  30
1157.986
  0
VERTEX
  8
Unknown Area Type
  70
32
  10
-5.10297855789223
  20
42.82426541987999
  30
1158.657
  0
VERTEX
  8
Unknown Area Type
  70
32
  10
-5.10142458753968
  20
42.82353304751064
  30
1163.079
  0
VERTEX
  8
Unknown Area Type
  70
32
  10
-5.10170072022575
  20
42.7832939631388
  30
1054.512
  0
VERTEX
  8
Unknown Area Type
  70
32
  10
-5.10486771020466
  20
42.78223171913869
  30
1058.613
  0
VERTEX
  8
Unknown Area Type
  70
32
  10
-5.13347750353482
  20
42.78304379376062
  30
925.077
  0
VERTEX
  8
Unknown Area Type
  70
32
  10
-5.13392748899551
  20
42.82352149327428
  30
1151.004
  0
VERTEX
  8
Unknown Area Type
  70
32
  10
-5.13244529032964
  20
42.82417495776514
  30
1148.955
  0
VERTEX
  8
Unknown Area Type
  70
32
  10
-5.12626822184232
  20
42.82419532689235
  30
1034.525
  0
VERTEX
  8
Unknown Area Type
  70
32
  10
-5.12618875660378
  20
42.8241968031187
  30
1031.471
  0
SEQEND
  8
Unknown Area Type
  0
TEXT
  8
Unknown Area Type
 62
7
  1
PNOA-H_AMS_1956-57_33k_ES_PAN_2
 40
0.00045
  10
-5.11767633108337
  20
42.80340859852723
  0
POLYLINE
  8
Unknown Area Type
  70
9
  66
1
  0
VERTEX
  8
Unknown Area Type
  70
32
  10
-5.09697586807129
  20
42.70104328114152
  30
1054.406
  0
VERTEX
  8
Unknown Area Type
  70
32
  10
-5.09507763096219
  20
42.70105101695663
  30
1071.251
  0
VERTEX
  8
Unknown Area Type
  70
32
  10
-5.09427576651219
  20
42.6735641446872
  30
1038.48
  0
VERTEX
  8
Unknown Area Type
  70
32
  10
-5.10347807578909
  20
42.66960881404506
  30
998.065
  0
VERTEX
  8
Unknown Area Type
  70
32
  10
-5.12780389649626
  20
42.67370692164516
  30
1048.948
  0
VERTEX
  8
Unknown Area Type
  70
32
  10
-5.12837186466339
  20
42.70088268109851
  30
1027.412
  0
VERTEX
  8
Unknown Area Type
  70
32
  10
-5.09727480384216
  20
42.70103780565395
  30
1050.461
  0
VERTEX
  8
Unknown Area Type
  70
32
  10
-5.09697586807129
  20
42.70104328114152
  30
1054.406
  0
SEQEND
  8
Unknown Area Type
  0
TEXT
  8
Unknown Area Type
 62
7
  1
PNOA-H_AMS_1956-57_33k_ES_PAN_2
 40
0.00045
  10
-5.1113332157026
  20
42.68532892680194
  0
POLYLINE
  8
Unknown Area Type
  70
9
  66
1
  0
VERTEX
  8
Unknown Area Type
  70
32
  10
-5.09697586807129
  20
42.70104328114152
  30
1054.406
  0
VERTEX
  8
Unknown Area Type
  70
32
  10
-5.09507763096219
  20
42.70105101695663
  30
1071.251
  0
VERTEX
  8
Unknown Area Type
  70
32
  10
-5.09427576651219
  20
42.6735641446872
  30
1038.48
  0
VERTEX
  8
Unknown Area Type
  70
32
  10
-5.10347807578909
  20
42.66960881404506
  30
998.065
  0
VERTEX
  8
Unknown Area Type
  70
32
  10
-5.12780389649626
  20
42.67370692164516
  30
1048.948
  0
VERTEX
  8
Unknown Area Type
  70
32
  10
-5.12837186466339
  20
42.70088268109851
  30
1027.412
  0
VERTEX
  8
Unknown Area Type
  70
32
  10
-5.09727480384216
  20
42.70103780565395
  30
1050.461
  0
VERTEX
  8
Unknown Area Type
  70
32
  10
-5.09697586807129
  20
42.70104328114152
  30
1054.406
  0
SEQEND
  8
Unknown Area Type
  0
TEXT
  8
Unknown Area Type
 62
7
  1
PNOA-H_AMS_1956-57_33k_ES_PAN_2
 40
0.00045
  10
-5.1113332157026
  20
42.68532892680194
  0
POLYLINE
  8
Unknown Area Type
  70
9
  66
1
  0
VERTEX
  8
Unknown Area Type
  70
32
  10
-5.10142458753968
  20
42.82353304751064
  30
1163.079
  0
VERTEX
  8
Unknown Area Type
  70
32
  10
-5.07201637779542
  20
42.82408721297859
  30
1245.343
  0
VERTEX
  8
Unknown Area Type
  70
32
  10
-5.0699359606671
  20
42.82314782258319
  30
1271.504
  0
VERTEX
  8
Unknown Area Type
  70
32
  10
-5.07012885893008
  20
42.78309935879884
  30
1126.256
  0
VERTEX
  8
Unknown Area Type
  70
32
  10
-5.07342424690046
  20
42.7820221543927
  30
1092.05
  0
VERTEX
  8
Unknown Area Type
  70
32
  10
-5.10170072022575
  20
42.7832939631388
  30
1054.512
  0
VERTEX
  8
Unknown Area Type
  70
32
  10
-5.10142306289984
  20
42.82348805100443
  30
1165.18
  0
VERTEX
  8
Unknown Area Type
  70
32
  10
-5.10142458753968
  20
42.82353304751064
  30
1163.079
  0
SEQEND
  8
Unknown Area Type
  0
TEXT
  8
Unknown Area Type
 62
7
  1
PNOA-H_AMS_1956-57_33k_ES_PAN_2
 40
0.00045
  10
-5.08581848678691
  20
42.80320181138475
  0
POLYLINE
  8
Unknown Area Type
  70
9
  66
1
  0
VERTEX
  8
Unknown Area Type
  70
32
  10
-5.10142458753968
  20
42.82353304751064
  30
1163.079
  0
VERTEX
  8
Unknown Area Type
  70
32
  10
-5.07201637779542
  20
42.82408721297859
  30
1245.343
  0
VERTEX
  8
Unknown Area Type
  70
32
  10
-5.0699359606671
  20
42.82314782258319
  30
1271.504
  0
VERTEX
  8
Unknown Area Type
  70
32
  10
-5.07012885893008
  20
42.78309935879884
  30
1126.256
  0
VERTEX
  8
Unknown Area Type
  70
32
  10
-5.07342424690046
  20
42.7820221543927
  30
1092.05
  0
VERTEX
  8
Unknown Area Type
  70
32
  10
-5.10170072022575
  20
42.7832939631388
  30
1054.512
  0
VERTEX
  8
Unknown Area Type
  70
32
  10
-5.10142306289984
  20
42.82348805100443
  30
1165.18
  0
VERTEX
  8
Unknown Area Type
  70
32
  10
-5.10142458753968
  20
42.82353304751064
  30
1163.079
  0
SEQEND
  8
Unknown Area Type
  0
TEXT
  8
Unknown Area Type
 62
7
  1
PNOA-H_AMS_1956-57_33k_ES_PAN_2
 40
0.00045
  10
-5.08581848678691
  20
42.80320181138475
  0
POLYLINE
  8
Unknown Area Type
  70
9
  66
1
  0
VERTEX
  8
Unknown Area Type
  70
32
  10
-5.15902226539248
  20
42.82418547929465
  30
1351.556
  0
VERTEX
  8
Unknown Area Type
  70
32
  10
-5.15901583952563
  20
42.82417659563788
  30
1352.097
  0
VERTEX
  8
Unknown Area Type
  70
32
  10
-5.15896568577987
  20
42.82414152222264
  30
1353.828
  0
VERTEX
  8
Unknown Area Type
  70
32
  10
-5.15883732171035
  20
42.8241439435209
  30
1351.293
  0
VERTEX
  8
Unknown Area Type
  70
32
  10
-5.15881867072552
  20
42.82413529044463
  30
1351.738
  0
VERTEX
  8
Unknown Area Type
  70
32
  10
-5.15860551830252
  20
42.82398622788613
  30
1359.871
  0
VERTEX
  8
Unknown Area Type
  70
32
  10
-5.1585928233442
  20
42.82397296000421
  30
1361.742
  0
VERTEX
  8
Unknown Area Type
  70
32
  10
-5.15859125722245
  20
42.82392796517451
  30
1369.027
  0
VERTEX
  8
Unknown Area Type
  70
32
  10
-5.1586268362491
  20
42.823895777091
  30
1377.235
  0
VERTEX
  8
Unknown Area Type
  70
32
  10
-5.15864486067211
  20
42.82388643226964
  30
1380.947
  0
VERTEX
  8
Unknown Area Type
  70
32
  10
-5.15882823717161
  20
42.82388297355293
  30
1395.085
  0
VERTEX
  8
Unknown Area Type
  70
32
  10
-5.15888481644613
  20
42.82392693070211
  30
1392.58
  0
VERTEX
  8
Unknown Area Type
  70
32
  10
-5.15895205453296
  20
42.8239256623982
  30
1392.557
  0
VERTEX
  8
Unknown Area Type
  70
32
  10
-5.15897070547127
  20
42.82393431545401
  30
1392.442
  0
VERTEX
  8
Unknown Area Type
  70
32
  10
-5.15900863393296
  20
42.82396961948303
  30
1389.165
  0
VERTEX
  8
Unknown Area Type
  70
32
  10
-5.15913699762733
  20
42.8239671980006
  30
1386.821
  0
VERTEX
  8
Unknown Area Type
  70
32
  10
-5.15925611274452
  20
42.82405049714988
  30
1370.565
  0
VERTEX
  8
Unknown Area Type
  70
32
  10
-5.15925767935512
  20
42.8240954919589
  30
1365.948
  0
VERTEX
  8
Unknown Area Type
  70
32
  10
-5.15916254137801
  20
42.82417382819773
  30
1354.796
  0
VERTEX
  8
Unknown Area Type
  70
32
  10
-5.15914451695456
  20
42.82418317310032
  30
1353.868
  0
VERTEX
  8
Unknown Area Type
  70
32
  10
-5.15902226539248
  20
42.82418547929465
  30
1351.556
  0
SEQEND
  8
Unknown Area Type
  0
TEXT
  8
Unknown Area Type
 62
7
  1
PNOA-H_AMS_1956-57_33k_ES_PAN_2
 40
0.00045
  10
-5.15895365921687
  20
42.82403215764204
  0
POLYLINE
  8
Unknown Area Type
  70
9
  66
1
  0
VERTEX
  8
Unknown Area Type
  70
32
  10
-5.15902226539248
  20
42.82418547929465
  30
1351.556
  0
VERTEX
  8
Unknown Area Type
  70
32
  10
-5.15901583952563
  20
42.82417659563788
  30
1352.097
  0
VERTEX
  8
Unknown Area Type
  70
32
  10
-5.15896568577987
  20
42.82414152222264
  30
1353.828
  0
VERTEX
  8
Unknown Area Type
  70
32
  10
-5.15883732171035
  20
42.8241439435209
  30
1351.293
  0
VERTEX
  8
Unknown Area Type
  70
32
  10
-5.15881867072552
  20
42.82413529044463
  30
1351.738
  0
VERTEX
  8
Unknown Area Type
  70
32
  10
-5.15860551830252
  20
42.82398622788613
  30
1359.871
  0
VERTEX
  8
Unknown Area Type
  70
32
  10
-5.1585928233442
  20
42.82397296000421
  30
1361.742
  0
VERTEX
  8
Unknown Area Type
  70
32
  10
-5.15859125722245
  20
42.82392796517451
  30
1369.027
  0
VERTEX
  8
Unknown Area Type
  70
32
  10
-5.1586268362491
  20
42.823895777091
  30
1377.235
  0
VERTEX
  8
Unknown Area Type
  70
32
  10
-5.15864486067211
  20
42.82388643226964
  30
1380.947
  0
VERTEX
  8
Unknown Area Type
  70
32
  10
-5.15882823717161
  20
42.82388297355293
  30
1395.085
  0
VERTEX
  8
Unknown Area Type
  70
32
  10
-5.15888481644613
  20
42.82392693070211
  30
1392.58
  0
VERTEX
  8
Unknown Area Type
  70
32
  10
-5.15895205453296
  20
42.8239256623982
  30
1392.557
  0
VERTEX
  8
Unknown Area Type
  70
32
  10
-5.15897070547127
  20
42.82393431545401
  30
1392.442
  0
VERTEX
  8
Unknown Area Type
  70
32
  10
-5.15900863393296
  20
42.82396961948303
  30
1389.165
  0
VERTEX
  8
Unknown Area Type
  70
32
  10
-5.15913699762733
  20
42.8239671980006
  30
1386.821
  0
VERTEX
  8
Unknown Area Type
  70
32
  10
-5.15925611274452
  20
42.82405049714988
  30
1370.565
  0
VERTEX
  8
Unknown Area Type
  70
32
  10
-5.15925767935512
  20
42.8240954919589
  30
1365.948
  0
VERTEX
  8
Unknown Area Type
  70
32
  10
-5.15916254137801
  20
42.82417382819773
  30
1354.796
  0
VERTEX
  8
Unknown Area Type
  70
32
  10
-5.15914451695456
  20
42.82418317310032
  30
1353.868
  0
VERTEX
  8
Unknown Area Type
  70
32
  10
-5.15902226539248
  20
42.82418547929465
  30
1351.556
  0
SEQEND
  8
Unknown Area Type
  0
TEXT
  8
Unknown Area Type
 62
7
  1
PNOA-H_AMS_1956-57_33k_ES_PAN_2
 40
0.00045
  10
-5.15895365921687
  20
42.82403215764204
  0
POLYLINE
  8
Unknown Area Type
  70
9
  66
1
  0
VERTEX
  8
Unknown Area Type
  70
32
  10
-5.15754585328405
  20
42.8239431742963
  30
1345.723
  0
VERTEX
  8
Unknown Area Type
  70
32
  10
-5.15753942765192
  20
42.82393429055106
  30
1346.61
  0
VERTEX
  8
Unknown Area Type
  70
32
  10
-5.15748943144864
  20
42.82390371595087
  30
1349.941
  0
VERTEX
  8
Unknown Area Type
  70
32
  10
-5.15748630081664
  20
42.82381372622455
  30
1367.311
  0
VERTEX
  8
Unknown Area Type
  70
32
  10
-5.15749805631641
  20
42.82379999731757
  30
1371.503
  0
VERTEX
  8
Unknown Area Type
  70
32
  10
-5.15753990493187
  20
42.82377219382244
  30
1379.237
  0
VERTEX
  8
Unknown Area Type
  70
32
  10
-5.15760103036727
  20
42.82377104154178
  30
1379.845
  0
VERTEX
  8
Unknown Area Type
  70
32
  10
-5.1576574521473
  20
42.82381049983414
  30
1372.269
  0
VERTEX
  8
Unknown Area Type
  70
32
  10
-5.15766058302718
  20
42.82390048955036
  30
1353.635
  0
VERTEX
  8
Unknown Area Type
  70
32
  10
-5.15760697888766
  20
42.82394202200878
  30
1346.633
  0
VERTEX
  8
Unknown Area Type
  70
32
  10
-5.15754585328405
  20
42.8239431742963
  30
1345.723
  0
SEQEND
  8
Unknown Area Type
  0
TEXT
  8
Unknown Area Type
 62
7
  1
PNOA-H_AMS_1956-57_33k_ES_PAN_2
 40
0.00045
  10
-5.15757361214832
  20
42.82385511352515
  0
POLYLINE
  8
Unknown Area Type
  70
9
  66
1
  0
VERTEX
  8
Unknown Area Type
  70
32
  10
-5.15754585328405
  20
42.8239431742963
  30
1345.723
  0
VERTEX
  8
Unknown Area Type
  70
32
  10
-5.15753942765192
  20
42.82393429055106
  30
1346.61
  0
VERTEX
  8
Unknown Area Type
  70
32
  10
-5.15748943144864
  20
42.82390371595087
  30
1349.941
  0
VERTEX
  8
Unknown Area Type
  70
32
  10
-5.15748630081664
  20
42.82381372622455
  30
1367.311
  0
VERTEX
  8
Unknown Area Type
  70
32
  10
-5.15749805631641
  20
42.82379999731757
  30
1371.503
  0
VERTEX
  8
Unknown Area Type
  70
32
  10
-5.15753990493187
  20
42.82377219382244
  30
1379.237
  0
VERTEX
  8
Unknown Area Type
  70
32
  10
-5.15760103036727
  20
42.82377104154178
  30
1379.845
  0
VERTEX
  8
Unknown Area Type
  70
32
  10
-5.1576574521473
  20
42.82381049983414
  30
1372.269
  0
VERTEX
  8
Unknown Area Type
  70
32
  10
-5.15766058302718
  20
42.82390048955036
  30
1353.635
  0
VERTEX
  8
Unknown Area Type
  70
32
  10
-5.15760697888766
  20
42.82394202200878
  30
1346.633
  0
VERTEX
  8
Unknown Area Type
  70
32
  10
-5.15754585328405
  20
42.8239431742963
  30
1345.723
  0
SEQEND
  8
Unknown Area Type
  0
TEXT
  8
Unknown Area Type
 62
7
  1
PNOA-H_AMS_1956-57_33k_ES_PAN_2
 40
0.00045
  10
-5.15757361214832
  20
42.82385511352515
  0
POLYLINE
  8
Unknown Area Type
  70
9
  66
1
  0
VERTEX
  8
Unknown Area Type
  70
32
  10
-5.15791104122526
  20
42.82389126523197
  30
1358.776
  0
VERTEX
  8
Unknown Area Type
  70
32
  10
-5.15790461554731
  20
42.82388238150818
  30
1359.568
  0
VERTEX
  8
Unknown Area Type
  70
32
  10
-5.15779192817304
  20
42.82380796463377
  30
1369.018
  0
VERTEX
  8
Unknown Area Type
  70
32
  10
-5.15778879711278
  20
42.82371797492387
  30
1384.47
  0
VERTEX
  8
Unknown Area Type
  70
32
  10
-5.15784240093944
  20
42.82367644238569
  30
1396.566
  0
VERTEX
  8
Unknown Area Type
  70
32
  10
-5.15796465159361
  20
42.82367413747291
  30
1401.121
  0
VERTEX
  8
Unknown Area Type
  70
32
  10
-5.15802123007659
  20
42.82371809506827
  30
1393.757
  0
VERTEX
  8
Unknown Area Type
  70
32
  10
-5.15808846797538
  20
42.8237168272764
  30
1392.302
  0
VERTEX
  8
Unknown Area Type
  70
32
  10
-5.15814489000514
  20
42.82375628532299
  30
1385.979
  0
VERTEX
  8
Unknown Area Type
  70
32
  10
-5.15814802158605
  20
42.82384627501118
  30
1368.88
  0
VERTEX
  8
Unknown Area Type
  70
32
  10
-5.15811244233212
  20
42.8238784629509
  30
1362.407
  0
VERTEX
  8
Unknown Area Type
  70
32
  10
-5.15809441782773
  20
42.82388780769012
  30
1361.05
  0
VERTEX
  8
Unknown Area Type
  70
32
  10
-5.15791104122526
  20
42.82389126523197
  30
1358.776
  0
SEQEND
  8
Unknown Area Type
  0
TEXT
  8
Unknown Area Type
 62
7
  1
PNOA-H_AMS_1956-57_33k_ES_PAN_2
 40
0.00045
  10
-5.15796859845167
  20
42.82378068480809
  0
POLYLINE
  8
Unknown Area Type
  70
9
  66
1
  0
VERTEX
  8
Unknown Area Type
  70
32
  10
-5.15791104122526
  20
42.82389126523197
  30
1358.776
  0
VERTEX
  8
Unknown Area Type
  70
32
  10
-5.15790461554731
  20
42.82388238150818
  30
1359.568
  0
VERTEX
  8
Unknown Area Type
  70
32
  10
-5.15779192817304
  20
42.82380796463377
  30
1369.018
  0
VERTEX
  8
Unknown Area Type
  70
32
  10
-5.15778879711278
  20
42.82371797492387
  30
1384.47
  0
VERTEX
  8
Unknown Area Type
  70
32
  10
-5.15784240093944
  20
42.82367644238569
  30
1396.566
  0
VERTEX
  8
Unknown Area Type
  70
32
  10
-5.15796465159361
  20
42.82367413747291
  30
1401.121
  0
VERTEX
  8
Unknown Area Type
  70
32
  10
-5.15802123007659
  20
42.82371809506827
  30
1393.757
  0
VERTEX
  8
Unknown Area Type
  70
32
  10
-5.15808846797538
  20
42.8237168272764
  30
1392.302
  0
VERTEX
  8
Unknown Area Type
  70
32
  10
-5.15814489000514
  20
42.82375628532299
  30
1385.979
  0
VERTEX
  8
Unknown Area Type
  70
32
  10
-5.15814802158605
  20
42.82384627501118
  30
1368.88
  0
VERTEX
  8
Unknown Area Type
  70
32
  10
-5.15811244233212
  20
42.8238784629509
  30
1362.407
  0
VERTEX
  8
Unknown Area Type
  70
32
  10
-5.15809441782773
  20
42.82388780769012
  30
1361.05
  0
VERTEX
  8
Unknown Area Type
  70
32
  10
-5.15791104122526
  20
42.82389126523197
  30
1358.776
  0
SEQEND
  8
Unknown Area Type
  0
TEXT
  8
Unknown Area Type
 62
7
  1
PNOA-H_AMS_1956-57_33k_ES_PAN_2
 40
0.00045
  10
-5.15796859845167
  20
42.82378068480809
  0
POLYLINE
  8
Unknown Area Type
  70
9
  66
1
  0
VERTEX
  8
Unknown Area Type
  70
32
  10
-5.14694628963882
  20
42.82130595682453
  30
1286.323
  0
VERTEX
  8
Unknown Area Type
  70
32
  10
-5.14693390919976
  20
42.82130168661566
  30
1286.622
  0
VERTEX
  8
Unknown Area Type
  70
32
  10
-5.14687734063015
  20
42.82125772330013
  30
1291.122
  0
VERTEX
  8
Unknown Area Type
  70
32
  10
-5.14687484866708
  20
42.82118573098375
  30
1306.766
  0
VERTEX
  8
Unknown Area Type
  70
32
  10
-5.14694037104152
  20
42.82113497508062
  30
1321.887
  0
VERTEX
  8
Unknown Area Type
  70
32
  10
-5.14700180581749
  20
42.82114282755351
  30
1323.043
  0
VERTEX
  8
Unknown Area Type
  70
32
  10
-5.14704599394258
  20
42.82118252061152
  30
1314.345
  0
VERTEX
  8
Unknown Area Type
  70
32
  10
-5.14704848610393
  20
42.82125451291986
  30
1297.064
  0
VERTEX
  8
Unknown Area Type
  70
32
  10
-5.14700710155502
  20
42.82129581121301
  30
1288.899
  0
VERTEX
  8
Unknown Area Type
  70
32
  10
-5.14694628963882
  20
42.82130595682453
  30
1286.323
  0
SEQEND
  8
Unknown Area Type
  0
TEXT
  8
Unknown Area Type
 62
7
  1
PNOA-H_AMS_1956-57_33k_ES_PAN_2
 40
0.00045
  10
-5.14696202681361
  20
42.82121959797399
  0
POLYLINE
  8
Unknown Area Type
  70
9
  66
1
  0
VERTEX
  8
Unknown Area Type
  70
32
  10
-5.14694628963882
  20
42.82130595682453
  30
1286.323
  0
VERTEX
  8
Unknown Area Type
  70
32
  10
-5.14693390919976
  20
42.82130168661566
  30
1286.622
  0
VERTEX
  8
Unknown Area Type
  70
32
  10
-5.14687734063015
  20
42.82125772330013
  30
1291.122
  0
VERTEX
  8
Unknown Area Type
  70
32
  10
-5.14687484866708
  20
42.82118573098375
  30
1306.766
  0
VERTEX
  8
Unknown Area Type
  70
32
  10
-5.14694037104152
  20
42.82113497508062
  30
1321.887
  0
VERTEX
  8
Unknown Area Type
  70
32
  10
-5.14700180581749
  20
42.82114282755351
  30
1323.043
  0
VERTEX
  8
Unknown Area Type
  70
32
  10
-5.14704599394258
  20
42.82118252061152
  30
1314.345
  0
VERTEX
  8
Unknown Area Type
  70
32
  10
-5.14704848610393
  20
42.82125451291986
  30
1297.064
  0
VERTEX
  8
Unknown Area Type
  70
32
  10
-5.14700710155502
  20
42.82129581121301
  30
1288.899
  0
VERTEX
  8
Unknown Area Type
  70
32
  10
-5.14694628963882
  20
42.82130595682453
  30
1286.323
  0
SEQEND
  8
Unknown Area Type
  0
TEXT
  8
Unknown Area Type
 62
7
  1
PNOA-H_AMS_1956-57_33k_ES_PAN_2
 40
0.00045
  10
-5.14696202681361
  20
42.82121959797399
  0
POLYLINE
  8
Unknown Area Type
  70
9
  66
1
  0
VERTEX
  8
Unknown Area Type
  70
32
  10
-5.1417446725209
  20
42.82140341073416
  30
1178.029
  0
VERTEX
  8
Unknown Area Type
  70
32
  10
-5.14173229239765
  20
42.82139913995514
  30
1177.615
  0
VERTEX
  8
Unknown Area Type
  70
32
  10
-5.14168199506187
  20
42.82135955915044
  30
1177.053
  0
VERTEX
  8
Unknown Area Type
  70
32
  10
-5.14168499999375
  20
42.82126945407572
  30
1187.223
  0
VERTEX
  8
Unknown Area Type
  70
32
  10
-5.14174488059331
  20
42.82123231403313
  30
1203.648
  0
VERTEX
  8
Unknown Area Type
  70
32
  10
-5.14186117075185
  20
42.8212346403296
  30
1218.176
  0
VERTEX
  8
Unknown Area Type
  70
32
  10
-5.1419114680943
  20
42.82127422105606
  30
1214.806
  0
VERTEX
  8
Unknown Area Type
  70
32
  10
-5.14190690961108
  20
42.8213193307863
  30
1204.742
  0
VERTEX
  8
Unknown Area Type
  70
32
  10
-5.14180564087555
  20
42.82139776740122
  30
1182.319
  0
VERTEX
  8
Unknown Area Type
  70
32
  10
-5.1417446725209
  20
42.82140341073416
  30
1178.029
  0
SEQEND
  8
Unknown Area Type
  0
TEXT
  8
Unknown Area Type
 62
7
  1
PNOA-H_AMS_1956-57_33k_ES_PAN_2
 40
0.00045
  10
-5.14179565103105
  20
42.82131771867162
  0
POLYLINE
  8
Unknown Area Type
  70
9
  66
1
  0
VERTEX
  8
Unknown Area Type
  70
32
  10
-5.1417446725209
  20
42.82140341073416
  30
1178.029
  0
VERTEX
  8
Unknown Area Type
  70
32
  10
-5.14173229239765
  20
42.82139913995514
  30
1177.615
  0
VERTEX
  8
Unknown Area Type
  70
32
  10
-5.14168199506187
  20
42.82135955915044
  30
1177.053
  0
VERTEX
  8
Unknown Area Type
  70
32
  10
-5.14168499999375
  20
42.82126945407572
  30
1187.223
  0
VERTEX
  8
Unknown Area Type
  70
32
  10
-5.14174488059331
  20
42.82123231403313
  30
1203.648
  0
VERTEX
  8
Unknown Area Type
  70
32
  10
-5.14186117075185
  20
42.8212346403296
  30
1218.176
  0
VERTEX
  8
Unknown Area Type
  70
32
  10
-5.1419114680943
  20
42.82127422105606
  30
1214.806
  0
VERTEX
  8
Unknown Area Type
  70
32
  10
-5.14190690961108
  20
42.8213193307863
  30
1204.742
  0
VERTEX
  8
Unknown Area Type
  70
32
  10
-5.14180564087555
  20
42.82139776740122
  30
1182.319
  0
VERTEX
  8
Unknown Area Type
  70
32
  10
-5.1417446725209
  20
42.82140341073416
  30
1178.029
  0
SEQEND
  8
Unknown Area Type
  0
TEXT
  8
Unknown Area Type
 62
7
  1
PNOA-H_AMS_1956-57_33k_ES_PAN_2
 40
0.00045
  10
-5.14179565103105
  20
42.82131771867162
  0
POLYLINE
  8
Unknown Area Type
  70
9
  66
1
  0
VERTEX
  8
Unknown Area Type
  70
32
  10
-5.15123938854831
  20
42.82411140961034
  30
1229.872
  0
VERTEX
  8
Unknown Area Type
  70
32
  10
-5.13649316617391
  20
42.82360420004319
  30
1138.961
  0
VERTEX
  8
Unknown Area Type
  70
32
  10
-5.13646871572757
  20
42.82360465645085
  30
1139.563
  0
VERTEX
  8
Unknown Area Type
  70
32
  10
-5.13648782859913
  20
42.82362681188787
  30
1140.08
  0
VERTEX
  8
Unknown Area Type
  70
32
  10
-5.13655506734834
  20
42.82362555674249
  30
1139.002
  0
VERTEX
  8
Unknown Area Type
  70
32
  10
-5.13661163103193
  20
42.82366952525671
  30
1142.259
  0
VERTEX
  8
Unknown Area Type
  70
32
  10
-5.13710675293057
  20
42.8236602813555
  30
1131.277
  0
VERTEX
  8
Unknown Area Type
  70
32
  10
-5.13728867071498
  20
42.82379195767129
  30
1140.554
  0
VERTEX
  8
Unknown Area Type
  70
32
  10
-5.1373621773062
  20
42.82379508744836
  30
1139.176
  0
VERTEX
  8
Unknown Area Type
  70
32
  10
-5.13737362719706
  20
42.82377236142037
  30
1135.988
  0
VERTEX
  8
Unknown Area Type
  70
32
  10
-5.13741548511541
  20
42.82374456508918
  30
1132.141
  0
VERTEX
  8
Unknown Area Type
  70
32
  10
-5.13765998995337
  20
42.82373999874422
  30
1124.468
  0
VERTEX
  8
Unknown Area Type
  70
32
  10
-5.13771639940886
  20
42.82377946714734
  30
1127.527
  0
VERTEX
  8
Unknown Area Type
  70
32
  10
-5.13771795038426
  20
42.82382446259432
  30
1134.694
  0
VERTEX
  8
Unknown Area Type
  70
32
  10
-5.13766433257293
  20
42.82386598600029
  30
1146.701
  0
VERTEX
  8
Unknown Area Type
  70
32
  10
-5.13741355952923
  20
42.82386616697215
  30
1153.768
  0
VERTEX
  8
Unknown Area Type
  70
32
  10
-5.13741542044223
  20
42.82392016151833
  30
1163.616
  0
VERTEX
  8
Unknown Area Type
  70
32
  10
-5.1373618023424
  20
42.8239616847881
  30
1172.091
  0
VERTEX
  8
Unknown Area Type
  70
32
  10
-5.13723954946996
  20
42.82396396771687
  30
1176.986
  0
VERTEX
  8
Unknown Area Type
  70
32
  10
-5.13718298507652
  20
42.82391999953074
  30
1173.179
  0
VERTEX
  8
Unknown Area Type
  70
32
  10
-5.13692625417045
  20
42.82392479312588
  30
1189.641
  0
VERTEX
  8
Unknown Area Type
  70
32
  10
-5.13687279076711
  20
42.82397081572065
  30
1196.082
  0
VERTEX
  8
Unknown Area Type
  70
32
  10
-5.1366894113676
  20
42.82397423928236
  30
1203.332
  0
VERTEX
  8
Unknown Area Type
  70
32
  10
-5.13663284734371
  20
42.82393027081604
  30
1199.923
  0
VERTEX
  8
Unknown Area Type
  70
32
  10
-5.13601547021111
  20
42.82394179433562
  30
1210.122
  0
VERTEX
  8
Unknown Area Type
  70
32
  10
-5.13595906165286
  20
42.82390232507461
  30
1206.697
  0
VERTEX
  8
Unknown Area Type
  70
32
  10
-5.13595596224827
  20
42.82381233407821
  30
1190.087
  0
VERTEX
  8
Unknown Area Type
  70
32
  10
-5.13601538387292
  20
42.82376169827181
  30
1177.363
  0
VERTEX
  8
Unknown Area Type
  70
32
  10
-5.13594203232316
  20
42.82376306717713
  30
1184.112
  0
VERTEX
  8
Unknown Area Type
  70
32
  10
-5.13588856830538
  20
42.82380908932611
  30
1192.437
  0
VERTEX
  8
Unknown Area Type
  70
32
  10
-5.13564406291258
  20
42.82381365189447
  30
1200.416
  0
VERTEX
  8
Unknown Area Type
  70
32
  10
-5.13552497899929
  20
42.82373032745978
  30
1189.551
  0
VERTEX
  8
Unknown Area Type
  70
32
  10
-5.13552327468152
  20
42.82368083239646
  30
1183.035
  0
VERTEX
  8
Unknown Area Type
  70
32
  10
-5.13546059911867
  20
42.82363697737539
  30
1180.863
  0
VERTEX
  8
Unknown Area Type
  70
32
  10
-5.13539336030908
  20
42.82363823187836
  30
1182.104
  0
VERTEX
  8
Unknown Area Type
  70
32
  10
-5.13537471259764
  20
42.82362957490528
  30
1180.642
  0
VERTEX
  8
Unknown Area Type
  70
32
  10
-5.13528681213153
  20
42.82356367819433
  30
1171.392
  0
VERTEX
  8
Unknown Area Type
  70
32
  10
-5.13504795551557
  20
42.82355462677349
  30
1181.607
  0
VERTEX
  8
Unknown Area Type
  70
32
  10
-5.13477900053598
  20
42.82355964357174
  30
1190.224
  0
VERTEX
  8
Unknown Area Type
  70
32
  10
-5.13476019804864
  20
42.82354648694247
  30
1187.619
  0
VERTEX
  8
Unknown Area Type
  70
32
  10
-5.13470502965487
  20
42.82354301346495
  30
1186.525
  0
VERTEX
  8
Unknown Area Type
  70
32
  10
-5.13468057920414
  20
42.82354346949028
  30
1186.517
  0
VERTEX
  8
Unknown Area Type
  70
32
  10
-5.13465674824976
  20
42.8235619237259
  30
1188.48
  0
VERTEX
  8
Unknown Area Type
  70
32
  10
-5.13416773896251
  20
42.8235710430383
  30
1167.519
  0
VERTEX
  8
Unknown Area Type
  70
32
  10
-5.13412402162496
  20
42.82354484354626
  30
1163.478
  0
VERTEX
  8
Unknown Area Type
  70
32
  10
-5.13411102222167
  20
42.82352257372009
  30
1160.263
  0
VERTEX
  8
Unknown Area Type
  70
32
  10
-5.13392733417433
  20
42.82351699371825
  30
1150.555
  0
VERTEX
  8
Unknown Area Type
  70
32
  10
-5.13347750353482
  20
42.78304379376062
  30
925.077
  0
VERTEX
  8
Unknown Area Type
  70
32
  10
-5.13614749158108
  20
42.78212051903267
  30
923.726
  0
VERTEX
  8
Unknown Area Type
  70
32
  10
-5.16466584602235
  20
42.7827554019915
  30
1045.574
  0
VERTEX
  8
Unknown Area Type
  70
32
  10
-5.16615431249586
  20
42.82348791499974
  30
1205.119
  0
VERTEX
  8
Unknown Area Type
  70
32
  10
-5.16371987450728
  20
42.82453800670634
  30
1289.988
  0
VERTEX
  8
Unknown Area Type
  70
32
  10
-5.15127606416251
  20
42.82411072025946
  30
1230.061
  0
VERTEX
  8
Unknown Area Type
  70
32
  10
-5.15123938854831
  20
42.82411140961034
  30
1229.872
  0
SEQEND
  8
Unknown Area Type
  0
TEXT
  8
Unknown Area Type
 62
7
  1
PNOA-H_AMS_1956-57_33k_ES_PAN_2
 40
0.00045
  10
-5.149816011893
  20
42.80324218994686
  0
POLYLINE
  8
Unknown Area Type
  70
9
  66
1
  0
VERTEX
  8
Unknown Area Type
  70
32
  10
-5.15123938854831
  20
42.82411140961034
  30
1229.872
  0
VERTEX
  8
Unknown Area Type
  70
32
  10
-5.13649316617391
  20
42.82360420004319
  30
1138.961
  0
VERTEX
  8
Unknown Area Type
  70
32
  10
-5.13646871572757
  20
42.82360465645085
  30
1139.563
  0
VERTEX
  8
Unknown Area Type
  70
32
  10
-5.13648782859913
  20
42.82362681188787
  30
1140.08
  0
VERTEX
  8
Unknown Area Type
  70
32
  10
-5.13655506734834
  20
42.82362555674249
  30
1139.002
  0
VERTEX
  8
Unknown Area Type
  70
32
  10
-5.13661163103193
  20
42.82366952525671
  30
1142.259
  0
VERTEX
  8
Unknown Area Type
  70
32
  10
-5.13710675293057
  20
42.8236602813555
  30
1131.277
  0
VERTEX
  8
Unknown Area Type
  70
32
  10
-5.13728867071498
  20
42.82379195767129
  30
1140.554
  0
VERTEX
  8
Unknown Area Type
  70
32
  10
-5.1373621773062
  20
42.82379508744836
  30
1139.176
  0
VERTEX
  8
Unknown Area Type
  70
32
  10
-5.13737362719706
  20
42.82377236142037
  30
1135.988
  0
VERTEX
  8
Unknown Area Type
  70
32
  10
-5.13741548511541
  20
42.82374456508918
  30
1132.141
  0
VERTEX
  8
Unknown Area Type
  70
32
  10
-5.13765998995337
  20
42.82373999874422
  30
1124.468
  0
VERTEX
  8
Unknown Area Type
  70
32
  10
-5.13771639940886
  20
42.82377946714734
  30
1127.527
  0
VERTEX
  8
Unknown Area Type
  70
32
  10
-5.13771795038426
  20
42.82382446259432
  30
1134.694
  0
VERTEX
  8
Unknown Area Type
  70
32
  10
-5.13766433257293
  20
42.82386598600029
  30
1146.701
  0
VERTEX
  8
Unknown Area Type
  70
32
  10
-5.13741355952923
  20
42.82386616697215
  30
1153.768
  0
VERTEX
  8
Unknown Area Type
  70
32
  10
-5.13741542044223
  20
42.82392016151833
  30
1163.616
  0
VERTEX
  8
Unknown Area Type
  70
32
  10
-5.1373618023424
  20
42.8239616847881
  30
1172.091
  0
VERTEX
  8
Unknown Area Type
  70
32
  10
-5.13723954946996
  20
42.82396396771687
  30
1176.986
  0
VERTEX
  8
Unknown Area Type
  70
32
  10
-5.13718298507652
  20
42.82391999953074
  30
1173.179
  0
VERTEX
  8
Unknown Area Type
  70
32
  10
-5.13692625417045
  20
42.82392479312588
  30
1189.641
  0
VERTEX
  8
Unknown Area Type
  70
32
  10
-5.13687279076711
  20
42.82397081572065
  30
1196.082
  0
VERTEX
  8
Unknown Area Type
  70
32
  10
-5.1366894113676
  20
42.82397423928236
  30
1203.332
  0
VERTEX
  8
Unknown Area Type
  70
32
  10
-5.13663284734371
  20
42.82393027081604
  30
1199.923
  0
VERTEX
  8
Unknown Area Type
  70
32
  10
-5.13601547021111
  20
42.82394179433562
  30
1210.122
  0
VERTEX
  8
Unknown Area Type
  70
32
  10
-5.13595906165286
  20
42.82390232507461
  30
1206.697
  0
VERTEX
  8
Unknown Area Type
  70
32
  10
-5.13595596224827
  20
42.82381233407821
  30
1190.087
  0
VERTEX
  8
Unknown Area Type
  70
32
  10
-5.13601538387292
  20
42.82376169827181
  30
1177.363
  0
VERTEX
  8
Unknown Area Type
  70
32
  10
-5.13594203232316
  20
42.82376306717713
  30
1184.112
  0
VERTEX
  8
Unknown Area Type
  70
32
  10
-5.13588856830538
  20
42.82380908932611
  30
1192.437
  0
VERTEX
  8
Unknown Area Type
  70
32
  10
-5.13564406291258
  20
42.82381365189447
  30
1200.416
  0
VERTEX
  8
Unknown Area Type
  70
32
  10
-5.13552497899929
  20
42.82373032745978
  30
1189.551
  0
VERTEX
  8
Unknown Area Type
  70
32
  10
-5.13552327468152
  20
42.82368083239646
  30
1183.035
  0
VERTEX
  8
Unknown Area Type
  70
32
  10
-5.13546059911867
  20
42.82363697737539
  30
1180.863
  0
VERTEX
  8
Unknown Area Type
  70
32
  10
-5.13539336030908
  20
42.82363823187836
  30
1182.104
  0
VERTEX
  8
Unknown Area Type
  70
32
  10
-5.13537471259764
  20
42.82362957490528
  30
1180.642
  0
VERTEX
  8
Unknown Area Type
  70
32
  10
-5.13528681213153
  20
42.82356367819433
  30
1171.392
  0
VERTEX
  8
Unknown Area Type
  70
32
  10
-5.13504795551557
  20
42.82355462677349
  30
1181.607
  0
VERTEX
  8
Unknown Area Type
  70
32
  10
-5.13477900053598
  20
42.82355964357174
  30
1190.224
  0
VERTEX
  8
Unknown Area Type
  70
32
  10
-5.13476019804864
  20
42.82354648694247
  30
1187.619
  0
VERTEX
  8
Unknown Area Type
  70
32
  10
-5.13470502965487
  20
42.82354301346495
  30
1186.525
  0
VERTEX
  8
Unknown Area Type
  70
32
  10
-5.13468057920414
  20
42.82354346949028
  30
1186.517
  0
VERTEX
  8
Unknown Area Type
  70
32
  10
-5.13465674824976
  20
42.8235619237259
  30
1188.48
  0
VERTEX
  8
Unknown Area Type
  70
32
  10
-5.13416773896251
  20
42.8235710430383
  30
1167.519
  0
VERTEX
  8
Unknown Area Type
  70
32
  10
-5.13412402162496
  20
42.82354484354626
  30
1163.478
  0
VERTEX
  8
Unknown Area Type
  70
32
  10
-5.13411102222167
  20
42.82352257372009
  30
1160.263
  0
VERTEX
  8
Unknown Area Type
  70
32
  10
-5.13392733417433
  20
42.82351699371825
  30
1150.555
  0
VERTEX
  8
Unknown Area Type
  70
32
  10
-5.13347750353482
  20
42.78304379376062
  30
925.077
  0
VERTEX
  8
Unknown Area Type
  70
32
  10
-5.13614749158108
  20
42.78212051903267
  30
923.726
  0
VERTEX
  8
Unknown Area Type
  70
32
  10
-5.16466584602235
  20
42.7827554019915
  30
1045.574
  0
VERTEX
  8
Unknown Area Type
  70
32
  10
-5.16615431249586
  20
42.82348791499974
  30
1205.119
  0
VERTEX
  8
Unknown Area Type
  70
32
  10
-5.16371987450728
  20
42.82453800670634
  30
1289.988
  0
VERTEX
  8
Unknown Area Type
  70
32
  10
-5.15127606416251
  20
42.82411072025946
  30
1230.061
  0
VERTEX
  8
Unknown Area Type
  70
32
  10
-5.15123938854831
  20
42.82411140961034
  30
1229.872
  0
SEQEND
  8
Unknown Area Type
  0
TEXT
  8
Unknown Area Type
 62
7
  1
PNOA-H_AMS_1956-57_33k_ES_PAN_2
 40
0.00045
  10
-5.149816011893
  20
42.80324218994686
  0
POLYLINE
  8
Unknown Area Type
  70
9
  66
1
  0
VERTEX
  8
Unknown Area Type
  70
32
  10
-5.14708138574643
  20
42.70068643147247
  30
956.453
  0
VERTEX
  8
Unknown Area Type
  70
32
  10
-5.12884565981754
  20
42.70117103916844
  30
1028.701
  0
VERTEX
  8
Unknown Area Type
  70
32
  10
-5.12837186466339
  20
42.70088268109851
  30
1027.412
  0
VERTEX
  8
Unknown Area Type
  70
32
  10
-5.12780389649626
  20
42.67370692164516
  30
1048.948
  0
VERTEX
  8
Unknown Area Type
  70
32
  10
-5.1361571209816
  20
42.66996285662786
  30
1022.04
  0
VERTEX
  8
Unknown Area Type
  70
32
  10
-5.16234885424855
  20
42.6739602500956
  30
921.041
  0
VERTEX
  8
Unknown Area Type
  70
32
  10
-5.16190127345895
  20
42.70028598147197
  30
888.058
  0
VERTEX
  8
Unknown Area Type
  70
32
  10
-5.14764857674543
  20
42.70067129083257
  30
950.747
  0
VERTEX
  8
Unknown Area Type
  70
32
  10
-5.14708138574643
  20
42.70068643147247
  30
956.453
  0
SEQEND
  8
Unknown Area Type
  0
TEXT
  8
Unknown Area Type
 62
7
  1
PNOA-H_AMS_1956-57_33k_ES_PAN_2
 40
0.00045
  10
-5.1451018506757
  20
42.68556610680062
  0
POLYLINE
  8
Unknown Area Type
  70
9
  66
1
  0
VERTEX
  8
Unknown Area Type
  70
32
  10
-5.14708138574643
  20
42.70068643147247
  30
956.453
  0
VERTEX
  8
Unknown Area Type
  70
32
  10
-5.12884565981754
  20
42.70117103916844
  30
1028.701
  0
VERTEX
  8
Unknown Area Type
  70
32
  10
-5.12837186466339
  20
42.70088268109851
  30
1027.412
  0
VERTEX
  8
Unknown Area Type
  70
32
  10
-5.12780389649626
  20
42.67370692164516
  30
1048.948
  0
VERTEX
  8
Unknown Area Type
  70
32
  10
-5.1361571209816
  20
42.66996285662786
  30
1022.04
  0
VERTEX
  8
Unknown Area Type
  70
32
  10
-5.16234885424855
  20
42.6739602500956
  30
921.041
  0
VERTEX
  8
Unknown Area Type
  70
32
  10
-5.16190127345895
  20
42.70028598147197
  30
888.058
  0
VERTEX
  8
Unknown Area Type
  70
32
  10
-5.14764857674543
  20
42.70067129083257
  30
950.747
  0
VERTEX
  8
Unknown Area Type
  70
32
  10
-5.14708138574643
  20
42.70068643147247
  30
956.453
  0
SEQEND
  8
Unknown Area Type
  0
TEXT
  8
Unknown Area Type
 62
7
  1
PNOA-H_AMS_1956-57_33k_ES_PAN_2
 40
0.00045
  10
-5.1451018506757
  20
42.68556610680062
  0
POLYLINE
  8
Unknown Area Type
  70
9
  66
1
  0
VERTEX
  8
Unknown Area Type
  70
32
  10
-5.18749999999999
  20
42.68750000000001
  30
940.624
  0
VERTEX
  8
Unknown Area Type
  70
32
  10
-5.18749999999999
  20
42.70071877645064
  30
962.124
  0
VERTEX
  8
Unknown Area Type
  70
32
  10
-5.16442838275153
  20
42.70151244728918
  30
887.034
  0
VERTEX
  8
Unknown Area Type
  70
32
  10
-5.16413571461852
  20
42.70152248232853
  30
887.206
  0
VERTEX
  8
Unknown Area Type
  70
32
  10
-5.16386119157675
  20
42.70152767115905
  30
887.192
  0
VERTEX
  8
Unknown Area Type
  70
32
  10
-5.16190127345895
  20
42.70028598147197
  30
888.058
  0
VERTEX
  8
Unknown Area Type
  70
32
  10
-5.16234885424855
  20
42.6739602500956
  30
921.041
  0
VERTEX
  8
Unknown Area Type
  70
32
  10
-5.16960255377929
  20
42.67023901155218
  30
888.815
  0
VERTEX
  8
Unknown Area Type
  70
32
  10
-5.18749999999999
  20
42.67262176591356
  30
886.103
  0
SEQEND
  8
Unknown Area Type
  0
TEXT
  8
Unknown Area Type
 62
7
  1
PNOA-H_AMS_1956-57_33k_ES_PAN_2
 40
0.00045
  10
-5.17964074593479
  20
42.68588139283849
  0
POLYLINE
  8
Unknown Area Type
  70
9
  66
1
  0
VERTEX
  8
Unknown Area Type
  70
32
  10
-5.18750033333333
  20
42.70071876498388
  30
962.125
  0
VERTEX
  8
Unknown Area Type
  70
32
  10
-5.18749999999999
  20
42.70071877645064
  30
962.124
  0
VERTEX
  8
Unknown Area Type
  70
32
  10
-5.18749999999999
  20
42.68750000000001
  30
940.624
  0
VERTEX
  8
Unknown Area Type
  70
32
  10
-5.18749999999999
  20
42.67262176591356
  30
886.103
  0
VERTEX
  8
Unknown Area Type
  70
32
  10
-5.18750033333333
  20
42.67262181029147
  30
886.103
  0
SEQEND
  8
Unknown Area Type
  0
TEXT
  8
Unknown Area Type
 62
7
  1
PNOA-H_AMS_1956-57_33k_ES_PAN_2
 40
0.00045
  10
-5.18750016666666
  20
42.6866702711821
  0
POLYLINE
  8
Unknown Area Type
  70
9
  66
1
  0
VERTEX
  8
Unknown Area Type
  70
32
  10
-5.18749999999999
  20
42.68750000000001
  30
940.624
  0
VERTEX
  8
Unknown Area Type
  70
32
  10
-5.18749999999999
  20
42.70071877645064
  30
962.124
  0
VERTEX
  8
Unknown Area Type
  70
32
  10
-5.16442838275153
  20
42.70151244728918
  30
887.034
  0
VERTEX
  8
Unknown Area Type
  70
32
  10
-5.16413571461852
  20
42.70152248232853
  30
887.206
  0
VERTEX
  8
Unknown Area Type
  70
32
  10
-5.16386119157675
  20
42.70152767115905
  30
887.192
  0
VERTEX
  8
Unknown Area Type
  70
32
  10
-5.16190127345895
  20
42.70028598147197
  30
888.058
  0
VERTEX
  8
Unknown Area Type
  70
32
  10
-5.16234885424855
  20
42.6739602500956
  30
921.041
  0
VERTEX
  8
Unknown Area Type
  70
32
  10
-5.16960255377929
  20
42.67023901155218
  30
888.815
  0
VERTEX
  8
Unknown Area Type
  70
32
  10
-5.18749999999999
  20
42.67262176591356
  30
886.103
  0
SEQEND
  8
Unknown Area Type
  0
TEXT
  8
Unknown Area Type
 62
7
  1
PNOA-H_AMS_1956-57_33k_ES_PAN_2
 40
0.00045
  10
-5.17964074593479
  20
42.68588139283849
  0
POLYLINE
  8
Unknown Area Type
  70
9
  66
1
  0
VERTEX
  8
Unknown Area Type
  70
32
  10
-5.16960865120822
  20
42.670238896014
  30
888.809
  0
VERTEX
  8
Unknown Area Type
  70
32
  10
-5.1623549520705
  20
42.67396013493548
  30
920.951
  0
VERTEX
  8
Unknown Area Type
  70
32
  10
-5.1361571209816
  20
42.66996285662786
  30
1022.04
  0
VERTEX
  8
Unknown Area Type
  70
32
  10
-5.13627729808894
  20
42.6666666666667
  30
1024.776
  0
VERTEX
  8
Unknown Area Type
  70
32
  10
-5.14583333333336
  20
42.6666666666667
  30
987.449
  0
VERTEX
  8
Unknown Area Type
  70
32
  10
-5.16961847074178
  20
42.6666666666667
  30
893.634
  0
SEQEND
  8
Unknown Area Type
  0
TEXT
  8
Unknown Area Type
 62
7
  1
PNOA-H_AMS_1956-57_33k_ES_PAN_2
 40
0.00045
  10
-5.15288779586169
  20
42.67031340080109
  0
POLYLINE
  8
Unknown Area Type
  70
9
  66
1
  0
VERTEX
  8
Unknown Area Type
  70
32
  10
-5.16961847074178
  20
42.6666666666667
  30
893.634
  0
VERTEX
  8
Unknown Area Type
  70
32
  10
-5.14583333333336
  20
42.6666666666667
  30
987.449
  0
VERTEX
  8
Unknown Area Type
  70
32
  10
-5.13627729808894
  20
42.6666666666667
  30
1024.776
  0
VERTEX
  8
Unknown Area Type
  70
32
  10
-5.13627730416551
  20
42.66666650000003
  30
1024.776
  0
VERTEX
  8
Unknown Area Type
  70
32
  10
-5.16961847119993
  20
42.66666650000003
  30
893.634
  0
SEQEND
  8
Unknown Area Type
  0
TEXT
  8
Unknown Area Type
 62
7
  1
PNOA-H_AMS_1956-57_33k_ES_PAN_2
 40
0.00045
  10
-5.15294788464443
  20
42.66666658333337
  0
POLYLINE
  8
Unknown Area Type
  70
9
  66
1
  0
VERTEX
  8
Unknown Area Type
  70
32
  10
-5.16960865120822
  20
42.670238896014
  30
888.809
  0
VERTEX
  8
Unknown Area Type
  70
32
  10
-5.1623549520705
  20
42.67396013493548
  30
920.951
  0
VERTEX
  8
Unknown Area Type
  70
32
  10
-5.1361571209816
  20
42.66996285662786
  30
1022.04
  0
VERTEX
  8
Unknown Area Type
  70
32
  10
-5.13627729808894
  20
42.6666666666667
  30
1024.776
  0
VERTEX
  8
Unknown Area Type
  70
32
  10
-5.14583333333336
  20
42.6666666666667
  30
987.449
  0
VERTEX
  8
Unknown Area Type
  70
32
  10
-5.16961847074178
  20
42.6666666666667
  30
893.634
  0
SEQEND
  8
Unknown Area Type
  0
TEXT
  8
Unknown Area Type
 62
7
  1
PNOA-H_AMS_1956-57_33k_ES_PAN_2
 40
0.00045
  10
-5.15288779586169
  20
42.67031340080109
  0
POLYLINE
  8
Unknown Area Type
  70
9
  66
1
  0
VERTEX
  8
Unknown Area Type
  70
32
  10
-5.13615727513481
  20
42.66996735629839
  30
1022.108
  0
VERTEX
  8
Unknown Area Type
  70
32
  10
-5.12787615026029
  20
42.67367856362449
  30
1049.42
  0
VERTEX
  8
Unknown Area Type
  70
32
  10
-5.12779170062583
  20
42.67370714828554
  30
1048.99
  0
VERTEX
  8
Unknown Area Type
  70
32
  10
-5.10348417341947
  20
42.66960870202794
  30
997.859
  0
VERTEX
  8
Unknown Area Type
  70
32
  10
-5.10362725352189
  20
42.6666666666667
  30
1002.261
  0
VERTEX
  8
Unknown Area Type
  70
32
  10
-5.10416666666665
  20
42.6666666666667
  30
1002.3
  0
VERTEX
  8
Unknown Area Type
  70
32
  10
-5.13627686306341
  20
42.6666666666667
  30
1014.036
  0
SEQEND
  8
Unknown Area Type
  0
TEXT
  8
Unknown Area Type
 62
7
  1
PNOA-H_AMS_1956-57_33k_ES_PAN_2
 40
0.00045
  10
-5.11988051824144
  20
42.67018690747612
  0
POLYLINE
  8
Unknown Area Type
  70
9
  66
1
  0
VERTEX
  8
Unknown Area Type
  70
32
  10
-5.13627686306341
  20
42.6666666666667
  30
1014.036
  0
VERTEX
  8
Unknown Area Type
  70
32
  10
-5.10416666666665
  20
42.6666666666667
  30
1002.3
  0
VERTEX
  8
Unknown Area Type
  70
32
  10
-5.10362725352189
  20
42.6666666666667
  30
1002.261
  0
VERTEX
  8
Unknown Area Type
  70
32
  10
-5.1036272616274
  20
42.66666650000003
  30
1002.262
  0
VERTEX
  8
Unknown Area Type
  70
32
  10
-5.13627686910194
  20
42.66666650000003
  30
1014.035
  0
SEQEND
  8
Unknown Area Type
  0
TEXT
  8
Unknown Area Type
 62
7
  1
PNOA-H_AMS_1956-57_33k_ES_PAN_2
 40
0.00045
  10
-5.11995206131192
  20
42.66666658333337
  0
POLYLINE
  8
Unknown Area Type
  70
9
  66
1
  0
VERTEX
  8
Unknown Area Type
  70
32
  10
-5.13615727513481
  20
42.66996735629839
  30
1022.108
  0
VERTEX
  8
Unknown Area Type
  70
32
  10
-5.12787615026029
  20
42.67367856362449
  30
1049.42
  0
VERTEX
  8
Unknown Area Type
  70
32
  10
-5.12779170062583
  20
42.67370714828554
  30
1048.99
  0
VERTEX
  8
Unknown Area Type
  70
32
  10
-5.10348417341947
  20
42.66960870202794
  30
997.859
  0
VERTEX
  8
Unknown Area Type
  70
32
  10
-5.10362725352189
  20
42.6666666666667
  30
1002.261
  0
VERTEX
  8
Unknown Area Type
  70
32
  10
-5.10416666666665
  20
42.6666666666667
  30
1002.3
  0
VERTEX
  8
Unknown Area Type
  70
32
  10
-5.13627686306341
  20
42.6666666666667
  30
1014.036
  0
SEQEND
  8
Unknown Area Type
  0
TEXT
  8
Unknown Area Type
 62
7
  1
PNOA-H_AMS_1956-57_33k_ES_PAN_2
 40
0.00045
  10
-5.11988051824144
  20
42.67018690747612
  0
POLYLINE
  8
Unknown Area Type
  70
9
  66
1
  0
VERTEX
  8
Unknown Area Type
  70
32
  10
-5.10348417341947
  20
42.66960870202794
  30
997.859
  0
VERTEX
  8
Unknown Area Type
  70
32
  10
-5.09446238750546
  20
42.67348869031122
  30
1042.452
  0
VERTEX
  8
Unknown Area Type
  70
32
  10
-5.09428186456518
  20
42.67356403315162
  30
1038.562
  0
VERTEX
  8
Unknown Area Type
  70
32
  10
-5.09425137429985
  20
42.67356459082622
  30
1038.184
  0
VERTEX
  8
Unknown Area Type
  70
32
  10
-5.07094289940382
  20
42.66953549873745
  30
990.791
  0
VERTEX
  8
Unknown Area Type
  70
32
  10
-5.07092460615465
  20
42.6695358295909
  30
990.709
  0
VERTEX
  8
Unknown Area Type
  70
32
  10
-5.07083863989689
  20
42.66951937409639
  30
990.252
  0
VERTEX
  8
Unknown Area Type
  70
32
  10
-5.07083714550544
  20
42.66947437549949
  30
989.679
  0
VERTEX
  8
Unknown Area Type
  70
32
  10
-5.07093056996524
  20
42.6666666666667
  30
988.883
  0
VERTEX
  8
Unknown Area Type
  70
32
  10
-5.10362704192452
  20
42.6666666666667
  30
1000.938
  0
SEQEND
  8
Unknown Area Type
  0
TEXT
  8
Unknown Area Type
 62
7
  1
PNOA-H_AMS_1956-57_33k_ES_PAN_2
 40
0.00045
  10
-5.08723209371498
  20
42.67011562874646
  0
POLYLINE
  8
Unknown Area Type
  70
9
  66
1
  0
VERTEX
  8
Unknown Area Type
  70
32
  10
-5.10362704192452
  20
42.6666666666667
  30
1000.938
  0
VERTEX
  8
Unknown Area Type
  70
32
  10
-5.07093056996524
  20
42.6666666666667
  30
988.883
  0
VERTEX
  8
Unknown Area Type
  70
32
  10
-5.07093057551095
  20
42.66666650000003
  30
988.882
  0
VERTEX
  8
Unknown Area Type
  70
32
  10
-5.10362705001804
  20
42.66666650000003
  30
1000.939
  0
SEQEND
  8
Unknown Area Type
  0
TEXT
  8
Unknown Area Type
 62
7
  1
PNOA-H_AMS_1956-57_33k_ES_PAN_2
 40
0.00045
  10
-5.08727880999164
  20
42.66666658333337
  0
POLYLINE
  8
Unknown Area Type
  70
9
  66
1
  0
VERTEX
  8
Unknown Area Type
  70
32
  10
-5.10348417341947
  20
42.66960870202794
  30
997.859
  0
VERTEX
  8
Unknown Area Type
  70
32
  10
-5.09446238750546
  20
42.67348869031122
  30
1042.452
  0
VERTEX
  8
Unknown Area Type
  70
32
  10
-5.09428186456518
  20
42.67356403315162
  30
1038.562
  0
VERTEX
  8
Unknown Area Type
  70
32
  10
-5.09425137429985
  20
42.67356459082622
  30
1038.184
  0
VERTEX
  8
Unknown Area Type
  70
32
  10
-5.07094289940382
  20
42.66953549873745
  30
990.791
  0
VERTEX
  8
Unknown Area Type
  70
32
  10
-5.07092460615465
  20
42.6695358295909
  30
990.709
  0
VERTEX
  8
Unknown Area Type
  70
32
  10
-5.07083863989689
  20
42.66951937409639
  30
990.252
  0
VERTEX
  8
Unknown Area Type
  70
32
  10
-5.07083714550544
  20
42.66947437549949
  30
989.679
  0
VERTEX
  8
Unknown Area Type
  70
32
  10
-5.07093056996524
  20
42.6666666666667
  30
988.883
  0
VERTEX
  8
Unknown Area Type
  70
32
  10
-5.10362704192452
  20
42.6666666666667
  30
1000.938
  0
SEQEND
  8
Unknown Area Type
  0
TEXT
  8
Unknown Area Type
 62
7
  1
PNOA-H_AMS_1956-57_33k_ES_PAN_2
 40
0.00045
  10
-5.08723209371498
  20
42.67011562874646
  0
POLYLINE
  8
Unknown Area Type
  70
9
  66
1
  0
VERTEX
  8
Unknown Area Type
  70
32
  10
-5.07088288292652
  20
42.66809576409685
  30
970.999
  0
VERTEX
  8
Unknown Area Type
  70
32
  10
-5.07088602107053
  20
42.66819026116998
  30
971.327
  0
VERTEX
  8
Unknown Area Type
  70
32
  10
-5.07083269158727
  20
42.6695239842353
  30
990.301
  0
VERTEX
  8
Unknown Area Type
  70
32
  10
-5.06149108305691
  20
42.67320454712804
  30
997.932
  0
VERTEX
  8
Unknown Area Type
  70
32
  10
-5.03837129619976
  20
42.66946708569655
  30
924.394
  0
VERTEX
  8
Unknown Area Type
  70
32
  10
-5.0383967390127
  20
42.6666666666667
  30
922.324
  0
VERTEX
  8
Unknown Area Type
  70
32
  10
-5.06250000000002
  20
42.6666666666667
  30
995.397
  0
VERTEX
  8
Unknown Area Type
  70
32
  10
-5.07093044071565
  20
42.6666666666667
  30
971.355
  0
SEQEND
  8
Unknown Area Type
  0
TEXT
  8
Unknown Area Type
 62
7
  1
PNOA-H_AMS_1956-57_33k_ES_PAN_2
 40
0.00045
  10
-5.0546508684577
  20
42.66993560689737
  0
POLYLINE
  8
Unknown Area Type
  70
9
  66
1
  0
VERTEX
  8
Unknown Area Type
  70
32
  10
-5.07093044071565
  20
42.6666666666667
  30
971.355
  0
VERTEX
  8
Unknown Area Type
  70
32
  10
-5.06250000000002
  20
42.6666666666667
  30
995.397
  0
VERTEX
  8
Unknown Area Type
  70
32
  10
-5.0383967390127
  20
42.6666666666667
  30
922.324
  0
VERTEX
  8
Unknown Area Type
  70
32
  10
-5.03839674052693
  20
42.66666650000003
  30
922.324
  0
VERTEX
  8
Unknown Area Type
  70
32
  10
-5.07093044626202
  20
42.66666650000003
  30
971.355
  0
SEQEND
  8
Unknown Area Type
  0
TEXT
  8
Unknown Area Type
 62
7
  1
PNOA-H_AMS_1956-57_33k_ES_PAN_2
 40
0.00045
  10
-5.05466359263736
  20
42.66666658333337
  0
POLYLINE
  8
Unknown Area Type
  70
9
  66
1
  0
VERTEX
  8
Unknown Area Type
  70
32
  10
-5.07088288292652
  20
42.66809576409685
  30
970.999
  0
VERTEX
  8
Unknown Area Type
  70
32
  10
-5.07088602107053
  20
42.66819026116998
  30
971.327
  0
VERTEX
  8
Unknown Area Type
  70
32
  10
-5.07083269158727
  20
42.6695239842353
  30
990.301
  0
VERTEX
  8
Unknown Area Type
  70
32
  10
-5.06149108305691
  20
42.67320454712804
  30
997.932
  0
VERTEX
  8
Unknown Area Type
  70
32
  10
-5.03837129619976
  20
42.66946708569655
  30
924.394
  0
VERTEX
  8
Unknown Area Type
  70
32
  10
-5.0383967390127
  20
42.6666666666667
  30
922.324
  0
VERTEX
  8
Unknown Area Type
  70
32
  10
-5.06250000000002
  20
42.6666666666667
  30
995.397
  0
VERTEX
  8
Unknown Area Type
  70
32
  10
-5.07093044071565
  20
42.6666666666667
  30
971.355
  0
SEQEND
  8
Unknown Area Type
  0
TEXT
  8
Unknown Area Type
 62
7
  1
PNOA-H_AMS_1956-57_33k_ES_PAN_2
 40
0.00045
  10
-5.0546508684577
  20
42.66993560689737
  0
POLYLINE
  8
Unknown Area Type
  70
9
  66
1
  0
VERTEX
  8
Unknown Area Type
  70
32
  10
-5.18749999999999
  20
42.67262241932551
  30
886.107
  0
VERTEX
  8
Unknown Area Type
  70
32
  10
-5.16960880777579
  20
42.67024339558535
  30
888.795
  0
VERTEX
  8
Unknown Area Type
  70
32
  10
-5.16961826104561
  20
42.6666666666667
  30
893.597
  0
VERTEX
  8
Unknown Area Type
  70
32
  10
-5.18749999999999
  20
42.6666666666667
  30
886.224
  0
SEQEND
  8
Unknown Area Type
  0
TEXT
  8
Unknown Area Type
 62
7
  1
PNOA-H_AMS_1956-57_33k_ES_PAN_2
 40
0.00045
  10
-5.17855440388789
  20
42.6696445429961
  0
POLYLINE
  8
Unknown Area Type
  70
9
  66
1
  0
VERTEX
  8
Unknown Area Type
  70
32
  10
-5.18750033333333
  20
42.6666666666667
  30
886.224
  0
VERTEX
  8
Unknown Area Type
  70
32
  10
-5.18749999999999
  20
42.6666666666667
  30
886.224
  0
VERTEX
  8
Unknown Area Type
  70
32
  10
-5.18749999999999
  20
42.66666650000003
  30
886.224
  0
VERTEX
  8
Unknown Area Type
  70
32
  10
-5.18750033333333
  20
42.66666650000003
  30
886.224
  0
SEQEND
  8
Unknown Area Type
  0
TEXT
  8
Unknown Area Type
 62
7
  1
PNOA-H_AMS_1956-57_33k_ES_PAN_2
 40
0.00045
  10
-5.18750016666666
  20
42.66666658333337
  0
POLYLINE
  8
Unknown Area Type
  70
9
  66
1
  0
VERTEX
  8
Unknown Area Type
  70
32
  10
-5.18749999999999
  20
42.6666666666667
  30
886.224
  0
VERTEX
  8
Unknown Area Type
  70
32
  10
-5.16961826104561
  20
42.6666666666667
  30
893.597
  0
VERTEX
  8
Unknown Area Type
  70
32
  10
-5.16961826148611
  20
42.66666650000003
  30
893.597
  0
VERTEX
  8
Unknown Area Type
  70
32
  10
-5.18749999999999
  20
42.66666650000003
  30
886.224
  0
SEQEND
  8
Unknown Area Type
  0
TEXT
  8
Unknown Area Type
 62
7
  1
PNOA-H_AMS_1956-57_33k_ES_PAN_2
 40
0.00045
  10
-5.1785591305228
  20
42.66666658333337
  0
POLYLINE
  8
Unknown Area Type
  70
9
  66
1
  0
VERTEX
  8
Unknown Area Type
  70
32
  10
-5.18750033333333
  20
42.67262246364943
  30
886.107
  0
VERTEX
  8
Unknown Area Type
  70
32
  10
-5.18749999999999
  20
42.67262241932551
  30
886.107
  0
VERTEX
  8
Unknown Area Type
  70
32
  10
-5.18749999999999
  20
42.6666666666667
  30
886.224
  0
VERTEX
  8
Unknown Area Type
  70
32
  10
-5.18750033333333
  20
42.6666666666667
  30
886.224
  0
SEQEND
  8
Unknown Area Type
  0
TEXT
  8
Unknown Area Type
 62
7
  1
PNOA-H_AMS_1956-57_33k_ES_PAN_2
 40
0.00045
  10
-5.18750016666666
  20
42.66964456515807
  0
POLYLINE
  8
Unknown Area Type
  70
9
  66
1
  0
VERTEX
  8
Unknown Area Type
  70
32
  10
-5.18749999999999
  20
42.67262241932551
  30
886.107
  0
VERTEX
  8
Unknown Area Type
  70
32
  10
-5.16960880777579
  20
42.67024339558535
  30
888.795
  0
VERTEX
  8
Unknown Area Type
  70
32
  10
-5.16961826104561
  20
42.6666666666667
  30
893.597
  0
VERTEX
  8
Unknown Area Type
  70
32
  10
-5.18749999999999
  20
42.6666666666667
  30
886.224
  0
SEQEND
  8
Unknown Area Type
  0
TEXT
  8
Unknown Area Type
 62
7
  1
PNOA-H_AMS_1956-57_33k_ES_PAN_2
 40
0.00045
  10
-5.17855440388789
  20
42.6696445429961
  0
POLYLINE
  8
Unknown Area Type
  70
9
  66
1
  0
VERTEX
  8
Unknown Area Type
  70
32
  10
-5.16466584602235
  20
42.7827554019915
  30
1045.574
  0
VERTEX
  8
Unknown Area Type
  70
32
  10
-5.1361597086418
  20
42.78212029104045
  30
923.715
  0
VERTEX
  8
Unknown Area Type
  70
32
  10
-5.13567584376321
  20
42.73816705368553
  30
938.246
  0
VERTEX
  8
Unknown Area Type
  70
32
  10
-5.16356579721728
  20
42.736243077657
  30
931.035
  0
VERTEX
  8
Unknown Area Type
  70
32
  10
-5.16365735594917
  20
42.73624134723129
  30
935.615
  0
VERTEX
  8
Unknown Area Type
  70
32
  10
-5.16371917761669
  20
42.73626269125788
  30
937.055
  0
VERTEX
  8
Unknown Area Type
  70
32
  10
-5.16714745454905
  20
42.73753958660942
  30
986.548
  0
VERTEX
  8
Unknown Area Type
  70
32
  10
-5.1680883515945
  20
42.78151548448142
  30
1035.916
  0
VERTEX
  8
Unknown Area Type
  70
32
  10
-5.16808365685863
  20
42.78155609557322
  30
1036.532
  0
VERTEX
  8
Unknown Area Type
  70
32
  10
-5.16803541834028
  20
42.78157501910042
  30
1037.041
  0
VERTEX
  8
Unknown Area Type
  70
32
  10
-5.16468401462947
  20
42.78275055593768
  30
1045.595
  0
VERTEX
  8
Unknown Area Type
  70
32
  10
-5.16466584602235
  20
42.7827554019915
  30
1045.574
  0
SEQEND
  8
Unknown Area Type
  0
TEXT
  8
Unknown Area Type
 62
7
  1
PNOA-H_AMS_1956-57_33k_ES_PAN_2
 40
0.00045
  10
-5.15188208473082
  20
42.75975826954878
  0
POLYLINE
  8
Unknown Area Type
  70
9
  66
1
  0
VERTEX
  8
Unknown Area Type
  70
32
  10
-5.16466584602235
  20
42.7827554019915
  30
1045.574
  0
VERTEX
  8
Unknown Area Type
  70
32
  10
-5.1361597086418
  20
42.78212029104045
  30
923.715
  0
VERTEX
  8
Unknown Area Type
  70
32
  10
-5.13567584376321
  20
42.73816705368553
  30
938.246
  0
VERTEX
  8
Unknown Area Type
  70
32
  10
-5.16356579721728
  20
42.736243077657
  30
931.035
  0
VERTEX
  8
Unknown Area Type
  70
32
  10
-5.16365735594917
  20
42.73624134723129
  30
935.615
  0
VERTEX
  8
Unknown Area Type
  70
32
  10
-5.16371917761669
  20
42.73626269125788
  30
937.055
  0
VERTEX
  8
Unknown Area Type
  70
32
  10
-5.16714745454905
  20
42.73753958660942
  30
986.548
  0
VERTEX
  8
Unknown Area Type
  70
32
  10
-5.1680883515945
  20
42.78151548448142
  30
1035.916
  0
VERTEX
  8
Unknown Area Type
  70
32
  10
-5.16808365685863
  20
42.78155609557322
  30
1036.532
  0
VERTEX
  8
Unknown Area Type
  70
32
  10
-5.16803541834028
  20
42.78157501910042
  30
1037.041
  0
VERTEX
  8
Unknown Area Type
  70
32
  10
-5.16468401462947
  20
42.78275055593768
  30
1045.595
  0
VERTEX
  8
Unknown Area Type
  70
32
  10
-5.16466584602235
  20
42.7827554019915
  30
1045.574
  0
SEQEND
  8
Unknown Area Type
  0
TEXT
  8
Unknown Area Type
 62
7
  1
PNOA-H_AMS_1956-57_33k_ES_PAN_2
 40
0.00045
  10
-5.15188208473082
  20
42.75975826954878
  0
POLYLINE
  8
Unknown Area Type
  70
9
  66
1
  0
VERTEX
  8
Unknown Area Type
  70
32
  10
-5.1334836121666
  20
42.78304367990512
  30
925.071
  0
VERTEX
  8
Unknown Area Type
  70
32
  10
-5.10487992753469
  20
42.78223149448299
  30
1058.596
  0
VERTEX
  8
Unknown Area Type
  70
32
  10
-5.10450253652461
  20
42.73860478078732
  30
1110.84
  0
VERTEX
  8
Unknown Area Type
  70
32
  10
-5.12903709700291
  20
42.73604846373414
  30
973.342
  0
VERTEX
  8
Unknown Area Type
  70
32
  10
-5.13567584376321
  20
42.73816705368553
  30
938.246
  0
VERTEX
  8
Unknown Area Type
  70
32
  10
-5.1361597086418
  20
42.78212029104045
  30
923.715
  0
VERTEX
  8
Unknown Area Type
  70
32
  10
-5.13349567485901
  20
42.78303895260395
  30
925.065
  0
VERTEX
  8
Unknown Area Type
  70
32
  10
-5.1334836121666
  20
42.78304367990512
  30
925.071
  0
SEQEND
  8
Unknown Area Type
  0
TEXT
  8
Unknown Area Type
 62
7
  1
PNOA-H_AMS_1956-57_33k_ES_PAN_2
 40
0.00045
  10
-5.12033113601773
  20
42.75981147985028
  0
POLYLINE
  8
Unknown Area Type
  70
9
  66
1
  0
VERTEX
  8
Unknown Area Type
  70
32
  10
-5.1334836121666
  20
42.78304367990512
  30
925.071
  0
VERTEX
  8
Unknown Area Type
  70
32
  10
-5.10487992753469
  20
42.78223149448299
  30
1058.596
  0
VERTEX
  8
Unknown Area Type
  70
32
  10
-5.10450253652461
  20
42.73860478078732
  30
1110.84
  0
VERTEX
  8
Unknown Area Type
  70
32
  10
-5.12903709700291
  20
42.73604846373414
  30
973.342
  0
VERTEX
  8
Unknown Area Type
  70
32
  10
-5.13567584376321
  20
42.73816705368553
  30
938.246
  0
VERTEX
  8
Unknown Area Type
  70
32
  10
-5.1361597086418
  20
42.78212029104045
  30
923.715
  0
VERTEX
  8
Unknown Area Type
  70
32
  10
-5.13349567485901
  20
42.78303895260395
  30
925.065
  0
VERTEX
  8
Unknown Area Type
  70
32
  10
-5.1334836121666
  20
42.78304367990512
  30
925.071
  0
SEQEND
  8
Unknown Area Type
  0
TEXT
  8
Unknown Area Type
 62
7
  1
PNOA-H_AMS_1956-57_33k_ES_PAN_2
 40
0.00045
  10
-5.12033113601773
  20
42.75981147985028
  0
POLYLINE
  8
Unknown Area Type
  70
9
  66
1
  0
VERTEX
  8
Unknown Area Type
  70
32
  10
-5.13576130278626
  20
42.73816545937567
  30
937.282
  0
VERTEX
  8
Unknown Area Type
  70
32
  10
-5.13566363533078
  20
42.73816728143888
  30
938.412
  0
VERTEX
  8
Unknown Area Type
  70
32
  10
-5.135620442369
  20
42.73815457971029
  30
939.126
  0
VERTEX
  8
Unknown Area Type
  70
32
  10
-5.12903099296812
  20
42.73604857725265
  30
973.376
  0
VERTEX
  8
Unknown Area Type
  70
32
  10
-5.12884565981754
  20
42.70117103916844
  30
1028.701
  0
VERTEX
  8
Unknown Area Type
  70
32
  10
-5.16190737385812
  20
42.70028586627883
  30
888.061
  0
VERTEX
  8
Unknown Area Type
  70
32
  10
-5.16386729208957
  20
42.70152755585885
  30
887.196
  0
VERTEX
  8
Unknown Area Type
  70
32
  10
-5.16365125203396
  20
42.73624146259528
  30
935.408
  0
VERTEX
  8
Unknown Area Type
  70
32
  10
-5.13585271151837
  20
42.73815925149816
  30
936.647
  0
VERTEX
  8
Unknown Area Type
  70
32
  10
-5.13576130278626
  20
42.73816545937567
  30
937.282
  0
SEQEND
  8
Unknown Area Type
  0
TEXT
  8
Unknown Area Type
 62
7
  1
PNOA-H_AMS_1956-57_33k_ES_PAN_2
 40
0.00045
  10
-5.14635662898254
  20
42.71906687815731
  0
POLYLINE
  8
Unknown Area Type
  70
9
  66
1
  0
VERTEX
  8
Unknown Area Type
  70
32
  10
-5.13576130278626
  20
42.73816545937567
  30
937.282
  0
VERTEX
  8
Unknown Area Type
  70
32
  10
-5.13566363533078
  20
42.73816728143888
  30
938.412
  0
VERTEX
  8
Unknown Area Type
  70
32
  10
-5.135620442369
  20
42.73815457971029
  30
939.126
  0
VERTEX
  8
Unknown Area Type
  70
32
  10
-5.12903099296812
  20
42.73604857725265
  30
973.376
  0
VERTEX
  8
Unknown Area Type
  70
32
  10
-5.12884565981754
  20
42.70117103916844
  30
1028.701
  0
VERTEX
  8
Unknown Area Type
  70
32
  10
-5.16190737385812
  20
42.70028586627883
  30
888.061
  0
VERTEX
  8
Unknown Area Type
  70
32
  10
-5.16386729208957
  20
42.70152755585885
  30
887.196
  0
VERTEX
  8
Unknown Area Type
  70
32
  10
-5.16365125203396
  20
42.73624146259528
  30
935.408
  0
VERTEX
  8
Unknown Area Type
  70
32
  10
-5.13585271151837
  20
42.73815925149816
  30
936.647
  0
VERTEX
  8
Unknown Area Type
  70
32
  10
-5.13576130278626
  20
42.73816545937567
  30
937.282
  0
SEQEND
  8
Unknown Area Type
  0
TEXT
  8
Unknown Area Type
 62
7
  1
PNOA-H_AMS_1956-57_33k_ES_PAN_2
 40
0.00045
  10
-5.14635662898254
  20
42.71906687815731
  0
POLYLINE
  8
Unknown Area Type
  70
9
  66
1
  0
VERTEX
  8
Unknown Area Type
  70
32
  10
-5.07323209016616
  20
42.73889169087902
  30
1110.834
  0
VERTEX
  8
Unknown Area Type
  70
32
  10
-5.06014543017907
  20
42.73567000200838
  30
1082.156
  0
VERTEX
  8
Unknown Area Type
  70
32
  10
-5.05901852242655
  20
42.70290284538536
  30
1055.46
  0
VERTEX
  8
Unknown Area Type
  70
32
  10
-5.06187806984226
  20
42.70113591623473
  30
1045.82
  0
VERTEX
  8
Unknown Area Type
  70
32
  10
-5.09471320357139
  20
42.70128731421129
  30
1074.598
  0
VERTEX
  8
Unknown Area Type
  70
32
  10
-5.09460586654158
  20
42.73584164075226
  30
1115.25
  0
VERTEX
  8
Unknown Area Type
  70
32
  10
-5.07326886733669
  20
42.73889552736895
  30
1110.552
  0
VERTEX
  8
Unknown Area Type
  70
32
  10
-5.07323209016616
  20
42.73889169087902
  30
1110.834
  0
SEQEND
  8
Unknown Area Type
  0
TEXT
  8
Unknown Area Type
 62
7
  1
PNOA-H_AMS_1956-57_33k_ES_PAN_2
 40
0.00045
  10
-5.07686609459747
  20
42.71979138547917
  0
POLYLINE
  8
Unknown Area Type
  70
9
  66
1
  0
VERTEX
  8
Unknown Area Type
  70
32
  10
-5.07323209016616
  20
42.73889169087902
  30
1110.834
  0
VERTEX
  8
Unknown Area Type
  70
32
  10
-5.06014543017907
  20
42.73567000200838
  30
1082.156
  0
VERTEX
  8
Unknown Area Type
  70
32
  10
-5.05901852242655
  20
42.70290284538536
  30
1055.46
  0
VERTEX
  8
Unknown Area Type
  70
32
  10
-5.06187806984226
  20
42.70113591623473
  30
1045.82
  0
VERTEX
  8
Unknown Area Type
  70
32
  10
-5.09471320357139
  20
42.70128731421129
  30
1074.598
  0
VERTEX
  8
Unknown Area Type
  70
32
  10
-5.09460586654158
  20
42.73584164075226
  30
1115.25
  0
VERTEX
  8
Unknown Area Type
  70
32
  10
-5.07326886733669
  20
42.73889552736895
  30
1110.552
  0
VERTEX
  8
Unknown Area Type
  70
32
  10
-5.07323209016616
  20
42.73889169087902
  30
1110.834
  0
SEQEND
  8
Unknown Area Type
  0
TEXT
  8
Unknown Area Type
 62
7
  1
PNOA-H_AMS_1956-57_33k_ES_PAN_2
 40
0.00045
  10
-5.07686609459747
  20
42.71979138547917
  0
POLYLINE
  8
Unknown Area Type
  70
9
  66
1
  0
VERTEX
  8
Unknown Area Type
  70
32
  10
-5.18749999999999
  20
42.70833333333333
  30
961.864
  0
VERTEX
  8
Unknown Area Type
  70
32
  10
-5.18749999999999
  20
42.72916666666664
  30
1000.211
  0
VERTEX
  8
Unknown Area Type
  70
32
  10
-5.18749999999999
  20
42.73700971439048
  30
1000.076
  0
VERTEX
  8
Unknown Area Type
  70
32
  10
-5.1671476113075
  20
42.73754408613506
  30
986.65
  0
VERTEX
  8
Unknown Area Type
  70
32
  10
-5.16365125203396
  20
42.73624146259528
  30
935.408
  0
VERTEX
  8
Unknown Area Type
  70
32
  10
-5.16386729208957
  20
42.70152755585885
  30
887.196
  0
VERTEX
  8
Unknown Area Type
  70
32
  10
-5.18749999999999
  20
42.70071764156104
  30
962.697
  0
SEQEND
  8
Unknown Area Type
  0
TEXT
  8
Unknown Area Type
 62
7
  1
PNOA-H_AMS_1956-57_33k_ES_PAN_2
 40
0.00045
  10
-5.18185773255017
  20
42.71903243002346
  0
POLYLINE
  8
Unknown Area Type
  70
9
  66
1
  0
VERTEX
  8
Unknown Area Type
  70
32
  10
-5.18750033333333
  20
42.73700970563849
  30
1000.076
  0
VERTEX
  8
Unknown Area Type
  70
32
  10
-5.18749999999999
  20
42.73700971439048
  30
1000.076
  0
VERTEX
  8
Unknown Area Type
  70
32
  10
-5.18749999999999
  20
42.72916666666664
  30
1000.211
  0
VERTEX
  8
Unknown Area Type
  70
32
  10
-5.18749999999999
  20
42.70833333333333
  30
961.864
  0
VERTEX
  8
Unknown Area Type
  70
32
  10
-5.18749999999999
  20
42.70071764156104
  30
962.697
  0
VERTEX
  8
Unknown Area Type
  70
32
  10
-5.18750033333333
  20
42.7007176301374
  30
962.698
  0
SEQEND
  8
Unknown Area Type
  0
TEXT
  8
Unknown Area Type
 62
7
  1
PNOA-H_AMS_1956-57_33k_ES_PAN_2
 40
0.00045
  10
-5.18750016666666
  20
42.71886367226394
  0
POLYLINE
  8
Unknown Area Type
  70
9
  66
1
  0
VERTEX
  8
Unknown Area Type
  70
32
  10
-5.18749999999999
  20
42.70833333333333
  30
961.864
  0
VERTEX
  8
Unknown Area Type
  70
32
  10
-5.18749999999999
  20
42.72916666666664
  30
1000.211
  0
VERTEX
  8
Unknown Area Type
  70
32
  10
-5.18749999999999
  20
42.73700971439048
  30
1000.076
  0
VERTEX
  8
Unknown Area Type
  70
32
  10
-5.1671476113075
  20
42.73754408613506
  30
986.65
  0
VERTEX
  8
Unknown Area Type
  70
32
  10
-5.16365125203396
  20
42.73624146259528
  30
935.408
  0
VERTEX
  8
Unknown Area Type
  70
32
  10
-5.16386729208957
  20
42.70152755585885
  30
887.196
  0
VERTEX
  8
Unknown Area Type
  70
32
  10
-5.18749999999999
  20
42.70071764156104
  30
962.697
  0
SEQEND
  8
Unknown Area Type
  0
TEXT
  8
Unknown Area Type
 62
7
  1
PNOA-H_AMS_1956-57_33k_ES_PAN_2
 40
0.00045
  10
-5.18185773255017
  20
42.71903243002346
  0
POLYLINE
  8
Unknown Area Type
  70
9
  66
1
  0
VERTEX
  8
Unknown Area Type
  70
32
  10
-5.04123297172199
  20
42.74285710275548
  30
975.941
  0
VERTEX
  8
Unknown Area Type
  70
32
  10
-5.04120783345942
  20
42.73948516360755
  30
1003.773
  0
VERTEX
  8
Unknown Area Type
  70
32
  10
-5.04121989522224
  20
42.73948044602931
  30
1003.893
  0
VERTEX
  8
Unknown Area Type
  70
32
  10
-5.06012711737907
  20
42.73567033154564
  30
1082.139
  0
VERTEX
  8
Unknown Area Type
  70
32
  10
-5.06016374297876
  20
42.73566967246818
  30
1082.084
  0
VERTEX
  8
Unknown Area Type
  70
32
  10
-5.06031769085316
  20
42.73570742472253
  30
1081.807
  0
VERTEX
  8
Unknown Area Type
  70
32
  10
-5.07324444920666
  20
42.73889596957576
  30
1110.722
  0
VERTEX
  8
Unknown Area Type
  70
32
  10
-5.07342409668503
  20
42.78201765462907
  30
1092.078
  0
VERTEX
  8
Unknown Area Type
  70
32
  10
-5.073394153705
  20
42.78203620692891
  30
1092.589
  0
VERTEX
  8
Unknown Area Type
  70
32
  10
-5.07013496781568
  20
42.78309924832242
  30
1126.17
  0
VERTEX
  8
Unknown Area Type
  70
32
  10
-5.04152166855773
  20
42.78215882414467
  30
1115.487
  0
VERTEX
  8
Unknown Area Type
  70
32
  10
-5.04123976512646
  20
42.7430640974845
  30
979.13
  0
VERTEX
  8
Unknown Area Type
  70
32
  10
-5.04123297172199
  20
42.74285710275548
  30
975.941
  0
SEQEND
  8
Unknown Area Type
  0
TEXT
  8
Unknown Area Type
 62
7
  1
PNOA-H_AMS_1956-57_33k_ES_PAN_2
 40
0.00045
  10
-5.05731593472152
  20
42.75945569296019
  0
POLYLINE
  8
Unknown Area Type
  70
9
  66
1
  0
VERTEX
  8
Unknown Area Type
  70
32
  10
-5.04123297172199
  20
42.74285710275548
  30
975.941
  0
VERTEX
  8
Unknown Area Type
  70
32
  10
-5.04120783345942
  20
42.73948516360755
  30
1003.773
  0
VERTEX
  8
Unknown Area Type
  70
32
  10
-5.04121989522224
  20
42.73948044602931
  30
1003.893
  0
VERTEX
  8
Unknown Area Type
  70
32
  10
-5.06012711737907
  20
42.73567033154564
  30
1082.139
  0
VERTEX
  8
Unknown Area Type
  70
32
  10
-5.06016374297876
  20
42.73566967246818
  30
1082.084
  0
VERTEX
  8
Unknown Area Type
  70
32
  10
-5.06031769085316
  20
42.73570742472253
  30
1081.807
  0
VERTEX
  8
Unknown Area Type
  70
32
  10
-5.07324444920666
  20
42.73889596957576
  30
1110.722
  0
VERTEX
  8
Unknown Area Type
  70
32
  10
-5.07342409668503
  20
42.78201765462907
  30
1092.078
  0
VERTEX
  8
Unknown Area Type
  70
32
  10
-5.073394153705
  20
42.78203620692891
  30
1092.589
  0
VERTEX
  8
Unknown Area Type
  70
32
  10
-5.07013496781568
  20
42.78309924832242
  30
1126.17
  0
VERTEX
  8
Unknown Area Type
  70
32
  10
-5.04152166855773
  20
42.78215882414467
  30
1115.487
  0
VERTEX
  8
Unknown Area Type
  70
32
  10
-5.04123976512646
  20
42.7430640974845
  30
979.13
  0
VERTEX
  8
Unknown Area Type
  70
32
  10
-5.04123297172199
  20
42.74285710275548
  30
975.941
  0
SEQEND
  8
Unknown Area Type
  0
TEXT
  8
Unknown Area Type
 62
7
  1
PNOA-H_AMS_1956-57_33k_ES_PAN_2
 40
0.00045
  10
-5.05731593472152
  20
42.75945569296019
  0
POLYLINE
  8
Unknown Area Type
  70
9
  66
1
  0
VERTEX
  8
Unknown Area Type
  70
32
  10
-5.12322477463227
  20
42.73665618765074
  30
1002.727
  0
VERTEX
  8
Unknown Area Type
  70
32
  10
-5.10449032775993
  20
42.7386050052196
  30
1110.89
  0
VERTEX
  8
Unknown Area Type
  70
32
  10
-5.09460586654158
  20
42.73584164075226
  30
1115.25
  0
VERTEX
  8
Unknown Area Type
  70
32
  10
-5.09470755679487
  20
42.70130092512678
  30
1074.65
  0
VERTEX
  8
Unknown Area Type
  70
32
  10
-5.09474295073127
  20
42.70126425729262
  30
1074.382
  0
VERTEX
  8
Unknown Area Type
  70
32
  10
-5.09507153022314
  20
42.70105112859207
  30
1071.314
  0
VERTEX
  8
Unknown Area Type
  70
32
  10
-5.12837796525496
  20
42.70088256768984
  30
1027.389
  0
VERTEX
  8
Unknown Area Type
  70
32
  10
-5.12884550602403
  20
42.70116653950107
  30
1028.685
  0
VERTEX
  8
Unknown Area Type
  70
32
  10
-5.12903099296812
  20
42.73604857725265
  30
973.376
  0
VERTEX
  8
Unknown Area Type
  70
32
  10
-5.12327955810555
  20
42.73665066909016
  30
1002.545
  0
VERTEX
  8
Unknown Area Type
  70
32
  10
-5.12322477463227
  20
42.73665618765074
  30
1002.727
  0
SEQEND
  8
Unknown Area Type
  0
TEXT
  8
Unknown Area Type
 62
7
  1
PNOA-H_AMS_1956-57_33k_ES_PAN_2
 40
0.00045
  10
-5.11181849887683
  20
42.71940323446467
  0
POLYLINE
  8
Unknown Area Type
  70
9
  66
1
  0
VERTEX
  8
Unknown Area Type
  70
32
  10
-5.12322477463227
  20
42.73665618765074
  30
1002.727
  0
VERTEX
  8
Unknown Area Type
  70
32
  10
-5.10449032775993
  20
42.7386050052196
  30
1110.89
  0
VERTEX
  8
Unknown Area Type
  70
32
  10
-5.09460586654158
  20
42.73584164075226
  30
1115.25
  0
VERTEX
  8
Unknown Area Type
  70
32
  10
-5.09470755679487
  20
42.70130092512678
  30
1074.65
  0
VERTEX
  8
Unknown Area Type
  70
32
  10
-5.09474295073127
  20
42.70126425729262
  30
1074.382
  0
VERTEX
  8
Unknown Area Type
  70
32
  10
-5.09507153022314
  20
42.70105112859207
  30
1071.314
  0
VERTEX
  8
Unknown Area Type
  70
32
  10
-5.12837796525496
  20
42.70088256768984
  30
1027.389
  0
VERTEX
  8
Unknown Area Type
  70
32
  10
-5.12884550602403
  20
42.70116653950107
  30
1028.685
  0
VERTEX
  8
Unknown Area Type
  70
32
  10
-5.12903099296812
  20
42.73604857725265
  30
973.376
  0
VERTEX
  8
Unknown Area Type
  70
32
  10
-5.12327955810555
  20
42.73665066909016
  30
1002.545
  0
VERTEX
  8
Unknown Area Type
  70
32
  10
-5.12322477463227
  20
42.73665618765074
  30
1002.727
  0
SEQEND
  8
Unknown Area Type
  0
TEXT
  8
Unknown Area Type
 62
7
  1
PNOA-H_AMS_1956-57_33k_ES_PAN_2
 40
0.00045
  10
-5.11181849887683
  20
42.71940323446467
  0
POLYLINE
  8
Unknown Area Type
  70
9
  66
1
  0
VERTEX
  8
Unknown Area Type
  70
32
  10
-5.07467314015193
  20
42.78208057073358
  30
1072.962
  0
VERTEX
  8
Unknown Area Type
  70
32
  10
-5.07342439711592
  20
42.78202665415633
  30
1092.023
  0
VERTEX
  8
Unknown Area Type
  70
32
  10
-5.07341798791848
  20
42.78201776527871
  30
1092.196
  0
VERTEX
  8
Unknown Area Type
  70
32
  10
-5.07324444920666
  20
42.73889596957576
  30
1110.722
  0
VERTEX
  8
Unknown Area Type
  70
32
  10
-5.09456924164085
  20
42.7358423108457
  30
1115.19
  0
VERTEX
  8
Unknown Area Type
  70
32
  10
-5.09462417899147
  20
42.73584130570116
  30
1115.256
  0
VERTEX
  8
Unknown Area Type
  70
32
  10
-5.09474747410156
  20
42.73587506986405
  30
1115.408
  0
VERTEX
  8
Unknown Area Type
  70
32
  10
-5.10450253652461
  20
42.73860478078732
  30
1110.84
  0
VERTEX
  8
Unknown Area Type
  70
32
  10
-5.10487992753469
  20
42.78223149448299
  30
1058.596
  0
VERTEX
  8
Unknown Area Type
  70
32
  10
-5.1017129377895
  20
42.78329373881651
  30
1054.654
  0
VERTEX
  8
Unknown Area Type
  70
32
  10
-5.10167017631577
  20
42.78329452393883
  30
1054.358
  0
VERTEX
  8
Unknown Area Type
  70
32
  10
-5.07470979275865
  20
42.78207990642832
  30
1073.117
  0
VERTEX
  8
Unknown Area Type
  70
32
  10
-5.07467314015193
  20
42.78208057073358
  30
1072.962
  0
SEQEND
  8
Unknown Area Type
  0
TEXT
  8
Unknown Area Type
 62
7
  1
PNOA-H_AMS_1956-57_33k_ES_PAN_2
 40
0.00045
  10
-5.08906214928821
  20
42.75967765463119
  0
POLYLINE
  8
Unknown Area Type
  70
9
  66
1
  0
VERTEX
  8
Unknown Area Type
  70
32
  10
-5.07467314015193
  20
42.78208057073358
  30
1072.962
  0
VERTEX
  8
Unknown Area Type
  70
32
  10
-5.07342439711592
  20
42.78202665415633
  30
1092.023
  0
VERTEX
  8
Unknown Area Type
  70
32
  10
-5.07341798791848
  20
42.78201776527871
  30
1092.196
  0
VERTEX
  8
Unknown Area Type
  70
32
  10
-5.07324444920666
  20
42.73889596957576
  30
1110.722
  0
VERTEX
  8
Unknown Area Type
  70
32
  10
-5.09456924164085
  20
42.7358423108457
  30
1115.19
  0
VERTEX
  8
Unknown Area Type
  70
32
  10
-5.09462417899147
  20
42.73584130570116
  30
1115.256
  0
VERTEX
  8
Unknown Area Type
  70
32
  10
-5.09474747410156
  20
42.73587506986405
  30
1115.408
  0
VERTEX
  8
Unknown Area Type
  70
32
  10
-5.10450253652461
  20
42.73860478078732
  30
1110.84
  0
VERTEX
  8
Unknown Area Type
  70
32
  10
-5.10487992753469
  20
42.78223149448299
  30
1058.596
  0
VERTEX
  8
Unknown Area Type
  70
32
  10
-5.1017129377895
  20
42.78329373881651
  30
1054.654
  0
VERTEX
  8
Unknown Area Type
  70
32
  10
-5.10167017631577
  20
42.78329452393883
  30
1054.358
  0
VERTEX
  8
Unknown Area Type
  70
32
  10
-5.07470979275865
  20
42.78207990642832
  30
1073.117
  0
VERTEX
  8
Unknown Area Type
  70
32
  10
-5.07467314015193
  20
42.78208057073358
  30
1072.962
  0
SEQEND
  8
Unknown Area Type
  0
TEXT
  8
Unknown Area Type
 62
7
  1
PNOA-H_AMS_1956-57_33k_ES_PAN_2
 40
0.00045
  10
-5.08906214928821
  20
42.75967765463119
  0
POLYLINE
  8
Unknown Area Type
  70
9
  66
1
  0
VERTEX
  8
Unknown Area Type
  70
32
  10
-5.04122004288581
  20
42.7394849459175
  30
1003.888
  0
VERTEX
  8
Unknown Area Type
  70
32
  10
-5.02397320272936
  20
42.7360090304291
  30
1086.097
  0
VERTEX
  8
Unknown Area Type
  70
32
  10
-5.02246514621393
  20
42.70426576907419
  30
923.945
  0
VERTEX
  8
Unknown Area Type
  70
32
  10
-5.02893641468408
  20
42.7005222220694
  30
979.779
  0
VERTEX
  8
Unknown Area Type
  70
32
  10
-5.05901852242655
  20
42.70290284538536
  30
1055.46
  0
VERTEX
  8
Unknown Area Type
  70
32
  10
-5.06014543017907
  20
42.73567000200838
  30
1082.156
  0
VERTEX
  8
Unknown Area Type
  70
32
  10
-5.04124431407284
  20
42.73948001064539
  30
1004.076
  0
VERTEX
  8
Unknown Area Type
  70
32
  10
-5.04122004288581
  20
42.7394849459175
  30
1003.888
  0
SEQEND
  8
Unknown Area Type
  0
TEXT
  8
Unknown Area Type
 62
7
  1
PNOA-H_AMS_1956-57_33k_ES_PAN_2
 40
0.00045
  10
-5.04130536725466
  20
42.7204827169676
  0
POLYLINE
  8
Unknown Area Type
  70
9
  66
1
  0
VERTEX
  8
Unknown Area Type
  70
32
  10
-5.04122004288581
  20
42.7394849459175
  30
1003.888
  0
VERTEX
  8
Unknown Area Type
  70
32
  10
-5.02397320272936
  20
42.7360090304291
  30
1086.097
  0
VERTEX
  8
Unknown Area Type
  70
32
  10
-5.02246514621393
  20
42.70426576907419
  30
923.945
  0
VERTEX
  8
Unknown Area Type
  70
32
  10
-5.02893641468408
  20
42.7005222220694
  30
979.779
  0
VERTEX
  8
Unknown Area Type
  70
32
  10
-5.05901852242655
  20
42.70290284538536
  30
1055.46
  0
VERTEX
  8
Unknown Area Type
  70
32
  10
-5.06014543017907
  20
42.73567000200838
  30
1082.156
  0
VERTEX
  8
Unknown Area Type
  70
32
  10
-5.04124431407284
  20
42.73948001064539
  30
1004.076
  0
VERTEX
  8
Unknown Area Type
  70
32
  10
-5.04122004288581
  20
42.7394849459175
  30
1003.888
  0
SEQEND
  8
Unknown Area Type
  0
TEXT
  8
Unknown Area Type
 62
7
  1
PNOA-H_AMS_1956-57_33k_ES_PAN_2
 40
0.00045
  10
-5.04130536725466
  20
42.7204827169676
  0
POLYLINE
  8
Unknown Area Type
  70
9
  66
1
  0
VERTEX
  8
Unknown Area Type
  70
32
  10
-5.18749999999999
  20
42.75000000000004
  30
1054.12
  0
VERTEX
  8
Unknown Area Type
  70
32
  10
-5.18749999999999
  20
42.77083333333336
  30
1075.62
  0
VERTEX
  8
Unknown Area Type
  70
32
  10
-5.18749999999999
  20
42.78207793428641
  30
1077.271
  0
VERTEX
  8
Unknown Area Type
  70
32
  10
-5.1749053127255
  20
42.78173735316138
  30
1008.852
  0
VERTEX
  8
Unknown Area Type
  70
32
  10
-5.17480742177498
  20
42.78173471064846
  30
1009.912
  0
VERTEX
  8
Unknown Area Type
  70
32
  10
-5.16808365685863
  20
42.78155609557322
  30
1036.532
  0
VERTEX
  8
Unknown Area Type
  70
32
  10
-5.1671476113075
  20
42.73754408613506
  30
986.65
  0
VERTEX
  8
Unknown Area Type
  70
32
  10
-5.18749999999999
  20
42.73700974235648
  30
1000.118
  0
SEQEND
  8
Unknown Area Type
  0
TEXT
  8
Unknown Area Type
 62
7
  1
PNOA-H_AMS_1956-57_33k_ES_PAN_2
 40
0.00045
  10
-5.18342238081145
  20
42.75954044193965
  0
POLYLINE
  8
Unknown Area Type
  70
9
  66
1
  0
VERTEX
  8
Unknown Area Type
  70
32
  10
-5.18750033333333
  20
42.78207794330028
  30
1077.273
  0
VERTEX
  8
Unknown Area Type
  70
32
  10
-5.18749999999999
  20
42.78207793428641
  30
1077.271
  0
VERTEX
  8
Unknown Area Type
  70
32
  10
-5.18749999999999
  20
42.77083333333336
  30
1075.62
  0
VERTEX
  8
Unknown Area Type
  70
32
  10
-5.18749999999999
  20
42.75000000000004
  30
1054.12
  0
VERTEX
  8
Unknown Area Type
  70
32
  10
-5.18749999999999
  20
42.73700974235648
  30
1000.118
  0
VERTEX
  8
Unknown Area Type
  70
32
  10
-5.18750033333333
  20
42.73700973360495
  30
1000.118
  0
SEQEND
  8
Unknown Area Type
  0
TEXT
  8
Unknown Area Type
 62
7
  1
PNOA-H_AMS_1956-57_33k_ES_PAN_2
 40
0.00045
  10
-5.18750016666666
  20
42.75954383845261
  0
POLYLINE
  8
Unknown Area Type
  70
9
  66
1
  0
VERTEX
  8
Unknown Area Type
  70
32
  10
-5.18749999999999
  20
42.75000000000004
  30
1054.12
  0
VERTEX
  8
Unknown Area Type
  70
32
  10
-5.18749999999999
  20
42.77083333333336
  30
1075.62
  0
VERTEX
  8
Unknown Area Type
  70
32
  10
-5.18749999999999
  20
42.78207793428641
  30
1077.271
  0
VERTEX
  8
Unknown Area Type
  70
32
  10
-5.1749053127255
  20
42.78173735316138
  30
1008.852
  0
VERTEX
  8
Unknown Area Type
  70
32
  10
-5.17480742177498
  20
42.78173471064846
  30
1009.912
  0
VERTEX
  8
Unknown Area Type
  70
32
  10
-5.16808365685863
  20
42.78155609557322
  30
1036.532
  0
VERTEX
  8
Unknown Area Type
  70
32
  10
-5.1671476113075
  20
42.73754408613506
  30
986.65
  0
VERTEX
  8
Unknown Area Type
  70
32
  10
-5.18749999999999
  20
42.73700974235648
  30
1000.118
  0
SEQEND
  8
Unknown Area Type
  0
TEXT
  8
Unknown Area Type
 62
7
  1
PNOA-H_AMS_1956-57_33k_ES_PAN_2
 40
0.00045
  10
-5.18342238081145
  20
42.75954044193965
  0
POLYLINE
  8
Unknown Area Type
  70
9
  66
1
  0
VERTEX
  8
Unknown Area Type
  70
32
  10
-5.10263559561103
  20
42.83333333333339
  30
1121.083
  0
VERTEX
  8
Unknown Area Type
  70
32
  10
-5.07160613699988
  20
42.83333333333339
  30
1318.62
  0
VERTEX
  8
Unknown Area Type
  70
32
  10
-5.07202249070774
  20
42.82408710231683
  30
1245.421
  0
VERTEX
  8
Unknown Area Type
  70
32
  10
-5.10143681302601
  20
42.82353282304926
  30
1162.977
  0
VERTEX
  8
Unknown Area Type
  70
32
  10
-5.10299704890194
  20
42.8242695825794
  30
1158.561
  0
SEQEND
  8
Unknown Area Type
  0
TEXT
  8
Unknown Area Type
 62
7
  1
PNOA-H_AMS_1956-57_33k_ES_PAN_2
 40
0.00045
  10
-5.08730159295091
  20
42.82843307819132
  0
POLYLINE
  8
Unknown Area Type
  70
9
  66
1
  0
VERTEX
  8
Unknown Area Type
  70
32
  10
-5.10263558896453
  20
42.83333350000005
  30
1121.083
  0
VERTEX
  8
Unknown Area Type
  70
32
  10
-5.07160612949495
  20
42.83333350000005
  30
1318.621
  0
VERTEX
  8
Unknown Area Type
  70
32
  10
-5.07160613699988
  20
42.83333333333339
  30
1318.62
  0
VERTEX
  8
Unknown Area Type
  70
32
  10
-5.10263559561103
  20
42.83333333333339
  30
1121.083
  0
SEQEND
  8
Unknown Area Type
  0
TEXT
  8
Unknown Area Type
 62
7
  1
PNOA-H_AMS_1956-57_33k_ES_PAN_2
 40
0.00045
  10
-5.08712086255299
  20
42.83333341666672
  0
POLYLINE
  8
Unknown Area Type
  70
9
  66
1
  0
VERTEX
  8
Unknown Area Type
  70
32
  10
-5.10263559561103
  20
42.83333333333339
  30
1121.083
  0
VERTEX
  8
Unknown Area Type
  70
32
  10
-5.07160613699988
  20
42.83333333333339
  30
1318.62
  0
VERTEX
  8
Unknown Area Type
  70
32
  10
-5.07202249070774
  20
42.82408710231683
  30
1245.421
  0
VERTEX
  8
Unknown Area Type
  70
32
  10
-5.10143681302601
  20
42.82353282304926
  30
1162.977
  0
VERTEX
  8
Unknown Area Type
  70
32
  10
-5.10299704890194
  20
42.8242695825794
  30
1158.561
  0
SEQEND
  8
Unknown Area Type
  0
TEXT
  8
Unknown Area Type
 62
7
  1
PNOA-H_AMS_1956-57_33k_ES_PAN_2
 40
0.00045
  10
-5.08730159295091
  20
42.82843307819132
  0
POLYLINE
  8
Unknown Area Type
  70
9
  66
1
  0
VERTEX
  8
Unknown Area Type
  70
32
  10
-5.15914451695456
  20
42.82418317310032
  30
1353.868
  0
VERTEX
  8
Unknown Area Type
  70
32
  10
-5.15902226539248
  20
42.82418547929465
  30
1351.556
  0
VERTEX
  8
Unknown Area Type
  70
32
  10
-5.15896568577987
  20
42.82414152222264
  30
1353.828
  0
VERTEX
  8
Unknown Area Type
  70
32
  10
-5.15883732171035
  20
42.8241439435209
  30
1351.293
  0
VERTEX
  8
Unknown Area Type
  70
32
  10
-5.15860551830252
  20
42.82398622788613
  30
1359.871
  0
VERTEX
  8
Unknown Area Type
  70
32
  10
-5.1585928233442
  20
42.82397296000421
  30
1361.742
  0
VERTEX
  8
Unknown Area Type
  70
32
  10
-5.15859125722245
  20
42.82392796517451
  30
1369.027
  0
VERTEX
  8
Unknown Area Type
  70
32
  10
-5.15864486067211
  20
42.82388643226964
  30
1380.947
  0
VERTEX
  8
Unknown Area Type
  70
32
  10
-5.15882823717161
  20
42.82388297355293
  30
1395.085
  0
VERTEX
  8
Unknown Area Type
  70
32
  10
-5.15888481644613
  20
42.82392693070211
  30
1392.58
  0
VERTEX
  8
Unknown Area Type
  70
32
  10
-5.15895205453296
  20
42.8239256623982
  30
1392.557
  0
VERTEX
  8
Unknown Area Type
  70
32
  10
-5.15897070547127
  20
42.82393431545401
  30
1392.442
  0
VERTEX
  8
Unknown Area Type
  70
32
  10
-5.15900863393296
  20
42.82396961948303
  30
1389.165
  0
VERTEX
  8
Unknown Area Type
  70
32
  10
-5.15913699762733
  20
42.8239671980006
  30
1386.821
  0
VERTEX
  8
Unknown Area Type
  70
32
  10
-5.15925611274452
  20
42.82405049714988
  30
1370.565
  0
VERTEX
  8
Unknown Area Type
  70
32
  10
-5.15925767935512
  20
42.8240954919589
  30
1365.948
  0
VERTEX
  8
Unknown Area Type
  70
32
  10
-5.15915031622444
  20
42.82417405882492
  30
1354.636
  0
VERTEX
  8
Unknown Area Type
  70
32
  10
-5.15914451695456
  20
42.82418317310032
  30
1353.868
  0
SEQEND
  8
Unknown Area Type
  0
TEXT
  8
Unknown Area Type
 62
7
  1
PNOA-H_AMS_1956-57_33k_ES_PAN_2
 40
0.00045
  10
-5.15895461425904
  20
42.82403215764204
  0
POLYLINE
  8
Unknown Area Type
  70
9
  66
1
  0
VERTEX
  8
Unknown Area Type
  70
32
  10
-5.15914451695456
  20
42.82418317310032
  30
1353.868
  0
VERTEX
  8
Unknown Area Type
  70
32
  10
-5.15902226539248
  20
42.82418547929465
  30
1351.556
  0
VERTEX
  8
Unknown Area Type
  70
32
  10
-5.15896568577987
  20
42.82414152222264
  30
1353.828
  0
VERTEX
  8
Unknown Area Type
  70
32
  10
-5.15883732171035
  20
42.8241439435209
  30
1351.293
  0
VERTEX
  8
Unknown Area Type
  70
32
  10
-5.15860551830252
  20
42.82398622788613
  30
1359.871
  0
VERTEX
  8
Unknown Area Type
  70
32
  10
-5.1585928233442
  20
42.82397296000421
  30
1361.742
  0
VERTEX
  8
Unknown Area Type
  70
32
  10
-5.15859125722245
  20
42.82392796517451
  30
1369.027
  0
VERTEX
  8
Unknown Area Type
  70
32
  10
-5.15864486067211
  20
42.82388643226964
  30
1380.947
  0
VERTEX
  8
Unknown Area Type
  70
32
  10
-5.15882823717161
  20
42.82388297355293
  30
1395.085
  0
VERTEX
  8
Unknown Area Type
  70
32
  10
-5.15888481644613
  20
42.82392693070211
  30
1392.58
  0
VERTEX
  8
Unknown Area Type
  70
32
  10
-5.15895205453296
  20
42.8239256623982
  30
1392.557
  0
VERTEX
  8
Unknown Area Type
  70
32
  10
-5.15897070547127
  20
42.82393431545401
  30
1392.442
  0
VERTEX
  8
Unknown Area Type
  70
32
  10
-5.15900863393296
  20
42.82396961948303
  30
1389.165
  0
VERTEX
  8
Unknown Area Type
  70
32
  10
-5.15913699762733
  20
42.8239671980006
  30
1386.821
  0
VERTEX
  8
Unknown Area Type
  70
32
  10
-5.15925611274452
  20
42.82405049714988
  30
1370.565
  0
VERTEX
  8
Unknown Area Type
  70
32
  10
-5.15925767935512
  20
42.8240954919589
  30
1365.948
  0
VERTEX
  8
Unknown Area Type
  70
32
  10
-5.15915031622444
  20
42.82417405882492
  30
1354.636
  0
VERTEX
  8
Unknown Area Type
  70
32
  10
-5.15914451695456
  20
42.82418317310032
  30
1353.868
  0
SEQEND
  8
Unknown Area Type
  0
TEXT
  8
Unknown Area Type
 62
7
  1
PNOA-H_AMS_1956-57_33k_ES_PAN_2
 40
0.00045
  10
-5.15895461425904
  20
42.82403215764204
  0
POLYLINE
  8
Unknown Area Type
  70
9
  66
1
  0
VERTEX
  8
Unknown Area Type
  70
32
  10
-5.15760697888766
  20
42.82394202200878
  30
1346.633
  0
VERTEX
  8
Unknown Area Type
  70
32
  10
-5.15754585328405
  20
42.8239431742963
  30
1345.723
  0
VERTEX
  8
Unknown Area Type
  70
32
  10
-5.15748943144864
  20
42.82390371595087
  30
1349.941
  0
VERTEX
  8
Unknown Area Type
  70
32
  10
-5.15748630081664
  20
42.82381372622455
  30
1367.311
  0
VERTEX
  8
Unknown Area Type
  70
32
  10
-5.15753990493187
  20
42.82377219382244
  30
1379.237
  0
VERTEX
  8
Unknown Area Type
  70
32
  10
-5.15760103036727
  20
42.82377104154178
  30
1379.845
  0
VERTEX
  8
Unknown Area Type
  70
32
  10
-5.15764475742511
  20
42.82379723184138
  30
1374.918
  0
VERTEX
  8
Unknown Area Type
  70
32
  10
-5.1576574521473
  20
42.82381049983414
  30
1372.269
  0
VERTEX
  8
Unknown Area Type
  70
32
  10
-5.15766058302718
  20
42.82390048955036
  30
1353.635
  0
VERTEX
  8
Unknown Area Type
  70
32
  10
-5.15761277836562
  20
42.82393290780647
  30
1347.724
  0
VERTEX
  8
Unknown Area Type
  70
32
  10
-5.15760697888766
  20
42.82394202200878
  30
1346.633
  0
SEQEND
  8
Unknown Area Type
  0
TEXT
  8
Unknown Area Type
 62
7
  1
PNOA-H_AMS_1956-57_33k_ES_PAN_2
 40
0.00045
  10
-5.15757361214832
  20
42.82385511352515
  0
POLYLINE
  8
Unknown Area Type
  70
9
  66
1
  0
VERTEX
  8
Unknown Area Type
  70
32
  10
-5.15760697888766
  20
42.82394202200878
  30
1346.633
  0
VERTEX
  8
Unknown Area Type
  70
32
  10
-5.15754585328405
  20
42.8239431742963
  30
1345.723
  0
VERTEX
  8
Unknown Area Type
  70
32
  10
-5.15748943144864
  20
42.82390371595087
  30
1349.941
  0
VERTEX
  8
Unknown Area Type
  70
32
  10
-5.15748630081664
  20
42.82381372622455
  30
1367.311
  0
VERTEX
  8
Unknown Area Type
  70
32
  10
-5.15753990493187
  20
42.82377219382244
  30
1379.237
  0
VERTEX
  8
Unknown Area Type
  70
32
  10
-5.15760103036727
  20
42.82377104154178
  30
1379.845
  0
VERTEX
  8
Unknown Area Type
  70
32
  10
-5.15764475742511
  20
42.82379723184138
  30
1374.918
  0
VERTEX
  8
Unknown Area Type
  70
32
  10
-5.1576574521473
  20
42.82381049983414
  30
1372.269
  0
VERTEX
  8
Unknown Area Type
  70
32
  10
-5.15766058302718
  20
42.82390048955036
  30
1353.635
  0
VERTEX
  8
Unknown Area Type
  70
32
  10
-5.15761277836562
  20
42.82393290780647
  30
1347.724
  0
VERTEX
  8
Unknown Area Type
  70
32
  10
-5.15760697888766
  20
42.82394202200878
  30
1346.633
  0
SEQEND
  8
Unknown Area Type
  0
TEXT
  8
Unknown Area Type
 62
7
  1
PNOA-H_AMS_1956-57_33k_ES_PAN_2
 40
0.00045
  10
-5.15757361214832
  20
42.82385511352515
  0
POLYLINE
  8
Unknown Area Type
  70
9
  66
1
  0
VERTEX
  8
Unknown Area Type
  70
32
  10
-5.15809441782773
  20
42.82388780769012
  30
1361.05
  0
VERTEX
  8
Unknown Area Type
  70
32
  10
-5.15791104122526
  20
42.82389126523197
  30
1358.776
  0
VERTEX
  8
Unknown Area Type
  70
32
  10
-5.15789239044102
  20
42.82388261199982
  30
1359.307
  0
VERTEX
  8
Unknown Area Type
  70
32
  10
-5.15779192817304
  20
42.82380796463377
  30
1369.018
  0
VERTEX
  8
Unknown Area Type
  70
32
  10
-5.15778879711278
  20
42.82371797492387
  30
1384.47
  0
VERTEX
  8
Unknown Area Type
  70
32
  10
-5.15784240093944
  20
42.82367644238569
  30
1396.566
  0
VERTEX
  8
Unknown Area Type
  70
32
  10
-5.15796465159361
  20
42.82367413747291
  30
1401.121
  0
VERTEX
  8
Unknown Area Type
  70
32
  10
-5.15802123007659
  20
42.82371809506827
  30
1393.757
  0
VERTEX
  8
Unknown Area Type
  70
32
  10
-5.15808846797538
  20
42.8237168272764
  30
1392.302
  0
VERTEX
  8
Unknown Area Type
  70
32
  10
-5.15814489000514
  20
42.82375628532299
  30
1385.979
  0
VERTEX
  8
Unknown Area Type
  70
32
  10
-5.15814802158605
  20
42.82384627501118
  30
1368.88
  0
VERTEX
  8
Unknown Area Type
  70
32
  10
-5.15810021722828
  20
42.8238786934647
  30
1362.214
  0
VERTEX
  8
Unknown Area Type
  70
32
  10
-5.15809441782773
  20
42.82388780769012
  30
1361.05
  0
SEQEND
  8
Unknown Area Type
  0
TEXT
  8
Unknown Area Type
 62
7
  1
PNOA-H_AMS_1956-57_33k_ES_PAN_2
 40
0.00045
  10
-5.15796859845167
  20
42.82378068480809
  0
POLYLINE
  8
Unknown Area Type
  70
9
  66
1
  0
VERTEX
  8
Unknown Area Type
  70
32
  10
-5.15809441782773
  20
42.82388780769012
  30
1361.05
  0
VERTEX
  8
Unknown Area Type
  70
32
  10
-5.15791104122526
  20
42.82389126523197
  30
1358.776
  0
VERTEX
  8
Unknown Area Type
  70
32
  10
-5.15789239044102
  20
42.82388261199982
  30
1359.307
  0
VERTEX
  8
Unknown Area Type
  70
32
  10
-5.15779192817304
  20
42.82380796463377
  30
1369.018
  0
VERTEX
  8
Unknown Area Type
  70
32
  10
-5.15778879711278
  20
42.82371797492387
  30
1384.47
  0
VERTEX
  8
Unknown Area Type
  70
32
  10
-5.15784240093944
  20
42.82367644238569
  30
1396.566
  0
VERTEX
  8
Unknown Area Type
  70
32
  10
-5.15796465159361
  20
42.82367413747291
  30
1401.121
  0
VERTEX
  8
Unknown Area Type
  70
32
  10
-5.15802123007659
  20
42.82371809506827
  30
1393.757
  0
VERTEX
  8
Unknown Area Type
  70
32
  10
-5.15808846797538
  20
42.8237168272764
  30
1392.302
  0
VERTEX
  8
Unknown Area Type
  70
32
  10
-5.15814489000514
  20
42.82375628532299
  30
1385.979
  0
VERTEX
  8
Unknown Area Type
  70
32
  10
-5.15814802158605
  20
42.82384627501118
  30
1368.88
  0
VERTEX
  8
Unknown Area Type
  70
32
  10
-5.15810021722828
  20
42.8238786934647
  30
1362.214
  0
VERTEX
  8
Unknown Area Type
  70
32
  10
-5.15809441782773
  20
42.82388780769012
  30
1361.05
  0
SEQEND
  8
Unknown Area Type
  0
TEXT
  8
Unknown Area Type
 62
7
  1
PNOA-H_AMS_1956-57_33k_ES_PAN_2
 40
0.00045
  10
-5.15796859845167
  20
42.82378068480809
  0
POLYLINE
  8
Unknown Area Type
  70
9
  66
1
  0
VERTEX
  8
Unknown Area Type
  70
32
  10
-5.14698296369813
  20
42.82130526888472
  30
1287.12
  0
VERTEX
  8
Unknown Area Type
  70
32
  10
-5.14692152876236
  20
42.82129741640541
  30
1286.921
  0
VERTEX
  8
Unknown Area Type
  70
32
  10
-5.14687734063015
  20
42.82125772330013
  30
1291.122
  0
VERTEX
  8
Unknown Area Type
  70
32
  10
-5.14687484866708
  20
42.82118573098375
  30
1306.766
  0
VERTEX
  8
Unknown Area Type
  70
32
  10
-5.1469162332355
  20
42.82114443273736
  30
1320.61
  0
VERTEX
  8
Unknown Area Type
  70
32
  10
-5.14697704499992
  20
42.82113428714489
  30
1322.798
  0
VERTEX
  8
Unknown Area Type
  70
32
  10
-5.14704599394258
  20
42.82118252061152
  30
1314.345
  0
VERTEX
  8
Unknown Area Type
  70
32
  10
-5.14704848610393
  20
42.82125451291986
  30
1297.064
  0
VERTEX
  8
Unknown Area Type
  70
32
  10
-5.14699503262751
  20
42.82130054004948
  30
1287.993
  0
VERTEX
  8
Unknown Area Type
  70
32
  10
-5.14698296369813
  20
42.82130526888472
  30
1287.12
  0
SEQEND
  8
Unknown Area Type
  0
TEXT
  8
Unknown Area Type
 62
7
  1
PNOA-H_AMS_1956-57_33k_ES_PAN_2
 40
0.00045
  10
-5.14696200281709
  20
42.82121890441393
  0
POLYLINE
  8
Unknown Area Type
  70
9
  66
1
  0
VERTEX
  8
Unknown Area Type
  70
32
  10
-5.14698296369813
  20
42.82130526888472
  30
1287.12
  0
VERTEX
  8
Unknown Area Type
  70
32
  10
-5.14692152876236
  20
42.82129741640541
  30
1286.921
  0
VERTEX
  8
Unknown Area Type
  70
32
  10
-5.14687734063015
  20
42.82125772330013
  30
1291.122
  0
VERTEX
  8
Unknown Area Type
  70
32
  10
-5.14687484866708
  20
42.82118573098375
  30
1306.766
  0
VERTEX
  8
Unknown Area Type
  70
32
  10
-5.1469162332355
  20
42.82114443273736
  30
1320.61
  0
VERTEX
  8
Unknown Area Type
  70
32
  10
-5.14697704499992
  20
42.82113428714489
  30
1322.798
  0
VERTEX
  8
Unknown Area Type
  70
32
  10
-5.14704599394258
  20
42.82118252061152
  30
1314.345
  0
VERTEX
  8
Unknown Area Type
  70
32
  10
-5.14704848610393
  20
42.82125451291986
  30
1297.064
  0
VERTEX
  8
Unknown Area Type
  70
32
  10
-5.14699503262751
  20
42.82130054004948
  30
1287.993
  0
VERTEX
  8
Unknown Area Type
  70
32
  10
-5.14698296369813
  20
42.82130526888472
  30
1287.12
  0
SEQEND
  8
Unknown Area Type
  0
TEXT
  8
Unknown Area Type
 62
7
  1
PNOA-H_AMS_1956-57_33k_ES_PAN_2
 40
0.00045
  10
-5.14696200281709
  20
42.82121890441393
  0
POLYLINE
  8
Unknown Area Type
  70
9
  66
1
  0
VERTEX
  8
Unknown Area Type
  70
32
  10
-5.1417935715097
  20
42.82140249569807
  30
1181.147
  0
VERTEX
  8
Unknown Area Type
  70
32
  10
-5.14173229239765
  20
42.82139913995514
  30
1177.615
  0
VERTEX
  8
Unknown Area Type
  70
32
  10
-5.14168199506187
  20
42.82135955915044
  30
1177.053
  0
VERTEX
  8
Unknown Area Type
  70
32
  10
-5.1416791983752
  20
42.82127856752038
  30
1185.208
  0
VERTEX
  8
Unknown Area Type
  70
32
  10
-5.14172669889685
  20
42.82123715670014
  30
1199.322
  0
VERTEX
  8
Unknown Area Type
  70
32
  10
-5.14184267829896
  20
42.82123048394575
  30
1217.46
  0
VERTEX
  8
Unknown Area Type
  70
32
  10
-5.1419114680943
  20
42.82127422105606
  30
1214.806
  0
VERTEX
  8
Unknown Area Type
  70
32
  10
-5.14190690961108
  20
42.8213193307863
  30
1204.742
  0
VERTEX
  8
Unknown Area Type
  70
32
  10
-5.14180564087555
  20
42.82139776740122
  30
1182.319
  0
VERTEX
  8
Unknown Area Type
  70
32
  10
-5.1417935715097
  20
42.82140249569807
  30
1181.147
  0
SEQEND
  8
Unknown Area Type
  0
TEXT
  8
Unknown Area Type
 62
7
  1
PNOA-H_AMS_1956-57_33k_ES_PAN_2
 40
0.00045
  10
-5.14179428143807
  20
42.82131636009087
  0
POLYLINE
  8
Unknown Area Type
  70
9
  66
1
  0
VERTEX
  8
Unknown Area Type
  70
32
  10
-5.1417935715097
  20
42.82140249569807
  30
1181.147
  0
VERTEX
  8
Unknown Area Type
  70
32
  10
-5.14173229239765
  20
42.82139913995514
  30
1177.615
  0
VERTEX
  8
Unknown Area Type
  70
32
  10
-5.14168199506187
  20
42.82135955915044
  30
1177.053
  0
VERTEX
  8
Unknown Area Type
  70
32
  10
-5.1416791983752
  20
42.82127856752038
  30
1185.208
  0
VERTEX
  8
Unknown Area Type
  70
32
  10
-5.14172669889685
  20
42.82123715670014
  30
1199.322
  0
VERTEX
  8
Unknown Area Type
  70
32
  10
-5.14184267829896
  20
42.82123048394575
  30
1217.46
  0
VERTEX
  8
Unknown Area Type
  70
32
  10
-5.1419114680943
  20
42.82127422105606
  30
1214.806
  0
VERTEX
  8
Unknown Area Type
  70
32
  10
-5.14190690961108
  20
42.8213193307863
  30
1204.742
  0
VERTEX
  8
Unknown Area Type
  70
32
  10
-5.14180564087555
  20
42.82139776740122
  30
1182.319
  0
VERTEX
  8
Unknown Area Type
  70
32
  10
-5.1417935715097
  20
42.82140249569807
  30
1181.147
  0
SEQEND
  8
Unknown Area Type
  0
TEXT
  8
Unknown Area Type
 62
7
  1
PNOA-H_AMS_1956-57_33k_ES_PAN_2
 40
0.00045
  10
-5.14179428143807
  20
42.82131636009087
  0
POLYLINE
  8
Unknown Area Type
  70
9
  66
1
  0
VERTEX
  8
Unknown Area Type
  70
32
  10
-5.16348151659068
  20
42.83333333333339
  30
1274.236
  0
VERTEX
  8
Unknown Area Type
  70
32
  10
-5.14583333333336
  20
42.83333333333339
  30
1192.654
  0
VERTEX
  8
Unknown Area Type
  70
32
  10
-5.13255937519578
  20
42.83333333333339
  30
1113.278
  0
VERTEX
  8
Unknown Area Type
  70
32
  10
-5.13243306496183
  20
42.82417518553989
  30
1148.864
  0
VERTEX
  8
Unknown Area Type
  70
32
  10
-5.13392733417433
  20
42.82351699371825
  30
1150.555
  0
VERTEX
  8
Unknown Area Type
  70
32
  10
-5.13411102222167
  20
42.82352257372009
  30
1160.263
  0
VERTEX
  8
Unknown Area Type
  70
32
  10
-5.13412402162496
  20
42.82354484354626
  30
1163.478
  0
VERTEX
  8
Unknown Area Type
  70
32
  10
-5.13416773896251
  20
42.8235710430383
  30
1167.519
  0
VERTEX
  8
Unknown Area Type
  70
32
  10
-5.13465674824976
  20
42.8235619237259
  30
1188.48
  0
VERTEX
  8
Unknown Area Type
  70
32
  10
-5.13468057920414
  20
42.82354346949028
  30
1186.517
  0
VERTEX
  8
Unknown Area Type
  70
32
  10
-5.13470502965487
  20
42.82354301346495
  30
1186.525
  0
VERTEX
  8
Unknown Area Type
  70
32
  10
-5.13476019804864
  20
42.82354648694247
  30
1187.619
  0
VERTEX
  8
Unknown Area Type
  70
32
  10
-5.13477900053598
  20
42.82355964357174
  30
1190.224
  0
VERTEX
  8
Unknown Area Type
  70
32
  10
-5.13504795551557
  20
42.82355462677349
  30
1181.607
  0
VERTEX
  8
Unknown Area Type
  70
32
  10
-5.13528681213153
  20
42.82356367819433
  30
1171.392
  0
VERTEX
  8
Unknown Area Type
  70
32
  10
-5.13539336030908
  20
42.82363823187836
  30
1182.104
  0
VERTEX
  8
Unknown Area Type
  70
32
  10
-5.13546059911867
  20
42.82363697737539
  30
1180.863
  0
VERTEX
  8
Unknown Area Type
  70
32
  10
-5.13552327468152
  20
42.82368083239646
  30
1183.035
  0
VERTEX
  8
Unknown Area Type
  70
32
  10
-5.13552497899929
  20
42.82373032745978
  30
1189.551
  0
VERTEX
  8
Unknown Area Type
  70
32
  10
-5.13553766907216
  20
42.82374359801027
  30
1190.157
  0
VERTEX
  8
Unknown Area Type
  70
32
  10
-5.13564406291258
  20
42.82381365189447
  30
1200.416
  0
VERTEX
  8
Unknown Area Type
  70
32
  10
-5.13588856830538
  20
42.82380908932611
  30
1192.437
  0
VERTEX
  8
Unknown Area Type
  70
32
  10
-5.13594203232316
  20
42.82376306717713
  30
1184.112
  0
VERTEX
  8
Unknown Area Type
  70
32
  10
-5.13601538387292
  20
42.82376169827181
  30
1177.363
  0
VERTEX
  8
Unknown Area Type
  70
32
  10
-5.13595596224827
  20
42.82381233407821
  30
1190.087
  0
VERTEX
  8
Unknown Area Type
  70
32
  10
-5.13595906165286
  20
42.82390232507461
  30
1206.697
  0
VERTEX
  8
Unknown Area Type
  70
32
  10
-5.13601547021111
  20
42.82394179433562
  30
1210.122
  0
VERTEX
  8
Unknown Area Type
  70
32
  10
-5.13663284734371
  20
42.82393027081604
  30
1199.923
  0
VERTEX
  8
Unknown Area Type
  70
32
  10
-5.1366894113676
  20
42.82397423928236
  30
1203.332
  0
VERTEX
  8
Unknown Area Type
  70
32
  10
-5.13687279076711
  20
42.82397081572065
  30
1196.082
  0
VERTEX
  8
Unknown Area Type
  70
32
  10
-5.13692625417045
  20
42.82392479312588
  30
1189.641
  0
VERTEX
  8
Unknown Area Type
  70
32
  10
-5.13718298507652
  20
42.82391999953074
  30
1173.179
  0
VERTEX
  8
Unknown Area Type
  70
32
  10
-5.13723954946996
  20
42.82396396771687
  30
1176.986
  0
VERTEX
  8
Unknown Area Type
  70
32
  10
-5.1373618023424
  20
42.8239616847881
  30
1172.091
  0
VERTEX
  8
Unknown Area Type
  70
32
  10
-5.13741542044223
  20
42.82392016151833
  30
1163.616
  0
VERTEX
  8
Unknown Area Type
  70
32
  10
-5.13741355952923
  20
42.82386616697215
  30
1153.768
  0
VERTEX
  8
Unknown Area Type
  70
32
  10
-5.13766433257293
  20
42.82386598600029
  30
1146.701
  0
VERTEX
  8
Unknown Area Type
  70
32
  10
-5.13771795038426
  20
42.82382446259432
  30
1134.694
  0
VERTEX
  8
Unknown Area Type
  70
32
  10
-5.13771639940886
  20
42.82377946714734
  30
1127.527
  0
VERTEX
  8
Unknown Area Type
  70
32
  10
-5.13765998995337
  20
42.82373999874422
  30
1124.468
  0
VERTEX
  8
Unknown Area Type
  70
32
  10
-5.13741548511541
  20
42.82374456508918
  30
1132.141
  0
VERTEX
  8
Unknown Area Type
  70
32
  10
-5.13737362719706
  20
42.82377236142037
  30
1135.988
  0
VERTEX
  8
Unknown Area Type
  70
32
  10
-5.1373621773062
  20
42.82379508744836
  30
1139.176
  0
VERTEX
  8
Unknown Area Type
  70
32
  10
-5.13728867071498
  20
42.82379195767129
  30
1140.554
  0
VERTEX
  8
Unknown Area Type
  70
32
  10
-5.13710675293057
  20
42.8236602813555
  30
1131.277
  0
VERTEX
  8
Unknown Area Type
  70
32
  10
-5.13661163103193
  20
42.82366952525671
  30
1142.259
  0
VERTEX
  8
Unknown Area Type
  70
32
  10
-5.13655506734834
  20
42.82362555674249
  30
1139.002
  0
VERTEX
  8
Unknown Area Type
  70
32
  10
-5.13648782859913
  20
42.82362681188787
  30
1140.08
  0
VERTEX
  8
Unknown Area Type
  70
32
  10
-5.13646871572757
  20
42.82360465645085
  30
1139.563
  0
VERTEX
  8
Unknown Area Type
  70
32
  10
-5.13649316617391
  20
42.82360420004319
  30
1138.961
  0
VERTEX
  8
Unknown Area Type
  70
32
  10
-5.16371376191302
  20
42.82453812226417
  30
1290.22
  0
SEQEND
  8
Unknown Area Type
  0
TEXT
  8
Unknown Area Type
 62
7
  1
PNOA-H_AMS_1956-57_33k_ES_PAN_2
 40
0.00045
  10
-5.14807341343743
  20
42.82842516352582
  0
POLYLINE
  8
Unknown Area Type
  70
9
  66
1
  0
VERTEX
  8
Unknown Area Type
  70
32
  10
-5.1634815121897
  20
42.83333350000005
  30
1274.236
  0
VERTEX
  8
Unknown Area Type
  70
32
  10
-5.13255937749447
  20
42.83333350000005
  30
1113.278
  0
VERTEX
  8
Unknown Area Type
  70
32
  10
-5.13255937519578
  20
42.83333333333339
  30
1113.278
  0
VERTEX
  8
Unknown Area Type
  70
32
  10
-5.14583333333336
  20
42.83333333333339
  30
1192.654
  0
VERTEX
  8
Unknown Area Type
  70
32
  10
-5.16348151659068
  20
42.83333333333339
  30
1274.236
  0
SEQEND
  8
Unknown Area Type
  0
TEXT
  8
Unknown Area Type
 62
7
  1
PNOA-H_AMS_1956-57_33k_ES_PAN_2
 40
0.00045
  10
-5.14802044589323
  20
42.83333341666672
  0
POLYLINE
  8
Unknown Area Type
  70
9
  66
1
  0
VERTEX
  8
Unknown Area Type
  70
32
  10
-5.16348151659068
  20
42.83333333333339
  30
1274.236
  0
VERTEX
  8
Unknown Area Type
  70
32
  10
-5.14583333333336
  20
42.83333333333339
  30
1192.654
  0
VERTEX
  8
Unknown Area Type
  70
32
  10
-5.13255937519578
  20
42.83333333333339
  30
1113.278
  0
VERTEX
  8
Unknown Area Type
  70
32
  10
-5.13243306496183
  20
42.82417518553989
  30
1148.864
  0
VERTEX
  8
Unknown Area Type
  70
32
  10
-5.13392733417433
  20
42.82351699371825
  30
1150.555
  0
VERTEX
  8
Unknown Area Type
  70
32
  10
-5.13411102222167
  20
42.82352257372009
  30
1160.263
  0
VERTEX
  8
Unknown Area Type
  70
32
  10
-5.13412402162496
  20
42.82354484354626
  30
1163.478
  0
VERTEX
  8
Unknown Area Type
  70
32
  10
-5.13416773896251
  20
42.8235710430383
  30
1167.519
  0
VERTEX
  8
Unknown Area Type
  70
32
  10
-5.13465674824976
  20
42.8235619237259
  30
1188.48
  0
VERTEX
  8
Unknown Area Type
  70
32
  10
-5.13468057920414
  20
42.82354346949028
  30
1186.517
  0
VERTEX
  8
Unknown Area Type
  70
32
  10
-5.13470502965487
  20
42.82354301346495
  30
1186.525
  0
VERTEX
  8
Unknown Area Type
  70
32
  10
-5.13476019804864
  20
42.82354648694247
  30
1187.619
  0
VERTEX
  8
Unknown Area Type
  70
32
  10
-5.13477900053598
  20
42.82355964357174
  30
1190.224
  0
VERTEX
  8
Unknown Area Type
  70
32
  10
-5.13504795551557
  20
42.82355462677349
  30
1181.607
  0
VERTEX
  8
Unknown Area Type
  70
32
  10
-5.13528681213153
  20
42.82356367819433
  30
1171.392
  0
VERTEX
  8
Unknown Area Type
  70
32
  10
-5.13539336030908
  20
42.82363823187836
  30
1182.104
  0
VERTEX
  8
Unknown Area Type
  70
32
  10
-5.13546059911867
  20
42.82363697737539
  30
1180.863
  0
VERTEX
  8
Unknown Area Type
  70
32
  10
-5.13552327468152
  20
42.82368083239646
  30
1183.035
  0
VERTEX
  8
Unknown Area Type
  70
32
  10
-5.13552497899929
  20
42.82373032745978
  30
1189.551
  0
VERTEX
  8
Unknown Area Type
  70
32
  10
-5.13553766907216
  20
42.82374359801027
  30
1190.157
  0
VERTEX
  8
Unknown Area Type
  70
32
  10
-5.13564406291258
  20
42.82381365189447
  30
1200.416
  0
VERTEX
  8
Unknown Area Type
  70
32
  10
-5.13588856830538
  20
42.82380908932611
  30
1192.437
  0
VERTEX
  8
Unknown Area Type
  70
32
  10
-5.13594203232316
  20
42.82376306717713
  30
1184.112
  0
VERTEX
  8
Unknown Area Type
  70
32
  10
-5.13601538387292
  20
42.82376169827181
  30
1177.363
  0
VERTEX
  8
Unknown Area Type
  70
32
  10
-5.13595596224827
  20
42.82381233407821
  30
1190.087
  0
VERTEX
  8
Unknown Area Type
  70
32
  10
-5.13595906165286
  20
42.82390232507461
  30
1206.697
  0
VERTEX
  8
Unknown Area Type
  70
32
  10
-5.13601547021111
  20
42.82394179433562
  30
1210.122
  0
VERTEX
  8
Unknown Area Type
  70
32
  10
-5.13663284734371
  20
42.82393027081604
  30
1199.923
  0
VERTEX
  8
Unknown Area Type
  70
32
  10
-5.1366894113676
  20
42.82397423928236
  30
1203.332
  0
VERTEX
  8
Unknown Area Type
  70
32
  10
-5.13687279076711
  20
42.82397081572065
  30
1196.082
  0
VERTEX
  8
Unknown Area Type
  70
32
  10
-5.13692625417045
  20
42.82392479312588
  30
1189.641
  0
VERTEX
  8
Unknown Area Type
  70
32
  10
-5.13718298507652
  20
42.82391999953074
  30
1173.179
  0
VERTEX
  8
Unknown Area Type
  70
32
  10
-5.13723954946996
  20
42.82396396771687
  30
1176.986
  0
VERTEX
  8
Unknown Area Type
  70
32
  10
-5.1373618023424
  20
42.8239616847881
  30
1172.091
  0
VERTEX
  8
Unknown Area Type
  70
32
  10
-5.13741542044223
  20
42.82392016151833
  30
1163.616
  0
VERTEX
  8
Unknown Area Type
  70
32
  10
-5.13741355952923
  20
42.82386616697215
  30
1153.768
  0
VERTEX
  8
Unknown Area Type
  70
32
  10
-5.13766433257293
  20
42.82386598600029
  30
1146.701
  0
VERTEX
  8
Unknown Area Type
  70
32
  10
-5.13771795038426
  20
42.82382446259432
  30
1134.694
  0
VERTEX
  8
Unknown Area Type
  70
32
  10
-5.13771639940886
  20
42.82377946714734
  30
1127.527
  0
VERTEX
  8
Unknown Area Type
  70
32
  10
-5.13765998995337
  20
42.82373999874422
  30
1124.468
  0
VERTEX
  8
Unknown Area Type
  70
32
  10
-5.13741548511541
  20
42.82374456508918
  30
1132.141
  0
VERTEX
  8
Unknown Area Type
  70
32
  10
-5.13737362719706
  20
42.82377236142037
  30
1135.988
  0
VERTEX
  8
Unknown Area Type
  70
32
  10
-5.1373621773062
  20
42.82379508744836
  30
1139.176
  0
VERTEX
  8
Unknown Area Type
  70
32
  10
-5.13728867071498
  20
42.82379195767129
  30
1140.554
  0
VERTEX
  8
Unknown Area Type
  70
32
  10
-5.13710675293057
  20
42.8236602813555
  30
1131.277
  0
VERTEX
  8
Unknown Area Type
  70
32
  10
-5.13661163103193
  20
42.82366952525671
  30
1142.259
  0
VERTEX
  8
Unknown Area Type
  70
32
  10
-5.13655506734834
  20
42.82362555674249
  30
1139.002
  0
VERTEX
  8
Unknown Area Type
  70
32
  10
-5.13648782859913
  20
42.82362681188787
  30
1140.08
  0
VERTEX
  8
Unknown Area Type
  70
32
  10
-5.13646871572757
  20
42.82360465645085
  30
1139.563
  0
VERTEX
  8
Unknown Area Type
  70
32
  10
-5.13649316617391
  20
42.82360420004319
  30
1138.961
  0
VERTEX
  8
Unknown Area Type
  70
32
  10
-5.16371376191302
  20
42.82453812226417
  30
1290.22
  0
SEQEND
  8
Unknown Area Type
  0
TEXT
  8
Unknown Area Type
 62
7
  1
PNOA-H_AMS_1956-57_33k_ES_PAN_2
 40
0.00045
  10
-5.14807341343743
  20
42.82842516352582
  0
POLYLINE
  8
Unknown Area Type
  70
9
  66
1
  0
VERTEX
  8
Unknown Area Type
  70
32
  10
-4.85521130914712
  20
42.70040256899449
  30
1098.709
  0
VERTEX
  8
Unknown Area Type
  70
32
  10
-4.8541666666667
  20
42.70083093453478
  30
1098.551
  0
VERTEX
  8
Unknown Area Type
  70
32
  10
-4.8541666666667
  20
42.68750000000001
  30
1089.118
  0
VERTEX
  8
Unknown Area Type
  70
32
  10
-4.8541666666667
  20
42.66907933734248
  30
1073.68
  0
VERTEX
  8
Unknown Area Type
  70
32
  10
-4.85622844374971
  20
42.66938118637504
  30
1075.564
  0
SEQEND
  8
Unknown Area Type
  0
TEXT
  8
Unknown Area Type
 62
7
  1
PNOA-H_AMS_1956-57_33k_ES_PAN_2
 40
0.00045
  10
-4.8551975552082
  20
42.68495513593863
  0
POLYLINE
  8
Unknown Area Type
  70
9
  66
1
  0
VERTEX
  8
Unknown Area Type
  70
32
  10
-4.85521130914712
  20
42.70040256899449
  30
1098.709
  0
VERTEX
  8
Unknown Area Type
  70
32
  10
-4.8541666666667
  20
42.70083093453478
  30
1098.551
  0
VERTEX
  8
Unknown Area Type
  70
32
  10
-4.8541666666667
  20
42.68750000000001
  30
1089.118
  0
VERTEX
  8
Unknown Area Type
  70
32
  10
-4.8541666666667
  20
42.66907933734248
  30
1073.68
  0
VERTEX
  8
Unknown Area Type
  70
32
  10
-4.85622844374971
  20
42.66938118637504
  30
1075.564
  0
SEQEND
  8
Unknown Area Type
  0
TEXT
  8
Unknown Area Type
 62
7
  1
PNOA-H_AMS_1956-57_33k_ES_PAN_2
 40
0.00045
  10
-4.8551975552082
  20
42.68495513593863
  0
POLYLINE
  8
Unknown Area Type
  70
9
  66
1
  0
VERTEX
  8
Unknown Area Type
  70
32
  10
-4.89327417162002
  20
42.83333333333339
  30
1462.541
  0
VERTEX
  8
Unknown Area Type
  70
32
  10
-4.86535660102178
  20
42.83333333333339
  30
1326.295
  0
VERTEX
  8
Unknown Area Type
  70
32
  10
-4.86550535132127
  20
42.82364552000248
  30
1194.963
  0
VERTEX
  8
Unknown Area Type
  70
32
  10
-4.8754739153723
  20
42.82056050348085
  30
1258.642
  0
VERTEX
  8
Unknown Area Type
  70
32
  10
-4.8932418687363
  20
42.82396905865593
  30
1477.521
  0
SEQEND
  8
Unknown Area Type
  0
TEXT
  8
Unknown Area Type
 62
7
  1
PNOA-H_AMS_1956-57_33k_ES_PAN_2
 40
0.00045
  10
-4.8793153863209
  20
42.82694691840712
  0
POLYLINE
  8
Unknown Area Type
  70
9
  66
1
  0
VERTEX
  8
Unknown Area Type
  70
32
  10
-4.89327417219495
  20
42.83333350000005
  30
1462.541
  0
VERTEX
  8
Unknown Area Type
  70
32
  10
-4.86535659846272
  20
42.83333350000005
  30
1326.297
  0
VERTEX
  8
Unknown Area Type
  70
32
  10
-4.86535660102178
  20
42.83333333333339
  30
1326.295
  0
VERTEX
  8
Unknown Area Type
  70
32
  10
-4.89327417162002
  20
42.83333333333339
  30
1462.541
  0
SEQEND
  8
Unknown Area Type
  0
TEXT
  8
Unknown Area Type
 62
7
  1
PNOA-H_AMS_1956-57_33k_ES_PAN_2
 40
0.00045
  10
-4.87931538532883
  20
42.83333341666672
  0
POLYLINE
  8
Unknown Area Type
  70
9
  66
1
  0
VERTEX
  8
Unknown Area Type
  70
32
  10
-4.89327417162002
  20
42.83333333333339
  30
1462.541
  0
VERTEX
  8
Unknown Area Type
  70
32
  10
-4.86535660102178
  20
42.83333333333339
  30
1326.295
  0
VERTEX
  8
Unknown Area Type
  70
32
  10
-4.86550535132127
  20
42.82364552000248
  30
1194.963
  0
VERTEX
  8
Unknown Area Type
  70
32
  10
-4.8754739153723
  20
42.82056050348085
  30
1258.642
  0
VERTEX
  8
Unknown Area Type
  70
32
  10
-4.8932418687363
  20
42.82396905865593
  30
1477.521
  0
SEQEND
  8
Unknown Area Type
  0
TEXT
  8
Unknown Area Type
 62
7
  1
PNOA-H_AMS_1956-57_33k_ES_PAN_2
 40
0.00045
  10
-4.8793153863209
  20
42.82694691840712
  0
POLYLINE
  8
Unknown Area Type
  70
9
  66
1
  0
VERTEX
  8
Unknown Area Type
  70
32
  10
-4.95106778950095
  20
42.83333333333339
  30
1034.511
  0
VERTEX
  8
Unknown Area Type
  70
32
  10
-4.93749999999995
  20
42.83333333333339
  30
1144.702
  0
VERTEX
  8
Unknown Area Type
  70
32
  10
-4.92215739320929
  20
42.83333333333339
  30
1230.769
  0
VERTEX
  8
Unknown Area Type
  70
32
  10
-4.92215233999788
  20
42.82407255546338
  30
1253.05
  0
VERTEX
  8
Unknown Area Type
  70
32
  10
-4.93949359116524
  20
42.82017804854785
  30
1104.295
  0
VERTEX
  8
Unknown Area Type
  70
32
  10
-4.95098505945389
  20
42.82384138800587
  30
1025.678
  0
SEQEND
  8
Unknown Area Type
  0
TEXT
  8
Unknown Area Type
 62
7
  1
PNOA-H_AMS_1956-57_33k_ES_PAN_2
 40
0.00045
  10
-4.93661006474941
  20
42.82675569094062
  0
POLYLINE
  8
Unknown Area Type
  70
9
  66
1
  0
VERTEX
  8
Unknown Area Type
  70
32
  10
-4.95106779095358
  20
42.83333350000005
  30
1034.511
  0
VERTEX
  8
Unknown Area Type
  70
32
  10
-4.92215739330023
  20
42.83333350000005
  30
1230.769
  0
VERTEX
  8
Unknown Area Type
  70
32
  10
-4.92215739320929
  20
42.83333333333339
  30
1230.769
  0
VERTEX
  8
Unknown Area Type
  70
32
  10
-4.93749999999995
  20
42.83333333333339
  30
1144.702
  0
VERTEX
  8
Unknown Area Type
  70
32
  10
-4.95106778950095
  20
42.83333333333339
  30
1034.511
  0
SEQEND
  8
Unknown Area Type
  0
TEXT
  8
Unknown Area Type
 62
7
  1
PNOA-H_AMS_1956-57_33k_ES_PAN_2
 40
0.00045
  10
-4.93661259208143
  20
42.83333341666672
  0
POLYLINE
  8
Unknown Area Type
  70
9
  66
1
  0
VERTEX
  8
Unknown Area Type
  70
32
  10
-4.95106778950095
  20
42.83333333333339
  30
1034.511
  0
VERTEX
  8
Unknown Area Type
  70
32
  10
-4.93749999999995
  20
42.83333333333339
  30
1144.702
  0
VERTEX
  8
Unknown Area Type
  70
32
  10
-4.92215739320929
  20
42.83333333333339
  30
1230.769
  0
VERTEX
  8
Unknown Area Type
  70
32
  10
-4.92215233999788
  20
42.82407255546338
  30
1253.05
  0
VERTEX
  8
Unknown Area Type
  70
32
  10
-4.93949359116524
  20
42.82017804854785
  30
1104.295
  0
VERTEX
  8
Unknown Area Type
  70
32
  10
-4.95098505945389
  20
42.82384138800587
  30
1025.678
  0
SEQEND
  8
Unknown Area Type
  0
TEXT
  8
Unknown Area Type
 62
7
  1
PNOA-H_AMS_1956-57_33k_ES_PAN_2
 40
0.00045
  10
-4.93661006474941
  20
42.82675569094062
  0
POLYLINE
  8
Unknown Area Type
  70
9
  66
1
  0
VERTEX
  8
Unknown Area Type
  70
32
  10
-5.07160613699988
  20
42.83333333333339
  30
1318.62
  0
VERTEX
  8
Unknown Area Type
  70
32
  10
-5.06250000000002
  20
42.83333333333339
  30
1321.859
  0
VERTEX
  8
Unknown Area Type
  70
32
  10
-5.04168286408566
  20
42.83333333333339
  30
1251.567
  0
VERTEX
  8
Unknown Area Type
  70
32
  10
-5.04199386575676
  20
42.82364973342672
  30
1256.48
  0
VERTEX
  8
Unknown Area Type
  70
32
  10
-5.06089490109287
  20
42.82330646753987
  30
1346.228
  0
VERTEX
  8
Unknown Area Type
  70
32
  10
-5.06993581048857
  20
42.82314332284204
  30
1271.62
  0
VERTEX
  8
Unknown Area Type
  70
32
  10
-5.07202249070774
  20
42.82408710231683
  30
1245.421
  0
SEQEND
  8
Unknown Area Type
  0
TEXT
  8
Unknown Area Type
 62
7
  1
PNOA-H_AMS_1956-57_33k_ES_PAN_2
 40
0.00045
  10
-5.0568526773967
  20
42.82823832808771
  0
POLYLINE
  8
Unknown Area Type
  70
9
  66
1
  0
VERTEX
  8
Unknown Area Type
  70
32
  10
-5.07160612949495
  20
42.83333350000005
  30
1318.621
  0
VERTEX
  8
Unknown Area Type
  70
32
  10
-5.04168285873294
  20
42.83333350000005
  30
1251.567
  0
VERTEX
  8
Unknown Area Type
  70
32
  10
-5.04168286408566
  20
42.83333333333339
  30
1251.567
  0
VERTEX
  8
Unknown Area Type
  70
32
  10
-5.06250000000002
  20
42.83333333333339
  30
1321.859
  0
VERTEX
  8
Unknown Area Type
  70
32
  10
-5.07160613699988
  20
42.83333333333339
  30
1318.62
  0
SEQEND
  8
Unknown Area Type
  0
TEXT
  8
Unknown Area Type
 62
7
  1
PNOA-H_AMS_1956-57_33k_ES_PAN_2
 40
0.00045
  10
-5.05664449786641
  20
42.83333341666672
  0
POLYLINE
  8
Unknown Area Type
  70
9
  66
1
  0
VERTEX
  8
Unknown Area Type
  70
32
  10
-5.07160613699988
  20
42.83333333333339
  30
1318.62
  0
VERTEX
  8
Unknown Area Type
  70
32
  10
-5.06250000000002
  20
42.83333333333339
  30
1321.859
  0
VERTEX
  8
Unknown Area Type
  70
32
  10
-5.04168286408566
  20
42.83333333333339
  30
1251.567
  0
VERTEX
  8
Unknown Area Type
  70
32
  10
-5.04199386575676
  20
42.82364973342672
  30
1256.48
  0
VERTEX
  8
Unknown Area Type
  70
32
  10
-5.06089490109287
  20
42.82330646753987
  30
1346.228
  0
VERTEX
  8
Unknown Area Type
  70
32
  10
-5.06993581048857
  20
42.82314332284204
  30
1271.62
  0
VERTEX
  8
Unknown Area Type
  70
32
  10
-5.07202249070774
  20
42.82408710231683
  30
1245.421
  0
SEQEND
  8
Unknown Area Type
  0
TEXT
  8
Unknown Area Type
 62
7
  1
PNOA-H_AMS_1956-57_33k_ES_PAN_2
 40
0.00045
  10
-5.0568526773967
  20
42.82823832808771
  0
POLYLINE
  8
Unknown Area Type
  70
9
  66
1
  0
VERTEX
  8
Unknown Area Type
  70
32
  10
-5.04168286408566
  20
42.83333333333339
  30
1251.567
  0
VERTEX
  8
Unknown Area Type
  70
32
  10
-5.0208333333333
  20
42.83333333333339
  30
1097.751
  0
VERTEX
  8
Unknown Area Type
  70
32
  10
-5.01191653518735
  20
42.83333333333339
  30
1100.723
  0
VERTEX
  8
Unknown Area Type
  70
32
  10
-5.01236312104272
  20
42.82434111026699
  30
1040.228
  0
VERTEX
  8
Unknown Area Type
  70
32
  10
-5.03801762076343
  20
42.82196013851133
  30
1239.518
  0
VERTEX
  8
Unknown Area Type
  70
32
  10
-5.03807263626078
  20
42.82195915891781
  30
1240.653
  0
VERTEX
  8
Unknown Area Type
  70
32
  10
-5.03811601754932
  20
42.82197639632098
  30
1242.025
  0
VERTEX
  8
Unknown Area Type
  70
32
  10
-5.04199386575676
  20
42.82364973342672
  30
1256.48
  0
SEQEND
  8
Unknown Area Type
  0
TEXT
  8
Unknown Area Type
 62
7
  1
PNOA-H_AMS_1956-57_33k_ES_PAN_2
 40
0.00045
  10
-5.02695520047206
  20
42.8276462461256
  0
POLYLINE
  8
Unknown Area Type
  70
9
  66
1
  0
VERTEX
  8
Unknown Area Type
  70
32
  10
-5.04168285873294
  20
42.83333350000005
  30
1251.567
  0
VERTEX
  8
Unknown Area Type
  70
32
  10
-5.01191652691009
  20
42.83333350000005
  30
1100.724
  0
VERTEX
  8
Unknown Area Type
  70
32
  10
-5.01191653518735
  20
42.83333333333339
  30
1100.723
  0
VERTEX
  8
Unknown Area Type
  70
32
  10
-5.0208333333333
  20
42.83333333333339
  30
1097.751
  0
VERTEX
  8
Unknown Area Type
  70
32
  10
-5.04168286408566
  20
42.83333333333339
  30
1251.567
  0
SEQEND
  8
Unknown Area Type
  0
TEXT
  8
Unknown Area Type
 62
7
  1
PNOA-H_AMS_1956-57_33k_ES_PAN_2
 40
0.00045
  10
-5.02679969549787
  20
42.83333341666672
  0
POLYLINE
  8
Unknown Area Type
  70
9
  66
1
  0
VERTEX
  8
Unknown Area Type
  70
32
  10
-5.04168286408566
  20
42.83333333333339
  30
1251.567
  0
VERTEX
  8
Unknown Area Type
  70
32
  10
-5.0208333333333
  20
42.83333333333339
  30
1097.751
  0
VERTEX
  8
Unknown Area Type
  70
32
  10
-5.01191653518735
  20
42.83333333333339
  30
1100.723
  0
VERTEX
  8
Unknown Area Type
  70
32
  10
-5.01236312104272
  20
42.82434111026699
  30
1040.228
  0
VERTEX
  8
Unknown Area Type
  70
32
  10
-5.03801762076343
  20
42.82196013851133
  30
1239.518
  0
VERTEX
  8
Unknown Area Type
  70
32
  10
-5.03807263626078
  20
42.82195915891781
  30
1240.653
  0
VERTEX
  8
Unknown Area Type
  70
32
  10
-5.03811601754932
  20
42.82197639632098
  30
1242.025
  0
VERTEX
  8
Unknown Area Type
  70
32
  10
-5.04199386575676
  20
42.82364973342672
  30
1256.48
  0
SEQEND
  8
Unknown Area Type
  0
TEXT
  8
Unknown Area Type
 62
7
  1
PNOA-H_AMS_1956-57_33k_ES_PAN_2
 40
0.00045
  10
-5.02695520047206
  20
42.8276462461256
  0
POLYLINE
  8
Unknown Area Type
  70
9
  66
1
  0
VERTEX
  8
Unknown Area Type
  70
32
  10
-5.18749999999999
  20
42.83333333333339
  30
1266.004
  0
VERTEX
  8
Unknown Area Type
  70
32
  10
-5.16348158566774
  20
42.83333333333339
  30
1274.214
  0
VERTEX
  8
Unknown Area Type
  70
32
  10
-5.16371376191302
  20
42.82453812226417
  30
1290.22
  0
VERTEX
  8
Unknown Area Type
  70
32
  10
-5.16614820001489
  20
42.82348803068525
  30
1205.194
  0
VERTEX
  8
Unknown Area Type
  70
32
  10
-5.18749999999999
  20
42.82416451897089
  30
1235.615
  0
SEQEND
  8
Unknown Area Type
  0
TEXT
  8
Unknown Area Type
 62
7
  1
PNOA-H_AMS_1956-57_33k_ES_PAN_2
 40
0.00045
  10
-5.17549079283387
  20
42.82841068200932
  0
POLYLINE
  8
Unknown Area Type
  70
9
  66
1
  0
VERTEX
  8
Unknown Area Type
  70
32
  10
-5.18750033333333
  20
42.83333350000005
  30
1266.004
  0
VERTEX
  8
Unknown Area Type
  70
32
  10
-5.18749999999999
  20
42.83333350000005
  30
1266.004
  0
VERTEX
  8
Unknown Area Type
  70
32
  10
-5.18749999999999
  20
42.83333333333339
  30
1266.004
  0
VERTEX
  8
Unknown Area Type
  70
32
  10
-5.18750033333333
  20
42.83333333333339
  30
1266.004
  0
SEQEND
  8
Unknown Area Type
  0
TEXT
  8
Unknown Area Type
 62
7
  1
PNOA-H_AMS_1956-57_33k_ES_PAN_2
 40
0.00045
  10
-5.18750016666666
  20
42.83333341666672
  0
POLYLINE
  8
Unknown Area Type
  70
9
  66
1
  0
VERTEX
  8
Unknown Area Type
  70
32
  10
-5.18749999999999
  20
42.83333350000005
  30
1266.004
  0
VERTEX
  8
Unknown Area Type
  70
32
  10
-5.16348158126807
  20
42.83333350000005
  30
1274.213
  0
VERTEX
  8
Unknown Area Type
  70
32
  10
-5.16348158566774
  20
42.83333333333339
  30
1274.214
  0
VERTEX
  8
Unknown Area Type
  70
32
  10
-5.18749999999999
  20
42.83333333333339
  30
1266.004
  0
SEQEND
  8
Unknown Area Type
  0
TEXT
  8
Unknown Area Type
 62
7
  1
PNOA-H_AMS_1956-57_33k_ES_PAN_2
 40
0.00045
  10
-5.17549079063403
  20
42.83333341666672
  0
POLYLINE
  8
Unknown Area Type
  70
9
  66
1
  0
VERTEX
  8
Unknown Area Type
  70
32
  10
-5.18750033333333
  20
42.83333333333339
  30
1266.004
  0
VERTEX
  8
Unknown Area Type
  70
32
  10
-5.18749999999999
  20
42.83333333333339
  30
1266.004
  0
VERTEX
  8
Unknown Area Type
  70
32
  10
-5.18749999999999
  20
42.82416451897089
  30
1235.615
  0
VERTEX
  8
Unknown Area Type
  70
32
  10
-5.18750033333333
  20
42.82416452953187
  30
1235.615
  0
SEQEND
  8
Unknown Area Type
  0
TEXT
  8
Unknown Area Type
 62
7
  1
PNOA-H_AMS_1956-57_33k_ES_PAN_2
 40
0.00045
  10
-5.18750016666666
  20
42.82874892615214
  0
POLYLINE
  8
Unknown Area Type
  70
9
  66
1
  0
VERTEX
  8
Unknown Area Type
  70
32
  10
-5.18749999999999
  20
42.83333333333339
  30
1266.004
  0
VERTEX
  8
Unknown Area Type
  70
32
  10
-5.16348158566774
  20
42.83333333333339
  30
1274.214
  0
VERTEX
  8
Unknown Area Type
  70
32
  10
-5.16371376191302
  20
42.82453812226417
  30
1290.22
  0
VERTEX
  8
Unknown Area Type
  70
32
  10
-5.16614820001489
  20
42.82348803068525
  30
1205.194
  0
VERTEX
  8
Unknown Area Type
  70
32
  10
-5.18749999999999
  20
42.82416451897089
  30
1235.615
  0
SEQEND
  8
Unknown Area Type
  0
TEXT
  8
Unknown Area Type
 62
7
  1
PNOA-H_AMS_1956-57_33k_ES_PAN_2
 40
0.00045
  10
-5.17549079283387
  20
42.82841068200932
  0
POLYLINE
  8
Unknown Area Type
  70
9
  66
1
  0
VERTEX
  8
Unknown Area Type
  70
32
  10
-5.11273505780805
  20
42.8230231632376
  30
1241.822
  0
VERTEX
  8
Unknown Area Type
  70
32
  10
-5.11250277714019
  20
42.82302745065936
  30
1247.3
  0
VERTEX
  8
Unknown Area Type
  70
32
  10
-5.11244011803779
  20
42.82298358265871
  30
1253.238
  0
VERTEX
  8
Unknown Area Type
  70
32
  10
-5.11244469808021
  20
42.82293847364981
  30
1263.782
  0
VERTEX
  8
Unknown Area Type
  70
32
  10
-5.11266519457609
  20
42.8227678132948
  30
1293.144
  0
VERTEX
  8
Unknown Area Type
  70
32
  10
-5.11274450539901
  20
42.8227618468742
  30
1293.639
  0
VERTEX
  8
Unknown Area Type
  70
32
  10
-5.11278591420207
  20
42.82272056046995
  30
1292.898
  0
VERTEX
  8
Unknown Area Type
  70
32
  10
-5.11286522494979
  20
42.82271459396718
  30
1286.412
  0
VERTEX
  8
Unknown Area Type
  70
32
  10
-5.11291870557393
  20
42.82266858221968
  30
1286.349
  0
VERTEX
  8
Unknown Area Type
  70
32
  10
-5.11304707043559
  20
42.82266621246282
  30
1275.795
  0
VERTEX
  8
Unknown Area Type
  70
32
  10
-5.1131005508811
  20
42.82262020063376
  30
1276.978
  0
VERTEX
  8
Unknown Area Type
  70
32
  10
-5.11339395599314
  20
42.82261478337432
  30
1256.878
  0
VERTEX
  8
Unknown Area Type
  70
32
  10
-5.1134505027568
  20
42.82265876371944
  30
1247.496
  0
VERTEX
  8
Unknown Area Type
  70
32
  10
-5.11351774146209
  20
42.82265752212412
  30
1241.423
  0
VERTEX
  8
Unknown Area Type
  70
32
  10
-5.11358040096477
  20
42.82270138952765
  30
1224.138
  0
VERTEX
  8
Unknown Area Type
  70
32
  10
-5.11358316111286
  20
42.82278238261605
  30
1209.38
  0
VERTEX
  8
Unknown Area Type
  70
32
  10
-5.11352356827317
  20
42.8228285075397
  30
1207.479
  0
VERTEX
  8
Unknown Area Type
  70
32
  10
-5.11333407684408
  20
42.82283200650077
  30
1217.179
  0
VERTEX
  8
Unknown Area Type
  70
32
  10
-5.11328059639976
  20
42.82287801843759
  30
1219.202
  0
VERTEX
  8
Unknown Area Type
  70
32
  10
-5.11302997845672
  20
42.82288264550143
  30
1232.423
  0
VERTEX
  8
Unknown Area Type
  70
32
  10
-5.11298856971574
  20
42.82292393199173
  30
1234.354
  0
VERTEX
  8
Unknown Area Type
  70
32
  10
-5.11290925871631
  20
42.82292989858531
  30
1237.914
  0
VERTEX
  8
Unknown Area Type
  70
32
  10
-5.1128678498629
  20
42.82297118503403
  30
1238.698
  0
VERTEX
  8
Unknown Area Type
  70
32
  10
-5.11278853878827
  20
42.82297715154544
  30
1241.694
  0
VERTEX
  8
Unknown Area Type
  70
32
  10
-5.11274712982242
  20
42.82301843795255
  30
1241.6
  0
VERTEX
  8
Unknown Area Type
  70
32
  10
-5.11273505780805
  20
42.8230231632376
  30
1241.822
  0
SEQEND
  8
Unknown Area Type
  0
TEXT
  8
Unknown Area Type
 62
7
  1
PNOA-H_AMS_1956-57_33k_ES_PAN_2
 40
0.00045
  10
-5.11306491444669
  20
42.82281911783241
  0
POLYLINE
  8
Unknown Area Type
  70
9
  66
1
  0
VERTEX
  8
Unknown Area Type
  70
32
  10
-5.11273505780805
  20
42.8230231632376
  30
1241.822
  0
VERTEX
  8
Unknown Area Type
  70
32
  10
-5.11250277714019
  20
42.82302745065936
  30
1247.3
  0
VERTEX
  8
Unknown Area Type
  70
32
  10
-5.11244011803779
  20
42.82298358265871
  30
1253.238
  0
VERTEX
  8
Unknown Area Type
  70
32
  10
-5.11244469808021
  20
42.82293847364981
  30
1263.782
  0
VERTEX
  8
Unknown Area Type
  70
32
  10
-5.11266519457609
  20
42.8227678132948
  30
1293.144
  0
VERTEX
  8
Unknown Area Type
  70
32
  10
-5.11274450539901
  20
42.8227618468742
  30
1293.639
  0
VERTEX
  8
Unknown Area Type
  70
32
  10
-5.11278591420207
  20
42.82272056046995
  30
1292.898
  0
VERTEX
  8
Unknown Area Type
  70
32
  10
-5.11286522494979
  20
42.82271459396718
  30
1286.412
  0
VERTEX
  8
Unknown Area Type
  70
32
  10
-5.11291870557393
  20
42.82266858221968
  30
1286.349
  0
VERTEX
  8
Unknown Area Type
  70
32
  10
-5.11304707043559
  20
42.82266621246282
  30
1275.795
  0
VERTEX
  8
Unknown Area Type
  70
32
  10
-5.1131005508811
  20
42.82262020063376
  30
1276.978
  0
VERTEX
  8
Unknown Area Type
  70
32
  10
-5.11339395599314
  20
42.82261478337432
  30
1256.878
  0
VERTEX
  8
Unknown Area Type
  70
32
  10
-5.1134505027568
  20
42.82265876371944
  30
1247.496
  0
VERTEX
  8
Unknown Area Type
  70
32
  10
-5.11351774146209
  20
42.82265752212412
  30
1241.423
  0
VERTEX
  8
Unknown Area Type
  70
32
  10
-5.11358040096477
  20
42.82270138952765
  30
1224.138
  0
VERTEX
  8
Unknown Area Type
  70
32
  10
-5.11358316111286
  20
42.82278238261605
  30
1209.38
  0
VERTEX
  8
Unknown Area Type
  70
32
  10
-5.11352356827317
  20
42.8228285075397
  30
1207.479
  0
VERTEX
  8
Unknown Area Type
  70
32
  10
-5.11333407684408
  20
42.82283200650077
  30
1217.179
  0
VERTEX
  8
Unknown Area Type
  70
32
  10
-5.11328059639976
  20
42.82287801843759
  30
1219.202
  0
VERTEX
  8
Unknown Area Type
  70
32
  10
-5.11302997845672
  20
42.82288264550143
  30
1232.423
  0
VERTEX
  8
Unknown Area Type
  70
32
  10
-5.11298856971574
  20
42.82292393199173
  30
1234.354
  0
VERTEX
  8
Unknown Area Type
  70
32
  10
-5.11290925871631
  20
42.82292989858531
  30
1237.914
  0
VERTEX
  8
Unknown Area Type
  70
32
  10
-5.1128678498629
  20
42.82297118503403
  30
1238.698
  0
VERTEX
  8
Unknown Area Type
  70
32
  10
-5.11278853878827
  20
42.82297715154544
  30
1241.694
  0
VERTEX
  8
Unknown Area Type
  70
32
  10
-5.11274712982242
  20
42.82301843795255
  30
1241.6
  0
VERTEX
  8
Unknown Area Type
  70
32
  10
-5.11273505780805
  20
42.8230231632376
  30
1241.822
  0
SEQEND
  8
Unknown Area Type
  0
TEXT
  8
Unknown Area Type
 62
7
  1
PNOA-H_AMS_1956-57_33k_ES_PAN_2
 40
0.00045
  10
-5.11306491444669
  20
42.82281911783241
  0
POLYLINE
  8
Unknown Area Type
  70
9
  66
1
  0
VERTEX
  8
Unknown Area Type
  70
32
  10
-5.11395451940361
  20
42.82291059780413
  30
1182.439
  0
VERTEX
  8
Unknown Area Type
  70
32
  10
-5.11383211338423
  20
42.82290835608264
  30
1188.859
  0
VERTEX
  8
Unknown Area Type
  70
32
  10
-5.11366293188367
  20
42.82278991440796
  30
1205.205
  0
VERTEX
  8
Unknown Area Type
  70
32
  10
-5.11365528579097
  20
42.82274503113206
  30
1213.222
  0
VERTEX
  8
Unknown Area Type
  70
32
  10
-5.11370280657687
  20
42.8227036315275
  30
1221.073
  0
VERTEX
  8
Unknown Area Type
  70
32
  10
-5.11382490547465
  20
42.82269687416551
  30
1221.088
  0
VERTEX
  8
Unknown Area Type
  70
32
  10
-5.11388145261271
  20
42.82274085428886
  30
1214.46
  0
VERTEX
  8
Unknown Area Type
  70
32
  10
-5.11394869138825
  20
42.82273961243858
  30
1210.747
  0
VERTEX
  8
Unknown Area Type
  70
32
  10
-5.11400493190694
  20
42.82277459326819
  30
1203.771
  0
VERTEX
  8
Unknown Area Type
  70
32
  10
-5.11401411199025
  20
42.82286447266189
  30
1181.99
  0
VERTEX
  8
Unknown Area Type
  70
32
  10
-5.11396659129835
  20
42.82290587239282
  30
1181.964
  0
VERTEX
  8
Unknown Area Type
  70
32
  10
-5.11395451940361
  20
42.82291059780413
  30
1182.439
  0
SEQEND
  8
Unknown Area Type
  0
TEXT
  8
Unknown Area Type
 62
7
  1
PNOA-H_AMS_1956-57_33k_ES_PAN_2
 40
0.00045
  10
-5.11384548167287
  20
42.82280168204729
  0
POLYLINE
  8
Unknown Area Type
  70
9
  66
1
  0
VERTEX
  8
Unknown Area Type
  70
32
  10
-5.11395451940361
  20
42.82291059780413
  30
1182.439
  0
VERTEX
  8
Unknown Area Type
  70
32
  10
-5.11383211338423
  20
42.82290835608264
  30
1188.859
  0
VERTEX
  8
Unknown Area Type
  70
32
  10
-5.11366293188367
  20
42.82278991440796
  30
1205.205
  0
VERTEX
  8
Unknown Area Type
  70
32
  10
-5.11365528579097
  20
42.82274503113206
  30
1213.222
  0
VERTEX
  8
Unknown Area Type
  70
32
  10
-5.11370280657687
  20
42.8227036315275
  30
1221.073
  0
VERTEX
  8
Unknown Area Type
  70
32
  10
-5.11382490547465
  20
42.82269687416551
  30
1221.088
  0
VERTEX
  8
Unknown Area Type
  70
32
  10
-5.11388145261271
  20
42.82274085428886
  30
1214.46
  0
VERTEX
  8
Unknown Area Type
  70
32
  10
-5.11394869138825
  20
42.82273961243858
  30
1210.747
  0
VERTEX
  8
Unknown Area Type
  70
32
  10
-5.11400493190694
  20
42.82277459326819
  30
1203.771
  0
VERTEX
  8
Unknown Area Type
  70
32
  10
-5.11401411199025
  20
42.82286447266189
  30
1181.99
  0
VERTEX
  8
Unknown Area Type
  70
32
  10
-5.11396659129835
  20
42.82290587239282
  30
1181.964
  0
VERTEX
  8
Unknown Area Type
  70
32
  10
-5.11395451940361
  20
42.82291059780413
  30
1182.439
  0
SEQEND
  8
Unknown Area Type
  0
TEXT
  8
Unknown Area Type
 62
7
  1
PNOA-H_AMS_1956-57_33k_ES_PAN_2
 40
0.00045
  10
-5.11384548167287
  20
42.82280168204729
  0
POLYLINE
  8
Unknown Area Type
  70
9
  66
1
  0
VERTEX
  8
Unknown Area Type
  70
32
  10
-5.11656452122899
  20
42.82232206864989
  30
1126.044
  0
VERTEX
  8
Unknown Area Type
  70
32
  10
-5.11645449506581
  20
42.82232410324561
  30
1130.531
  0
VERTEX
  8
Unknown Area Type
  70
32
  10
-5.1163982536318
  20
42.82228912363841
  30
1136.338
  0
VERTEX
  8
Unknown Area Type
  70
32
  10
-5.11638907021848
  20
42.82219924450028
  30
1157.877
  0
VERTEX
  8
Unknown Area Type
  70
32
  10
-5.11643658873004
  20
42.82215784380509
  30
1165.617
  0
VERTEX
  8
Unknown Area Type
  70
32
  10
-5.11655868614131
  20
42.82215108355495
  30
1159.177
  0
VERTEX
  8
Unknown Area Type
  70
32
  10
-5.11661492753437
  20
42.82218606308484
  30
1145.047
  0
VERTEX
  8
Unknown Area Type
  70
32
  10
-5.11662411127166
  20
42.822275942198
  30
1126.459
  0
VERTEX
  8
Unknown Area Type
  70
32
  10
-5.11657659280105
  20
42.82231734296953
  30
1125.667
  0
VERTEX
  8
Unknown Area Type
  70
32
  10
-5.11656452122899
  20
42.82232206864989
  30
1126.044
  0
SEQEND
  8
Unknown Area Type
  0
TEXT
  8
Unknown Area Type
 62
7
  1
PNOA-H_AMS_1956-57_33k_ES_PAN_2
 40
0.00045
  10
-5.11650678585398
  20
42.82223542879798
  0
POLYLINE
  8
Unknown Area Type
  70
9
  66
1
  0
VERTEX
  8
Unknown Area Type
  70
32
  10
-5.11656452122899
  20
42.82232206864989
  30
1126.044
  0
VERTEX
  8
Unknown Area Type
  70
32
  10
-5.11645449506581
  20
42.82232410324561
  30
1130.531
  0
VERTEX
  8
Unknown Area Type
  70
32
  10
-5.1163982536318
  20
42.82228912363841
  30
1136.338
  0
VERTEX
  8
Unknown Area Type
  70
32
  10
-5.11638907021848
  20
42.82219924450028
  30
1157.877
  0
VERTEX
  8
Unknown Area Type
  70
32
  10
-5.11643658873004
  20
42.82215784380509
  30
1165.617
  0
VERTEX
  8
Unknown Area Type
  70
32
  10
-5.11655868614131
  20
42.82215108355495
  30
1159.177
  0
VERTEX
  8
Unknown Area Type
  70
32
  10
-5.11661492753437
  20
42.82218606308484
  30
1145.047
  0
VERTEX
  8
Unknown Area Type
  70
32
  10
-5.11662411127166
  20
42.822275942198
  30
1126.459
  0
VERTEX
  8
Unknown Area Type
  70
32
  10
-5.11657659280105
  20
42.82231734296953
  30
1125.667
  0
VERTEX
  8
Unknown Area Type
  70
32
  10
-5.11656452122899
  20
42.82232206864989
  30
1126.044
  0
SEQEND
  8
Unknown Area Type
  0
TEXT
  8
Unknown Area Type
 62
7
  1
PNOA-H_AMS_1956-57_33k_ES_PAN_2
 40
0.00045
  10
-5.11650678585398
  20
42.82223542879798
  0
POLYLINE
  8
Unknown Area Type
  70
9
  66
1
  0
VERTEX
  8
Unknown Area Type
  70
32
  10
-5.11436092787621
  20
42.8222727482102
  30
1205.505
  0
VERTEX
  8
Unknown Area Type
  70
32
  10
-5.11412865026123
  20
42.82227703886999
  30
1216.013
  0
VERTEX
  8
Unknown Area Type
  70
32
  10
-5.11407210338877
  20
42.82223305886015
  30
1221.22
  0
VERTEX
  8
Unknown Area Type
  70
32
  10
-5.1138826138452
  20
42.82223655869008
  30
1229.332
  0
VERTEX
  8
Unknown Area Type
  70
32
  10
-5.11382606718049
  20
42.82219257855378
  30
1234.774
  0
VERTEX
  8
Unknown Area Type
  70
32
  10
-5.11374645051629
  20
42.82218954647473
  30
1238.316
  0
VERTEX
  8
Unknown Area Type
  70
32
  10
-5.11357085196456
  20
42.82206221825638
  30
1254.082
  0
VERTEX
  8
Unknown Area Type
  70
32
  10
-5.11357543114114
  20
42.82201710921462
  30
1258.729
  0
VERTEX
  8
Unknown Area Type
  70
32
  10
-5.11367673756359
  20
42.82193869680058
  30
1280.409
  0
VERTEX
  8
Unknown Area Type
  70
32
  10
-5.11417796555601
  20
42.82192943945675
  30
1286.073
  0
VERTEX
  8
Unknown Area Type
  70
32
  10
-5.11441622438234
  20
42.82210063367786
  30
1231.354
  0
VERTEX
  8
Unknown Area Type
  70
32
  10
-5.11442051955792
  20
42.82222662287123
  30
1205.828
  0
VERTEX
  8
Unknown Area Type
  70
32
  10
-5.11437299961601
  20
42.82226802275888
  30
1205.173
  0
VERTEX
  8
Unknown Area Type
  70
32
  10
-5.11436092787621
  20
42.8222727482102
  30
1205.505
  0
SEQEND
  8
Unknown Area Type
  0
TEXT
  8
Unknown Area Type
 62
7
  1
PNOA-H_AMS_1956-57_33k_ES_PAN_2
 40
0.00045
  10
-5.11402205851061
  20
42.82210116899255
  0
POLYLINE
  8
Unknown Area Type
  70
9
  66
1
  0
VERTEX
  8
Unknown Area Type
  70
32
  10
-5.11436092787621
  20
42.8222727482102
  30
1205.505
  0
VERTEX
  8
Unknown Area Type
  70
32
  10
-5.11412865026123
  20
42.82227703886999
  30
1216.013
  0
VERTEX
  8
Unknown Area Type
  70
32
  10
-5.11407210338877
  20
42.82223305886015
  30
1221.22
  0
VERTEX
  8
Unknown Area Type
  70
32
  10
-5.1138826138452
  20
42.82223655869008
  30
1229.332
  0
VERTEX
  8
Unknown Area Type
  70
32
  10
-5.11382606718049
  20
42.82219257855378
  30
1234.774
  0
VERTEX
  8
Unknown Area Type
  70
32
  10
-5.11374645051629
  20
42.82218954647473
  30
1238.316
  0
VERTEX
  8
Unknown Area Type
  70
32
  10
-5.11357085196456
  20
42.82206221825638
  30
1254.082
  0
VERTEX
  8
Unknown Area Type
  70
32
  10
-5.11357543114114
  20
42.82201710921462
  30
1258.729
  0
VERTEX
  8
Unknown Area Type
  70
32
  10
-5.11367673756359
  20
42.82193869680058
  30
1280.409
  0
VERTEX
  8
Unknown Area Type
  70
32
  10
-5.11417796555601
  20
42.82192943945675
  30
1286.073
  0
VERTEX
  8
Unknown Area Type
  70
32
  10
-5.11441622438234
  20
42.82210063367786
  30
1231.354
  0
VERTEX
  8
Unknown Area Type
  70
32
  10
-5.11442051955792
  20
42.82222662287123
  30
1205.828
  0
VERTEX
  8
Unknown Area Type
  70
32
  10
-5.11437299961601
  20
42.82226802275888
  30
1205.173
  0
VERTEX
  8
Unknown Area Type
  70
32
  10
-5.11436092787621
  20
42.8222727482102
  30
1205.505
  0
SEQEND
  8
Unknown Area Type
  0
TEXT
  8
Unknown Area Type
 62
7
  1
PNOA-H_AMS_1956-57_33k_ES_PAN_2
 40
0.00045
  10
-5.11402205851061
  20
42.82210116899255
  0
POLYLINE
  8
Unknown Area Type
  70
9
  66
1
  0
VERTEX
  8
Unknown Area Type
  70
32
  10
-5.13255937519578
  20
42.83333333333339
  30
1113.278
  0
VERTEX
  8
Unknown Area Type
  70
32
  10
-5.10416666666665
  20
42.83333333333339
  30
1203.481
  0
VERTEX
  8
Unknown Area Type
  70
32
  10
-5.10263678778199
  20
42.83333333333339
  30
1203.784
  0
VERTEX
  8
Unknown Area Type
  70
32
  10
-5.10299704890194
  20
42.8242695825794
  30
1158.561
  0
VERTEX
  8
Unknown Area Type
  70
32
  10
-5.13243306496183
  20
42.82417518553989
  30
1148.864
  0
SEQEND
  8
Unknown Area Type
  0
TEXT
  8
Unknown Area Type
 62
7
  1
PNOA-H_AMS_1956-57_33k_ES_PAN_2
 40
0.00045
  10
-5.11759808148889
  20
42.82875425943664
  0
POLYLINE
  8
Unknown Area Type
  70
9
  66
1
  0
VERTEX
  8
Unknown Area Type
  70
32
  10
-5.13255937749447
  20
42.83333350000005
  30
1113.278
  0
VERTEX
  8
Unknown Area Type
  70
32
  10
-5.10263678115741
  20
42.83333350000005
  30
1203.784
  0
VERTEX
  8
Unknown Area Type
  70
32
  10
-5.10263678778199
  20
42.83333333333339
  30
1203.784
  0
VERTEX
  8
Unknown Area Type
  70
32
  10
-5.10416666666665
  20
42.83333333333339
  30
1203.481
  0
VERTEX
  8
Unknown Area Type
  70
32
  10
-5.13255937519578
  20
42.83333333333339
  30
1113.278
  0
SEQEND
  8
Unknown Area Type
  0
TEXT
  8
Unknown Area Type
 62
7
  1
PNOA-H_AMS_1956-57_33k_ES_PAN_2
 40
0.00045
  10
-5.11759807932594
  20
42.83333341666672
  0
POLYLINE
  8
Unknown Area Type
  70
9
  66
1
  0
VERTEX
  8
Unknown Area Type
  70
32
  10
-5.13255937519578
  20
42.83333333333339
  30
1113.278
  0
VERTEX
  8
Unknown Area Type
  70
32
  10
-5.10416666666665
  20
42.83333333333339
  30
1203.481
  0
VERTEX
  8
Unknown Area Type
  70
32
  10
-5.10263678778199
  20
42.83333333333339
  30
1203.784
  0
VERTEX
  8
Unknown Area Type
  70
32
  10
-5.10299704890194
  20
42.8242695825794
  30
1158.561
  0
VERTEX
  8
Unknown Area Type
  70
32
  10
-5.13243306496183
  20
42.82417518553989
  30
1148.864
  0
SEQEND
  8
Unknown Area Type
  0
TEXT
  8
Unknown Area Type
 62
7
  1
PNOA-H_AMS_1956-57_33k_ES_PAN_2
 40
0.00045
  10
-5.11759808148889
  20
42.82875425943664
  0
POLYLINE
  8
Unknown Area Type
  70
9
  66
1
  0
VERTEX
  8
Unknown Area Type
  70
32
  10
-4.86535660102178
  20
42.83333333333339
  30
1326.295
  0
VERTEX
  8
Unknown Area Type
  70
32
  10
-4.8541666666667
  20
42.83333333333339
  30
1178.517
  0
VERTEX
  8
Unknown Area Type
  70
32
  10
-4.8541666666667
  20
42.82215062759707
  30
1176.107
  0
VERTEX
  8
Unknown Area Type
  70
32
  10
-4.86550535132127
  20
42.82364552000248
  30
1194.963
  0
SEQEND
  8
Unknown Area Type
  0
TEXT
  8
Unknown Area Type
 62
7
  1
PNOA-H_AMS_1956-57_33k_ES_PAN_2
 40
0.00045
  10
-4.85983600899398
  20
42.82774198046523
  0
POLYLINE
  8
Unknown Area Type
  70
9
  66
1
  0
VERTEX
  8
Unknown Area Type
  70
32
  10
-4.86535659846272
  20
42.83333350000005
  30
1326.297
  0
VERTEX
  8
Unknown Area Type
  70
32
  10
-4.8541666666667
  20
42.83333350000005
  30
1178.517
  0
VERTEX
  8
Unknown Area Type
  70
32
  10
-4.8541666666667
  20
42.83333333333339
  30
1178.517
  0
VERTEX
  8
Unknown Area Type
  70
32
  10
-4.86535660102178
  20
42.83333333333339
  30
1326.295
  0
SEQEND
  8
Unknown Area Type
  0
TEXT
  8
Unknown Area Type
 62
7
  1
PNOA-H_AMS_1956-57_33k_ES_PAN_2
 40
0.00045
  10
-4.85976163384424
  20
42.83333341666672
  0
POLYLINE
  8
Unknown Area Type
  70
9
  66
1
  0
VERTEX
  8
Unknown Area Type
  70
32
  10
-4.86535660102178
  20
42.83333333333339
  30
1326.295
  0
VERTEX
  8
Unknown Area Type
  70
32
  10
-4.8541666666667
  20
42.83333333333339
  30
1178.517
  0
VERTEX
  8
Unknown Area Type
  70
32
  10
-4.8541666666667
  20
42.82215062759707
  30
1176.107
  0
VERTEX
  8
Unknown Area Type
  70
32
  10
-4.86550535132127
  20
42.82364552000248
  30
1194.963
  0
SEQEND
  8
Unknown Area Type
  0
TEXT
  8
Unknown Area Type
 62
7
  1
PNOA-H_AMS_1956-57_33k_ES_PAN_2
 40
0.00045
  10
-4.85983600899398
  20
42.82774198046523
  0
ENDSEC
  0
EOF
