  0
SECTION
  2
HEADER
  9
$ACADVER
  1
AC1009
  9
$LUNITS
  70
2
  9
$DWGCODEPAGE
  3
UTF8
  9
$LIMMIN
  10
-5.52083333333329
  20
42.6666666666667
  9
$LIMMAX
  10
-5.18749999999999
  20
42.83333333333339
  9
$EXTMIN
  10
-5.52083333333329
  20
42.6666666666667
  9
$EXTMAX
  10
-5.18749999999999
  20
42.83333333333339
  999
Created by Global Mapper
  999
Projection: Geographic (Latitude/Longitude)
  999
Datum: ETRS89
  999
Ground Units: arc degrees
  999
CENTRAL LONGITUDE: 0
  0
ENDSEC
  0
SECTION
  2
TABLES
  0
ENDSEC
  0
SECTION
  2
BLOCKS
  0
ENDSEC
  0
SECTION
  2
ENTITIES
  0
POLYLINE
  8
Unknown Area Type
  70
9
  66
1
  0
VERTEX
  8
Unknown Area Type
  70
32
  10
-5.52083333333329
  20
42.78788556486835
  30
1050.942
  0
VERTEX
  8
Unknown Area Type
  70
32
  10
-5.51772027176433
  20
42.77822163719954
  30
1063.064
  0
VERTEX
  8
Unknown Area Type
  70
32
  10
-5.52083333333329
  20
42.77809091023032
  30
1055.634
  0
SEQEND
  8
Unknown Area Type
  0
TEXT
  8
Unknown Area Type
 62
7
  1
PNOA-H_AMS_1956-57_33k_ES_PAN_2
 40
0.00045
  10
-5.51927680254881
  20
42.78298823754933
  0
POLYLINE
  8
Unknown Area Type
  70
9
  66
1
  0
VERTEX
  8
Unknown Area Type
  70
32
  10
-5.52083366666662
  20
42.78788659964044
  30
1050.941
  0
VERTEX
  8
Unknown Area Type
  70
32
  10
-5.52083333333329
  20
42.78788556486835
  30
1050.942
  0
VERTEX
  8
Unknown Area Type
  70
32
  10
-5.52083333333329
  20
42.77809091023032
  30
1055.634
  0
VERTEX
  8
Unknown Area Type
  70
32
  10
-5.52083366666662
  20
42.77809089623263
  30
1055.633
  0
SEQEND
  8
Unknown Area Type
  0
TEXT
  8
Unknown Area Type
 62
7
  1
PNOA-H_AMS_1956-57_33k_ES_PAN_2
 40
0.00045
  10
-5.52083349999996
  20
42.78298874793654
  0
POLYLINE
  8
Unknown Area Type
  70
9
  66
1
  0
VERTEX
  8
Unknown Area Type
  70
32
  10
-5.52083333333329
  20
42.78788556486835
  30
1050.942
  0
VERTEX
  8
Unknown Area Type
  70
32
  10
-5.51772027176433
  20
42.77822163719954
  30
1063.064
  0
VERTEX
  8
Unknown Area Type
  70
32
  10
-5.52083333333329
  20
42.77809091023032
  30
1055.634
  0
SEQEND
  8
Unknown Area Type
  0
TEXT
  8
Unknown Area Type
 62
7
  1
PNOA-H_AMS_1956-57_33k_ES_PAN_2
 40
0.00045
  10
-5.51927680254881
  20
42.78298823754933
  0
POLYLINE
  8
Unknown Area Type
  70
9
  66
1
  0
VERTEX
  8
Unknown Area Type
  70
32
  10
-5.52083333333329
  20
42.68750000000001
  30
926.382
  0
VERTEX
  8
Unknown Area Type
  70
32
  10
-5.52083333333329
  20
42.70690698269804
  30
889.859
  0
VERTEX
  8
Unknown Area Type
  70
32
  10
-5.51893059268453
  20
42.7072011710712
  30
887.427
  0
VERTEX
  8
Unknown Area Type
  70
32
  10
-5.51890027707985
  20
42.70720634059787
  30
887.46
  0
VERTEX
  8
Unknown Area Type
  70
32
  10
-5.51885758043708
  20
42.70720728013763
  30
887.482
  0
VERTEX
  8
Unknown Area Type
  70
32
  10
-5.5188017748169
  20
42.70718599600615
  30
887.506
  0
VERTEX
  8
Unknown Area Type
  70
32
  10
-5.50867698597902
  20
42.70287439370445
  30
938.086
  0
VERTEX
  8
Unknown Area Type
  70
32
  10
-5.50956270435402
  20
42.67122085340215
  30
914.493
  0
VERTEX
  8
Unknown Area Type
  70
32
  10
-5.52083333333329
  20
42.67056071026357
  30
895.963
  0
SEQEND
  8
Unknown Area Type
  0
TEXT
  8
Unknown Area Type
 62
7
  1
PNOA-H_AMS_1956-57_33k_ES_PAN_2
 40
0.00045
  10
-5.51475515965615
  20
42.6888839952006
  0
POLYLINE
  8
Unknown Area Type
  70
9
  66
1
  0
VERTEX
  8
Unknown Area Type
  70
32
  10
-5.52083366666662
  20
42.70690693116039
  30
889.859
  0
VERTEX
  8
Unknown Area Type
  70
32
  10
-5.52083333333329
  20
42.70690698269804
  30
889.859
  0
VERTEX
  8
Unknown Area Type
  70
32
  10
-5.52083333333329
  20
42.68750000000001
  30
926.382
  0
VERTEX
  8
Unknown Area Type
  70
32
  10
-5.52083333333329
  20
42.67056071026357
  30
895.963
  0
VERTEX
  8
Unknown Area Type
  70
32
  10
-5.52083366666662
  20
42.67056069073958
  30
895.963
  0
SEQEND
  8
Unknown Area Type
  0
TEXT
  8
Unknown Area Type
 62
7
  1
PNOA-H_AMS_1956-57_33k_ES_PAN_2
 40
0.00045
  10
-5.52083349999996
  20
42.68873383671881
  0
POLYLINE
  8
Unknown Area Type
  70
9
  66
1
  0
VERTEX
  8
Unknown Area Type
  70
32
  10
-5.52083333333329
  20
42.68750000000001
  30
926.382
  0
VERTEX
  8
Unknown Area Type
  70
32
  10
-5.52083333333329
  20
42.70690698269804
  30
889.859
  0
VERTEX
  8
Unknown Area Type
  70
32
  10
-5.51893059268453
  20
42.7072011710712
  30
887.427
  0
VERTEX
  8
Unknown Area Type
  70
32
  10
-5.51890027707985
  20
42.70720634059787
  30
887.46
  0
VERTEX
  8
Unknown Area Type
  70
32
  10
-5.51885758043708
  20
42.70720728013763
  30
887.482
  0
VERTEX
  8
Unknown Area Type
  70
32
  10
-5.5188017748169
  20
42.70718599600615
  30
887.506
  0
VERTEX
  8
Unknown Area Type
  70
32
  10
-5.50867698597902
  20
42.70287439370445
  30
938.086
  0
VERTEX
  8
Unknown Area Type
  70
32
  10
-5.50956270435402
  20
42.67122085340215
  30
914.493
  0
VERTEX
  8
Unknown Area Type
  70
32
  10
-5.52083333333329
  20
42.67056071026357
  30
895.963
  0
SEQEND
  8
Unknown Area Type
  0
TEXT
  8
Unknown Area Type
 62
7
  1
PNOA-H_AMS_1956-57_33k_ES_PAN_2
 40
0.00045
  10
-5.51475515965615
  20
42.6888839952006
  0
POLYLINE
  8
Unknown Area Type
  70
9
  66
1
  0
VERTEX
  8
Unknown Area Type
  70
32
  10
-5.25141767998925
  20
42.82313011226186
  30
1204.702
  0
VERTEX
  8
Unknown Area Type
  70
32
  10
-5.22918210865689
  20
42.82187695702731
  30
1299.802
  0
VERTEX
  8
Unknown Area Type
  70
32
  10
-5.22782771655849
  20
42.78194421490778
  30
1018.674
  0
VERTEX
  8
Unknown Area Type
  70
32
  10
-5.23215100630464
  20
42.78046422806038
  30
1059.203
  0
VERTEX
  8
Unknown Area Type
  70
32
  10
-5.25863490083015
  20
42.78129092408562
  30
1136.139
  0
VERTEX
  8
Unknown Area Type
  70
32
  10
-5.26025613311196
  20
42.82145659811219
  30
1203.063
  0
VERTEX
  8
Unknown Area Type
  70
32
  10
-5.25540760844779
  20
42.82335321517893
  30
1317.184
  0
VERTEX
  8
Unknown Area Type
  70
32
  10
-5.25142990417758
  20
42.82312987178889
  30
1205.195
  0
VERTEX
  8
Unknown Area Type
  70
32
  10
-5.25141767998925
  20
42.82313011226186
  30
1204.702
  0
SEQEND
  8
Unknown Area Type
  0
TEXT
  8
Unknown Area Type
 62
7
  1
PNOA-H_AMS_1956-57_33k_ES_PAN_2
 40
0.00045
  10
-5.24404207817482
  20
42.80177354104323
  0
POLYLINE
  8
Unknown Area Type
  70
9
  66
1
  0
VERTEX
  8
Unknown Area Type
  70
32
  10
-5.25141767998925
  20
42.82313011226186
  30
1204.702
  0
VERTEX
  8
Unknown Area Type
  70
32
  10
-5.22918210865689
  20
42.82187695702731
  30
1299.802
  0
VERTEX
  8
Unknown Area Type
  70
32
  10
-5.22782771655849
  20
42.78194421490778
  30
1018.674
  0
VERTEX
  8
Unknown Area Type
  70
32
  10
-5.23215100630464
  20
42.78046422806038
  30
1059.203
  0
VERTEX
  8
Unknown Area Type
  70
32
  10
-5.25863490083015
  20
42.78129092408562
  30
1136.139
  0
VERTEX
  8
Unknown Area Type
  70
32
  10
-5.26025613311196
  20
42.82145659811219
  30
1203.063
  0
VERTEX
  8
Unknown Area Type
  70
32
  10
-5.25540760844779
  20
42.82335321517893
  30
1317.184
  0
VERTEX
  8
Unknown Area Type
  70
32
  10
-5.25142990417758
  20
42.82312987178889
  30
1205.195
  0
VERTEX
  8
Unknown Area Type
  70
32
  10
-5.25141767998925
  20
42.82313011226186
  30
1204.702
  0
SEQEND
  8
Unknown Area Type
  0
TEXT
  8
Unknown Area Type
 62
7
  1
PNOA-H_AMS_1956-57_33k_ES_PAN_2
 40
0.00045
  10
-5.24404207817482
  20
42.80177354104323
  0
POLYLINE
  8
Unknown Area Type
  70
9
  66
1
  0
VERTEX
  8
Unknown Area Type
  70
32
  10
-5.27644589584194
  20
42.82245492552541
  30
1088.072
  0
VERTEX
  8
Unknown Area Type
  70
32
  10
-5.26025596914179
  20
42.82145209893586
  30
1202.905
  0
VERTEX
  8
Unknown Area Type
  70
32
  10
-5.25863473720739
  20
42.78128642487261
  30
1136.207
  0
VERTEX
  8
Unknown Area Type
  70
32
  10
-5.26385725360599
  20
42.77951284483574
  30
1156.881
  0
VERTEX
  8
Unknown Area Type
  70
32
  10
-5.28998676603279
  20
42.78034378929407
  30
1104.802
  0
VERTEX
  8
Unknown Area Type
  70
32
  10
-5.29003579368828
  20
42.78034731082182
  30
1104.533
  0
VERTEX
  8
Unknown Area Type
  70
32
  10
-5.29006067775106
  20
42.78102217812199
  30
1095.219
  0
VERTEX
  8
Unknown Area Type
  70
32
  10
-5.29115580435691
  20
42.82046848344264
  30
1016.201
  0
VERTEX
  8
Unknown Area Type
  70
32
  10
-5.28592340573894
  20
42.8230404323061
  30
1003.263
  0
VERTEX
  8
Unknown Area Type
  70
32
  10
-5.27650718021368
  20
42.82245820892847
  30
1087.483
  0
VERTEX
  8
Unknown Area Type
  70
32
  10
-5.27644589584194
  20
42.82245492552541
  30
1088.072
  0
SEQEND
  8
Unknown Area Type
  0
TEXT
  8
Unknown Area Type
 62
7
  1
PNOA-H_AMS_1956-57_33k_ES_PAN_2
 40
0.00045
  10
-5.27489534217824
  20
42.80111033816392
  0
POLYLINE
  8
Unknown Area Type
  70
9
  66
1
  0
VERTEX
  8
Unknown Area Type
  70
32
  10
-5.27644589584194
  20
42.82245492552541
  30
1088.072
  0
VERTEX
  8
Unknown Area Type
  70
32
  10
-5.26025596914179
  20
42.82145209893586
  30
1202.905
  0
VERTEX
  8
Unknown Area Type
  70
32
  10
-5.25863473720739
  20
42.78128642487261
  30
1136.207
  0
VERTEX
  8
Unknown Area Type
  70
32
  10
-5.26385725360599
  20
42.77951284483574
  30
1156.881
  0
VERTEX
  8
Unknown Area Type
  70
32
  10
-5.28998676603279
  20
42.78034378929407
  30
1104.802
  0
VERTEX
  8
Unknown Area Type
  70
32
  10
-5.29003579368828
  20
42.78034731082182
  30
1104.533
  0
VERTEX
  8
Unknown Area Type
  70
32
  10
-5.29006067775106
  20
42.78102217812199
  30
1095.219
  0
VERTEX
  8
Unknown Area Type
  70
32
  10
-5.29115580435691
  20
42.82046848344264
  30
1016.201
  0
VERTEX
  8
Unknown Area Type
  70
32
  10
-5.28592340573894
  20
42.8230404323061
  30
1003.263
  0
VERTEX
  8
Unknown Area Type
  70
32
  10
-5.27650718021368
  20
42.82245820892847
  30
1087.483
  0
VERTEX
  8
Unknown Area Type
  70
32
  10
-5.27644589584194
  20
42.82245492552541
  30
1088.072
  0
SEQEND
  8
Unknown Area Type
  0
TEXT
  8
Unknown Area Type
 62
7
  1
PNOA-H_AMS_1956-57_33k_ES_PAN_2
 40
0.00045
  10
-5.27489534217824
  20
42.80111033816392
  0
POLYLINE
  8
Unknown Area Type
  70
9
  66
1
  0
VERTEX
  8
Unknown Area Type
  70
32
  10
-5.2263658888949
  20
42.82299434628247
  30
1251.312
  0
VERTEX
  8
Unknown Area Type
  70
32
  10
-5.22343504486851
  20
42.82415891740006
  30
1234.916
  0
VERTEX
  8
Unknown Area Type
  70
32
  10
-5.22336780942981
  20
42.82416022357297
  30
1235.675
  0
VERTEX
  8
Unknown Area Type
  70
32
  10
-5.19781275663848
  20
42.82243411774226
  30
1229.977
  0
VERTEX
  8
Unknown Area Type
  70
32
  10
-5.19655170811728
  20
42.78232355460113
  30
1126.38
  0
VERTEX
  8
Unknown Area Type
  70
32
  10
-5.19967304538126
  20
42.78122804886903
  30
1157.847
  0
VERTEX
  8
Unknown Area Type
  70
32
  10
-5.1997584006194
  20
42.78122190609225
  30
1157.536
  0
VERTEX
  8
Unknown Area Type
  70
32
  10
-5.22782771655849
  20
42.78194421490778
  30
1018.674
  0
VERTEX
  8
Unknown Area Type
  70
32
  10
-5.22918210865689
  20
42.82187695702731
  30
1299.802
  0
VERTEX
  8
Unknown Area Type
  70
32
  10
-5.22637795174343
  20
42.82298960920498
  30
1251.103
  0
VERTEX
  8
Unknown Area Type
  70
32
  10
-5.2263658888949
  20
42.82299434628247
  30
1251.312
  0
SEQEND
  8
Unknown Area Type
  0
TEXT
  8
Unknown Area Type
 62
7
  1
PNOA-H_AMS_1956-57_33k_ES_PAN_2
 40
0.00045
  10
-5.21286708636138
  20
42.80250374343731
  0
POLYLINE
  8
Unknown Area Type
  70
9
  66
1
  0
VERTEX
  8
Unknown Area Type
  70
32
  10
-5.2263658888949
  20
42.82299434628247
  30
1251.312
  0
VERTEX
  8
Unknown Area Type
  70
32
  10
-5.22343504486851
  20
42.82415891740006
  30
1234.916
  0
VERTEX
  8
Unknown Area Type
  70
32
  10
-5.22336780942981
  20
42.82416022357297
  30
1235.675
  0
VERTEX
  8
Unknown Area Type
  70
32
  10
-5.19781275663848
  20
42.82243411774226
  30
1229.977
  0
VERTEX
  8
Unknown Area Type
  70
32
  10
-5.19655170811728
  20
42.78232355460113
  30
1126.38
  0
VERTEX
  8
Unknown Area Type
  70
32
  10
-5.19967304538126
  20
42.78122804886903
  30
1157.847
  0
VERTEX
  8
Unknown Area Type
  70
32
  10
-5.1997584006194
  20
42.78122190609225
  30
1157.536
  0
VERTEX
  8
Unknown Area Type
  70
32
  10
-5.22782771655849
  20
42.78194421490778
  30
1018.674
  0
VERTEX
  8
Unknown Area Type
  70
32
  10
-5.22918210865689
  20
42.82187695702731
  30
1299.802
  0
VERTEX
  8
Unknown Area Type
  70
32
  10
-5.22637795174343
  20
42.82298960920498
  30
1251.103
  0
VERTEX
  8
Unknown Area Type
  70
32
  10
-5.2263658888949
  20
42.82299434628247
  30
1251.312
  0
SEQEND
  8
Unknown Area Type
  0
TEXT
  8
Unknown Area Type
 62
7
  1
PNOA-H_AMS_1956-57_33k_ES_PAN_2
 40
0.00045
  10
-5.21286708636138
  20
42.80250374343731
  0
POLYLINE
  8
Unknown Area Type
  70
9
  66
1
  0
VERTEX
  8
Unknown Area Type
  70
32
  10
-5.30142307679829
  20
42.82042006313404
  30
987.046
  0
VERTEX
  8
Unknown Area Type
  70
32
  10
-5.29115580435691
  20
42.82046848344264
  30
1016.201
  0
VERTEX
  8
Unknown Area Type
  70
32
  10
-5.29003579368828
  20
42.78034731082182
  30
1104.533
  0
VERTEX
  8
Unknown Area Type
  70
32
  10
-5.29531917995117
  20
42.77859359093152
  30
1096.33
  0
VERTEX
  8
Unknown Area Type
  70
32
  10
-5.32176275363867
  20
42.77948751545057
  30
963.932
  0
VERTEX
  8
Unknown Area Type
  70
32
  10
-5.32287169783187
  20
42.82007228453874
  30
949.421
  0
VERTEX
  8
Unknown Area Type
  70
32
  10
-5.32231853774097
  20
42.82032664014199
  30
952.771
  0
VERTEX
  8
Unknown Area Type
  70
32
  10
-5.32225131106867
  20
42.82032800427711
  30
953.027
  0
VERTEX
  8
Unknown Area Type
  70
32
  10
-5.30171660123522
  20
42.82041866265134
  30
988.059
  0
VERTEX
  8
Unknown Area Type
  70
32
  10
-5.30142307679829
  20
42.82042006313404
  30
987.046
  0
SEQEND
  8
Unknown Area Type
  0
TEXT
  8
Unknown Area Type
 62
7
  1
PNOA-H_AMS_1956-57_33k_ES_PAN_2
 40
0.00045
  10
-5.30645391364521
  20
42.79968226490445
  0
POLYLINE
  8
Unknown Area Type
  70
9
  66
1
  0
VERTEX
  8
Unknown Area Type
  70
32
  10
-5.30142307679829
  20
42.82042006313404
  30
987.046
  0
VERTEX
  8
Unknown Area Type
  70
32
  10
-5.29115580435691
  20
42.82046848344264
  30
1016.201
  0
VERTEX
  8
Unknown Area Type
  70
32
  10
-5.29003579368828
  20
42.78034731082182
  30
1104.533
  0
VERTEX
  8
Unknown Area Type
  70
32
  10
-5.29531917995117
  20
42.77859359093152
  30
1096.33
  0
VERTEX
  8
Unknown Area Type
  70
32
  10
-5.32176275363867
  20
42.77948751545057
  30
963.932
  0
VERTEX
  8
Unknown Area Type
  70
32
  10
-5.32287169783187
  20
42.82007228453874
  30
949.421
  0
VERTEX
  8
Unknown Area Type
  70
32
  10
-5.32231853774097
  20
42.82032664014199
  30
952.771
  0
VERTEX
  8
Unknown Area Type
  70
32
  10
-5.32225131106867
  20
42.82032800427711
  30
953.027
  0
VERTEX
  8
Unknown Area Type
  70
32
  10
-5.30171660123522
  20
42.82041866265134
  30
988.059
  0
VERTEX
  8
Unknown Area Type
  70
32
  10
-5.30142307679829
  20
42.82042006313404
  30
987.046
  0
SEQEND
  8
Unknown Area Type
  0
TEXT
  8
Unknown Area Type
 62
7
  1
PNOA-H_AMS_1956-57_33k_ES_PAN_2
 40
0.00045
  10
-5.30645391364521
  20
42.79968226490445
  0
POLYLINE
  8
Unknown Area Type
  70
9
  66
1
  0
VERTEX
  8
Unknown Area Type
  70
32
  10
-5.22212923010817
  20
42.70119949992779
  30
990.863
  0
VERTEX
  8
Unknown Area Type
  70
32
  10
-5.20005806899511
  20
42.70231014181743
  30
989.375
  0
VERTEX
  8
Unknown Area Type
  70
32
  10
-5.19698086968768
  20
42.70039263157255
  30
992.981
  0
VERTEX
  8
Unknown Area Type
  70
32
  10
-5.19726204478583
  20
42.67392142366934
  30
884.624
  0
VERTEX
  8
Unknown Area Type
  70
32
  10
-5.20354027355456
  20
42.67062648561217
  30
933.164
  0
VERTEX
  8
Unknown Area Type
  70
32
  10
-5.23244999868039
  20
42.67320921456659
  30
1034.018
  0
VERTEX
  8
Unknown Area Type
  70
32
  10
-5.23213449133261
  20
42.70068969024423
  30
997.547
  0
VERTEX
  8
Unknown Area Type
  70
32
  10
-5.22227547538198
  20
42.70119215878475
  30
990.784
  0
VERTEX
  8
Unknown Area Type
  70
32
  10
-5.22212923010817
  20
42.70119949992779
  30
990.863
  0
SEQEND
  8
Unknown Area Type
  0
TEXT
  8
Unknown Area Type
 62
7
  1
PNOA-H_AMS_1956-57_33k_ES_PAN_2
 40
0.00045
  10
-5.21471353686676
  20
42.68646615772731
  0
POLYLINE
  8
Unknown Area Type
  70
9
  66
1
  0
VERTEX
  8
Unknown Area Type
  70
32
  10
-5.22212923010817
  20
42.70119949992779
  30
990.863
  0
VERTEX
  8
Unknown Area Type
  70
32
  10
-5.20005806899511
  20
42.70231014181743
  30
989.375
  0
VERTEX
  8
Unknown Area Type
  70
32
  10
-5.19698086968768
  20
42.70039263157255
  30
992.981
  0
VERTEX
  8
Unknown Area Type
  70
32
  10
-5.19726204478583
  20
42.67392142366934
  30
884.624
  0
VERTEX
  8
Unknown Area Type
  70
32
  10
-5.20354027355456
  20
42.67062648561217
  30
933.164
  0
VERTEX
  8
Unknown Area Type
  70
32
  10
-5.23244999868039
  20
42.67320921456659
  30
1034.018
  0
VERTEX
  8
Unknown Area Type
  70
32
  10
-5.23213449133261
  20
42.70068969024423
  30
997.547
  0
VERTEX
  8
Unknown Area Type
  70
32
  10
-5.22227547538198
  20
42.70119215878475
  30
990.784
  0
VERTEX
  8
Unknown Area Type
  70
32
  10
-5.22212923010817
  20
42.70119949992779
  30
990.863
  0
SEQEND
  8
Unknown Area Type
  0
TEXT
  8
Unknown Area Type
 62
7
  1
PNOA-H_AMS_1956-57_33k_ES_PAN_2
 40
0.00045
  10
-5.21471353686676
  20
42.68646615772731
  0
POLYLINE
  8
Unknown Area Type
  70
9
  66
1
  0
VERTEX
  8
Unknown Area Type
  70
32
  10
-5.42655347870256
  20
42.8171374602773
  30
1035.542
  0
VERTEX
  8
Unknown Area Type
  70
32
  10
-5.41800453573942
  20
42.81543641421194
  30
1069.735
  0
VERTEX
  8
Unknown Area Type
  70
32
  10
-5.41732607746045
  20
42.77918398441732
  30
982.93
  0
VERTEX
  8
Unknown Area Type
  70
32
  10
-5.42144579097304
  20
42.77777769474633
  30
1011.187
  0
VERTEX
  8
Unknown Area Type
  70
32
  10
-5.44795403091295
  20
42.77888418303367
  30
1067.005
  0
VERTEX
  8
Unknown Area Type
  70
32
  10
-5.44941871219782
  20
42.8197254678592
  30
1213.08
  0
VERTEX
  8
Unknown Area Type
  70
32
  10
-5.44375170717815
  20
42.82056700162528
  30
1177.826
  0
VERTEX
  8
Unknown Area Type
  70
32
  10
-5.42657809766276
  20
42.81714144064145
  30
1035.274
  0
VERTEX
  8
Unknown Area Type
  70
32
  10
-5.42655347870256
  20
42.8171374602773
  30
1035.542
  0
SEQEND
  8
Unknown Area Type
  0
TEXT
  8
Unknown Area Type
 62
7
  1
PNOA-H_AMS_1956-57_33k_ES_PAN_2
 40
0.00045
  10
-5.43337251909824
  20
42.79838445083057
  0
POLYLINE
  8
Unknown Area Type
  70
9
  66
1
  0
VERTEX
  8
Unknown Area Type
  70
32
  10
-5.42655347870256
  20
42.8171374602773
  30
1035.542
  0
VERTEX
  8
Unknown Area Type
  70
32
  10
-5.41800453573942
  20
42.81543641421194
  30
1069.735
  0
VERTEX
  8
Unknown Area Type
  70
32
  10
-5.41732607746045
  20
42.77918398441732
  30
982.93
  0
VERTEX
  8
Unknown Area Type
  70
32
  10
-5.42144579097304
  20
42.77777769474633
  30
1011.187
  0
VERTEX
  8
Unknown Area Type
  70
32
  10
-5.44795403091295
  20
42.77888418303367
  30
1067.005
  0
VERTEX
  8
Unknown Area Type
  70
32
  10
-5.44941871219782
  20
42.8197254678592
  30
1213.08
  0
VERTEX
  8
Unknown Area Type
  70
32
  10
-5.44375170717815
  20
42.82056700162528
  30
1177.826
  0
VERTEX
  8
Unknown Area Type
  70
32
  10
-5.42657809766276
  20
42.81714144064145
  30
1035.274
  0
VERTEX
  8
Unknown Area Type
  70
32
  10
-5.42655347870256
  20
42.8171374602773
  30
1035.542
  0
SEQEND
  8
Unknown Area Type
  0
TEXT
  8
Unknown Area Type
 62
7
  1
PNOA-H_AMS_1956-57_33k_ES_PAN_2
 40
0.00045
  10
-5.43337251909824
  20
42.79838445083057
  0
POLYLINE
  8
Unknown Area Type
  70
9
  66
1
  0
VERTEX
  8
Unknown Area Type
  70
32
  10
-5.2353600888537
  20
42.70245927330444
  30
929.609
  0
VERTEX
  8
Unknown Area Type
  70
32
  10
-5.23507947450473
  20
42.70246475202117
  30
929.747
  0
VERTEX
  8
Unknown Area Type
  70
32
  10
-5.23213465258163
  20
42.70069418960252
  30
997.45
  0
VERTEX
  8
Unknown Area Type
  70
32
  10
-5.23244999868039
  20
42.67320921456659
  30
1034.018
  0
VERTEX
  8
Unknown Area Type
  70
32
  10
-5.23626048126516
  20
42.67108170414014
  30
985.154
  0
VERTEX
  8
Unknown Area Type
  70
32
  10
-5.26676592479609
  20
42.67253496698158
  30
999.241
  0
VERTEX
  8
Unknown Area Type
  70
32
  10
-5.26677926813402
  20
42.70142275937565
  30
999.476
  0
VERTEX
  8
Unknown Area Type
  70
32
  10
-5.26677660690279
  20
42.70151736441934
  30
998.352
  0
VERTEX
  8
Unknown Area Type
  70
32
  10
-5.26655106739198
  20
42.70152633234629
  30
994.664
  0
VERTEX
  8
Unknown Area Type
  70
32
  10
-5.23579914963196
  20
42.70244619719708
  30
929.264
  0
VERTEX
  8
Unknown Area Type
  70
32
  10
-5.2353600888537
  20
42.70245927330444
  30
929.609
  0
SEQEND
  8
Unknown Area Type
  0
TEXT
  8
Unknown Area Type
 62
7
  1
PNOA-H_AMS_1956-57_33k_ES_PAN_2
 40
0.00045
  10
-5.24953378147101
  20
42.68677178803637
  0
POLYLINE
  8
Unknown Area Type
  70
9
  66
1
  0
VERTEX
  8
Unknown Area Type
  70
32
  10
-5.2353600888537
  20
42.70245927330444
  30
929.609
  0
VERTEX
  8
Unknown Area Type
  70
32
  10
-5.23507947450473
  20
42.70246475202117
  30
929.747
  0
VERTEX
  8
Unknown Area Type
  70
32
  10
-5.23213465258163
  20
42.70069418960252
  30
997.45
  0
VERTEX
  8
Unknown Area Type
  70
32
  10
-5.23244999868039
  20
42.67320921456659
  30
1034.018
  0
VERTEX
  8
Unknown Area Type
  70
32
  10
-5.23626048126516
  20
42.67108170414014
  30
985.154
  0
VERTEX
  8
Unknown Area Type
  70
32
  10
-5.26676592479609
  20
42.67253496698158
  30
999.241
  0
VERTEX
  8
Unknown Area Type
  70
32
  10
-5.26677926813402
  20
42.70142275937565
  30
999.476
  0
VERTEX
  8
Unknown Area Type
  70
32
  10
-5.26677660690279
  20
42.70151736441934
  30
998.352
  0
VERTEX
  8
Unknown Area Type
  70
32
  10
-5.26655106739198
  20
42.70152633234629
  30
994.664
  0
VERTEX
  8
Unknown Area Type
  70
32
  10
-5.23579914963196
  20
42.70244619719708
  30
929.264
  0
VERTEX
  8
Unknown Area Type
  70
32
  10
-5.2353600888537
  20
42.70245927330444
  30
929.609
  0
SEQEND
  8
Unknown Area Type
  0
TEXT
  8
Unknown Area Type
 62
7
  1
PNOA-H_AMS_1956-57_33k_ES_PAN_2
 40
0.00045
  10
-5.24953378147101
  20
42.68677178803637
  0
POLYLINE
  8
Unknown Area Type
  70
9
  66
1
  0
VERTEX
  8
Unknown Area Type
  70
32
  10
-5.3515119507371
  20
42.81970801213079
  30
1131.396
  0
VERTEX
  8
Unknown Area Type
  70
32
  10
-5.35037972904654
  20
42.82017250509209
  30
1097.086
  0
VERTEX
  8
Unknown Area Type
  70
32
  10
-5.3408613828081
  20
42.82061522204091
  30
969.753
  0
VERTEX
  8
Unknown Area Type
  70
32
  10
-5.32287169783187
  20
42.82007228453874
  30
949.421
  0
VERTEX
  8
Unknown Area Type
  70
32
  10
-5.32176623260212
  20
42.77974408323553
  30
968.622
  0
VERTEX
  8
Unknown Area Type
  70
32
  10
-5.32176869295523
  20
42.77948289254473
  30
963.955
  0
VERTEX
  8
Unknown Area Type
  70
32
  10
-5.32434594866131
  20
42.77861114232434
  30
961.625
  0
VERTEX
  8
Unknown Area Type
  70
32
  10
-5.32439430277606
  20
42.77859665308453
  30
961.275
  0
VERTEX
  8
Unknown Area Type
  70
32
  10
-5.32447369898521
  20
42.77859504069068
  30
960.96
  0
VERTEX
  8
Unknown Area Type
  70
32
  10
-5.35394436819019
  20
42.77903729788942
  30
977.886
  0
VERTEX
  8
Unknown Area Type
  70
32
  10
-5.35471568715092
  20
42.81839047411265
  30
1168.651
  0
VERTEX
  8
Unknown Area Type
  70
32
  10
-5.35152400281427
  20
42.81970326210015
  30
1131.949
  0
VERTEX
  8
Unknown Area Type
  70
32
  10
-5.3515119507371
  20
42.81970801213079
  30
1131.396
  0
SEQEND
  8
Unknown Area Type
  0
TEXT
  8
Unknown Area Type
 62
7
  1
PNOA-H_AMS_1956-57_33k_ES_PAN_2
 40
0.00045
  10
-5.3382411598249
  20
42.79966731978255
  0
POLYLINE
  8
Unknown Area Type
  70
9
  66
1
  0
VERTEX
  8
Unknown Area Type
  70
32
  10
-5.3515119507371
  20
42.81970801213079
  30
1131.396
  0
VERTEX
  8
Unknown Area Type
  70
32
  10
-5.35037972904654
  20
42.82017250509209
  30
1097.086
  0
VERTEX
  8
Unknown Area Type
  70
32
  10
-5.3408613828081
  20
42.82061522204091
  30
969.753
  0
VERTEX
  8
Unknown Area Type
  70
32
  10
-5.32287169783187
  20
42.82007228453874
  30
949.421
  0
VERTEX
  8
Unknown Area Type
  70
32
  10
-5.32176623260212
  20
42.77974408323553
  30
968.622
  0
VERTEX
  8
Unknown Area Type
  70
32
  10
-5.32176869295523
  20
42.77948289254473
  30
963.955
  0
VERTEX
  8
Unknown Area Type
  70
32
  10
-5.32434594866131
  20
42.77861114232434
  30
961.625
  0
VERTEX
  8
Unknown Area Type
  70
32
  10
-5.32439430277606
  20
42.77859665308453
  30
961.275
  0
VERTEX
  8
Unknown Area Type
  70
32
  10
-5.32447369898521
  20
42.77859504069068
  30
960.96
  0
VERTEX
  8
Unknown Area Type
  70
32
  10
-5.35394436819019
  20
42.77903729788942
  30
977.886
  0
VERTEX
  8
Unknown Area Type
  70
32
  10
-5.35471568715092
  20
42.81839047411265
  30
1168.651
  0
VERTEX
  8
Unknown Area Type
  70
32
  10
-5.35152400281427
  20
42.81970326210015
  30
1131.949
  0
VERTEX
  8
Unknown Area Type
  70
32
  10
-5.3515119507371
  20
42.81970801213079
  30
1131.396
  0
SEQEND
  8
Unknown Area Type
  0
TEXT
  8
Unknown Area Type
 62
7
  1
PNOA-H_AMS_1956-57_33k_ES_PAN_2
 40
0.00045
  10
-5.3382411598249
  20
42.79966731978255
  0
POLYLINE
  8
Unknown Area Type
  70
9
  66
1
  0
VERTEX
  8
Unknown Area Type
  70
32
  10
-5.37657207918338
  20
42.82025291327664
  30
1231.484
  0
VERTEX
  8
Unknown Area Type
  70
32
  10
-5.35471568715092
  20
42.81839047411265
  30
1168.651
  0
VERTEX
  8
Unknown Area Type
  70
32
  10
-5.35394081852395
  20
42.77910490718606
  30
979.657
  0
VERTEX
  8
Unknown Area Type
  70
32
  10
-5.35394419768012
  20
42.77903279897664
  30
977.737
  0
VERTEX
  8
Unknown Area Type
  70
32
  10
-5.35395624179893
  20
42.77902804885304
  30
977.666
  0
VERTEX
  8
Unknown Area Type
  70
32
  10
-5.35577778298586
  20
42.77838724753475
  30
1008.471
  0
VERTEX
  8
Unknown Area Type
  70
32
  10
-5.38562581722839
  20
42.77926380999163
  30
1118.726
  0
VERTEX
  8
Unknown Area Type
  70
32
  10
-5.38637320350866
  20
42.81715392463211
  30
1229.864
  0
VERTEX
  8
Unknown Area Type
  70
32
  10
-5.37851711406477
  20
42.82041511262274
  30
1247.112
  0
VERTEX
  8
Unknown Area Type
  70
32
  10
-5.37660874680447
  20
42.82025215181402
  30
1231.608
  0
VERTEX
  8
Unknown Area Type
  70
32
  10
-5.37657207918338
  20
42.82025291327664
  30
1231.484
  0
SEQEND
  8
Unknown Area Type
  0
TEXT
  8
Unknown Area Type
 62
7
  1
PNOA-H_AMS_1956-57_33k_ES_PAN_2
 40
0.00045
  10
-5.37015712230581
  20
42.79925620851017
  0
POLYLINE
  8
Unknown Area Type
  70
9
  66
1
  0
VERTEX
  8
Unknown Area Type
  70
32
  10
-5.37657207918338
  20
42.82025291327664
  30
1231.484
  0
VERTEX
  8
Unknown Area Type
  70
32
  10
-5.35471568715092
  20
42.81839047411265
  30
1168.651
  0
VERTEX
  8
Unknown Area Type
  70
32
  10
-5.35394081852395
  20
42.77910490718606
  30
979.657
  0
VERTEX
  8
Unknown Area Type
  70
32
  10
-5.35394419768012
  20
42.77903279897664
  30
977.737
  0
VERTEX
  8
Unknown Area Type
  70
32
  10
-5.35395624179893
  20
42.77902804885304
  30
977.666
  0
VERTEX
  8
Unknown Area Type
  70
32
  10
-5.35577778298586
  20
42.77838724753475
  30
1008.471
  0
VERTEX
  8
Unknown Area Type
  70
32
  10
-5.38562581722839
  20
42.77926380999163
  30
1118.726
  0
VERTEX
  8
Unknown Area Type
  70
32
  10
-5.38637320350866
  20
42.81715392463211
  30
1229.864
  0
VERTEX
  8
Unknown Area Type
  70
32
  10
-5.37851711406477
  20
42.82041511262274
  30
1247.112
  0
VERTEX
  8
Unknown Area Type
  70
32
  10
-5.37660874680447
  20
42.82025215181402
  30
1231.608
  0
VERTEX
  8
Unknown Area Type
  70
32
  10
-5.37657207918338
  20
42.82025291327664
  30
1231.484
  0
SEQEND
  8
Unknown Area Type
  0
TEXT
  8
Unknown Area Type
 62
7
  1
PNOA-H_AMS_1956-57_33k_ES_PAN_2
 40
0.00045
  10
-5.37015712230581
  20
42.79925620851017
  0
POLYLINE
  8
Unknown Area Type
  70
9
  66
1
  0
VERTEX
  8
Unknown Area Type
  70
32
  10
-5.47606364013785
  20
42.80219164331906
  30
1167.653
  0
VERTEX
  8
Unknown Area Type
  70
32
  10
-5.45580860679759
  20
42.82138946823236
  30
1220.724
  0
VERTEX
  8
Unknown Area Type
  70
32
  10
-5.44941871219782
  20
42.8197254678592
  30
1213.08
  0
VERTEX
  8
Unknown Area Type
  70
32
  10
-5.44795403091295
  20
42.77888418303367
  30
1067.005
  0
VERTEX
  8
Unknown Area Type
  70
32
  10
-5.45409218199277
  20
42.7769157544194
  30
1097.549
  0
VERTEX
  8
Unknown Area Type
  70
32
  10
-5.45416528413183
  20
42.77690968452571
  30
1095.871
  0
VERTEX
  8
Unknown Area Type
  70
32
  10
-5.47830165780526
  20
42.77846068134714
  30
1082.436
  0
VERTEX
  8
Unknown Area Type
  70
32
  10
-5.47949695224137
  20
42.77885351402594
  30
1077.104
  0
VERTEX
  8
Unknown Area Type
  70
32
  10
-5.48016378415841
  20
42.79830285663319
  30
1154.563
  0
VERTEX
  8
Unknown Area Type
  70
32
  10
-5.47606328114638
  20
42.80218264634032
  30
1167.892
  0
VERTEX
  8
Unknown Area Type
  70
32
  10
-5.47606364013785
  20
42.80219164331906
  30
1167.653
  0
SEQEND
  8
Unknown Area Type
  0
TEXT
  8
Unknown Area Type
 62
7
  1
PNOA-H_AMS_1956-57_33k_ES_PAN_2
 40
0.00045
  10
-5.46405905937737
  20
42.79555664285797
  0
POLYLINE
  8
Unknown Area Type
  70
9
  66
1
  0
VERTEX
  8
Unknown Area Type
  70
32
  10
-5.47606364013785
  20
42.80219164331906
  30
1167.653
  0
VERTEX
  8
Unknown Area Type
  70
32
  10
-5.45580860679759
  20
42.82138946823236
  30
1220.724
  0
VERTEX
  8
Unknown Area Type
  70
32
  10
-5.44941871219782
  20
42.8197254678592
  30
1213.08
  0
VERTEX
  8
Unknown Area Type
  70
32
  10
-5.44795403091295
  20
42.77888418303367
  30
1067.005
  0
VERTEX
  8
Unknown Area Type
  70
32
  10
-5.45409218199277
  20
42.7769157544194
  30
1097.549
  0
VERTEX
  8
Unknown Area Type
  70
32
  10
-5.45416528413183
  20
42.77690968452571
  30
1095.871
  0
VERTEX
  8
Unknown Area Type
  70
32
  10
-5.47830165780526
  20
42.77846068134714
  30
1082.436
  0
VERTEX
  8
Unknown Area Type
  70
32
  10
-5.47949695224137
  20
42.77885351402594
  30
1077.104
  0
VERTEX
  8
Unknown Area Type
  70
32
  10
-5.48016378415841
  20
42.79830285663319
  30
1154.563
  0
VERTEX
  8
Unknown Area Type
  70
32
  10
-5.47606328114638
  20
42.80218264634032
  30
1167.892
  0
VERTEX
  8
Unknown Area Type
  70
32
  10
-5.47606364013785
  20
42.80219164331906
  30
1167.653
  0
SEQEND
  8
Unknown Area Type
  0
TEXT
  8
Unknown Area Type
 62
7
  1
PNOA-H_AMS_1956-57_33k_ES_PAN_2
 40
0.00045
  10
-5.46405905937737
  20
42.79555664285797
  0
POLYLINE
  8
Unknown Area Type
  70
9
  66
1
  0
VERTEX
  8
Unknown Area Type
  70
32
  10
-5.3055790228282
  20
42.7038897343908
  30
1047.794
  0
VERTEX
  8
Unknown Area Type
  70
32
  10
-5.30549972082125
  20
42.70389133145106
  30
1047.704
  0
VERTEX
  8
Unknown Area Type
  70
32
  10
-5.30068062256796
  20
42.70134532208359
  30
1052.766
  0
VERTEX
  8
Unknown Area Type
  70
32
  10
-5.30049291800357
  20
42.67262318280893
  30
995.752
  0
VERTEX
  8
Unknown Area Type
  70
32
  10
-5.303235808211
  20
42.67105969806346
  30
1016.197
  0
VERTEX
  8
Unknown Area Type
  70
32
  10
-5.33545334905821
  20
42.67273482930466
  30
1041.824
  0
VERTEX
  8
Unknown Area Type
  70
32
  10
-5.33541321245435
  20
42.70129941178142
  30
987.674
  0
VERTEX
  8
Unknown Area Type
  70
32
  10
-5.30564595794606
  20
42.70388388386267
  30
1047.671
  0
VERTEX
  8
Unknown Area Type
  70
32
  10
-5.3055790228282
  20
42.7038897343908
  30
1047.794
  0
SEQEND
  8
Unknown Area Type
  0
TEXT
  8
Unknown Area Type
 62
7
  1
PNOA-H_AMS_1956-57_33k_ES_PAN_2
 40
0.00045
  10
-5.31801152975854
  20
42.68747382530311
  0
POLYLINE
  8
Unknown Area Type
  70
9
  66
1
  0
VERTEX
  8
Unknown Area Type
  70
32
  10
-5.3055790228282
  20
42.7038897343908
  30
1047.794
  0
VERTEX
  8
Unknown Area Type
  70
32
  10
-5.30549972082125
  20
42.70389133145106
  30
1047.704
  0
VERTEX
  8
Unknown Area Type
  70
32
  10
-5.30068062256796
  20
42.70134532208359
  30
1052.766
  0
VERTEX
  8
Unknown Area Type
  70
32
  10
-5.30049291800357
  20
42.67262318280893
  30
995.752
  0
VERTEX
  8
Unknown Area Type
  70
32
  10
-5.303235808211
  20
42.67105969806346
  30
1016.197
  0
VERTEX
  8
Unknown Area Type
  70
32
  10
-5.33545334905821
  20
42.67273482930466
  30
1041.824
  0
VERTEX
  8
Unknown Area Type
  70
32
  10
-5.33541321245435
  20
42.70129941178142
  30
987.674
  0
VERTEX
  8
Unknown Area Type
  70
32
  10
-5.30564595794606
  20
42.70388388386267
  30
1047.671
  0
VERTEX
  8
Unknown Area Type
  70
32
  10
-5.3055790228282
  20
42.7038897343908
  30
1047.794
  0
SEQEND
  8
Unknown Area Type
  0
TEXT
  8
Unknown Area Type
 62
7
  1
PNOA-H_AMS_1956-57_33k_ES_PAN_2
 40
0.00045
  10
-5.31801152975854
  20
42.68747382530311
  0
POLYLINE
  8
Unknown Area Type
  70
9
  66
1
  0
VERTEX
  8
Unknown Area Type
  70
32
  10
-5.50165585403542
  20
42.81593456973857
  30
998.969
  0
VERTEX
  8
Unknown Area Type
  70
32
  10
-5.48016378415841
  20
42.79830285663319
  30
1154.563
  0
VERTEX
  8
Unknown Area Type
  70
32
  10
-5.47949695224137
  20
42.77885351402594
  30
1077.104
  0
VERTEX
  8
Unknown Area Type
  70
32
  10
-5.5036116993068
  20
42.77725696707014
  30
935.199
  0
VERTEX
  8
Unknown Area Type
  70
32
  10
-5.5090787467914
  20
42.77748392520181
  30
937.192
  0
VERTEX
  8
Unknown Area Type
  70
32
  10
-5.50993452685751
  20
42.77778933176825
  30
943.007
  0
VERTEX
  8
Unknown Area Type
  70
32
  10
-5.50791878465845
  20
42.81488801103463
  30
965.151
  0
VERTEX
  8
Unknown Area Type
  70
32
  10
-5.50791340205065
  20
42.81490613842136
  30
965.159
  0
VERTEX
  8
Unknown Area Type
  70
32
  10
-5.50787728682278
  20
42.81492043695928
  30
965.16
  0
VERTEX
  8
Unknown Area Type
  70
32
  10
-5.50266114841925
  20
42.81675002738295
  30
990.042
  0
VERTEX
  8
Unknown Area Type
  70
32
  10
-5.50264281736513
  20
42.81675042827076
  30
990.315
  0
VERTEX
  8
Unknown Area Type
  70
32
  10
-5.50166232718604
  20
42.81594343294633
  30
998.957
  0
VERTEX
  8
Unknown Area Type
  70
32
  10
-5.50165585403542
  20
42.81593456973857
  30
998.969
  0
SEQEND
  8
Unknown Area Type
  0
TEXT
  8
Unknown Area Type
 62
7
  1
PNOA-H_AMS_1956-57_33k_ES_PAN_2
 40
0.00045
  10
-5.49471560309266
  20
42.79404202676355
  0
POLYLINE
  8
Unknown Area Type
  70
9
  66
1
  0
VERTEX
  8
Unknown Area Type
  70
32
  10
-5.50165585403542
  20
42.81593456973857
  30
998.969
  0
VERTEX
  8
Unknown Area Type
  70
32
  10
-5.48016378415841
  20
42.79830285663319
  30
1154.563
  0
VERTEX
  8
Unknown Area Type
  70
32
  10
-5.47949695224137
  20
42.77885351402594
  30
1077.104
  0
VERTEX
  8
Unknown Area Type
  70
32
  10
-5.5036116993068
  20
42.77725696707014
  30
935.199
  0
VERTEX
  8
Unknown Area Type
  70
32
  10
-5.5090787467914
  20
42.77748392520181
  30
937.192
  0
VERTEX
  8
Unknown Area Type
  70
32
  10
-5.50993452685751
  20
42.77778933176825
  30
943.007
  0
VERTEX
  8
Unknown Area Type
  70
32
  10
-5.50791878465845
  20
42.81488801103463
  30
965.151
  0
VERTEX
  8
Unknown Area Type
  70
32
  10
-5.50791340205065
  20
42.81490613842136
  30
965.159
  0
VERTEX
  8
Unknown Area Type
  70
32
  10
-5.50787728682278
  20
42.81492043695928
  30
965.16
  0
VERTEX
  8
Unknown Area Type
  70
32
  10
-5.50266114841925
  20
42.81675002738295
  30
990.042
  0
VERTEX
  8
Unknown Area Type
  70
32
  10
-5.50264281736513
  20
42.81675042827076
  30
990.315
  0
VERTEX
  8
Unknown Area Type
  70
32
  10
-5.50166232718604
  20
42.81594343294633
  30
998.957
  0
VERTEX
  8
Unknown Area Type
  70
32
  10
-5.50165585403542
  20
42.81593456973857
  30
998.969
  0
SEQEND
  8
Unknown Area Type
  0
TEXT
  8
Unknown Area Type
 62
7
  1
PNOA-H_AMS_1956-57_33k_ES_PAN_2
 40
0.00045
  10
-5.49471560309266
  20
42.79404202676355
  0
POLYLINE
  8
Unknown Area Type
  70
9
  66
1
  0
VERTEX
  8
Unknown Area Type
  70
32
  10
-5.2970940653681
  20
42.70158843695642
  30
1039.804
  0
VERTEX
  8
Unknown Area Type
  70
32
  10
-5.27007472190877
  20
42.70340609586477
  30
1014.366
  0
VERTEX
  8
Unknown Area Type
  70
32
  10
-5.26677660690279
  20
42.70151736441934
  30
998.352
  0
VERTEX
  8
Unknown Area Type
  70
32
  10
-5.26676592479609
  20
42.67253496698158
  30
999.241
  0
VERTEX
  8
Unknown Area Type
  70
32
  10
-5.26942695313688
  20
42.67104595101812
  30
1018.491
  0
VERTEX
  8
Unknown Area Type
  70
32
  10
-5.30049291800357
  20
42.67262318280893
  30
995.752
  0
VERTEX
  8
Unknown Area Type
  70
32
  10
-5.30068062256796
  20
42.70134532208359
  30
1052.766
  0
VERTEX
  8
Unknown Area Type
  70
32
  10
-5.29718539889104
  20
42.70158210182861
  30
1039.522
  0
VERTEX
  8
Unknown Area Type
  70
32
  10
-5.2970940653681
  20
42.70158843695642
  30
1039.804
  0
SEQEND
  8
Unknown Area Type
  0
TEXT
  8
Unknown Area Type
 62
7
  1
PNOA-H_AMS_1956-57_33k_ES_PAN_2
 40
0.00045
  10
-5.28368014759974
  20
42.68722570435935
  0
POLYLINE
  8
Unknown Area Type
  70
9
  66
1
  0
VERTEX
  8
Unknown Area Type
  70
32
  10
-5.2970940653681
  20
42.70158843695642
  30
1039.804
  0
VERTEX
  8
Unknown Area Type
  70
32
  10
-5.27007472190877
  20
42.70340609586477
  30
1014.366
  0
VERTEX
  8
Unknown Area Type
  70
32
  10
-5.26677660690279
  20
42.70151736441934
  30
998.352
  0
VERTEX
  8
Unknown Area Type
  70
32
  10
-5.26676592479609
  20
42.67253496698158
  30
999.241
  0
VERTEX
  8
Unknown Area Type
  70
32
  10
-5.26942695313688
  20
42.67104595101812
  30
1018.491
  0
VERTEX
  8
Unknown Area Type
  70
32
  10
-5.30049291800357
  20
42.67262318280893
  30
995.752
  0
VERTEX
  8
Unknown Area Type
  70
32
  10
-5.30068062256796
  20
42.70134532208359
  30
1052.766
  0
VERTEX
  8
Unknown Area Type
  70
32
  10
-5.29718539889104
  20
42.70158210182861
  30
1039.522
  0
VERTEX
  8
Unknown Area Type
  70
32
  10
-5.2970940653681
  20
42.70158843695642
  30
1039.804
  0
SEQEND
  8
Unknown Area Type
  0
TEXT
  8
Unknown Area Type
 62
7
  1
PNOA-H_AMS_1956-57_33k_ES_PAN_2
 40
0.00045
  10
-5.28368014759974
  20
42.68722570435935
  0
POLYLINE
  8
Unknown Area Type
  70
9
  66
1
  0
VERTEX
  8
Unknown Area Type
  70
32
  10
-5.34114066891264
  20
42.70426211944161
  30
951.227
  0
VERTEX
  8
Unknown Area Type
  70
32
  10
-5.34107339937125
  20
42.7042589926327
  30
951.583
  0
VERTEX
  8
Unknown Area Type
  70
32
  10
-5.33541321245435
  20
42.70129941178142
  30
987.674
  0
VERTEX
  8
Unknown Area Type
  70
32
  10
-5.3354475891679
  20
42.67274395178799
  30
1041.775
  0
VERTEX
  8
Unknown Area Type
  70
32
  10
-5.33663474974303
  20
42.67202184240273
  30
1045.582
  0
VERTEX
  8
Unknown Area Type
  70
32
  10
-5.37032731376636
  20
42.67217571141513
  30
853.905
  0
VERTEX
  8
Unknown Area Type
  70
32
  10
-5.37008025990287
  20
42.70178010133719
  30
868.875
  0
VERTEX
  8
Unknown Area Type
  70
32
  10
-5.34121370020424
  20
42.70425612343386
  30
950.659
  0
VERTEX
  8
Unknown Area Type
  70
32
  10
-5.34114066891264
  20
42.70426211944161
  30
951.227
  0
SEQEND
  8
Unknown Area Type
  0
TEXT
  8
Unknown Area Type
 62
7
  1
PNOA-H_AMS_1956-57_33k_ES_PAN_2
 40
0.00045
  10
-5.35281181988434
  20
42.6881397864284
  0
POLYLINE
  8
Unknown Area Type
  70
9
  66
1
  0
VERTEX
  8
Unknown Area Type
  70
32
  10
-5.34114066891264
  20
42.70426211944161
  30
951.227
  0
VERTEX
  8
Unknown Area Type
  70
32
  10
-5.34107339937125
  20
42.7042589926327
  30
951.583
  0
VERTEX
  8
Unknown Area Type
  70
32
  10
-5.33541321245435
  20
42.70129941178142
  30
987.674
  0
VERTEX
  8
Unknown Area Type
  70
32
  10
-5.3354475891679
  20
42.67274395178799
  30
1041.775
  0
VERTEX
  8
Unknown Area Type
  70
32
  10
-5.33663474974303
  20
42.67202184240273
  30
1045.582
  0
VERTEX
  8
Unknown Area Type
  70
32
  10
-5.37032731376636
  20
42.67217571141513
  30
853.905
  0
VERTEX
  8
Unknown Area Type
  70
32
  10
-5.37008025990287
  20
42.70178010133719
  30
868.875
  0
VERTEX
  8
Unknown Area Type
  70
32
  10
-5.34121370020424
  20
42.70425612343386
  30
950.659
  0
VERTEX
  8
Unknown Area Type
  70
32
  10
-5.34114066891264
  20
42.70426211944161
  30
951.227
  0
SEQEND
  8
Unknown Area Type
  0
TEXT
  8
Unknown Area Type
 62
7
  1
PNOA-H_AMS_1956-57_33k_ES_PAN_2
 40
0.00045
  10
-5.35281181988434
  20
42.6881397864284
  0
POLYLINE
  8
Unknown Area Type
  70
9
  66
1
  0
VERTEX
  8
Unknown Area Type
  70
32
  10
-5.41288016651604
  20
42.70560006402568
  30
929.017
  0
VERTEX
  8
Unknown Area Type
  70
32
  10
-5.4045323785942
  20
42.70174151197052
  30
935.53
  0
VERTEX
  8
Unknown Area Type
  70
32
  10
-5.40492977241831
  20
42.67203039316465
  30
933.5
  0
VERTEX
  8
Unknown Area Type
  70
32
  10
-5.43867407714753
  20
42.67101040288476
  30
939.709
  0
VERTEX
  8
Unknown Area Type
  70
32
  10
-5.43988370644215
  20
42.67167350716362
  30
940.445
  0
VERTEX
  8
Unknown Area Type
  70
32
  10
-5.43920763444568
  20
42.70225959704045
  30
959.679
  0
VERTEX
  8
Unknown Area Type
  70
32
  10
-5.41292269113343
  20
42.70559466524126
  30
929.174
  0
VERTEX
  8
Unknown Area Type
  70
32
  10
-5.41288016651604
  20
42.70560006402568
  30
929.017
  0
SEQEND
  8
Unknown Area Type
  0
TEXT
  8
Unknown Area Type
 62
7
  1
PNOA-H_AMS_1956-57_33k_ES_PAN_2
 40
0.00045
  10
-5.42211448892854
  20
42.68830383157199
  0
POLYLINE
  8
Unknown Area Type
  70
9
  66
1
  0
VERTEX
  8
Unknown Area Type
  70
32
  10
-5.41288016651604
  20
42.70560006402568
  30
929.017
  0
VERTEX
  8
Unknown Area Type
  70
32
  10
-5.4045323785942
  20
42.70174151197052
  30
935.53
  0
VERTEX
  8
Unknown Area Type
  70
32
  10
-5.40492977241831
  20
42.67203039316465
  30
933.5
  0
VERTEX
  8
Unknown Area Type
  70
32
  10
-5.43867407714753
  20
42.67101040288476
  30
939.709
  0
VERTEX
  8
Unknown Area Type
  70
32
  10
-5.43988370644215
  20
42.67167350716362
  30
940.445
  0
VERTEX
  8
Unknown Area Type
  70
32
  10
-5.43920763444568
  20
42.70225959704045
  30
959.679
  0
VERTEX
  8
Unknown Area Type
  70
32
  10
-5.41292269113343
  20
42.70559466524126
  30
929.174
  0
VERTEX
  8
Unknown Area Type
  70
32
  10
-5.41288016651604
  20
42.70560006402568
  30
929.017
  0
SEQEND
  8
Unknown Area Type
  0
TEXT
  8
Unknown Area Type
 62
7
  1
PNOA-H_AMS_1956-57_33k_ES_PAN_2
 40
0.00045
  10
-5.42211448892854
  20
42.68830383157199
  0
POLYLINE
  8
Unknown Area Type
  70
9
  66
1
  0
VERTEX
  8
Unknown Area Type
  70
32
  10
-5.39712527332403
  20
42.7026307557435
  30
897.511
  0
VERTEX
  8
Unknown Area Type
  70
32
  10
-5.37685327243543
  20
42.70506154941751
  30
875.061
  0
VERTEX
  8
Unknown Area Type
  70
32
  10
-5.37008025990287
  20
42.70178010133719
  30
868.875
  0
VERTEX
  8
Unknown Area Type
  70
32
  10
-5.37032275649738
  20
42.67221632813539
  30
853.841
  0
VERTEX
  8
Unknown Area Type
  70
32
  10
-5.37032731376636
  20
42.67217571141513
  30
853.905
  0
VERTEX
  8
Unknown Area Type
  70
32
  10
-5.37035101661521
  20
42.67215721073346
  30
853.857
  0
VERTEX
  8
Unknown Area Type
  70
32
  10
-5.37114374834381
  20
42.67166353186096
  30
853.705
  0
VERTEX
  8
Unknown Area Type
  70
32
  10
-5.40446786571852
  20
42.67176094166893
  30
931.888
  0
VERTEX
  8
Unknown Area Type
  70
32
  10
-5.40492977241831
  20
42.67203039316465
  30
933.5
  0
VERTEX
  8
Unknown Area Type
  70
32
  10
-5.4045323785942
  20
42.70174151197052
  30
935.53
  0
VERTEX
  8
Unknown Area Type
  70
32
  10
-5.39717389718545
  20
42.70262523509994
  30
897.898
  0
VERTEX
  8
Unknown Area Type
  70
32
  10
-5.39712527332403
  20
42.7026307557435
  30
897.511
  0
SEQEND
  8
Unknown Area Type
  0
TEXT
  8
Unknown Area Type
 62
7
  1
PNOA-H_AMS_1956-57_33k_ES_PAN_2
 40
0.00045
  10
-5.38745121984794
  20
42.68836066720691
  0
POLYLINE
  8
Unknown Area Type
  70
9
  66
1
  0
VERTEX
  8
Unknown Area Type
  70
32
  10
-5.39712527332403
  20
42.7026307557435
  30
897.511
  0
VERTEX
  8
Unknown Area Type
  70
32
  10
-5.37685327243543
  20
42.70506154941751
  30
875.061
  0
VERTEX
  8
Unknown Area Type
  70
32
  10
-5.37008025990287
  20
42.70178010133719
  30
868.875
  0
VERTEX
  8
Unknown Area Type
  70
32
  10
-5.37032275649738
  20
42.67221632813539
  30
853.841
  0
VERTEX
  8
Unknown Area Type
  70
32
  10
-5.37032731376636
  20
42.67217571141513
  30
853.905
  0
VERTEX
  8
Unknown Area Type
  70
32
  10
-5.37035101661521
  20
42.67215721073346
  30
853.857
  0
VERTEX
  8
Unknown Area Type
  70
32
  10
-5.37114374834381
  20
42.67166353186096
  30
853.705
  0
VERTEX
  8
Unknown Area Type
  70
32
  10
-5.40446786571852
  20
42.67176094166893
  30
931.888
  0
VERTEX
  8
Unknown Area Type
  70
32
  10
-5.40492977241831
  20
42.67203039316465
  30
933.5
  0
VERTEX
  8
Unknown Area Type
  70
32
  10
-5.4045323785942
  20
42.70174151197052
  30
935.53
  0
VERTEX
  8
Unknown Area Type
  70
32
  10
-5.39717389718545
  20
42.70262523509994
  30
897.898
  0
VERTEX
  8
Unknown Area Type
  70
32
  10
-5.39712527332403
  20
42.7026307557435
  30
897.511
  0
SEQEND
  8
Unknown Area Type
  0
TEXT
  8
Unknown Area Type
 62
7
  1
PNOA-H_AMS_1956-57_33k_ES_PAN_2
 40
0.00045
  10
-5.38745121984794
  20
42.68836066720691
  0
POLYLINE
  8
Unknown Area Type
  70
9
  66
1
  0
VERTEX
  8
Unknown Area Type
  70
32
  10
-5.47212495031262
  20
42.70276912030682
  30
1048.089
  0
VERTEX
  8
Unknown Area Type
  70
32
  10
-5.4482829558649
  20
42.70624412889257
  30
984.829
  0
VERTEX
  8
Unknown Area Type
  70
32
  10
-5.43920763444568
  20
42.70225959704045
  30
959.679
  0
VERTEX
  8
Unknown Area Type
  70
32
  10
-5.43988370644215
  20
42.67167350716362
  30
940.445
  0
VERTEX
  8
Unknown Area Type
  70
32
  10
-5.47250974079953
  20
42.67063134039143
  30
1004.912
  0
VERTEX
  8
Unknown Area Type
  70
32
  10
-5.47419714888427
  20
42.67148637114553
  30
1016.149
  0
VERTEX
  8
Unknown Area Type
  70
32
  10
-5.47390310860046
  20
42.7025055838817
  30
1036.458
  0
VERTEX
  8
Unknown Area Type
  70
32
  10
-5.47216136754043
  20
42.7027638314045
  30
1047.859
  0
VERTEX
  8
Unknown Area Type
  70
32
  10
-5.47212495031262
  20
42.70276912030682
  30
1048.089
  0
SEQEND
  8
Unknown Area Type
  0
TEXT
  8
Unknown Area Type
 62
7
  1
PNOA-H_AMS_1956-57_33k_ES_PAN_2
 40
0.00045
  10
-5.45677508173237
  20
42.68843644959294
  0
POLYLINE
  8
Unknown Area Type
  70
9
  66
1
  0
VERTEX
  8
Unknown Area Type
  70
32
  10
-5.47212495031262
  20
42.70276912030682
  30
1048.089
  0
VERTEX
  8
Unknown Area Type
  70
32
  10
-5.4482829558649
  20
42.70624412889257
  30
984.829
  0
VERTEX
  8
Unknown Area Type
  70
32
  10
-5.43920763444568
  20
42.70225959704045
  30
959.679
  0
VERTEX
  8
Unknown Area Type
  70
32
  10
-5.43988370644215
  20
42.67167350716362
  30
940.445
  0
VERTEX
  8
Unknown Area Type
  70
32
  10
-5.47250974079953
  20
42.67063134039143
  30
1004.912
  0
VERTEX
  8
Unknown Area Type
  70
32
  10
-5.47419714888427
  20
42.67148637114553
  30
1016.149
  0
VERTEX
  8
Unknown Area Type
  70
32
  10
-5.47390310860046
  20
42.7025055838817
  30
1036.458
  0
VERTEX
  8
Unknown Area Type
  70
32
  10
-5.47216136754043
  20
42.7027638314045
  30
1047.859
  0
VERTEX
  8
Unknown Area Type
  70
32
  10
-5.47212495031262
  20
42.70276912030682
  30
1048.089
  0
SEQEND
  8
Unknown Area Type
  0
TEXT
  8
Unknown Area Type
 62
7
  1
PNOA-H_AMS_1956-57_33k_ES_PAN_2
 40
0.00045
  10
-5.45677508173237
  20
42.68843644959294
  0
POLYLINE
  8
Unknown Area Type
  70
9
  66
1
  0
VERTEX
  8
Unknown Area Type
  70
32
  10
-5.19781275663848
  20
42.82243411774226
  30
1229.977
  0
VERTEX
  8
Unknown Area Type
  70
32
  10
-5.19304207625442
  20
42.82434010836695
  30
1243.511
  0
VERTEX
  8
Unknown Area Type
  70
32
  10
-5.18749999999999
  20
42.82416398937821
  30
1226.232
  0
VERTEX
  8
Unknown Area Type
  70
32
  10
-5.18749999999999
  20
42.81249999999999
  30
1203.508
  0
VERTEX
  8
Unknown Area Type
  70
32
  10
-5.18749999999999
  20
42.79166666666667
  30
1149.753
  0
VERTEX
  8
Unknown Area Type
  70
32
  10
-5.18749999999999
  20
42.78207971136902
  30
1097.846
  0
VERTEX
  8
Unknown Area Type
  70
32
  10
-5.19655170811728
  20
42.78232355460113
  30
1126.38
  0
SEQEND
  8
Unknown Area Type
  0
TEXT
  8
Unknown Area Type
 62
7
  1
PNOA-H_AMS_1956-57_33k_ES_PAN_2
 40
0.00045
  10
-5.19265637831924
  20
42.80320990986799
  0
POLYLINE
  8
Unknown Area Type
  70
9
  66
1
  0
VERTEX
  8
Unknown Area Type
  70
32
  10
-5.19781275663848
  20
42.82243411774226
  30
1229.977
  0
VERTEX
  8
Unknown Area Type
  70
32
  10
-5.19304207625442
  20
42.82434010836695
  30
1243.511
  0
VERTEX
  8
Unknown Area Type
  70
32
  10
-5.18749999999999
  20
42.82416398937821
  30
1226.232
  0
VERTEX
  8
Unknown Area Type
  70
32
  10
-5.18749999999999
  20
42.81249999999999
  30
1203.508
  0
VERTEX
  8
Unknown Area Type
  70
32
  10
-5.18749999999999
  20
42.79166666666667
  30
1149.753
  0
VERTEX
  8
Unknown Area Type
  70
32
  10
-5.18749999999999
  20
42.78207971136902
  30
1097.846
  0
VERTEX
  8
Unknown Area Type
  70
32
  10
-5.19655170811728
  20
42.78232355460113
  30
1126.38
  0
SEQEND
  8
Unknown Area Type
  0
TEXT
  8
Unknown Area Type
 62
7
  1
PNOA-H_AMS_1956-57_33k_ES_PAN_2
 40
0.00045
  10
-5.19265637831924
  20
42.80320990986799
  0
POLYLINE
  8
Unknown Area Type
  70
9
  66
1
  0
VERTEX
  8
Unknown Area Type
  70
32
  10
-5.18749999999999
  20
42.79166666666667
  30
1149.753
  0
VERTEX
  8
Unknown Area Type
  70
32
  10
-5.18749999999999
  20
42.81249999999999
  30
1203.508
  0
VERTEX
  8
Unknown Area Type
  70
32
  10
-5.18749999999999
  20
42.82416398937821
  30
1226.232
  0
VERTEX
  8
Unknown Area Type
  70
32
  10
-5.18749966666666
  20
42.82416397878536
  30
1226.231
  0
VERTEX
  8
Unknown Area Type
  70
32
  10
-5.18749966666666
  20
42.78207970238938
  30
1097.845
  0
VERTEX
  8
Unknown Area Type
  70
32
  10
-5.18749999999999
  20
42.78207971136902
  30
1097.846
  0
SEQEND
  8
Unknown Area Type
  0
TEXT
  8
Unknown Area Type
 62
7
  1
PNOA-H_AMS_1956-57_33k_ES_PAN_2
 40
0.00045
  10
-5.18749983333333
  20
42.80312184588379
  0
POLYLINE
  8
Unknown Area Type
  70
9
  66
1
  0
VERTEX
  8
Unknown Area Type
  70
32
  10
-5.48378499188965
  20
42.70660492764144
  30
1074.591
  0
VERTEX
  8
Unknown Area Type
  70
32
  10
-5.48376669301449
  20
42.70660532468892
  30
1074.55
  0
VERTEX
  8
Unknown Area Type
  70
32
  10
-5.48327011085363
  20
42.70639998161535
  30
1071.843
  0
VERTEX
  8
Unknown Area Type
  70
32
  10
-5.47390328731589
  20
42.70251008245697
  30
1036.611
  0
VERTEX
  8
Unknown Area Type
  70
32
  10
-5.47419714888427
  20
42.67148637114553
  30
1016.149
  0
VERTEX
  8
Unknown Area Type
  70
32
  10
-5.50684283304428
  20
42.66988918771091
  30
925.597
  0
VERTEX
  8
Unknown Area Type
  70
32
  10
-5.50956270435402
  20
42.67122085340215
  30
914.493
  0
VERTEX
  8
Unknown Area Type
  70
32
  10
-5.50867698597902
  20
42.70287439370445
  30
938.086
  0
VERTEX
  8
Unknown Area Type
  70
32
  10
-5.4838214101817
  20
42.70659963499948
  30
1074.667
  0
VERTEX
  8
Unknown Area Type
  70
32
  10
-5.48378499188965
  20
42.70660492764144
  30
1074.591
  0
SEQEND
  8
Unknown Area Type
  0
TEXT
  8
Unknown Area Type
 62
7
  1
PNOA-H_AMS_1956-57_33k_ES_PAN_2
 40
0.00045
  10
-5.49156258402629
  20
42.68824548919277
  0
POLYLINE
  8
Unknown Area Type
  70
9
  66
1
  0
VERTEX
  8
Unknown Area Type
  70
32
  10
-5.48378499188965
  20
42.70660492764144
  30
1074.591
  0
VERTEX
  8
Unknown Area Type
  70
32
  10
-5.48376669301449
  20
42.70660532468892
  30
1074.55
  0
VERTEX
  8
Unknown Area Type
  70
32
  10
-5.48327011085363
  20
42.70639998161535
  30
1071.843
  0
VERTEX
  8
Unknown Area Type
  70
32
  10
-5.47390328731589
  20
42.70251008245697
  30
1036.611
  0
VERTEX
  8
Unknown Area Type
  70
32
  10
-5.47419714888427
  20
42.67148637114553
  30
1016.149
  0
VERTEX
  8
Unknown Area Type
  70
32
  10
-5.50684283304428
  20
42.66988918771091
  30
925.597
  0
VERTEX
  8
Unknown Area Type
  70
32
  10
-5.50956270435402
  20
42.67122085340215
  30
914.493
  0
VERTEX
  8
Unknown Area Type
  70
32
  10
-5.50867698597902
  20
42.70287439370445
  30
938.086
  0
VERTEX
  8
Unknown Area Type
  70
32
  10
-5.4838214101817
  20
42.70659963499948
  30
1074.667
  0
VERTEX
  8
Unknown Area Type
  70
32
  10
-5.48378499188965
  20
42.70660492764144
  30
1074.591
  0
SEQEND
  8
Unknown Area Type
  0
TEXT
  8
Unknown Area Type
 62
7
  1
PNOA-H_AMS_1956-57_33k_ES_PAN_2
 40
0.00045
  10
-5.49156258402629
  20
42.68824548919277
  0
POLYLINE
  8
Unknown Area Type
  70
9
  66
1
  0
VERTEX
  8
Unknown Area Type
  70
32
  10
-5.19698086968768
  20
42.70039263157255
  30
992.981
  0
VERTEX
  8
Unknown Area Type
  70
32
  10
-5.18749999999999
  20
42.70071877645064
  30
962.124
  0
VERTEX
  8
Unknown Area Type
  70
32
  10
-5.18749999999999
  20
42.68750000000001
  30
940.624
  0
VERTEX
  8
Unknown Area Type
  70
32
  10
-5.18749999999999
  20
42.67262176591356
  30
886.103
  0
VERTEX
  8
Unknown Area Type
  70
32
  10
-5.19726204478583
  20
42.67392142366934
  30
884.624
  0
SEQEND
  8
Unknown Area Type
  0
TEXT
  8
Unknown Area Type
 62
7
  1
PNOA-H_AMS_1956-57_33k_ES_PAN_2
 40
0.00045
  10
-5.19238102239291
  20
42.6866702711821
  0
POLYLINE
  8
Unknown Area Type
  70
9
  66
1
  0
VERTEX
  8
Unknown Area Type
  70
32
  10
-5.19698086968768
  20
42.70039263157255
  30
992.981
  0
VERTEX
  8
Unknown Area Type
  70
32
  10
-5.18749999999999
  20
42.70071877645064
  30
962.124
  0
VERTEX
  8
Unknown Area Type
  70
32
  10
-5.18749999999999
  20
42.68750000000001
  30
940.624
  0
VERTEX
  8
Unknown Area Type
  70
32
  10
-5.18749999999999
  20
42.67262176591356
  30
886.103
  0
VERTEX
  8
Unknown Area Type
  70
32
  10
-5.19726204478583
  20
42.67392142366934
  30
884.624
  0
SEQEND
  8
Unknown Area Type
  0
TEXT
  8
Unknown Area Type
 62
7
  1
PNOA-H_AMS_1956-57_33k_ES_PAN_2
 40
0.00045
  10
-5.19238102239291
  20
42.6866702711821
  0
POLYLINE
  8
Unknown Area Type
  70
9
  66
1
  0
VERTEX
  8
Unknown Area Type
  70
32
  10
-5.18749999999999
  20
42.68750000000001
  30
940.624
  0
VERTEX
  8
Unknown Area Type
  70
32
  10
-5.18749999999999
  20
42.70071877645064
  30
962.124
  0
VERTEX
  8
Unknown Area Type
  70
32
  10
-5.18749966666666
  20
42.70071878791742
  30
962.123
  0
VERTEX
  8
Unknown Area Type
  70
32
  10
-5.18749966666666
  20
42.67262172153563
  30
886.103
  0
VERTEX
  8
Unknown Area Type
  70
32
  10
-5.18749999999999
  20
42.67262176591356
  30
886.103
  0
SEQEND
  8
Unknown Area Type
  0
TEXT
  8
Unknown Area Type
 62
7
  1
PNOA-H_AMS_1956-57_33k_ES_PAN_2
 40
0.00045
  10
-5.18749983333333
  20
42.68667025472653
  0
POLYLINE
  8
Unknown Area Type
  70
9
  66
1
  0
VERTEX
  8
Unknown Area Type
  70
32
  10
-5.23626657850305
  20
42.6710815850521
  30
985.103
  0
VERTEX
  8
Unknown Area Type
  70
32
  10
-5.2324560961421
  20
42.67320909567662
  30
1034.138
  0
VERTEX
  8
Unknown Area Type
  70
32
  10
-5.22099108542932
  20
42.67218487030181
  30
969.423
  0
VERTEX
  8
Unknown Area Type
  70
32
  10
-5.22096669579263
  20
42.67218534340959
  30
969.177
  0
VERTEX
  8
Unknown Area Type
  70
32
  10
-5.2035463708832
  20
42.67062636826672
  30
933.252
  0
VERTEX
  8
Unknown Area Type
  70
32
  10
-5.20340466298611
  20
42.6666666666667
  30
925.503
  0
VERTEX
  8
Unknown Area Type
  70
32
  10
-5.22916666666662
  20
42.6666666666667
  30
1012.445
  0
VERTEX
  8
Unknown Area Type
  70
32
  10
-5.23619690870816
  20
42.6666666666667
  30
977.06
  0
SEQEND
  8
Unknown Area Type
  0
TEXT
  8
Unknown Area Type
 62
7
  1
PNOA-H_AMS_1956-57_33k_ES_PAN_2
 40
0.00045
  10
-5.21983562074458
  20
42.66993788117166
  0
POLYLINE
  8
Unknown Area Type
  70
9
  66
1
  0
VERTEX
  8
Unknown Area Type
  70
32
  10
-5.23619690870816
  20
42.6666666666667
  30
977.06
  0
VERTEX
  8
Unknown Area Type
  70
32
  10
-5.22916666666662
  20
42.6666666666667
  30
1012.445
  0
VERTEX
  8
Unknown Area Type
  70
32
  10
-5.20340466298611
  20
42.6666666666667
  30
925.503
  0
VERTEX
  8
Unknown Area Type
  70
32
  10
-5.20340465702153
  20
42.66666650000003
  30
925.502
  0
VERTEX
  8
Unknown Area Type
  70
32
  10
-5.23619690607807
  20
42.66666650000003
  30
977.06
  0
SEQEND
  8
Unknown Area Type
  0
TEXT
  8
Unknown Area Type
 62
7
  1
PNOA-H_AMS_1956-57_33k_ES_PAN_2
 40
0.00045
  10
-5.21980078286485
  20
42.66666658333337
  0
POLYLINE
  8
Unknown Area Type
  70
9
  66
1
  0
VERTEX
  8
Unknown Area Type
  70
32
  10
-5.23626657850305
  20
42.6710815850521
  30
985.103
  0
VERTEX
  8
Unknown Area Type
  70
32
  10
-5.2324560961421
  20
42.67320909567662
  30
1034.138
  0
VERTEX
  8
Unknown Area Type
  70
32
  10
-5.22099108542932
  20
42.67218487030181
  30
969.423
  0
VERTEX
  8
Unknown Area Type
  70
32
  10
-5.22096669579263
  20
42.67218534340959
  30
969.177
  0
VERTEX
  8
Unknown Area Type
  70
32
  10
-5.2035463708832
  20
42.67062636826672
  30
933.252
  0
VERTEX
  8
Unknown Area Type
  70
32
  10
-5.20340466298611
  20
42.6666666666667
  30
925.503
  0
VERTEX
  8
Unknown Area Type
  70
32
  10
-5.22916666666662
  20
42.6666666666667
  30
1012.445
  0
VERTEX
  8
Unknown Area Type
  70
32
  10
-5.23619690870816
  20
42.6666666666667
  30
977.06
  0
SEQEND
  8
Unknown Area Type
  0
TEXT
  8
Unknown Area Type
 62
7
  1
PNOA-H_AMS_1956-57_33k_ES_PAN_2
 40
0.00045
  10
-5.21983562074458
  20
42.66993788117166
  0
POLYLINE
  8
Unknown Area Type
  70
9
  66
1
  0
VERTEX
  8
Unknown Area Type
  70
32
  10
-5.2694271169087
  20
42.67105045028444
  30
1018.466
  0
VERTEX
  8
Unknown Area Type
  70
32
  10
-5.26677202204814
  20
42.67253484626657
  30
999.34
  0
VERTEX
  8
Unknown Area Type
  70
32
  10
-5.23626657850305
  20
42.6710815850521
  30
985.103
  0
VERTEX
  8
Unknown Area Type
  70
32
  10
-5.23619747762333
  20
42.6666666666667
  30
985.234
  0
VERTEX
  8
Unknown Area Type
  70
32
  10
-5.26944586733963
  20
42.6666666666667
  30
1013.755
  0
SEQEND
  8
Unknown Area Type
  0
TEXT
  8
Unknown Area Type
 62
7
  1
PNOA-H_AMS_1956-57_33k_ES_PAN_2
 40
0.00045
  10
-5.25282167248148
  20
42.66960075646664
  0
POLYLINE
  8
Unknown Area Type
  70
9
  66
1
  0
VERTEX
  8
Unknown Area Type
  70
32
  10
-5.26944586733963
  20
42.6666666666667
  30
1013.755
  0
VERTEX
  8
Unknown Area Type
  70
32
  10
-5.23619747762333
  20
42.6666666666667
  30
985.234
  0
VERTEX
  8
Unknown Area Type
  70
32
  10
-5.23619747501472
  20
42.66666650000003
  30
985.234
  0
VERTEX
  8
Unknown Area Type
  70
32
  10
-5.2694458680525
  20
42.66666650000003
  30
1013.755
  0
SEQEND
  8
Unknown Area Type
  0
TEXT
  8
Unknown Area Type
 62
7
  1
PNOA-H_AMS_1956-57_33k_ES_PAN_2
 40
0.00045
  10
-5.25282167153361
  20
42.66666658333337
  0
POLYLINE
  8
Unknown Area Type
  70
9
  66
1
  0
VERTEX
  8
Unknown Area Type
  70
32
  10
-5.2694271169087
  20
42.67105045028444
  30
1018.466
  0
VERTEX
  8
Unknown Area Type
  70
32
  10
-5.26677202204814
  20
42.67253484626657
  30
999.34
  0
VERTEX
  8
Unknown Area Type
  70
32
  10
-5.23626657850305
  20
42.6710815850521
  30
985.103
  0
VERTEX
  8
Unknown Area Type
  70
32
  10
-5.23619747762333
  20
42.6666666666667
  30
985.234
  0
VERTEX
  8
Unknown Area Type
  70
32
  10
-5.26944586733963
  20
42.6666666666667
  30
1013.755
  0
SEQEND
  8
Unknown Area Type
  0
TEXT
  8
Unknown Area Type
 62
7
  1
PNOA-H_AMS_1956-57_33k_ES_PAN_2
 40
0.00045
  10
-5.25282167248148
  20
42.66960075646664
  0
POLYLINE
  8
Unknown Area Type
  70
9
  66
1
  0
VERTEX
  8
Unknown Area Type
  70
32
  10
-5.3366408466455
  20
42.67202171797013
  30
1045.579
  0
VERTEX
  8
Unknown Area Type
  70
32
  10
-5.33545944603551
  20
42.67273470493327
  30
1041.834
  0
VERTEX
  8
Unknown Area Type
  70
32
  10
-5.3353923792831
  20
42.67273607300069
  30
1041.519
  0
VERTEX
  8
Unknown Area Type
  70
32
  10
-5.32095218325911
  20
42.67198063483925
  30
1029.897
  0
VERTEX
  8
Unknown Area Type
  70
32
  10
-5.32092779539296
  20
42.67198112922728
  30
1029.964
  0
VERTEX
  8
Unknown Area Type
  70
32
  10
-5.30327865309254
  20
42.67106333864731
  30
1016.557
  0
VERTEX
  8
Unknown Area Type
  70
32
  10
-5.3032419051637
  20
42.67105957541071
  30
1016.234
  0
VERTEX
  8
Unknown Area Type
  70
32
  10
-5.30323907958541
  20
42.67098308968862
  30
1014.472
  0
VERTEX
  8
Unknown Area Type
  70
32
  10
-5.30328939931187
  20
42.6666666666667
  30
1008.625
  0
VERTEX
  8
Unknown Area Type
  70
32
  10
-5.31249999999997
  20
42.6666666666667
  30
1023.37
  0
VERTEX
  8
Unknown Area Type
  70
32
  10
-5.33676211482269
  20
42.6666666666667
  30
1038.872
  0
SEQEND
  8
Unknown Area Type
  0
TEXT
  8
Unknown Area Type
 62
7
  1
PNOA-H_AMS_1956-57_33k_ES_PAN_2
 40
0.00045
  10
-5.32000059720405
  20
42.66970136983369
  0
POLYLINE
  8
Unknown Area Type
  70
9
  66
1
  0
VERTEX
  8
Unknown Area Type
  70
32
  10
-5.33676211482269
  20
42.6666666666667
  30
1038.872
  0
VERTEX
  8
Unknown Area Type
  70
32
  10
-5.31249999999997
  20
42.6666666666667
  30
1023.37
  0
VERTEX
  8
Unknown Area Type
  70
32
  10
-5.30328939931187
  20
42.6666666666667
  30
1008.625
  0
VERTEX
  8
Unknown Area Type
  70
32
  10
-5.30328940125482
  20
42.66666650000003
  30
1008.624
  0
VERTEX
  8
Unknown Area Type
  70
32
  10
-5.33676211859695
  20
42.66666650000003
  30
1038.872
  0
SEQEND
  8
Unknown Area Type
  0
TEXT
  8
Unknown Area Type
 62
7
  1
PNOA-H_AMS_1956-57_33k_ES_PAN_2
 40
0.00045
  10
-5.32002575895441
  20
42.66666658333337
  0
POLYLINE
  8
Unknown Area Type
  70
9
  66
1
  0
VERTEX
  8
Unknown Area Type
  70
32
  10
-5.3366408466455
  20
42.67202171797013
  30
1045.579
  0
VERTEX
  8
Unknown Area Type
  70
32
  10
-5.33545944603551
  20
42.67273470493327
  30
1041.834
  0
VERTEX
  8
Unknown Area Type
  70
32
  10
-5.3353923792831
  20
42.67273607300069
  30
1041.519
  0
VERTEX
  8
Unknown Area Type
  70
32
  10
-5.32095218325911
  20
42.67198063483925
  30
1029.897
  0
VERTEX
  8
Unknown Area Type
  70
32
  10
-5.32092779539296
  20
42.67198112922728
  30
1029.964
  0
VERTEX
  8
Unknown Area Type
  70
32
  10
-5.30327865309254
  20
42.67106333864731
  30
1016.557
  0
VERTEX
  8
Unknown Area Type
  70
32
  10
-5.3032419051637
  20
42.67105957541071
  30
1016.234
  0
VERTEX
  8
Unknown Area Type
  70
32
  10
-5.30323907958541
  20
42.67098308968862
  30
1014.472
  0
VERTEX
  8
Unknown Area Type
  70
32
  10
-5.30328939931187
  20
42.6666666666667
  30
1008.625
  0
VERTEX
  8
Unknown Area Type
  70
32
  10
-5.31249999999997
  20
42.6666666666667
  30
1023.37
  0
VERTEX
  8
Unknown Area Type
  70
32
  10
-5.33676211482269
  20
42.6666666666667
  30
1038.872
  0
SEQEND
  8
Unknown Area Type
  0
TEXT
  8
Unknown Area Type
 62
7
  1
PNOA-H_AMS_1956-57_33k_ES_PAN_2
 40
0.00045
  10
-5.32000059720405
  20
42.66970136983369
  0
POLYLINE
  8
Unknown Area Type
  70
9
  66
1
  0
VERTEX
  8
Unknown Area Type
  70
32
  10
-5.37114984506001
  20
42.67166340559254
  30
853.719
  0
VERTEX
  8
Unknown Area Type
  70
32
  10
-5.37092347379594
  20
42.67180767077381
  30
853.444
  0
VERTEX
  8
Unknown Area Type
  70
32
  10
-5.37091145142915
  20
42.67181242222912
  30
853.45
  0
VERTEX
  8
Unknown Area Type
  70
32
  10
-5.37033341053623
  20
42.67217558518895
  30
853.902
  0
VERTEX
  8
Unknown Area Type
  70
32
  10
-5.37019318481927
  20
42.67217848830907
  30
853.856
  0
VERTEX
  8
Unknown Area Type
  70
32
  10
-5.3366408466455
  20
42.67202171797013
  30
1045.579
  0
VERTEX
  8
Unknown Area Type
  70
32
  10
-5.33676129497862
  20
42.6666666666667
  30
1038.867
  0
VERTEX
  8
Unknown Area Type
  70
32
  10
-5.35416666666669
  20
42.6666666666667
  30
945.579
  0
VERTEX
  8
Unknown Area Type
  70
32
  10
-5.37090218281067
  20
42.6666666666667
  30
855.862
  0
VERTEX
  8
Unknown Area Type
  70
32
  10
-5.37113615621111
  20
42.67130349025575
  30
853.654
  0
SEQEND
  8
Unknown Area Type
  0
TEXT
  8
Unknown Area Type
 62
7
  1
PNOA-H_AMS_1956-57_33k_ES_PAN_2
 40
0.00045
  10
-5.35389534585276
  20
42.66942257748789
  0
POLYLINE
  8
Unknown Area Type
  70
9
  66
1
  0
VERTEX
  8
Unknown Area Type
  70
32
  10
-5.37090218281067
  20
42.6666666666667
  30
855.862
  0
VERTEX
  8
Unknown Area Type
  70
32
  10
-5.35416666666669
  20
42.6666666666667
  30
945.579
  0
VERTEX
  8
Unknown Area Type
  70
32
  10
-5.33676129497862
  20
42.6666666666667
  30
1038.867
  0
VERTEX
  8
Unknown Area Type
  70
32
  10
-5.33676129872736
  20
42.66666650000003
  30
1038.867
  0
VERTEX
  8
Unknown Area Type
  70
32
  10
-5.37090217440069
  20
42.66666650000003
  30
855.862
  0
SEQEND
  8
Unknown Area Type
  0
TEXT
  8
Unknown Area Type
 62
7
  1
PNOA-H_AMS_1956-57_33k_ES_PAN_2
 40
0.00045
  10
-5.35383173889464
  20
42.66666658333337
  0
POLYLINE
  8
Unknown Area Type
  70
9
  66
1
  0
VERTEX
  8
Unknown Area Type
  70
32
  10
-5.37114984506001
  20
42.67166340559254
  30
853.719
  0
VERTEX
  8
Unknown Area Type
  70
32
  10
-5.37092347379594
  20
42.67180767077381
  30
853.444
  0
VERTEX
  8
Unknown Area Type
  70
32
  10
-5.37091145142915
  20
42.67181242222912
  30
853.45
  0
VERTEX
  8
Unknown Area Type
  70
32
  10
-5.37033341053623
  20
42.67217558518895
  30
853.902
  0
VERTEX
  8
Unknown Area Type
  70
32
  10
-5.37019318481927
  20
42.67217848830907
  30
853.856
  0
VERTEX
  8
Unknown Area Type
  70
32
  10
-5.3366408466455
  20
42.67202171797013
  30
1045.579
  0
VERTEX
  8
Unknown Area Type
  70
32
  10
-5.33676129497862
  20
42.6666666666667
  30
1038.867
  0
VERTEX
  8
Unknown Area Type
  70
32
  10
-5.35416666666669
  20
42.6666666666667
  30
945.579
  0
VERTEX
  8
Unknown Area Type
  70
32
  10
-5.37090218281067
  20
42.6666666666667
  30
855.862
  0
VERTEX
  8
Unknown Area Type
  70
32
  10
-5.37113615621111
  20
42.67130349025575
  30
853.654
  0
SEQEND
  8
Unknown Area Type
  0
TEXT
  8
Unknown Area Type
 62
7
  1
PNOA-H_AMS_1956-57_33k_ES_PAN_2
 40
0.00045
  10
-5.35389534585276
  20
42.66942257748789
  0
POLYLINE
  8
Unknown Area Type
  70
9
  66
1
  0
VERTEX
  8
Unknown Area Type
  70
32
  10
-5.43867407714753
  20
42.67101040288476
  30
939.709
  0
VERTEX
  8
Unknown Area Type
  70
32
  10
-5.40570996352369
  20
42.67200949907067
  30
934.335
  0
VERTEX
  8
Unknown Area Type
  70
32
  10
-5.40521631266188
  20
42.67202437364491
  30
932.923
  0
VERTEX
  8
Unknown Area Type
  70
32
  10
-5.40492367581643
  20
42.67203052123176
  30
933.509
  0
VERTEX
  8
Unknown Area Type
  70
32
  10
-5.40446803923429
  20
42.67176544050109
  30
931.921
  0
VERTEX
  8
Unknown Area Type
  70
32
  10
-5.40429667690402
  20
42.6666666666667
  30
920.478
  0
VERTEX
  8
Unknown Area Type
  70
32
  10
-5.43750000000003
  20
42.6666666666667
  30
935.966
  0
VERTEX
  8
Unknown Area Type
  70
32
  10
-5.43840605727103
  20
42.6666666666667
  30
936.013
  0
SEQEND
  8
Unknown Area Type
  0
TEXT
  8
Unknown Area Type
 62
7
  1
PNOA-H_AMS_1956-57_33k_ES_PAN_2
 40
0.00045
  10
-5.42148537702577
  20
42.66934859394923
  0
POLYLINE
  8
Unknown Area Type
  70
9
  66
1
  0
VERTEX
  8
Unknown Area Type
  70
32
  10
-5.43840605727103
  20
42.6666666666667
  30
936.013
  0
VERTEX
  8
Unknown Area Type
  70
32
  10
-5.43750000000003
  20
42.6666666666667
  30
935.966
  0
VERTEX
  8
Unknown Area Type
  70
32
  10
-5.40429667690402
  20
42.6666666666667
  30
920.478
  0
VERTEX
  8
Unknown Area Type
  70
32
  10
-5.40429667130259
  20
42.66666650000003
  30
920.478
  0
VERTEX
  8
Unknown Area Type
  70
32
  10
-5.43840604698726
  20
42.66666650000003
  30
936.013
  0
SEQEND
  8
Unknown Area Type
  0
TEXT
  8
Unknown Area Type
 62
7
  1
PNOA-H_AMS_1956-57_33k_ES_PAN_2
 40
0.00045
  10
-5.42135136428681
  20
42.66666658333337
  0
POLYLINE
  8
Unknown Area Type
  70
9
  66
1
  0
VERTEX
  8
Unknown Area Type
  70
32
  10
-5.43867407714753
  20
42.67101040288476
  30
939.709
  0
VERTEX
  8
Unknown Area Type
  70
32
  10
-5.40570996352369
  20
42.67200949907067
  30
934.335
  0
VERTEX
  8
Unknown Area Type
  70
32
  10
-5.40521631266188
  20
42.67202437364491
  30
932.923
  0
VERTEX
  8
Unknown Area Type
  70
32
  10
-5.40492367581643
  20
42.67203052123176
  30
933.509
  0
VERTEX
  8
Unknown Area Type
  70
32
  10
-5.40446803923429
  20
42.67176544050109
  30
931.921
  0
VERTEX
  8
Unknown Area Type
  70
32
  10
-5.40429667690402
  20
42.6666666666667
  30
920.478
  0
VERTEX
  8
Unknown Area Type
  70
32
  10
-5.43750000000003
  20
42.6666666666667
  30
935.966
  0
VERTEX
  8
Unknown Area Type
  70
32
  10
-5.43840605727103
  20
42.6666666666667
  30
936.013
  0
SEQEND
  8
Unknown Area Type
  0
TEXT
  8
Unknown Area Type
 62
7
  1
PNOA-H_AMS_1956-57_33k_ES_PAN_2
 40
0.00045
  10
-5.42148537702577
  20
42.66934859394923
  0
POLYLINE
  8
Unknown Area Type
  70
9
  66
1
  0
VERTEX
  8
Unknown Area Type
  70
32
  10
-5.52083333333329
  20
42.67056173358419
  30
896.075
  0
VERTEX
  8
Unknown Area Type
  70
32
  10
-5.50973930850972
  20
42.67121247941185
  30
914.4
  0
VERTEX
  8
Unknown Area Type
  70
32
  10
-5.50961756874881
  20
42.67121965068588
  30
914.416
  0
VERTEX
  8
Unknown Area Type
  70
32
  10
-5.50955660830995
  20
42.67122098703567
  30
914.491
  0
VERTEX
  8
Unknown Area Type
  70
32
  10
-5.50683673711764
  20
42.66988932119637
  30
925.691
  0
VERTEX
  8
Unknown Area Type
  70
32
  10
-5.50660556753112
  20
42.6666666666667
  30
926.211
  0
VERTEX
  8
Unknown Area Type
  70
32
  10
-5.52083333333329
  20
42.6666666666667
  30
895.699
  0
SEQEND
  8
Unknown Area Type
  0
TEXT
  8
Unknown Area Type
 62
7
  1
PNOA-H_AMS_1956-57_33k_ES_PAN_2
 40
0.00045
  10
-5.5137194504322
  20
42.66894382685119
  0
POLYLINE
  8
Unknown Area Type
  70
9
  66
1
  0
VERTEX
  8
Unknown Area Type
  70
32
  10
-5.52083366666662
  20
42.6666666666667
  30
895.698
  0
VERTEX
  8
Unknown Area Type
  70
32
  10
-5.52083333333329
  20
42.6666666666667
  30
895.699
  0
VERTEX
  8
Unknown Area Type
  70
32
  10
-5.52083333333329
  20
42.66666650000003
  30
895.699
  0
VERTEX
  8
Unknown Area Type
  70
32
  10
-5.52083366666662
  20
42.66666650000003
  30
895.698
  0
SEQEND
  8
Unknown Area Type
  0
TEXT
  8
Unknown Area Type
 62
7
  1
PNOA-H_AMS_1956-57_33k_ES_PAN_2
 40
0.00045
  10
-5.52083349999996
  20
42.66666658333337
  0
POLYLINE
  8
Unknown Area Type
  70
9
  66
1
  0
VERTEX
  8
Unknown Area Type
  70
32
  10
-5.52083333333329
  20
42.6666666666667
  30
895.699
  0
VERTEX
  8
Unknown Area Type
  70
32
  10
-5.50660556753112
  20
42.6666666666667
  30
926.211
  0
VERTEX
  8
Unknown Area Type
  70
32
  10
-5.50660555557567
  20
42.66666650000003
  30
926.211
  0
VERTEX
  8
Unknown Area Type
  70
32
  10
-5.52083333333329
  20
42.66666650000003
  30
895.699
  0
SEQEND
  8
Unknown Area Type
  0
TEXT
  8
Unknown Area Type
 62
7
  1
PNOA-H_AMS_1956-57_33k_ES_PAN_2
 40
0.00045
  10
-5.51371944445448
  20
42.66666658333337
  0
POLYLINE
  8
Unknown Area Type
  70
9
  66
1
  0
VERTEX
  8
Unknown Area Type
  70
32
  10
-5.52083366666662
  20
42.67056171403175
  30
896.074
  0
VERTEX
  8
Unknown Area Type
  70
32
  10
-5.52083333333329
  20
42.67056173358419
  30
896.075
  0
VERTEX
  8
Unknown Area Type
  70
32
  10
-5.52083333333329
  20
42.6666666666667
  30
895.699
  0
VERTEX
  8
Unknown Area Type
  70
32
  10
-5.52083366666662
  20
42.6666666666667
  30
895.698
  0
SEQEND
  8
Unknown Area Type
  0
TEXT
  8
Unknown Area Type
 62
7
  1
PNOA-H_AMS_1956-57_33k_ES_PAN_2
 40
0.00045
  10
-5.52083349999996
  20
42.66861420012545
  0
POLYLINE
  8
Unknown Area Type
  70
9
  66
1
  0
VERTEX
  8
Unknown Area Type
  70
32
  10
-5.52083333333329
  20
42.67056173358419
  30
896.075
  0
VERTEX
  8
Unknown Area Type
  70
32
  10
-5.50973930850972
  20
42.67121247941185
  30
914.4
  0
VERTEX
  8
Unknown Area Type
  70
32
  10
-5.50961756874881
  20
42.67121965068588
  30
914.416
  0
VERTEX
  8
Unknown Area Type
  70
32
  10
-5.50955660830995
  20
42.67122098703567
  30
914.491
  0
VERTEX
  8
Unknown Area Type
  70
32
  10
-5.50683673711764
  20
42.66988932119637
  30
925.691
  0
VERTEX
  8
Unknown Area Type
  70
32
  10
-5.50660556753112
  20
42.6666666666667
  30
926.211
  0
VERTEX
  8
Unknown Area Type
  70
32
  10
-5.52083333333329
  20
42.6666666666667
  30
895.699
  0
SEQEND
  8
Unknown Area Type
  0
TEXT
  8
Unknown Area Type
 62
7
  1
PNOA-H_AMS_1956-57_33k_ES_PAN_2
 40
0.00045
  10
-5.5137194504322
  20
42.66894382685119
  0
POLYLINE
  8
Unknown Area Type
  70
9
  66
1
  0
VERTEX
  8
Unknown Area Type
  70
32
  10
-5.40446786571852
  20
42.67176094166893
  30
931.888
  0
VERTEX
  8
Unknown Area Type
  70
32
  10
-5.37114984506001
  20
42.67166340559254
  30
853.719
  0
VERTEX
  8
Unknown Area Type
  70
32
  10
-5.37089757690252
  20
42.6666666666667
  30
855.606
  0
VERTEX
  8
Unknown Area Type
  70
32
  10
-5.39583333333332
  20
42.6666666666667
  30
911.595
  0
VERTEX
  8
Unknown Area Type
  70
32
  10
-5.40429538381522
  20
42.6666666666667
  30
918.568
  0
VERTEX
  8
Unknown Area Type
  70
32
  10
-5.40445658727894
  20
42.67146851756964
  30
929.079
  0
SEQEND
  8
Unknown Area Type
  0
TEXT
  8
Unknown Area Type
 62
7
  1
PNOA-H_AMS_1956-57_33k_ES_PAN_2
 40
0.00045
  10
-5.38768272131052
  20
42.66921380416781
  0
POLYLINE
  8
Unknown Area Type
  70
9
  66
1
  0
VERTEX
  8
Unknown Area Type
  70
32
  10
-5.40429538381522
  20
42.6666666666667
  30
918.568
  0
VERTEX
  8
Unknown Area Type
  70
32
  10
-5.39583333333332
  20
42.6666666666667
  30
911.595
  0
VERTEX
  8
Unknown Area Type
  70
32
  10
-5.37089757690252
  20
42.6666666666667
  30
855.606
  0
VERTEX
  8
Unknown Area Type
  70
32
  10
-5.37089756848809
  20
42.66666650000003
  30
855.606
  0
VERTEX
  8
Unknown Area Type
  70
32
  10
-5.40429537822003
  20
42.66666650000003
  30
918.567
  0
SEQEND
  8
Unknown Area Type
  0
TEXT
  8
Unknown Area Type
 62
7
  1
PNOA-H_AMS_1956-57_33k_ES_PAN_2
 40
0.00045
  10
-5.38759647615166
  20
42.66666658333337
  0
POLYLINE
  8
Unknown Area Type
  70
9
  66
1
  0
VERTEX
  8
Unknown Area Type
  70
32
  10
-5.40446786571852
  20
42.67176094166893
  30
931.888
  0
VERTEX
  8
Unknown Area Type
  70
32
  10
-5.37114984506001
  20
42.67166340559254
  30
853.719
  0
VERTEX
  8
Unknown Area Type
  70
32
  10
-5.37089757690252
  20
42.6666666666667
  30
855.606
  0
VERTEX
  8
Unknown Area Type
  70
32
  10
-5.39583333333332
  20
42.6666666666667
  30
911.595
  0
VERTEX
  8
Unknown Area Type
  70
32
  10
-5.40429538381522
  20
42.6666666666667
  30
918.568
  0
VERTEX
  8
Unknown Area Type
  70
32
  10
-5.40445658727894
  20
42.67146851756964
  30
929.079
  0
SEQEND
  8
Unknown Area Type
  0
TEXT
  8
Unknown Area Type
 62
7
  1
PNOA-H_AMS_1956-57_33k_ES_PAN_2
 40
0.00045
  10
-5.38768272131052
  20
42.66921380416781
  0
POLYLINE
  8
Unknown Area Type
  70
9
  66
1
  0
VERTEX
  8
Unknown Area Type
  70
32
  10
-5.50683673711764
  20
42.66988932119637
  30
925.691
  0
VERTEX
  8
Unknown Area Type
  70
32
  10
-5.47450178197203
  20
42.67147528452757
  30
1019.312
  0
VERTEX
  8
Unknown Area Type
  70
32
  10
-5.47433126602403
  20
42.67148347251641
  30
1017.492
  0
VERTEX
  8
Unknown Area Type
  70
32
  10
-5.47419105265018
  20
42.67148650289766
  30
1016.084
  0
VERTEX
  8
Unknown Area Type
  70
32
  10
-5.47417240686542
  20
42.6714779009546
  30
1015.848
  0
VERTEX
  8
Unknown Area Type
  70
32
  10
-5.47252246836648
  20
42.67064457288514
  30
1004.973
  0
VERTEX
  8
Unknown Area Type
  70
32
  10
-5.47249719165296
  20
42.67062260650129
  30
1004.883
  0
VERTEX
  8
Unknown Area Type
  70
32
  10
-5.47226875301234
  20
42.6666666666667
  30
992.921
  0
VERTEX
  8
Unknown Area Type
  70
32
  10
-5.47916666666666
  20
42.6666666666667
  30
1005.157
  0
VERTEX
  8
Unknown Area Type
  70
32
  10
-5.50660556753112
  20
42.6666666666667
  30
926.211
  0
SEQEND
  8
Unknown Area Type
  0
TEXT
  8
Unknown Area Type
 62
7
  1
PNOA-H_AMS_1956-57_33k_ES_PAN_2
 40
0.00045
  10
-5.48955274506499
  20
42.66907658478218
  0
POLYLINE
  8
Unknown Area Type
  70
9
  66
1
  0
VERTEX
  8
Unknown Area Type
  70
32
  10
-5.50660556753112
  20
42.6666666666667
  30
926.211
  0
VERTEX
  8
Unknown Area Type
  70
32
  10
-5.47916666666666
  20
42.6666666666667
  30
1005.157
  0
VERTEX
  8
Unknown Area Type
  70
32
  10
-5.47226875301234
  20
42.6666666666667
  30
992.921
  0
VERTEX
  8
Unknown Area Type
  70
32
  10
-5.47226874338805
  20
42.66666650000003
  30
992.92
  0
VERTEX
  8
Unknown Area Type
  70
32
  10
-5.50660555557567
  20
42.66666650000003
  30
926.211
  0
SEQEND
  8
Unknown Area Type
  0
TEXT
  8
Unknown Area Type
 62
7
  1
PNOA-H_AMS_1956-57_33k_ES_PAN_2
 40
0.00045
  10
-5.48943715545958
  20
42.66666658333337
  0
POLYLINE
  8
Unknown Area Type
  70
9
  66
1
  0
VERTEX
  8
Unknown Area Type
  70
32
  10
-5.50683673711764
  20
42.66988932119637
  30
925.691
  0
VERTEX
  8
Unknown Area Type
  70
32
  10
-5.47450178197203
  20
42.67147528452757
  30
1019.312
  0
VERTEX
  8
Unknown Area Type
  70
32
  10
-5.47433126602403
  20
42.67148347251641
  30
1017.492
  0
VERTEX
  8
Unknown Area Type
  70
32
  10
-5.47419105265018
  20
42.67148650289766
  30
1016.084
  0
VERTEX
  8
Unknown Area Type
  70
32
  10
-5.47417240686542
  20
42.6714779009546
  30
1015.848
  0
VERTEX
  8
Unknown Area Type
  70
32
  10
-5.47252246836648
  20
42.67064457288514
  30
1004.973
  0
VERTEX
  8
Unknown Area Type
  70
32
  10
-5.47249719165296
  20
42.67062260650129
  30
1004.883
  0
VERTEX
  8
Unknown Area Type
  70
32
  10
-5.47226875301234
  20
42.6666666666667
  30
992.921
  0
VERTEX
  8
Unknown Area Type
  70
32
  10
-5.47916666666666
  20
42.6666666666667
  30
1005.157
  0
VERTEX
  8
Unknown Area Type
  70
32
  10
-5.50660556753112
  20
42.6666666666667
  30
926.211
  0
SEQEND
  8
Unknown Area Type
  0
TEXT
  8
Unknown Area Type
 62
7
  1
PNOA-H_AMS_1956-57_33k_ES_PAN_2
 40
0.00045
  10
-5.48955274506499
  20
42.66907658478218
  0
POLYLINE
  8
Unknown Area Type
  70
9
  66
1
  0
VERTEX
  8
Unknown Area Type
  70
32
  10
-5.47250364464123
  20
42.67063147205165
  30
1004.867
  0
VERTEX
  8
Unknown Area Type
  70
32
  10
-5.4712727548048
  20
42.670671556601
  30
998.142
  0
VERTEX
  8
Unknown Area Type
  70
32
  10
-5.47084620124716
  20
42.67068526604405
  30
996.121
  0
VERTEX
  8
Unknown Area Type
  70
32
  10
-5.43987761003279
  20
42.67167363709011
  30
940.459
  0
VERTEX
  8
Unknown Area Type
  70
32
  10
-5.43867425312566
  20
42.6710149016037
  30
939.743
  0
VERTEX
  8
Unknown Area Type
  70
32
  10
-5.43840596697026
  20
42.6666666666667
  30
936.04
  0
VERTEX
  8
Unknown Area Type
  70
32
  10
-5.47227409058225
  20
42.6666666666667
  30
992.883
  0
SEQEND
  8
Unknown Area Type
  0
TEXT
  8
Unknown Area Type
 62
7
  1
PNOA-H_AMS_1956-57_33k_ES_PAN_2
 40
0.00045
  10
-5.45545480580574
  20
42.6691701518784
  0
POLYLINE
  8
Unknown Area Type
  70
9
  66
1
  0
VERTEX
  8
Unknown Area Type
  70
32
  10
-5.47227409058225
  20
42.6666666666667
  30
992.883
  0
VERTEX
  8
Unknown Area Type
  70
32
  10
-5.43840596697026
  20
42.6666666666667
  30
936.04
  0
VERTEX
  8
Unknown Area Type
  70
32
  10
-5.43840595668692
  20
42.66666650000003
  30
936.04
  0
VERTEX
  8
Unknown Area Type
  70
32
  10
-5.4722740809326
  20
42.66666650000003
  30
992.882
  0
SEQEND
  8
Unknown Area Type
  0
TEXT
  8
Unknown Area Type
 62
7
  1
PNOA-H_AMS_1956-57_33k_ES_PAN_2
 40
0.00045
  10
-5.45534002363459
  20
42.66666658333337
  0
POLYLINE
  8
Unknown Area Type
  70
9
  66
1
  0
VERTEX
  8
Unknown Area Type
  70
32
  10
-5.47250364464123
  20
42.67063147205165
  30
1004.867
  0
VERTEX
  8
Unknown Area Type
  70
32
  10
-5.4712727548048
  20
42.670671556601
  30
998.142
  0
VERTEX
  8
Unknown Area Type
  70
32
  10
-5.47084620124716
  20
42.67068526604405
  30
996.121
  0
VERTEX
  8
Unknown Area Type
  70
32
  10
-5.43987761003279
  20
42.67167363709011
  30
940.459
  0
VERTEX
  8
Unknown Area Type
  70
32
  10
-5.43867425312566
  20
42.6710149016037
  30
939.743
  0
VERTEX
  8
Unknown Area Type
  70
32
  10
-5.43840596697026
  20
42.6666666666667
  30
936.04
  0
VERTEX
  8
Unknown Area Type
  70
32
  10
-5.47227409058225
  20
42.6666666666667
  30
992.883
  0
SEQEND
  8
Unknown Area Type
  0
TEXT
  8
Unknown Area Type
 62
7
  1
PNOA-H_AMS_1956-57_33k_ES_PAN_2
 40
0.00045
  10
-5.45545480580574
  20
42.6691701518784
  0
POLYLINE
  8
Unknown Area Type
  70
9
  66
1
  0
VERTEX
  8
Unknown Area Type
  70
32
  10
-5.3032419051637
  20
42.67105957541071
  30
1016.234
  0
VERTEX
  8
Unknown Area Type
  70
32
  10
-5.30051087730948
  20
42.67261381694187
  30
996.334
  0
VERTEX
  8
Unknown Area Type
  70
32
  10
-5.30050511223808
  20
42.67262293778788
  30
996.144
  0
VERTEX
  8
Unknown Area Type
  70
32
  10
-5.26942695313688
  20
42.67104595101812
  30
1018.491
  0
VERTEX
  8
Unknown Area Type
  70
32
  10
-5.26944570495058
  20
42.6666666666667
  30
1013.782
  0
VERTEX
  8
Unknown Area Type
  70
32
  10
-5.27083333333334
  20
42.6666666666667
  30
1013.776
  0
VERTEX
  8
Unknown Area Type
  70
32
  10
-5.30329269648802
  20
42.6666666666667
  30
1010.096
  0
SEQEND
  8
Unknown Area Type
  0
TEXT
  8
Unknown Area Type
 62
7
  1
PNOA-H_AMS_1956-57_33k_ES_PAN_2
 40
0.00045
  10
-5.28635982481245
  20
42.66964480222729
  0
POLYLINE
  8
Unknown Area Type
  70
9
  66
1
  0
VERTEX
  8
Unknown Area Type
  70
32
  10
-5.30329269648802
  20
42.6666666666667
  30
1010.096
  0
VERTEX
  8
Unknown Area Type
  70
32
  10
-5.27083333333334
  20
42.6666666666667
  30
1013.776
  0
VERTEX
  8
Unknown Area Type
  70
32
  10
-5.26944570495058
  20
42.6666666666667
  30
1013.782
  0
VERTEX
  8
Unknown Area Type
  70
32
  10
-5.26944570566424
  20
42.66666650000003
  30
1013.782
  0
VERTEX
  8
Unknown Area Type
  70
32
  10
-5.30329269841504
  20
42.66666650000003
  30
1010.095
  0
SEQEND
  8
Unknown Area Type
  0
TEXT
  8
Unknown Area Type
 62
7
  1
PNOA-H_AMS_1956-57_33k_ES_PAN_2
 40
0.00045
  10
-5.28636920168281
  20
42.66666658333337
  0
POLYLINE
  8
Unknown Area Type
  70
9
  66
1
  0
VERTEX
  8
Unknown Area Type
  70
32
  10
-5.3032419051637
  20
42.67105957541071
  30
1016.234
  0
VERTEX
  8
Unknown Area Type
  70
32
  10
-5.30051087730948
  20
42.67261381694187
  30
996.334
  0
VERTEX
  8
Unknown Area Type
  70
32
  10
-5.30050511223808
  20
42.67262293778788
  30
996.144
  0
VERTEX
  8
Unknown Area Type
  70
32
  10
-5.26942695313688
  20
42.67104595101812
  30
1018.491
  0
VERTEX
  8
Unknown Area Type
  70
32
  10
-5.26944570495058
  20
42.6666666666667
  30
1013.782
  0
VERTEX
  8
Unknown Area Type
  70
32
  10
-5.27083333333334
  20
42.6666666666667
  30
1013.776
  0
VERTEX
  8
Unknown Area Type
  70
32
  10
-5.30329269648802
  20
42.6666666666667
  30
1010.096
  0
SEQEND
  8
Unknown Area Type
  0
TEXT
  8
Unknown Area Type
 62
7
  1
PNOA-H_AMS_1956-57_33k_ES_PAN_2
 40
0.00045
  10
-5.28635982481245
  20
42.66964480222729
  0
POLYLINE
  8
Unknown Area Type
  70
9
  66
1
  0
VERTEX
  8
Unknown Area Type
  70
32
  10
-5.2035463708832
  20
42.67062636826672
  30
933.252
  0
VERTEX
  8
Unknown Area Type
  70
32
  10
-5.19728017923118
  20
42.67391657312739
  30
884.643
  0
VERTEX
  8
Unknown Area Type
  70
32
  10
-5.19726814246228
  20
42.67392130665083
  30
884.639
  0
VERTEX
  8
Unknown Area Type
  70
32
  10
-5.18749999999999
  20
42.67262241932551
  30
886.107
  0
VERTEX
  8
Unknown Area Type
  70
32
  10
-5.18749999999999
  20
42.6666666666667
  30
886.224
  0
VERTEX
  8
Unknown Area Type
  70
32
  10
-5.20340466298611
  20
42.6666666666667
  30
925.503
  0
SEQEND
  8
Unknown Area Type
  0
TEXT
  8
Unknown Area Type
 62
7
  1
PNOA-H_AMS_1956-57_33k_ES_PAN_2
 40
0.00045
  10
-5.1955231854416
  20
42.67029398665876
  0
POLYLINE
  8
Unknown Area Type
  70
9
  66
1
  0
VERTEX
  8
Unknown Area Type
  70
32
  10
-5.20340466298611
  20
42.6666666666667
  30
925.503
  0
VERTEX
  8
Unknown Area Type
  70
32
  10
-5.18749999999999
  20
42.6666666666667
  30
886.224
  0
VERTEX
  8
Unknown Area Type
  70
32
  10
-5.18749999999999
  20
42.66666650000003
  30
886.224
  0
VERTEX
  8
Unknown Area Type
  70
32
  10
-5.20340465702153
  20
42.66666650000003
  30
925.502
  0
SEQEND
  8
Unknown Area Type
  0
TEXT
  8
Unknown Area Type
 62
7
  1
PNOA-H_AMS_1956-57_33k_ES_PAN_2
 40
0.00045
  10
-5.19545233149305
  20
42.66666658333337
  0
POLYLINE
  8
Unknown Area Type
  70
9
  66
1
  0
VERTEX
  8
Unknown Area Type
  70
32
  10
-5.18749999999999
  20
42.6666666666667
  30
886.224
  0
VERTEX
  8
Unknown Area Type
  70
32
  10
-5.18749966666666
  20
42.6666666666667
  30
886.224
  0
VERTEX
  8
Unknown Area Type
  70
32
  10
-5.18749966666666
  20
42.66666650000003
  30
886.224
  0
VERTEX
  8
Unknown Area Type
  70
32
  10
-5.18749999999999
  20
42.66666650000003
  30
886.224
  0
SEQEND
  8
Unknown Area Type
  0
TEXT
  8
Unknown Area Type
 62
7
  1
PNOA-H_AMS_1956-57_33k_ES_PAN_2
 40
0.00045
  10
-5.18749983333333
  20
42.66666658333337
  0
POLYLINE
  8
Unknown Area Type
  70
9
  66
1
  0
VERTEX
  8
Unknown Area Type
  70
32
  10
-5.2035463708832
  20
42.67062636826672
  30
933.252
  0
VERTEX
  8
Unknown Area Type
  70
32
  10
-5.19728017923118
  20
42.67391657312739
  30
884.643
  0
VERTEX
  8
Unknown Area Type
  70
32
  10
-5.19726814246228
  20
42.67392130665083
  30
884.639
  0
VERTEX
  8
Unknown Area Type
  70
32
  10
-5.18749999999999
  20
42.67262241932551
  30
886.107
  0
VERTEX
  8
Unknown Area Type
  70
32
  10
-5.18749999999999
  20
42.6666666666667
  30
886.224
  0
VERTEX
  8
Unknown Area Type
  70
32
  10
-5.20340466298611
  20
42.6666666666667
  30
925.503
  0
SEQEND
  8
Unknown Area Type
  0
TEXT
  8
Unknown Area Type
 62
7
  1
PNOA-H_AMS_1956-57_33k_ES_PAN_2
 40
0.00045
  10
-5.1955231854416
  20
42.67029398665876
  0
POLYLINE
  8
Unknown Area Type
  70
9
  66
1
  0
VERTEX
  8
Unknown Area Type
  70
32
  10
-5.18749999999999
  20
42.67262241932551
  30
886.107
  0
VERTEX
  8
Unknown Area Type
  70
32
  10
-5.18749966666666
  20
42.67262237500158
  30
886.107
  0
VERTEX
  8
Unknown Area Type
  70
32
  10
-5.18749966666666
  20
42.6666666666667
  30
886.224
  0
VERTEX
  8
Unknown Area Type
  70
32
  10
-5.18749999999999
  20
42.6666666666667
  30
886.224
  0
SEQEND
  8
Unknown Area Type
  0
TEXT
  8
Unknown Area Type
 62
7
  1
PNOA-H_AMS_1956-57_33k_ES_PAN_2
 40
0.00045
  10
-5.18749983333333
  20
42.6696445429961
  0
POLYLINE
  8
Unknown Area Type
  70
9
  66
1
  0
VERTEX
  8
Unknown Area Type
  70
32
  10
-5.52083333333329
  20
42.74363357731013
  30
926.972
  0
VERTEX
  8
Unknown Area Type
  70
32
  10
-5.51670791819743
  20
42.73753779242099
  30
906.419
  0
VERTEX
  8
Unknown Area Type
  70
32
  10
-5.5183167040758
  20
42.7366919748907
  30
904.484
  0
VERTEX
  8
Unknown Area Type
  70
32
  10
-5.51835942095842
  20
42.73669103503383
  30
904.44
  0
VERTEX
  8
Unknown Area Type
  70
32
  10
-5.52083333333329
  20
42.73689855783394
  30
914.77
  0
SEQEND
  8
Unknown Area Type
  0
TEXT
  8
Unknown Area Type
 62
7
  1
PNOA-H_AMS_1956-57_33k_ES_PAN_2
 40
0.00045
  10
-5.51877062576536
  20
42.74016230617198
  0
POLYLINE
  8
Unknown Area Type
  70
9
  66
1
  0
VERTEX
  8
Unknown Area Type
  70
32
  10
-5.52083366666662
  20
42.74363406984924
  30
926.974
  0
VERTEX
  8
Unknown Area Type
  70
32
  10
-5.52083333333329
  20
42.74363357731013
  30
926.972
  0
VERTEX
  8
Unknown Area Type
  70
32
  10
-5.52083333333329
  20
42.73689855783394
  30
914.77
  0
VERTEX
  8
Unknown Area Type
  70
32
  10
-5.52083366666662
  20
42.73689858579543
  30
914.771
  0
SEQEND
  8
Unknown Area Type
  0
TEXT
  8
Unknown Area Type
 62
7
  1
PNOA-H_AMS_1956-57_33k_ES_PAN_2
 40
0.00045
  10
-5.52083349999996
  20
42.74026631384159
  0
POLYLINE
  8
Unknown Area Type
  70
9
  66
1
  0
VERTEX
  8
Unknown Area Type
  70
32
  10
-5.52083333333329
  20
42.74363357731013
  30
926.972
  0
VERTEX
  8
Unknown Area Type
  70
32
  10
-5.51670791819743
  20
42.73753779242099
  30
906.419
  0
VERTEX
  8
Unknown Area Type
  70
32
  10
-5.5183167040758
  20
42.7366919748907
  30
904.484
  0
VERTEX
  8
Unknown Area Type
  70
32
  10
-5.51835942095842
  20
42.73669103503383
  30
904.44
  0
VERTEX
  8
Unknown Area Type
  70
32
  10
-5.52083333333329
  20
42.73689855783394
  30
914.77
  0
SEQEND
  8
Unknown Area Type
  0
TEXT
  8
Unknown Area Type
 62
7
  1
PNOA-H_AMS_1956-57_33k_ES_PAN_2
 40
0.00045
  10
-5.51877062576536
  20
42.74016230617198
  0
POLYLINE
  8
Unknown Area Type
  70
9
  66
1
  0
VERTEX
  8
Unknown Area Type
  70
32
  10
-5.49475628768112
  20
42.75231348700462
  30
1057.729
  0
VERTEX
  8
Unknown Area Type
  70
32
  10
-5.48955455243559
  20
42.73775340794224
  30
1093.531
  0
VERTEX
  8
Unknown Area Type
  70
32
  10
-5.51559569383544
  20
42.73797646348485
  30
904.371
  0
VERTEX
  8
Unknown Area Type
  70
32
  10
-5.5090787467914
  20
42.77748392520181
  30
937.192
  0
VERTEX
  8
Unknown Area Type
  70
32
  10
-5.50366647612976
  20
42.77725126640503
  30
935.218
  0
VERTEX
  8
Unknown Area Type
  70
32
  10
-5.49475682928625
  20
42.7523269823991
  30
1057.74
  0
VERTEX
  8
Unknown Area Type
  70
32
  10
-5.49475628768112
  20
42.75231348700462
  30
1057.729
  0
SEQEND
  8
Unknown Area Type
  0
TEXT
  8
Unknown Area Type
 62
7
  1
PNOA-H_AMS_1956-57_33k_ES_PAN_2
 40
0.00045
  10
-5.50257517230888
  20
42.75603026531262
  0
POLYLINE
  8
Unknown Area Type
  70
9
  66
1
  0
VERTEX
  8
Unknown Area Type
  70
32
  10
-5.49475628768112
  20
42.75231348700462
  30
1057.729
  0
VERTEX
  8
Unknown Area Type
  70
32
  10
-5.48955455243559
  20
42.73775340794224
  30
1093.531
  0
VERTEX
  8
Unknown Area Type
  70
32
  10
-5.51559569383544
  20
42.73797646348485
  30
904.371
  0
VERTEX
  8
Unknown Area Type
  70
32
  10
-5.5090787467914
  20
42.77748392520181
  30
937.192
  0
VERTEX
  8
Unknown Area Type
  70
32
  10
-5.50366647612976
  20
42.77725126640503
  30
935.218
  0
VERTEX
  8
Unknown Area Type
  70
32
  10
-5.49475682928625
  20
42.7523269823991
  30
1057.74
  0
VERTEX
  8
Unknown Area Type
  70
32
  10
-5.49475628768112
  20
42.75231348700462
  30
1057.729
  0
SEQEND
  8
Unknown Area Type
  0
TEXT
  8
Unknown Area Type
 62
7
  1
PNOA-H_AMS_1956-57_33k_ES_PAN_2
 40
0.00045
  10
-5.50257517230888
  20
42.75603026531262
  0
POLYLINE
  8
Unknown Area Type
  70
9
  66
1
  0
VERTEX
  8
Unknown Area Type
  70
32
  10
-5.4751030197557
  20
42.77825525466422
  30
1092.273
  0
VERTEX
  8
Unknown Area Type
  70
32
  10
-5.45412253753242
  20
42.77691060112889
  30
1096.837
  0
VERTEX
  8
Unknown Area Type
  70
32
  10
-5.45260448616647
  20
42.73876272483574
  30
1056.885
  0
VERTEX
  8
Unknown Area Type
  70
32
  10
-5.48176394492983
  20
42.7370671318627
  30
1089.391
  0
VERTEX
  8
Unknown Area Type
  70
32
  10
-5.47830147829632
  20
42.7784561828467
  30
1082.425
  0
VERTEX
  8
Unknown Area Type
  70
32
  10
-5.47819766442667
  20
42.77845843079958
  30
1084.624
  0
VERTEX
  8
Unknown Area Type
  70
32
  10
-5.47515815927021
  20
42.77825856458423
  30
1093.189
  0
VERTEX
  8
Unknown Area Type
  70
32
  10
-5.4751030197557
  20
42.77825525466422
  30
1092.273
  0
SEQEND
  8
Unknown Area Type
  0
TEXT
  8
Unknown Area Type
 62
7
  1
PNOA-H_AMS_1956-57_33k_ES_PAN_2
 40
0.00045
  10
-5.46718430314379
  20
42.75783006598337
  0
POLYLINE
  8
Unknown Area Type
  70
9
  66
1
  0
VERTEX
  8
Unknown Area Type
  70
32
  10
-5.4751030197557
  20
42.77825525466422
  30
1092.273
  0
VERTEX
  8
Unknown Area Type
  70
32
  10
-5.45412253753242
  20
42.77691060112889
  30
1096.837
  0
VERTEX
  8
Unknown Area Type
  70
32
  10
-5.45260448616647
  20
42.73876272483574
  30
1056.885
  0
VERTEX
  8
Unknown Area Type
  70
32
  10
-5.48176394492983
  20
42.7370671318627
  30
1089.391
  0
VERTEX
  8
Unknown Area Type
  70
32
  10
-5.47830147829632
  20
42.7784561828467
  30
1082.425
  0
VERTEX
  8
Unknown Area Type
  70
32
  10
-5.47819766442667
  20
42.77845843079958
  30
1084.624
  0
VERTEX
  8
Unknown Area Type
  70
32
  10
-5.47515815927021
  20
42.77825856458423
  30
1093.189
  0
VERTEX
  8
Unknown Area Type
  70
32
  10
-5.4751030197557
  20
42.77825525466422
  30
1092.273
  0
SEQEND
  8
Unknown Area Type
  0
TEXT
  8
Unknown Area Type
 62
7
  1
PNOA-H_AMS_1956-57_33k_ES_PAN_2
 40
0.00045
  10
-5.46718430314379
  20
42.75783006598337
  0
POLYLINE
  8
Unknown Area Type
  70
9
  66
1
  0
VERTEX
  8
Unknown Area Type
  70
32
  10
-5.38563803162347
  20
42.7792635554006
  30
1118.855
  0
VERTEX
  8
Unknown Area Type
  70
32
  10
-5.35578389022925
  20
42.77838712183323
  30
1008.583
  0
VERTEX
  8
Unknown Area Type
  70
32
  10
-5.35665726662298
  20
42.7393735779057
  30
918.032
  0
VERTEX
  8
Unknown Area Type
  70
32
  10
-5.37592954558362
  20
42.73524265367916
  30
945.495
  0
VERTEX
  8
Unknown Area Type
  70
32
  10
-5.38883379000284
  20
42.73949903182513
  30
1057.049
  0
VERTEX
  8
Unknown Area Type
  70
32
  10
-5.38873767545643
  20
42.77817235603672
  30
1121.977
  0
VERTEX
  8
Unknown Area Type
  70
32
  10
-5.38873260652022
  20
42.77819947629585
  30
1122.594
  0
VERTEX
  8
Unknown Area Type
  70
32
  10
-5.38867833488469
  20
42.7782186186088
  30
1122.714
  0
VERTEX
  8
Unknown Area Type
  70
32
  10
-5.38565618040857
  20
42.77925867470226
  30
1119.029
  0
VERTEX
  8
Unknown Area Type
  70
32
  10
-5.38563803162347
  20
42.7792635554006
  30
1118.855
  0
SEQEND
  8
Unknown Area Type
  0
TEXT
  8
Unknown Area Type
 62
7
  1
PNOA-H_AMS_1956-57_33k_ES_PAN_2
 40
0.00045
  10
-5.37230885142236
  20
42.75744374031181
  0
POLYLINE
  8
Unknown Area Type
  70
9
  66
1
  0
VERTEX
  8
Unknown Area Type
  70
32
  10
-5.38563803162347
  20
42.7792635554006
  30
1118.855
  0
VERTEX
  8
Unknown Area Type
  70
32
  10
-5.35578389022925
  20
42.77838712183323
  30
1008.583
  0
VERTEX
  8
Unknown Area Type
  70
32
  10
-5.35665726662298
  20
42.7393735779057
  30
918.032
  0
VERTEX
  8
Unknown Area Type
  70
32
  10
-5.37592954558362
  20
42.73524265367916
  30
945.495
  0
VERTEX
  8
Unknown Area Type
  70
32
  10
-5.38883379000284
  20
42.73949903182513
  30
1057.049
  0
VERTEX
  8
Unknown Area Type
  70
32
  10
-5.38873767545643
  20
42.77817235603672
  30
1121.977
  0
VERTEX
  8
Unknown Area Type
  70
32
  10
-5.38873260652022
  20
42.77819947629585
  30
1122.594
  0
VERTEX
  8
Unknown Area Type
  70
32
  10
-5.38867833488469
  20
42.7782186186088
  30
1122.714
  0
VERTEX
  8
Unknown Area Type
  70
32
  10
-5.38565618040857
  20
42.77925867470226
  30
1119.029
  0
VERTEX
  8
Unknown Area Type
  70
32
  10
-5.38563803162347
  20
42.7792635554006
  30
1118.855
  0
SEQEND
  8
Unknown Area Type
  0
TEXT
  8
Unknown Area Type
 62
7
  1
PNOA-H_AMS_1956-57_33k_ES_PAN_2
 40
0.00045
  10
-5.37230885142236
  20
42.75744374031181
  0
POLYLINE
  8
Unknown Area Type
  70
9
  66
1
  0
VERTEX
  8
Unknown Area Type
  70
32
  10
-5.40001187567395
  20
42.77858484729805
  30
1071.815
  0
VERTEX
  8
Unknown Area Type
  70
32
  10
-5.38873243349675
  20
42.77819497749572
  30
1122.504
  0
VERTEX
  8
Unknown Area Type
  70
32
  10
-5.38883379000284
  20
42.73949903182513
  30
1057.049
  0
VERTEX
  8
Unknown Area Type
  70
32
  10
-5.41163689031346
  20
42.73590969171689
  30
922.363
  0
VERTEX
  8
Unknown Area Type
  70
32
  10
-5.42063631279228
  20
42.73942973402418
  30
970.116
  0
VERTEX
  8
Unknown Area Type
  70
32
  10
-5.42144579097304
  20
42.77777769474633
  30
1011.187
  0
VERTEX
  8
Unknown Area Type
  70
32
  10
-5.41733829155587
  20
42.77918372644565
  30
983.012
  0
VERTEX
  8
Unknown Area Type
  70
32
  10
-5.40009754845172
  20
42.77858755317811
  30
1073.268
  0
VERTEX
  8
Unknown Area Type
  70
32
  10
-5.40001187567395
  20
42.77858484729805
  30
1071.815
  0
SEQEND
  8
Unknown Area Type
  0
TEXT
  8
Unknown Area Type
 62
7
  1
PNOA-H_AMS_1956-57_33k_ES_PAN_2
 40
0.00045
  10
-5.40508906642257
  20
42.75784897028609
  0
POLYLINE
  8
Unknown Area Type
  70
9
  66
1
  0
VERTEX
  8
Unknown Area Type
  70
32
  10
-5.40001187567395
  20
42.77858484729805
  30
1071.815
  0
VERTEX
  8
Unknown Area Type
  70
32
  10
-5.38873243349675
  20
42.77819497749572
  30
1122.504
  0
VERTEX
  8
Unknown Area Type
  70
32
  10
-5.38883379000284
  20
42.73949903182513
  30
1057.049
  0
VERTEX
  8
Unknown Area Type
  70
32
  10
-5.41163689031346
  20
42.73590969171689
  30
922.363
  0
VERTEX
  8
Unknown Area Type
  70
32
  10
-5.42063631279228
  20
42.73942973402418
  30
970.116
  0
VERTEX
  8
Unknown Area Type
  70
32
  10
-5.42144579097304
  20
42.77777769474633
  30
1011.187
  0
VERTEX
  8
Unknown Area Type
  70
32
  10
-5.41733829155587
  20
42.77918372644565
  30
983.012
  0
VERTEX
  8
Unknown Area Type
  70
32
  10
-5.40009754845172
  20
42.77858755317811
  30
1073.268
  0
VERTEX
  8
Unknown Area Type
  70
32
  10
-5.40001187567395
  20
42.77858484729805
  30
1071.815
  0
SEQEND
  8
Unknown Area Type
  0
TEXT
  8
Unknown Area Type
 62
7
  1
PNOA-H_AMS_1956-57_33k_ES_PAN_2
 40
0.00045
  10
-5.40508906642257
  20
42.75784897028609
  0
POLYLINE
  8
Unknown Area Type
  70
9
  66
1
  0
VERTEX
  8
Unknown Area Type
  70
32
  10
-5.45007880449978
  20
42.77820838189432
  30
1097.73
  0
VERTEX
  8
Unknown Area Type
  70
32
  10
-5.44797235155076
  20
42.77888379117802
  30
1067.508
  0
VERTEX
  8
Unknown Area Type
  70
32
  10
-5.4478929621176
  20
42.77888548919803
  30
1065.245
  0
VERTEX
  8
Unknown Area Type
  70
32
  10
-5.4214459663621
  20
42.77778219343865
  30
1011.186
  0
VERTEX
  8
Unknown Area Type
  70
32
  10
-5.42063648788787
  20
42.73943423274943
  30
970.075
  0
VERTEX
  8
Unknown Area Type
  70
32
  10
-5.44759133637694
  20
42.73647474370649
  30
1023.996
  0
VERTEX
  8
Unknown Area Type
  70
32
  10
-5.45260430876405
  20
42.73875822621697
  30
1056.757
  0
VERTEX
  8
Unknown Area Type
  70
32
  10
-5.45412253753242
  20
42.77691060112889
  30
1096.837
  0
VERTEX
  8
Unknown Area Type
  70
32
  10
-5.45009084064087
  20
42.77820362183809
  30
1097.57
  0
VERTEX
  8
Unknown Area Type
  70
32
  10
-5.45007880449978
  20
42.77820838189432
  30
1097.73
  0
SEQEND
  8
Unknown Area Type
  0
TEXT
  8
Unknown Area Type
 62
7
  1
PNOA-H_AMS_1956-57_33k_ES_PAN_2
 40
0.00045
  10
-5.43737960112927
  20
42.75802023577682
  0
POLYLINE
  8
Unknown Area Type
  70
9
  66
1
  0
VERTEX
  8
Unknown Area Type
  70
32
  10
-5.45007880449978
  20
42.77820838189432
  30
1097.73
  0
VERTEX
  8
Unknown Area Type
  70
32
  10
-5.44797235155076
  20
42.77888379117802
  30
1067.508
  0
VERTEX
  8
Unknown Area Type
  70
32
  10
-5.4478929621176
  20
42.77888548919803
  30
1065.245
  0
VERTEX
  8
Unknown Area Type
  70
32
  10
-5.4214459663621
  20
42.77778219343865
  30
1011.186
  0
VERTEX
  8
Unknown Area Type
  70
32
  10
-5.42063648788787
  20
42.73943423274943
  30
970.075
  0
VERTEX
  8
Unknown Area Type
  70
32
  10
-5.44759133637694
  20
42.73647474370649
  30
1023.996
  0
VERTEX
  8
Unknown Area Type
  70
32
  10
-5.45260430876405
  20
42.73875822621697
  30
1056.757
  0
VERTEX
  8
Unknown Area Type
  70
32
  10
-5.45412253753242
  20
42.77691060112889
  30
1096.837
  0
VERTEX
  8
Unknown Area Type
  70
32
  10
-5.45009084064087
  20
42.77820362183809
  30
1097.57
  0
VERTEX
  8
Unknown Area Type
  70
32
  10
-5.45007880449978
  20
42.77820838189432
  30
1097.73
  0
SEQEND
  8
Unknown Area Type
  0
TEXT
  8
Unknown Area Type
 62
7
  1
PNOA-H_AMS_1956-57_33k_ES_PAN_2
 40
0.00045
  10
-5.43737960112927
  20
42.75802023577682
  0
POLYLINE
  8
Unknown Area Type
  70
9
  66
1
  0
VERTEX
  8
Unknown Area Type
  70
32
  10
-5.29004800912994
  20
42.78034706642155
  30
1104.452
  0
VERTEX
  8
Unknown Area Type
  70
32
  10
-5.26386336135599
  20
42.77951272403385
  30
1156.858
  0
VERTEX
  8
Unknown Area Type
  70
32
  10
-5.26087036751662
  20
42.73824383686446
  30
1078.76
  0
VERTEX
  8
Unknown Area Type
  70
32
  10
-5.26884642155149
  20
42.73536653902996
  30
1079.868
  0
VERTEX
  8
Unknown Area Type
  70
32
  10
-5.2921650782995
  20
42.7384904543536
  30
1084.617
  0
VERTEX
  8
Unknown Area Type
  70
32
  10
-5.29531323868804
  20
42.77859821250933
  30
1096.275
  0
VERTEX
  8
Unknown Area Type
  70
32
  10
-5.2900600586788
  20
42.78034232290441
  30
1104.369
  0
VERTEX
  8
Unknown Area Type
  70
32
  10
-5.29004800912994
  20
42.78034706642155
  30
1104.452
  0
SEQEND
  8
Unknown Area Type
  0
TEXT
  8
Unknown Area Type
 62
7
  1
PNOA-H_AMS_1956-57_33k_ES_PAN_2
 40
0.00045
  10
-5.27809172526916
  20
42.75828405537307
  0
POLYLINE
  8
Unknown Area Type
  70
9
  66
1
  0
VERTEX
  8
Unknown Area Type
  70
32
  10
-5.29004800912994
  20
42.78034706642155
  30
1104.452
  0
VERTEX
  8
Unknown Area Type
  70
32
  10
-5.26386336135599
  20
42.77951272403385
  30
1156.858
  0
VERTEX
  8
Unknown Area Type
  70
32
  10
-5.26087036751662
  20
42.73824383686446
  30
1078.76
  0
VERTEX
  8
Unknown Area Type
  70
32
  10
-5.26884642155149
  20
42.73536653902996
  30
1079.868
  0
VERTEX
  8
Unknown Area Type
  70
32
  10
-5.2921650782995
  20
42.7384904543536
  30
1084.617
  0
VERTEX
  8
Unknown Area Type
  70
32
  10
-5.29531323868804
  20
42.77859821250933
  30
1096.275
  0
VERTEX
  8
Unknown Area Type
  70
32
  10
-5.2900600586788
  20
42.78034232290441
  30
1104.369
  0
VERTEX
  8
Unknown Area Type
  70
32
  10
-5.29004800912994
  20
42.78034706642155
  30
1104.452
  0
SEQEND
  8
Unknown Area Type
  0
TEXT
  8
Unknown Area Type
 62
7
  1
PNOA-H_AMS_1956-57_33k_ES_PAN_2
 40
0.00045
  10
-5.27809172526916
  20
42.75828405537307
  0
POLYLINE
  8
Unknown Area Type
  70
9
  66
1
  0
VERTEX
  8
Unknown Area Type
  70
32
  10
-5.52083333333329
  20
42.70833333333333
  30
889.707
  0
VERTEX
  8
Unknown Area Type
  70
32
  10
-5.52083333333329
  20
42.72916666666664
  30
900.117
  0
VERTEX
  8
Unknown Area Type
  70
32
  10
-5.52083333333329
  20
42.73690227300061
  30
914.963
  0
VERTEX
  8
Unknown Area Type
  70
32
  10
-5.51832280648772
  20
42.73669184062641
  30
904.482
  0
VERTEX
  8
Unknown Area Type
  70
32
  10
-5.5188636799576
  20
42.70720714591864
  30
887.479
  0
VERTEX
  8
Unknown Area Type
  70
32
  10
-5.52083333333329
  20
42.70690299915802
  30
889.982
  0
SEQEND
  8
Unknown Area Type
  0
TEXT
  8
Unknown Area Type
 62
7
  1
PNOA-H_AMS_1956-57_33k_ES_PAN_2
 40
0.00045
  10
-5.51957806991051
  20
42.72190263607931
  0
POLYLINE
  8
Unknown Area Type
  70
9
  66
1
  0
VERTEX
  8
Unknown Area Type
  70
32
  10
-5.52083366666662
  20
42.73690230094061
  30
914.964
  0
VERTEX
  8
Unknown Area Type
  70
32
  10
-5.52083333333329
  20
42.73690227300061
  30
914.963
  0
VERTEX
  8
Unknown Area Type
  70
32
  10
-5.52083333333329
  20
42.72916666666664
  30
900.117
  0
VERTEX
  8
Unknown Area Type
  70
32
  10
-5.52083333333329
  20
42.70833333333333
  30
889.707
  0
VERTEX
  8
Unknown Area Type
  70
32
  10
-5.52083333333329
  20
42.70690299915802
  30
889.982
  0
VERTEX
  8
Unknown Area Type
  70
32
  10
-5.52083366666662
  20
42.70690294768589
  30
889.982
  0
SEQEND
  8
Unknown Area Type
  0
TEXT
  8
Unknown Area Type
 62
7
  1
PNOA-H_AMS_1956-57_33k_ES_PAN_2
 40
0.00045
  10
-5.52083349999996
  20
42.72190262431325
  0
POLYLINE
  8
Unknown Area Type
  70
9
  66
1
  0
VERTEX
  8
Unknown Area Type
  70
32
  10
-5.52083333333329
  20
42.70833333333333
  30
889.707
  0
VERTEX
  8
Unknown Area Type
  70
32
  10
-5.52083333333329
  20
42.72916666666664
  30
900.117
  0
VERTEX
  8
Unknown Area Type
  70
32
  10
-5.52083333333329
  20
42.73690227300061
  30
914.963
  0
VERTEX
  8
Unknown Area Type
  70
32
  10
-5.51832280648772
  20
42.73669184062641
  30
904.482
  0
VERTEX
  8
Unknown Area Type
  70
32
  10
-5.5188636799576
  20
42.70720714591864
  30
887.479
  0
VERTEX
  8
Unknown Area Type
  70
32
  10
-5.52083333333329
  20
42.70690299915802
  30
889.982
  0
SEQEND
  8
Unknown Area Type
  0
TEXT
  8
Unknown Area Type
 62
7
  1
PNOA-H_AMS_1956-57_33k_ES_PAN_2
 40
0.00045
  10
-5.51957806991051
  20
42.72190263607931
  0
POLYLINE
  8
Unknown Area Type
  70
9
  66
1
  0
VERTEX
  8
Unknown Area Type
  70
32
  10
-5.32490799794126
  20
42.77860422959512
  30
961.354
  0
VERTEX
  8
Unknown Area Type
  70
32
  10
-5.324400410177
  20
42.77859652905619
  30
961.253
  0
VERTEX
  8
Unknown Area Type
  70
32
  10
-5.3243970428122
  20
42.77850654889365
  30
959.082
  0
VERTEX
  8
Unknown Area Type
  70
32
  10
-5.32460291481993
  20
42.73859273551994
  30
1021.79
  0
VERTEX
  8
Unknown Area Type
  70
32
  10
-5.33992240057986
  20
42.73470566207197
  30
966.946
  0
VERTEX
  8
Unknown Area Type
  70
32
  10
-5.35665726662298
  20
42.7393735779057
  30
918.032
  0
VERTEX
  8
Unknown Area Type
  70
32
  10
-5.35578389022925
  20
42.77838712183323
  30
1008.583
  0
VERTEX
  8
Unknown Area Type
  70
32
  10
-5.3539745637419
  20
42.7790276720344
  30
977.782
  0
VERTEX
  8
Unknown Area Type
  70
32
  10
-5.35391993892851
  20
42.77903780030726
  30
977.727
  0
VERTEX
  8
Unknown Area Type
  70
32
  10
-5.32498128673215
  20
42.77860274090456
  30
963.826
  0
VERTEX
  8
Unknown Area Type
  70
32
  10
-5.32490799794126
  20
42.77860422959512
  30
961.354
  0
SEQEND
  8
Unknown Area Type
  0
TEXT
  8
Unknown Area Type
 62
7
  1
PNOA-H_AMS_1956-57_33k_ES_PAN_2
 40
0.00045
  10
-5.34052724930902
  20
42.75685374541975
  0
POLYLINE
  8
Unknown Area Type
  70
9
  66
1
  0
VERTEX
  8
Unknown Area Type
  70
32
  10
-5.32490799794126
  20
42.77860422959512
  30
961.354
  0
VERTEX
  8
Unknown Area Type
  70
32
  10
-5.324400410177
  20
42.77859652905619
  30
961.253
  0
VERTEX
  8
Unknown Area Type
  70
32
  10
-5.3243970428122
  20
42.77850654889365
  30
959.082
  0
VERTEX
  8
Unknown Area Type
  70
32
  10
-5.32460291481993
  20
42.73859273551994
  30
1021.79
  0
VERTEX
  8
Unknown Area Type
  70
32
  10
-5.33992240057986
  20
42.73470566207197
  30
966.946
  0
VERTEX
  8
Unknown Area Type
  70
32
  10
-5.35665726662298
  20
42.7393735779057
  30
918.032
  0
VERTEX
  8
Unknown Area Type
  70
32
  10
-5.35578389022925
  20
42.77838712183323
  30
1008.583
  0
VERTEX
  8
Unknown Area Type
  70
32
  10
-5.3539745637419
  20
42.7790276720344
  30
977.782
  0
VERTEX
  8
Unknown Area Type
  70
32
  10
-5.35391993892851
  20
42.77903780030726
  30
977.727
  0
VERTEX
  8
Unknown Area Type
  70
32
  10
-5.32498128673215
  20
42.77860274090456
  30
963.826
  0
VERTEX
  8
Unknown Area Type
  70
32
  10
-5.32490799794126
  20
42.77860422959512
  30
961.354
  0
SEQEND
  8
Unknown Area Type
  0
TEXT
  8
Unknown Area Type
 62
7
  1
PNOA-H_AMS_1956-57_33k_ES_PAN_2
 40
0.00045
  10
-5.34052724930902
  20
42.75685374541975
  0
POLYLINE
  8
Unknown Area Type
  70
9
  66
1
  0
VERTEX
  8
Unknown Area Type
  70
32
  10
-5.2278338246984
  20
42.78194409602209
  30
1018.677
  0
VERTEX
  8
Unknown Area Type
  70
32
  10
-5.19969731876922
  20
42.78122307994386
  30
1157.779
  0
VERTEX
  8
Unknown Area Type
  70
32
  10
-5.19930870137073
  20
42.73708832264496
  30
1013.783
  0
VERTEX
  8
Unknown Area Type
  70
32
  10
-5.22993725676775
  20
42.73785554050176
  30
1025.795
  0
VERTEX
  8
Unknown Area Type
  70
32
  10
-5.23215711428109
  20
42.78046410894739
  30
1059.332
  0
VERTEX
  8
Unknown Area Type
  70
32
  10
-5.22785198772036
  20
42.7819392400557
  30
1018.673
  0
VERTEX
  8
Unknown Area Type
  70
32
  10
-5.2278338246984
  20
42.78194409602209
  30
1018.677
  0
SEQEND
  8
Unknown Area Type
  0
TEXT
  8
Unknown Area Type
 62
7
  1
PNOA-H_AMS_1956-57_33k_ES_PAN_2
 40
0.00045
  10
-5.2157329097781
  20
42.75956580750002
  0
POLYLINE
  8
Unknown Area Type
  70
9
  66
1
  0
VERTEX
  8
Unknown Area Type
  70
32
  10
-5.2278338246984
  20
42.78194409602209
  30
1018.677
  0
VERTEX
  8
Unknown Area Type
  70
32
  10
-5.19969731876922
  20
42.78122307994386
  30
1157.779
  0
VERTEX
  8
Unknown Area Type
  70
32
  10
-5.19930870137073
  20
42.73708832264496
  30
1013.783
  0
VERTEX
  8
Unknown Area Type
  70
32
  10
-5.22993725676775
  20
42.73785554050176
  30
1025.795
  0
VERTEX
  8
Unknown Area Type
  70
32
  10
-5.23215711428109
  20
42.78046410894739
  30
1059.332
  0
VERTEX
  8
Unknown Area Type
  70
32
  10
-5.22785198772036
  20
42.7819392400557
  30
1018.673
  0
VERTEX
  8
Unknown Area Type
  70
32
  10
-5.2278338246984
  20
42.78194409602209
  30
1018.677
  0
SEQEND
  8
Unknown Area Type
  0
TEXT
  8
Unknown Area Type
 62
7
  1
PNOA-H_AMS_1956-57_33k_ES_PAN_2
 40
0.00045
  10
-5.2157329097781
  20
42.75956580750002
  0
POLYLINE
  8
Unknown Area Type
  70
9
  66
1
  0
VERTEX
  8
Unknown Area Type
  70
32
  10
-5.25863490083015
  20
42.78129092408562
  30
1136.139
  0
VERTEX
  8
Unknown Area Type
  70
32
  10
-5.23215711428109
  20
42.78046410894739
  30
1059.332
  0
VERTEX
  8
Unknown Area Type
  70
32
  10
-5.22993725676775
  20
42.73785554050176
  30
1025.795
  0
VERTEX
  8
Unknown Area Type
  70
32
  10
-5.23370878922876
  20
42.73640425207307
  30
1050.284
  0
VERTEX
  8
Unknown Area Type
  70
32
  10
-5.26077848478787
  20
42.73823664658769
  30
1078.488
  0
VERTEX
  8
Unknown Area Type
  70
32
  10
-5.26087036751662
  20
42.73824383686446
  30
1078.76
  0
VERTEX
  8
Unknown Area Type
  70
32
  10
-5.26087679830505
  20
42.7382527147949
  30
1078.751
  0
VERTEX
  8
Unknown Area Type
  70
32
  10
-5.26386336135599
  20
42.77951272403385
  30
1156.858
  0
VERTEX
  8
Unknown Area Type
  70
32
  10
-5.25865306104635
  20
42.78128606328959
  30
1136.269
  0
VERTEX
  8
Unknown Area Type
  70
32
  10
-5.25863490083015
  20
42.78129092408562
  30
1136.139
  0
SEQEND
  8
Unknown Area Type
  0
TEXT
  8
Unknown Area Type
 62
7
  1
PNOA-H_AMS_1956-57_33k_ES_PAN_2
 40
0.00045
  10
-5.24690032148631
  20
42.75910954498031
  0
POLYLINE
  8
Unknown Area Type
  70
9
  66
1
  0
VERTEX
  8
Unknown Area Type
  70
32
  10
-5.25863490083015
  20
42.78129092408562
  30
1136.139
  0
VERTEX
  8
Unknown Area Type
  70
32
  10
-5.23215711428109
  20
42.78046410894739
  30
1059.332
  0
VERTEX
  8
Unknown Area Type
  70
32
  10
-5.22993725676775
  20
42.73785554050176
  30
1025.795
  0
VERTEX
  8
Unknown Area Type
  70
32
  10
-5.23370878922876
  20
42.73640425207307
  30
1050.284
  0
VERTEX
  8
Unknown Area Type
  70
32
  10
-5.26077848478787
  20
42.73823664658769
  30
1078.488
  0
VERTEX
  8
Unknown Area Type
  70
32
  10
-5.26087036751662
  20
42.73824383686446
  30
1078.76
  0
VERTEX
  8
Unknown Area Type
  70
32
  10
-5.26087679830505
  20
42.7382527147949
  30
1078.751
  0
VERTEX
  8
Unknown Area Type
  70
32
  10
-5.26386336135599
  20
42.77951272403385
  30
1156.858
  0
VERTEX
  8
Unknown Area Type
  70
32
  10
-5.25865306104635
  20
42.78128606328959
  30
1136.269
  0
VERTEX
  8
Unknown Area Type
  70
32
  10
-5.25863490083015
  20
42.78129092408562
  30
1136.139
  0
SEQEND
  8
Unknown Area Type
  0
TEXT
  8
Unknown Area Type
 62
7
  1
PNOA-H_AMS_1956-57_33k_ES_PAN_2
 40
0.00045
  10
-5.24690032148631
  20
42.75910954498031
  0
POLYLINE
  8
Unknown Area Type
  70
9
  66
1
  0
VERTEX
  8
Unknown Area Type
  70
32
  10
-5.49851183607011
  20
42.73782837824048
  30
1029.191
  0
VERTEX
  8
Unknown Area Type
  70
32
  10
-5.48955455243559
  20
42.73775340794224
  30
1093.531
  0
VERTEX
  8
Unknown Area Type
  70
32
  10
-5.48268974163715
  20
42.73669586669831
  30
1094.983
  0
VERTEX
  8
Unknown Area Type
  70
32
  10
-5.48376741082776
  20
42.7066233188426
  30
1074.709
  0
VERTEX
  8
Unknown Area Type
  70
32
  10
-5.48378481243512
  20
42.70660042910307
  30
1074.54
  0
VERTEX
  8
Unknown Area Type
  70
32
  10
-5.4839911228301
  20
42.70656893780224
  30
1075.517
  0
VERTEX
  8
Unknown Area Type
  70
32
  10
-5.50864649025825
  20
42.70287506202962
  30
938.62
  0
VERTEX
  8
Unknown Area Type
  70
32
  10
-5.50868918426703
  20
42.70287412637211
  30
937.818
  0
VERTEX
  8
Unknown Area Type
  70
32
  10
-5.5188636799576
  20
42.70720714591864
  30
887.479
  0
VERTEX
  8
Unknown Area Type
  70
32
  10
-5.51832872675938
  20
42.73668720796582
  30
904.412
  0
VERTEX
  8
Unknown Area Type
  70
32
  10
-5.51670810022592
  20
42.73754229082188
  30
906.409
  0
VERTEX
  8
Unknown Area Type
  70
32
  10
-5.51560179638609
  20
42.73797632936231
  30
904.473
  0
VERTEX
  8
Unknown Area Type
  70
32
  10
-5.49854845176518
  20
42.73782757896423
  30
1029.459
  0
VERTEX
  8
Unknown Area Type
  70
32
  10
-5.49851183607011
  20
42.73782837824048
  30
1029.191
  0
SEQEND
  8
Unknown Area Type
  0
TEXT
  8
Unknown Area Type
 62
7
  1
PNOA-H_AMS_1956-57_33k_ES_PAN_2
 40
0.00045
  10
-5.50094849464006
  20
42.72042317800874
  0
POLYLINE
  8
Unknown Area Type
  70
9
  66
1
  0
VERTEX
  8
Unknown Area Type
  70
32
  10
-5.49851183607011
  20
42.73782837824048
  30
1029.191
  0
VERTEX
  8
Unknown Area Type
  70
32
  10
-5.48955455243559
  20
42.73775340794224
  30
1093.531
  0
VERTEX
  8
Unknown Area Type
  70
32
  10
-5.48268974163715
  20
42.73669586669831
  30
1094.983
  0
VERTEX
  8
Unknown Area Type
  70
32
  10
-5.48376741082776
  20
42.7066233188426
  30
1074.709
  0
VERTEX
  8
Unknown Area Type
  70
32
  10
-5.48378481243512
  20
42.70660042910307
  30
1074.54
  0
VERTEX
  8
Unknown Area Type
  70
32
  10
-5.4839911228301
  20
42.70656893780224
  30
1075.517
  0
VERTEX
  8
Unknown Area Type
  70
32
  10
-5.50864649025825
  20
42.70287506202962
  30
938.62
  0
VERTEX
  8
Unknown Area Type
  70
32
  10
-5.50868918426703
  20
42.70287412637211
  30
937.818
  0
VERTEX
  8
Unknown Area Type
  70
32
  10
-5.5188636799576
  20
42.70720714591864
  30
887.479
  0
VERTEX
  8
Unknown Area Type
  70
32
  10
-5.51832872675938
  20
42.73668720796582
  30
904.412
  0
VERTEX
  8
Unknown Area Type
  70
32
  10
-5.51670810022592
  20
42.73754229082188
  30
906.409
  0
VERTEX
  8
Unknown Area Type
  70
32
  10
-5.51560179638609
  20
42.73797632936231
  30
904.473
  0
VERTEX
  8
Unknown Area Type
  70
32
  10
-5.49854845176518
  20
42.73782757896423
  30
1029.459
  0
VERTEX
  8
Unknown Area Type
  70
32
  10
-5.49851183607011
  20
42.73782837824048
  30
1029.191
  0
SEQEND
  8
Unknown Area Type
  0
TEXT
  8
Unknown Area Type
 62
7
  1
PNOA-H_AMS_1956-57_33k_ES_PAN_2
 40
0.00045
  10
-5.50094849464006
  20
42.72042317800874
  0
POLYLINE
  8
Unknown Area Type
  70
9
  66
1
  0
VERTEX
  8
Unknown Area Type
  70
32
  10
-5.47356176926959
  20
42.73754633969625
  30
1089.82
  0
VERTEX
  8
Unknown Area Type
  70
32
  10
-5.45260448616647
  20
42.73876272483574
  30
1056.885
  0
VERTEX
  8
Unknown Area Type
  70
32
  10
-5.44759779314761
  20
42.73648361048598
  30
1023.961
  0
VERTEX
  8
Unknown Area Type
  70
32
  10
-5.44758523365898
  20
42.73647487420151
  30
1023.987
  0
VERTEX
  8
Unknown Area Type
  70
32
  10
-5.44758151613338
  20
42.73638040281387
  30
1024.278
  0
VERTEX
  8
Unknown Area Type
  70
32
  10
-5.44829515537033
  20
42.70624386797557
  30
984.802
  0
VERTEX
  8
Unknown Area Type
  70
32
  10
-5.47389700933111
  20
42.70250571569483
  30
1036.357
  0
VERTEX
  8
Unknown Area Type
  70
32
  10
-5.48376023448385
  20
42.70659645996052
  30
1074.465
  0
VERTEX
  8
Unknown Area Type
  70
32
  10
-5.48377351045462
  20
42.70662318649369
  30
1074.737
  0
VERTEX
  8
Unknown Area Type
  70
32
  10
-5.48269548508617
  20
42.73668673729551
  30
1094.867
  0
VERTEX
  8
Unknown Area Type
  70
32
  10
-5.48268992120143
  20
42.73670036521671
  30
1095.08
  0
VERTEX
  8
Unknown Area Type
  70
32
  10
-5.48177004754886
  20
42.73706699954507
  30
1089.45
  0
VERTEX
  8
Unknown Area Type
  70
32
  10
-5.47368364442113
  20
42.73753920345058
  30
1090.948
  0
VERTEX
  8
Unknown Area Type
  70
32
  10
-5.47356176926959
  20
42.73754633969625
  30
1089.82
  0
SEQEND
  8
Unknown Area Type
  0
TEXT
  8
Unknown Area Type
 62
7
  1
PNOA-H_AMS_1956-57_33k_ES_PAN_2
 40
0.00045
  10
-5.46561299457914
  20
42.72063298285417
  0
POLYLINE
  8
Unknown Area Type
  70
9
  66
1
  0
VERTEX
  8
Unknown Area Type
  70
32
  10
-5.47356176926959
  20
42.73754633969625
  30
1089.82
  0
VERTEX
  8
Unknown Area Type
  70
32
  10
-5.45260448616647
  20
42.73876272483574
  30
1056.885
  0
VERTEX
  8
Unknown Area Type
  70
32
  10
-5.44759779314761
  20
42.73648361048598
  30
1023.961
  0
VERTEX
  8
Unknown Area Type
  70
32
  10
-5.44758523365898
  20
42.73647487420151
  30
1023.987
  0
VERTEX
  8
Unknown Area Type
  70
32
  10
-5.44758151613338
  20
42.73638040281387
  30
1024.278
  0
VERTEX
  8
Unknown Area Type
  70
32
  10
-5.44829515537033
  20
42.70624386797557
  30
984.802
  0
VERTEX
  8
Unknown Area Type
  70
32
  10
-5.47389700933111
  20
42.70250571569483
  30
1036.357
  0
VERTEX
  8
Unknown Area Type
  70
32
  10
-5.48376023448385
  20
42.70659645996052
  30
1074.465
  0
VERTEX
  8
Unknown Area Type
  70
32
  10
-5.48377351045462
  20
42.70662318649369
  30
1074.737
  0
VERTEX
  8
Unknown Area Type
  70
32
  10
-5.48269548508617
  20
42.73668673729551
  30
1094.867
  0
VERTEX
  8
Unknown Area Type
  70
32
  10
-5.48268992120143
  20
42.73670036521671
  30
1095.08
  0
VERTEX
  8
Unknown Area Type
  70
32
  10
-5.48177004754886
  20
42.73706699954507
  30
1089.45
  0
VERTEX
  8
Unknown Area Type
  70
32
  10
-5.47368364442113
  20
42.73753920345058
  30
1090.948
  0
VERTEX
  8
Unknown Area Type
  70
32
  10
-5.47356176926959
  20
42.73754633969625
  30
1089.82
  0
SEQEND
  8
Unknown Area Type
  0
TEXT
  8
Unknown Area Type
 62
7
  1
PNOA-H_AMS_1956-57_33k_ES_PAN_2
 40
0.00045
  10
-5.46561299457914
  20
42.72063298285417
  0
POLYLINE
  8
Unknown Area Type
  70
9
  66
1
  0
VERTEX
  8
Unknown Area Type
  70
32
  10
-5.3234028213325
  20
42.7383514553899
  30
1041.781
  0
VERTEX
  8
Unknown Area Type
  70
32
  10
-5.3045228875074
  20
42.73456382565659
  30
1045.929
  0
VERTEX
  8
Unknown Area Type
  70
32
  10
-5.30550632067158
  20
42.70390470598337
  30
1047.868
  0
VERTEX
  8
Unknown Area Type
  70
32
  10
-5.30551192113043
  20
42.70389108575305
  30
1047.73
  0
VERTEX
  8
Unknown Area Type
  70
32
  10
-5.30598046672221
  20
42.70385013151355
  30
1046.672
  0
VERTEX
  8
Unknown Area Type
  70
32
  10
-5.33536441428041
  20
42.70130040725669
  30
987.046
  0
VERTEX
  8
Unknown Area Type
  70
32
  10
-5.33541931222592
  20
42.70129928734556
  30
987.752
  0
VERTEX
  8
Unknown Area Type
  70
32
  10
-5.34109186861799
  20
42.70426311741229
  30
951.62
  0
VERTEX
  8
Unknown Area Type
  70
32
  10
-5.33992850360467
  20
42.73470553731795
  30
966.914
  0
VERTEX
  8
Unknown Area Type
  70
32
  10
-5.32461512176505
  20
42.73859248762619
  30
1021.712
  0
VERTEX
  8
Unknown Area Type
  70
32
  10
-5.3234150282407
  20
42.73835120762517
  30
1041.678
  0
VERTEX
  8
Unknown Area Type
  70
32
  10
-5.3234028213325
  20
42.7383514553899
  30
1041.781
  0
SEQEND
  8
Unknown Area Type
  0
TEXT
  8
Unknown Area Type
 62
7
  1
PNOA-H_AMS_1956-57_33k_ES_PAN_2
 40
0.00045
  10
-5.32280743912835
  20
42.72030955491957
  0
POLYLINE
  8
Unknown Area Type
  70
9
  66
1
  0
VERTEX
  8
Unknown Area Type
  70
32
  10
-5.3234028213325
  20
42.7383514553899
  30
1041.781
  0
VERTEX
  8
Unknown Area Type
  70
32
  10
-5.3045228875074
  20
42.73456382565659
  30
1045.929
  0
VERTEX
  8
Unknown Area Type
  70
32
  10
-5.30550632067158
  20
42.70390470598337
  30
1047.868
  0
VERTEX
  8
Unknown Area Type
  70
32
  10
-5.30551192113043
  20
42.70389108575305
  30
1047.73
  0
VERTEX
  8
Unknown Area Type
  70
32
  10
-5.30598046672221
  20
42.70385013151355
  30
1046.672
  0
VERTEX
  8
Unknown Area Type
  70
32
  10
-5.33536441428041
  20
42.70130040725669
  30
987.046
  0
VERTEX
  8
Unknown Area Type
  70
32
  10
-5.33541931222592
  20
42.70129928734556
  30
987.752
  0
VERTEX
  8
Unknown Area Type
  70
32
  10
-5.34109186861799
  20
42.70426311741229
  30
951.62
  0
VERTEX
  8
Unknown Area Type
  70
32
  10
-5.33992850360467
  20
42.73470553731795
  30
966.914
  0
VERTEX
  8
Unknown Area Type
  70
32
  10
-5.32461512176505
  20
42.73859248762619
  30
1021.712
  0
VERTEX
  8
Unknown Area Type
  70
32
  10
-5.3234150282407
  20
42.73835120762517
  30
1041.678
  0
VERTEX
  8
Unknown Area Type
  70
32
  10
-5.3234028213325
  20
42.7383514553899
  30
1041.781
  0
SEQEND
  8
Unknown Area Type
  0
TEXT
  8
Unknown Area Type
 62
7
  1
PNOA-H_AMS_1956-57_33k_ES_PAN_2
 40
0.00045
  10
-5.32280743912835
  20
42.72030955491957
  0
POLYLINE
  8
Unknown Area Type
  70
9
  66
1
  0
VERTEX
  8
Unknown Area Type
  70
32
  10
-5.38884599656145
  20
42.73949877708144
  30
1057.079
  0
VERTEX
  8
Unknown Area Type
  70
32
  10
-5.38874730734438
  20
42.73947382201116
  30
1057.341
  0
VERTEX
  8
Unknown Area Type
  70
32
  10
-5.37591733974506
  20
42.73524290702606
  30
945.149
  0
VERTEX
  8
Unknown Area Type
  70
32
  10
-5.37684003462745
  20
42.70535448429798
  30
875.465
  0
VERTEX
  8
Unknown Area Type
  70
32
  10
-5.37685920066906
  20
42.70505692386935
  30
875.056
  0
VERTEX
  8
Unknown Area Type
  70
32
  10
-5.40454457761357
  20
42.70174125573495
  30
935.597
  0
VERTEX
  8
Unknown Area Type
  70
32
  10
-5.41288016651604
  20
42.70560006402568
  30
929.017
  0
VERTEX
  8
Unknown Area Type
  70
32
  10
-5.4116307874881
  20
42.73590982029475
  30
922.337
  0
VERTEX
  8
Unknown Area Type
  70
32
  10
-5.38888244343591
  20
42.73949351401244
  30
1057.118
  0
VERTEX
  8
Unknown Area Type
  70
32
  10
-5.38884599656145
  20
42.73949877708144
  30
1057.079
  0
SEQEND
  8
Unknown Area Type
  0
TEXT
  8
Unknown Area Type
 62
7
  1
PNOA-H_AMS_1956-57_33k_ES_PAN_2
 40
0.00045
  10
-5.39431501206342
  20
42.72061886934317
  0
POLYLINE
  8
Unknown Area Type
  70
9
  66
1
  0
VERTEX
  8
Unknown Area Type
  70
32
  10
-5.38884599656145
  20
42.73949877708144
  30
1057.079
  0
VERTEX
  8
Unknown Area Type
  70
32
  10
-5.38874730734438
  20
42.73947382201116
  30
1057.341
  0
VERTEX
  8
Unknown Area Type
  70
32
  10
-5.37591733974506
  20
42.73524290702606
  30
945.149
  0
VERTEX
  8
Unknown Area Type
  70
32
  10
-5.37684003462745
  20
42.70535448429798
  30
875.465
  0
VERTEX
  8
Unknown Area Type
  70
32
  10
-5.37685920066906
  20
42.70505692386935
  30
875.056
  0
VERTEX
  8
Unknown Area Type
  70
32
  10
-5.40454457761357
  20
42.70174125573495
  30
935.597
  0
VERTEX
  8
Unknown Area Type
  70
32
  10
-5.41288016651604
  20
42.70560006402568
  30
929.017
  0
VERTEX
  8
Unknown Area Type
  70
32
  10
-5.4116307874881
  20
42.73590982029475
  30
922.337
  0
VERTEX
  8
Unknown Area Type
  70
32
  10
-5.38888244343591
  20
42.73949351401244
  30
1057.118
  0
VERTEX
  8
Unknown Area Type
  70
32
  10
-5.38884599656145
  20
42.73949877708144
  30
1057.079
  0
SEQEND
  8
Unknown Area Type
  0
TEXT
  8
Unknown Area Type
 62
7
  1
PNOA-H_AMS_1956-57_33k_ES_PAN_2
 40
0.00045
  10
-5.39431501206342
  20
42.72061886934317
  0
POLYLINE
  8
Unknown Area Type
  70
9
  66
1
  0
VERTEX
  8
Unknown Area Type
  70
32
  10
-5.24831189621467
  20
42.73739257590191
  30
1043.618
  0
VERTEX
  8
Unknown Area Type
  70
32
  10
-5.23372099651687
  20
42.73640401387694
  30
1050.268
  0
VERTEX
  8
Unknown Area Type
  70
32
  10
-5.2350855748175
  20
42.70246463292594
  30
929.74
  0
VERTEX
  8
Unknown Area Type
  70
32
  10
-5.26655090365323
  20
42.70152183309501
  30
994.748
  0
VERTEX
  8
Unknown Area Type
  70
32
  10
-5.2667827069899
  20
42.70151724363815
  30
998.437
  0
VERTEX
  8
Unknown Area Type
  70
32
  10
-5.27008082216685
  20
42.70340597490366
  30
1014.453
  0
VERTEX
  8
Unknown Area Type
  70
32
  10
-5.26883421476164
  20
42.73536678096512
  30
1079.973
  0
VERTEX
  8
Unknown Area Type
  70
32
  10
-5.26088257493802
  20
42.7382435957651
  30
1078.787
  0
VERTEX
  8
Unknown Area Type
  70
32
  10
-5.24833020725457
  20
42.73739221626592
  30
1044.03
  0
VERTEX
  8
Unknown Area Type
  70
32
  10
-5.24831189621467
  20
42.73739257590191
  30
1043.618
  0
SEQEND
  8
Unknown Area Type
  0
TEXT
  8
Unknown Area Type
 62
7
  1
PNOA-H_AMS_1956-57_33k_ES_PAN_2
 40
0.00045
  10
-5.25190109685578
  20
42.71979605267684
  0
POLYLINE
  8
Unknown Area Type
  70
9
  66
1
  0
VERTEX
  8
Unknown Area Type
  70
32
  10
-5.24831189621467
  20
42.73739257590191
  30
1043.618
  0
VERTEX
  8
Unknown Area Type
  70
32
  10
-5.23372099651687
  20
42.73640401387694
  30
1050.268
  0
VERTEX
  8
Unknown Area Type
  70
32
  10
-5.2350855748175
  20
42.70246463292594
  30
929.74
  0
VERTEX
  8
Unknown Area Type
  70
32
  10
-5.26655090365323
  20
42.70152183309501
  30
994.748
  0
VERTEX
  8
Unknown Area Type
  70
32
  10
-5.2667827069899
  20
42.70151724363815
  30
998.437
  0
VERTEX
  8
Unknown Area Type
  70
32
  10
-5.27008082216685
  20
42.70340597490366
  30
1014.453
  0
VERTEX
  8
Unknown Area Type
  70
32
  10
-5.26883421476164
  20
42.73536678096512
  30
1079.973
  0
VERTEX
  8
Unknown Area Type
  70
32
  10
-5.26088257493802
  20
42.7382435957651
  30
1078.787
  0
VERTEX
  8
Unknown Area Type
  70
32
  10
-5.24833020725457
  20
42.73739221626592
  30
1044.03
  0
VERTEX
  8
Unknown Area Type
  70
32
  10
-5.24831189621467
  20
42.73739257590191
  30
1043.618
  0
SEQEND
  8
Unknown Area Type
  0
TEXT
  8
Unknown Area Type
 62
7
  1
PNOA-H_AMS_1956-57_33k_ES_PAN_2
 40
0.00045
  10
-5.25190109685578
  20
42.71979605267684
  0
POLYLINE
  8
Unknown Area Type
  70
9
  66
1
  0
VERTEX
  8
Unknown Area Type
  70
32
  10
-5.37336688919407
  20
42.73579108486153
  30
996.97
  0
VERTEX
  8
Unknown Area Type
  70
32
  10
-5.35670592342298
  20
42.73936807370774
  30
918.292
  0
VERTEX
  8
Unknown Area Type
  70
32
  10
-5.35664505980422
  20
42.73937382921817
  30
917.96
  0
VERTEX
  8
Unknown Area Type
  70
32
  10
-5.33992867283763
  20
42.73471003631087
  30
966.793
  0
VERTEX
  8
Unknown Area Type
  70
32
  10
-5.34109186861799
  20
42.70426311741229
  30
951.62
  0
VERTEX
  8
Unknown Area Type
  70
32
  10
-5.37008635956956
  20
42.70177997505409
  30
868.865
  0
VERTEX
  8
Unknown Area Type
  70
32
  10
-5.37685310071152
  20
42.70505705052089
  30
875.059
  0
VERTEX
  8
Unknown Area Type
  70
32
  10
-5.37592241163707
  20
42.73521578709737
  30
945.109
  0
VERTEX
  8
Unknown Area Type
  70
32
  10
-5.37591733974506
  20
42.73524290702606
  30
945.149
  0
VERTEX
  8
Unknown Area Type
  70
32
  10
-5.37589920282319
  20
42.73524778591993
  30
944.658
  0
VERTEX
  8
Unknown Area Type
  70
32
  10
-5.37339112947295
  20
42.73578607982112
  30
997.007
  0
VERTEX
  8
Unknown Area Type
  70
32
  10
-5.37336688919407
  20
42.73579108486153
  30
996.97
  0
SEQEND
  8
Unknown Area Type
  0
TEXT
  8
Unknown Area Type
 62
7
  1
PNOA-H_AMS_1956-57_33k_ES_PAN_2
 40
0.00045
  10
-5.35839092467923
  20
42.72089257920954
  0
POLYLINE
  8
Unknown Area Type
  70
9
  66
1
  0
VERTEX
  8
Unknown Area Type
  70
32
  10
-5.37336688919407
  20
42.73579108486153
  30
996.97
  0
VERTEX
  8
Unknown Area Type
  70
32
  10
-5.35670592342298
  20
42.73936807370774
  30
918.292
  0
VERTEX
  8
Unknown Area Type
  70
32
  10
-5.35664505980422
  20
42.73937382921817
  30
917.96
  0
VERTEX
  8
Unknown Area Type
  70
32
  10
-5.33992867283763
  20
42.73471003631087
  30
966.793
  0
VERTEX
  8
Unknown Area Type
  70
32
  10
-5.34109186861799
  20
42.70426311741229
  30
951.62
  0
VERTEX
  8
Unknown Area Type
  70
32
  10
-5.37008635956956
  20
42.70177997505409
  30
868.865
  0
VERTEX
  8
Unknown Area Type
  70
32
  10
-5.37685310071152
  20
42.70505705052089
  30
875.059
  0
VERTEX
  8
Unknown Area Type
  70
32
  10
-5.37592241163707
  20
42.73521578709737
  30
945.109
  0
VERTEX
  8
Unknown Area Type
  70
32
  10
-5.37591733974506
  20
42.73524290702606
  30
945.149
  0
VERTEX
  8
Unknown Area Type
  70
32
  10
-5.37589920282319
  20
42.73524778591993
  30
944.658
  0
VERTEX
  8
Unknown Area Type
  70
32
  10
-5.37339112947295
  20
42.73578607982112
  30
997.007
  0
VERTEX
  8
Unknown Area Type
  70
32
  10
-5.37336688919407
  20
42.73579108486153
  30
996.97
  0
SEQEND
  8
Unknown Area Type
  0
TEXT
  8
Unknown Area Type
 62
7
  1
PNOA-H_AMS_1956-57_33k_ES_PAN_2
 40
0.00045
  10
-5.35839092467923
  20
42.72089257920954
  0
POLYLINE
  8
Unknown Area Type
  70
9
  66
1
  0
VERTEX
  8
Unknown Area Type
  70
32
  10
-5.27327805458898
  20
42.73596299442693
  30
1045.938
  0
VERTEX
  8
Unknown Area Type
  70
32
  10
-5.26883421476164
  20
42.73536678096512
  30
1079.973
  0
VERTEX
  8
Unknown Area Type
  70
32
  10
-5.27008082216685
  20
42.70340597490366
  30
1014.453
  0
VERTEX
  8
Unknown Area Type
  70
32
  10
-5.30059522359942
  20
42.70134703825834
  30
1052.376
  0
VERTEX
  8
Unknown Area Type
  70
32
  10
-5.300686722494
  20
42.70134519949725
  30
1052.783
  0
VERTEX
  8
Unknown Area Type
  70
32
  10
-5.30551192113043
  20
42.70389108575305
  30
1047.73
  0
VERTEX
  8
Unknown Area Type
  70
32
  10
-5.3045228875074
  20
42.73456382565659
  30
1045.929
  0
VERTEX
  8
Unknown Area Type
  70
32
  10
-5.2921650782995
  20
42.7384904543536
  30
1084.617
  0
VERTEX
  8
Unknown Area Type
  70
32
  10
-5.27329636489267
  20
42.73596263080921
  30
1046.231
  0
VERTEX
  8
Unknown Area Type
  70
32
  10
-5.27327805458898
  20
42.73596299442693
  30
1045.938
  0
SEQEND
  8
Unknown Area Type
  0
TEXT
  8
Unknown Area Type
 62
7
  1
PNOA-H_AMS_1956-57_33k_ES_PAN_2
 40
0.00045
  10
-5.28717321201592
  20
42.72003577074094
  0
POLYLINE
  8
Unknown Area Type
  70
9
  66
1
  0
VERTEX
  8
Unknown Area Type
  70
32
  10
-5.27327805458898
  20
42.73596299442693
  30
1045.938
  0
VERTEX
  8
Unknown Area Type
  70
32
  10
-5.26883421476164
  20
42.73536678096512
  30
1079.973
  0
VERTEX
  8
Unknown Area Type
  70
32
  10
-5.27008082216685
  20
42.70340597490366
  30
1014.453
  0
VERTEX
  8
Unknown Area Type
  70
32
  10
-5.30059522359942
  20
42.70134703825834
  30
1052.376
  0
VERTEX
  8
Unknown Area Type
  70
32
  10
-5.300686722494
  20
42.70134519949725
  30
1052.783
  0
VERTEX
  8
Unknown Area Type
  70
32
  10
-5.30551192113043
  20
42.70389108575305
  30
1047.73
  0
VERTEX
  8
Unknown Area Type
  70
32
  10
-5.3045228875074
  20
42.73456382565659
  30
1045.929
  0
VERTEX
  8
Unknown Area Type
  70
32
  10
-5.2921650782995
  20
42.7384904543536
  30
1084.617
  0
VERTEX
  8
Unknown Area Type
  70
32
  10
-5.27329636489267
  20
42.73596263080921
  30
1046.231
  0
VERTEX
  8
Unknown Area Type
  70
32
  10
-5.27327805458898
  20
42.73596299442693
  30
1045.938
  0
SEQEND
  8
Unknown Area Type
  0
TEXT
  8
Unknown Area Type
 62
7
  1
PNOA-H_AMS_1956-57_33k_ES_PAN_2
 40
0.00045
  10
-5.28717321201592
  20
42.72003577074094
  0
POLYLINE
  8
Unknown Area Type
  70
9
  66
1
  0
VERTEX
  8
Unknown Area Type
  70
32
  10
-5.44790057972292
  20
42.72306890778075
  30
1013.03
  0
VERTEX
  8
Unknown Area Type
  70
32
  10
-5.44758523365898
  20
42.73647487420151
  30
1023.987
  0
VERTEX
  8
Unknown Area Type
  70
32
  10
-5.42063648788787
  20
42.73943423274943
  30
970.075
  0
VERTEX
  8
Unknown Area Type
  70
32
  10
-5.4116307874881
  20
42.73590982029475
  30
922.337
  0
VERTEX
  8
Unknown Area Type
  70
32
  10
-5.41287999218748
  20
42.70559556524803
  30
929.076
  0
VERTEX
  8
Unknown Area Type
  70
32
  10
-5.43921373384967
  20
42.70225946707512
  30
959.653
  0
VERTEX
  8
Unknown Area Type
  70
32
  10
-5.44829515537033
  20
42.70624386797557
  30
984.802
  0
VERTEX
  8
Unknown Area Type
  70
32
  10
-5.44789686346066
  20
42.72297443619356
  30
1012.914
  0
VERTEX
  8
Unknown Area Type
  70
32
  10
-5.44790057972292
  20
42.72306890778075
  30
1013.03
  0
SEQEND
  8
Unknown Area Type
  0
TEXT
  8
Unknown Area Type
 62
7
  1
PNOA-H_AMS_1956-57_33k_ES_PAN_2
 40
0.00045
  10
-5.4300998151721
  20
42.72084509905949
  0
POLYLINE
  8
Unknown Area Type
  70
9
  66
1
  0
VERTEX
  8
Unknown Area Type
  70
32
  10
-5.44790057972292
  20
42.72306890778075
  30
1013.03
  0
VERTEX
  8
Unknown Area Type
  70
32
  10
-5.44758523365898
  20
42.73647487420151
  30
1023.987
  0
VERTEX
  8
Unknown Area Type
  70
32
  10
-5.42063648788787
  20
42.73943423274943
  30
970.075
  0
VERTEX
  8
Unknown Area Type
  70
32
  10
-5.4116307874881
  20
42.73590982029475
  30
922.337
  0
VERTEX
  8
Unknown Area Type
  70
32
  10
-5.41287999218748
  20
42.70559556524803
  30
929.076
  0
VERTEX
  8
Unknown Area Type
  70
32
  10
-5.43921373384967
  20
42.70225946707512
  30
959.653
  0
VERTEX
  8
Unknown Area Type
  70
32
  10
-5.44829515537033
  20
42.70624386797557
  30
984.802
  0
VERTEX
  8
Unknown Area Type
  70
32
  10
-5.44789686346066
  20
42.72297443619356
  30
1012.914
  0
VERTEX
  8
Unknown Area Type
  70
32
  10
-5.44790057972292
  20
42.72306890778075
  30
1013.03
  0
SEQEND
  8
Unknown Area Type
  0
TEXT
  8
Unknown Area Type
 62
7
  1
PNOA-H_AMS_1956-57_33k_ES_PAN_2
 40
0.00045
  10
-5.4300998151721
  20
42.72084509905949
  0
POLYLINE
  8
Unknown Area Type
  70
9
  66
1
  0
VERTEX
  8
Unknown Area Type
  70
32
  10
-5.22330415636311
  20
42.73769189752014
  30
998.841
  0
VERTEX
  8
Unknown Area Type
  70
32
  10
-5.19930870137073
  20
42.73708832264496
  30
1013.783
  0
VERTEX
  8
Unknown Area Type
  70
32
  10
-5.19846506031337
  20
42.73672181607556
  30
1007.309
  0
VERTEX
  8
Unknown Area Type
  70
32
  10
-5.20006416943741
  20
42.70231002458772
  30
989.336
  0
VERTEX
  8
Unknown Area Type
  70
32
  10
-5.23210399057581
  20
42.70069028491153
  30
997.419
  0
VERTEX
  8
Unknown Area Type
  70
32
  10
-5.23215311428697
  20
42.70069833215641
  30
997.404
  0
VERTEX
  8
Unknown Area Type
  70
32
  10
-5.2350855748175
  20
42.70246463292594
  30
929.74
  0
VERTEX
  8
Unknown Area Type
  70
32
  10
-5.23372099651687
  20
42.73640401387694
  30
1050.268
  0
VERTEX
  8
Unknown Area Type
  70
32
  10
-5.22994946437191
  20
42.73785530270115
  30
1025.852
  0
VERTEX
  8
Unknown Area Type
  70
32
  10
-5.22337129831042
  20
42.73769059349321
  30
998.782
  0
VERTEX
  8
Unknown Area Type
  70
32
  10
-5.22330415636311
  20
42.73769189752014
  30
998.841
  0
SEQEND
  8
Unknown Area Type
  0
TEXT
  8
Unknown Area Type
 62
7
  1
PNOA-H_AMS_1956-57_33k_ES_PAN_2
 40
0.00045
  10
-5.21677538422692
  20
42.7194951219186
  0
POLYLINE
  8
Unknown Area Type
  70
9
  66
1
  0
VERTEX
  8
Unknown Area Type
  70
32
  10
-5.22330415636311
  20
42.73769189752014
  30
998.841
  0
VERTEX
  8
Unknown Area Type
  70
32
  10
-5.19930870137073
  20
42.73708832264496
  30
1013.783
  0
VERTEX
  8
Unknown Area Type
  70
32
  10
-5.19846506031337
  20
42.73672181607556
  30
1007.309
  0
VERTEX
  8
Unknown Area Type
  70
32
  10
-5.20006416943741
  20
42.70231002458772
  30
989.336
  0
VERTEX
  8
Unknown Area Type
  70
32
  10
-5.23210399057581
  20
42.70069028491153
  30
997.419
  0
VERTEX
  8
Unknown Area Type
  70
32
  10
-5.23215311428697
  20
42.70069833215641
  30
997.404
  0
VERTEX
  8
Unknown Area Type
  70
32
  10
-5.2350855748175
  20
42.70246463292594
  30
929.74
  0
VERTEX
  8
Unknown Area Type
  70
32
  10
-5.23372099651687
  20
42.73640401387694
  30
1050.268
  0
VERTEX
  8
Unknown Area Type
  70
32
  10
-5.22994946437191
  20
42.73785530270115
  30
1025.852
  0
VERTEX
  8
Unknown Area Type
  70
32
  10
-5.22337129831042
  20
42.73769059349321
  30
998.782
  0
VERTEX
  8
Unknown Area Type
  70
32
  10
-5.22330415636311
  20
42.73769189752014
  30
998.841
  0
SEQEND
  8
Unknown Area Type
  0
TEXT
  8
Unknown Area Type
 62
7
  1
PNOA-H_AMS_1956-57_33k_ES_PAN_2
 40
0.00045
  10
-5.21677538422692
  20
42.7194951219186
  0
POLYLINE
  8
Unknown Area Type
  70
9
  66
1
  0
VERTEX
  8
Unknown Area Type
  70
32
  10
-5.29358137782335
  20
42.75652143521423
  30
1055.972
  0
VERTEX
  8
Unknown Area Type
  70
32
  10
-5.29216491249722
  20
42.73848595521167
  30
1084.616
  0
VERTEX
  8
Unknown Area Type
  70
32
  10
-5.30453509383558
  20
42.73456357992152
  30
1045.622
  0
VERTEX
  8
Unknown Area Type
  70
32
  10
-5.32460291481993
  20
42.73859273551994
  30
1021.79
  0
VERTEX
  8
Unknown Area Type
  70
32
  10
-5.32439447114426
  20
42.77860115209264
  30
961.403
  0
VERTEX
  8
Unknown Area Type
  70
32
  10
-5.32178701545335
  20
42.77948252087264
  30
964.299
  0
VERTEX
  8
Unknown Area Type
  70
32
  10
-5.32171389363815
  20
42.77948850655937
  30
962.992
  0
VERTEX
  8
Unknown Area Type
  70
32
  10
-5.29531307242524
  20
42.77859371340893
  30
1096.399
  0
VERTEX
  8
Unknown Area Type
  70
32
  10
-5.29358469801675
  20
42.75661141767847
  30
1055.051
  0
VERTEX
  8
Unknown Area Type
  70
32
  10
-5.29358137782335
  20
42.75652143521423
  30
1055.972
  0
SEQEND
  8
Unknown Area Type
  0
TEXT
  8
Unknown Area Type
 62
7
  1
PNOA-H_AMS_1956-57_33k_ES_PAN_2
 40
0.00045
  10
-5.3083838245293
  20
42.75718501986625
  0
POLYLINE
  8
Unknown Area Type
  70
9
  66
1
  0
VERTEX
  8
Unknown Area Type
  70
32
  10
-5.29358137782335
  20
42.75652143521423
  30
1055.972
  0
VERTEX
  8
Unknown Area Type
  70
32
  10
-5.29216491249722
  20
42.73848595521167
  30
1084.616
  0
VERTEX
  8
Unknown Area Type
  70
32
  10
-5.30453509383558
  20
42.73456357992152
  30
1045.622
  0
VERTEX
  8
Unknown Area Type
  70
32
  10
-5.32460291481993
  20
42.73859273551994
  30
1021.79
  0
VERTEX
  8
Unknown Area Type
  70
32
  10
-5.32439447114426
  20
42.77860115209264
  30
961.403
  0
VERTEX
  8
Unknown Area Type
  70
32
  10
-5.32178701545335
  20
42.77948252087264
  30
964.299
  0
VERTEX
  8
Unknown Area Type
  70
32
  10
-5.32171389363815
  20
42.77948850655937
  30
962.992
  0
VERTEX
  8
Unknown Area Type
  70
32
  10
-5.29531307242524
  20
42.77859371340893
  30
1096.399
  0
VERTEX
  8
Unknown Area Type
  70
32
  10
-5.29358469801675
  20
42.75661141767847
  30
1055.051
  0
VERTEX
  8
Unknown Area Type
  70
32
  10
-5.29358137782335
  20
42.75652143521423
  30
1055.972
  0
SEQEND
  8
Unknown Area Type
  0
TEXT
  8
Unknown Area Type
 62
7
  1
PNOA-H_AMS_1956-57_33k_ES_PAN_2
 40
0.00045
  10
-5.3083838245293
  20
42.75718501986625
  0
POLYLINE
  8
Unknown Area Type
  70
9
  66
1
  0
VERTEX
  8
Unknown Area Type
  70
32
  10
-5.19846331111639
  20
42.73667232231916
  30
1008.044
  0
VERTEX
  8
Unknown Area Type
  70
32
  10
-5.19846506031337
  20
42.73672181607556
  30
1007.309
  0
VERTEX
  8
Unknown Area Type
  70
32
  10
-5.18749999999999
  20
42.73700971439048
  30
1000.076
  0
VERTEX
  8
Unknown Area Type
  70
32
  10
-5.18749999999999
  20
42.72916666666664
  30
1000.211
  0
VERTEX
  8
Unknown Area Type
  70
32
  10
-5.18749999999999
  20
42.70833333333333
  30
961.864
  0
VERTEX
  8
Unknown Area Type
  70
32
  10
-5.18749999999999
  20
42.70071764156104
  30
962.697
  0
VERTEX
  8
Unknown Area Type
  70
32
  10
-5.19698696995487
  20
42.70039251451092
  30
993.006
  0
VERTEX
  8
Unknown Area Type
  70
32
  10
-5.20006416943741
  20
42.70231002458772
  30
989.336
  0
SEQEND
  8
Unknown Area Type
  0
TEXT
  8
Unknown Area Type
 62
7
  1
PNOA-H_AMS_1956-57_33k_ES_PAN_2
 40
0.00045
  10
-5.1937820847187
  20
42.7187011144507
  0
POLYLINE
  8
Unknown Area Type
  70
9
  66
1
  0
VERTEX
  8
Unknown Area Type
  70
32
  10
-5.19846331111639
  20
42.73667232231916
  30
1008.044
  0
VERTEX
  8
Unknown Area Type
  70
32
  10
-5.19846506031337
  20
42.73672181607556
  30
1007.309
  0
VERTEX
  8
Unknown Area Type
  70
32
  10
-5.18749999999999
  20
42.73700971439048
  30
1000.076
  0
VERTEX
  8
Unknown Area Type
  70
32
  10
-5.18749999999999
  20
42.72916666666664
  30
1000.211
  0
VERTEX
  8
Unknown Area Type
  70
32
  10
-5.18749999999999
  20
42.70833333333333
  30
961.864
  0
VERTEX
  8
Unknown Area Type
  70
32
  10
-5.18749999999999
  20
42.70071764156104
  30
962.697
  0
VERTEX
  8
Unknown Area Type
  70
32
  10
-5.19698696995487
  20
42.70039251451092
  30
993.006
  0
VERTEX
  8
Unknown Area Type
  70
32
  10
-5.20006416943741
  20
42.70231002458772
  30
989.336
  0
SEQEND
  8
Unknown Area Type
  0
TEXT
  8
Unknown Area Type
 62
7
  1
PNOA-H_AMS_1956-57_33k_ES_PAN_2
 40
0.00045
  10
-5.1937820847187
  20
42.7187011144507
  0
POLYLINE
  8
Unknown Area Type
  70
9
  66
1
  0
VERTEX
  8
Unknown Area Type
  70
32
  10
-5.18749999999999
  20
42.70833333333333
  30
961.864
  0
VERTEX
  8
Unknown Area Type
  70
32
  10
-5.18749999999999
  20
42.72916666666664
  30
1000.211
  0
VERTEX
  8
Unknown Area Type
  70
32
  10
-5.18749999999999
  20
42.73700971439048
  30
1000.076
  0
VERTEX
  8
Unknown Area Type
  70
32
  10
-5.18749966666666
  20
42.73700972314246
  30
1000.076
  0
VERTEX
  8
Unknown Area Type
  70
32
  10
-5.18749966666666
  20
42.70071765298468
  30
962.696
  0
VERTEX
  8
Unknown Area Type
  70
32
  10
-5.18749999999999
  20
42.70071764156104
  30
962.697
  0
SEQEND
  8
Unknown Area Type
  0
TEXT
  8
Unknown Area Type
 62
7
  1
PNOA-H_AMS_1956-57_33k_ES_PAN_2
 40
0.00045
  10
-5.18749983333333
  20
42.71886368235175
  0
POLYLINE
  8
Unknown Area Type
  70
9
  66
1
  0
VERTEX
  8
Unknown Area Type
  70
32
  10
-5.19969731876922
  20
42.78122307994386
  30
1157.779
  0
VERTEX
  8
Unknown Area Type
  70
32
  10
-5.19657003303595
  20
42.78232320294517
  30
1126.542
  0
VERTEX
  8
Unknown Area Type
  70
32
  10
-5.18749999999999
  20
42.78207793428641
  30
1077.271
  0
VERTEX
  8
Unknown Area Type
  70
32
  10
-5.18749999999999
  20
42.77083333333336
  30
1075.62
  0
VERTEX
  8
Unknown Area Type
  70
32
  10
-5.18749999999999
  20
42.75000000000004
  30
1054.12
  0
VERTEX
  8
Unknown Area Type
  70
32
  10
-5.18749999999999
  20
42.73700974235648
  30
1000.118
  0
VERTEX
  8
Unknown Area Type
  70
32
  10
-5.19847116413417
  20
42.73672169885518
  30
1007.378
  0
VERTEX
  8
Unknown Area Type
  70
32
  10
-5.19930854228961
  20
42.73708382321542
  30
1013.801
  0
VERTEX
  8
Unknown Area Type
  70
32
  10
-5.19931538281078
  20
42.73727729868209
  30
1012.364
  0
SEQEND
  8
Unknown Area Type
  0
TEXT
  8
Unknown Area Type
 62
7
  1
PNOA-H_AMS_1956-57_33k_ES_PAN_2
 40
0.00045
  10
-5.19359865938461
  20
42.75952245090018
  0
POLYLINE
  8
Unknown Area Type
  70
9
  66
1
  0
VERTEX
  8
Unknown Area Type
  70
32
  10
-5.19969731876922
  20
42.78122307994386
  30
1157.779
  0
VERTEX
  8
Unknown Area Type
  70
32
  10
-5.19657003303595
  20
42.78232320294517
  30
1126.542
  0
VERTEX
  8
Unknown Area Type
  70
32
  10
-5.18749999999999
  20
42.78207793428641
  30
1077.271
  0
VERTEX
  8
Unknown Area Type
  70
32
  10
-5.18749999999999
  20
42.77083333333336
  30
1075.62
  0
VERTEX
  8
Unknown Area Type
  70
32
  10
-5.18749999999999
  20
42.75000000000004
  30
1054.12
  0
VERTEX
  8
Unknown Area Type
  70
32
  10
-5.18749999999999
  20
42.73700974235648
  30
1000.118
  0
VERTEX
  8
Unknown Area Type
  70
32
  10
-5.19847116413417
  20
42.73672169885518
  30
1007.378
  0
VERTEX
  8
Unknown Area Type
  70
32
  10
-5.19930854228961
  20
42.73708382321542
  30
1013.801
  0
VERTEX
  8
Unknown Area Type
  70
32
  10
-5.19931538281078
  20
42.73727729868209
  30
1012.364
  0
SEQEND
  8
Unknown Area Type
  0
TEXT
  8
Unknown Area Type
 62
7
  1
PNOA-H_AMS_1956-57_33k_ES_PAN_2
 40
0.00045
  10
-5.19359865938461
  20
42.75952245090018
  0
POLYLINE
  8
Unknown Area Type
  70
9
  66
1
  0
VERTEX
  8
Unknown Area Type
  70
32
  10
-5.18749999999999
  20
42.75000000000004
  30
1054.12
  0
VERTEX
  8
Unknown Area Type
  70
32
  10
-5.18749999999999
  20
42.77083333333336
  30
1075.62
  0
VERTEX
  8
Unknown Area Type
  70
32
  10
-5.18749999999999
  20
42.78207793428641
  30
1077.271
  0
VERTEX
  8
Unknown Area Type
  70
32
  10
-5.18749966666666
  20
42.78207792527252
  30
1077.269
  0
VERTEX
  8
Unknown Area Type
  70
32
  10
-5.18749966666666
  20
42.73700975110802
  30
1000.118
  0
VERTEX
  8
Unknown Area Type
  70
32
  10
-5.18749999999999
  20
42.73700974235648
  30
1000.118
  0
SEQEND
  8
Unknown Area Type
  0
TEXT
  8
Unknown Area Type
 62
7
  1
PNOA-H_AMS_1956-57_33k_ES_PAN_2
 40
0.00045
  10
-5.18749983333333
  20
42.75954383832144
  0
POLYLINE
  8
Unknown Area Type
  70
9
  66
1
  0
VERTEX
  8
Unknown Area Type
  70
32
  10
-5.52083333333329
  20
42.79166666666667
  30
1092.219
  0
VERTEX
  8
Unknown Area Type
  70
32
  10
-5.52083333333329
  20
42.81249999999999
  30
1067.365
  0
VERTEX
  8
Unknown Area Type
  70
32
  10
-5.52083333333329
  20
42.81597709613489
  30
1069.681
  0
VERTEX
  8
Unknown Area Type
  70
32
  10
-5.50791340205065
  20
42.81490613842136
  30
965.159
  0
VERTEX
  8
Unknown Area Type
  70
32
  10
-5.50993452685751
  20
42.77778933176825
  30
943.007
  0
VERTEX
  8
Unknown Area Type
  70
32
  10
-5.517707876422
  20
42.77821740750679
  30
1063.187
  0
VERTEX
  8
Unknown Area Type
  70
32
  10
-5.51772027176433
  20
42.77822163719954
  30
1063.064
  0
VERTEX
  8
Unknown Area Type
  70
32
  10
-5.51780412695938
  20
42.77848093030524
  30
1065.342
  0
VERTEX
  8
Unknown Area Type
  70
32
  10
-5.52083333333329
  20
42.78786925279078
  30
1085.013
  0
SEQEND
  8
Unknown Area Type
  0
TEXT
  8
Unknown Area Type
 62
7
  1
PNOA-H_AMS_1956-57_33k_ES_PAN_2
 40
0.00045
  10
-5.51902957514902
  20
42.79905159378018
  0
POLYLINE
  8
Unknown Area Type
  70
9
  66
1
  0
VERTEX
  8
Unknown Area Type
  70
32
  10
-5.52083366666662
  20
42.81597712376552
  30
1069.683
  0
VERTEX
  8
Unknown Area Type
  70
32
  10
-5.52083333333329
  20
42.81597709613489
  30
1069.681
  0
VERTEX
  8
Unknown Area Type
  70
32
  10
-5.52083333333329
  20
42.81249999999999
  30
1067.365
  0
VERTEX
  8
Unknown Area Type
  70
32
  10
-5.52083333333329
  20
42.79166666666667
  30
1092.219
  0
VERTEX
  8
Unknown Area Type
  70
32
  10
-5.52083333333329
  20
42.78786925279078
  30
1085.013
  0
VERTEX
  8
Unknown Area Type
  70
32
  10
-5.52083366666662
  20
42.78787028588013
  30
1085.015
  0
SEQEND
  8
Unknown Area Type
  0
TEXT
  8
Unknown Area Type
 62
7
  1
PNOA-H_AMS_1956-57_33k_ES_PAN_2
 40
0.00045
  10
-5.52083349999996
  20
42.80192318827815
  0
POLYLINE
  8
Unknown Area Type
  70
9
  66
1
  0
VERTEX
  8
Unknown Area Type
  70
32
  10
-5.52083333333329
  20
42.79166666666667
  30
1092.219
  0
VERTEX
  8
Unknown Area Type
  70
32
  10
-5.52083333333329
  20
42.81249999999999
  30
1067.365
  0
VERTEX
  8
Unknown Area Type
  70
32
  10
-5.52083333333329
  20
42.81597709613489
  30
1069.681
  0
VERTEX
  8
Unknown Area Type
  70
32
  10
-5.50791340205065
  20
42.81490613842136
  30
965.159
  0
VERTEX
  8
Unknown Area Type
  70
32
  10
-5.50993452685751
  20
42.77778933176825
  30
943.007
  0
VERTEX
  8
Unknown Area Type
  70
32
  10
-5.517707876422
  20
42.77821740750679
  30
1063.187
  0
VERTEX
  8
Unknown Area Type
  70
32
  10
-5.51772027176433
  20
42.77822163719954
  30
1063.064
  0
VERTEX
  8
Unknown Area Type
  70
32
  10
-5.51780412695938
  20
42.77848093030524
  30
1065.342
  0
VERTEX
  8
Unknown Area Type
  70
32
  10
-5.52083333333329
  20
42.78786925279078
  30
1085.013
  0
SEQEND
  8
Unknown Area Type
  0
TEXT
  8
Unknown Area Type
 62
7
  1
PNOA-H_AMS_1956-57_33k_ES_PAN_2
 40
0.00045
  10
-5.51902957514902
  20
42.79905159378018
  0
POLYLINE
  8
Unknown Area Type
  70
9
  66
1
  0
VERTEX
  8
Unknown Area Type
  70
32
  10
-5.22388988199783
  20
42.83333333333339
  30
1272.768
  0
VERTEX
  8
Unknown Area Type
  70
32
  10
-5.19343126419206
  20
42.83333333333339
  30
1266.765
  0
VERTEX
  8
Unknown Area Type
  70
32
  10
-5.19304191714185
  20
42.82433560898725
  30
1243.636
  0
VERTEX
  8
Unknown Area Type
  70
32
  10
-5.19754121285696
  20
42.82253838529702
  30
1233.426
  0
VERTEX
  8
Unknown Area Type
  70
32
  10
-5.19780664439025
  20
42.82243423511539
  30
1230.155
  0
VERTEX
  8
Unknown Area Type
  70
32
  10
-5.19783109338296
  20
42.82243376562091
  30
1229.442
  0
VERTEX
  8
Unknown Area Type
  70
32
  10
-5.22342282024362
  20
42.82415915488898
  30
1235.068
  0
SEQEND
  8
Unknown Area Type
  0
TEXT
  8
Unknown Area Type
 62
7
  1
PNOA-H_AMS_1956-57_33k_ES_PAN_2
 40
0.00045
  10
-5.20846589956984
  20
42.82788354947715
  0
POLYLINE
  8
Unknown Area Type
  70
9
  66
1
  0
VERTEX
  8
Unknown Area Type
  70
32
  10
-5.22388989048291
  20
42.83333350000005
  30
1272.769
  0
VERTEX
  8
Unknown Area Type
  70
32
  10
-5.19343127140401
  20
42.83333350000005
  30
1266.766
  0
VERTEX
  8
Unknown Area Type
  70
32
  10
-5.19343126419206
  20
42.83333333333339
  30
1266.765
  0
VERTEX
  8
Unknown Area Type
  70
32
  10
-5.22388988199783
  20
42.83333333333339
  30
1272.768
  0
SEQEND
  8
Unknown Area Type
  0
TEXT
  8
Unknown Area Type
 62
7
  1
PNOA-H_AMS_1956-57_33k_ES_PAN_2
 40
0.00045
  10
-5.20866057733748
  20
42.83333341666672
  0
POLYLINE
  8
Unknown Area Type
  70
9
  66
1
  0
VERTEX
  8
Unknown Area Type
  70
32
  10
-5.22388988199783
  20
42.83333333333339
  30
1272.768
  0
VERTEX
  8
Unknown Area Type
  70
32
  10
-5.19343126419206
  20
42.83333333333339
  30
1266.765
  0
VERTEX
  8
Unknown Area Type
  70
32
  10
-5.19304191714185
  20
42.82433560898725
  30
1243.636
  0
VERTEX
  8
Unknown Area Type
  70
32
  10
-5.19754121285696
  20
42.82253838529702
  30
1233.426
  0
VERTEX
  8
Unknown Area Type
  70
32
  10
-5.19780664439025
  20
42.82243423511539
  30
1230.155
  0
VERTEX
  8
Unknown Area Type
  70
32
  10
-5.19783109338296
  20
42.82243376562091
  30
1229.442
  0
VERTEX
  8
Unknown Area Type
  70
32
  10
-5.22342282024362
  20
42.82415915488898
  30
1235.068
  0
SEQEND
  8
Unknown Area Type
  0
TEXT
  8
Unknown Area Type
 62
7
  1
PNOA-H_AMS_1956-57_33k_ES_PAN_2
 40
0.00045
  10
-5.20846589956984
  20
42.82788354947715
  0
POLYLINE
  8
Unknown Area Type
  70
9
  66
1
  0
VERTEX
  8
Unknown Area Type
  70
32
  10
-5.25541737529421
  20
42.83333333333339
  30
1305.67
  0
VERTEX
  8
Unknown Area Type
  70
32
  10
-5.22916666666662
  20
42.83333333333339
  30
1273.869
  0
VERTEX
  8
Unknown Area Type
  70
32
  10
-5.22388988199783
  20
42.83333333333339
  30
1272.768
  0
VERTEX
  8
Unknown Area Type
  70
32
  10
-5.22342282024362
  20
42.82415915488898
  30
1235.068
  0
VERTEX
  8
Unknown Area Type
  70
32
  10
-5.22916988452935
  20
42.82187719511963
  30
1299.697
  0
VERTEX
  8
Unknown Area Type
  70
32
  10
-5.25539538424892
  20
42.82335345607753
  30
1317.289
  0
SEQEND
  8
Unknown Area Type
  0
TEXT
  8
Unknown Area Type
 62
7
  1
PNOA-H_AMS_1956-57_33k_ES_PAN_2
 40
0.00045
  10
-5.23942009776891
  20
42.82760526422651
  0
POLYLINE
  8
Unknown Area Type
  70
9
  66
1
  0
VERTEX
  8
Unknown Area Type
  70
32
  10
-5.25541737566146
  20
42.83333350000005
  30
1305.67
  0
VERTEX
  8
Unknown Area Type
  70
32
  10
-5.22388989048291
  20
42.83333350000005
  30
1272.769
  0
VERTEX
  8
Unknown Area Type
  70
32
  10
-5.22388988199783
  20
42.83333333333339
  30
1272.768
  0
VERTEX
  8
Unknown Area Type
  70
32
  10
-5.22916666666662
  20
42.83333333333339
  30
1273.869
  0
VERTEX
  8
Unknown Area Type
  70
32
  10
-5.25541737529421
  20
42.83333333333339
  30
1305.67
  0
SEQEND
  8
Unknown Area Type
  0
TEXT
  8
Unknown Area Type
 62
7
  1
PNOA-H_AMS_1956-57_33k_ES_PAN_2
 40
0.00045
  10
-5.23965362882964
  20
42.83333341666672
  0
POLYLINE
  8
Unknown Area Type
  70
9
  66
1
  0
VERTEX
  8
Unknown Area Type
  70
32
  10
-5.25541737529421
  20
42.83333333333339
  30
1305.67
  0
VERTEX
  8
Unknown Area Type
  70
32
  10
-5.22916666666662
  20
42.83333333333339
  30
1273.869
  0
VERTEX
  8
Unknown Area Type
  70
32
  10
-5.22388988199783
  20
42.83333333333339
  30
1272.768
  0
VERTEX
  8
Unknown Area Type
  70
32
  10
-5.22342282024362
  20
42.82415915488898
  30
1235.068
  0
VERTEX
  8
Unknown Area Type
  70
32
  10
-5.22916988452935
  20
42.82187719511963
  30
1299.697
  0
VERTEX
  8
Unknown Area Type
  70
32
  10
-5.25539538424892
  20
42.82335345607753
  30
1317.289
  0
SEQEND
  8
Unknown Area Type
  0
TEXT
  8
Unknown Area Type
 62
7
  1
PNOA-H_AMS_1956-57_33k_ES_PAN_2
 40
0.00045
  10
-5.23942009776891
  20
42.82760526422651
  0
POLYLINE
  8
Unknown Area Type
  70
9
  66
1
  0
VERTEX
  8
Unknown Area Type
  70
32
  10
-5.28760589812199
  20
42.83333333333339
  30
1147.398
  0
VERTEX
  8
Unknown Area Type
  70
32
  10
-5.27083333333334
  20
42.83333333333339
  30
1114.69
  0
VERTEX
  8
Unknown Area Type
  70
32
  10
-5.25541737529421
  20
42.83333333333339
  30
1305.67
  0
VERTEX
  8
Unknown Area Type
  70
32
  10
-5.25539538424892
  20
42.82335345607753
  30
1317.289
  0
VERTEX
  8
Unknown Area Type
  70
32
  10
-5.26025596914179
  20
42.82145209893586
  30
1202.905
  0
VERTEX
  8
Unknown Area Type
  70
32
  10
-5.28547590760774
  20
42.82301335034308
  30
1005.492
  0
VERTEX
  8
Unknown Area Type
  70
32
  10
-5.28591118186035
  20
42.82304067646096
  30
1003.381
  0
VERTEX
  8
Unknown Area Type
  70
32
  10
-5.2859179571599
  20
42.82305855076341
  30
1003.582
  0
VERTEX
  8
Unknown Area Type
  70
32
  10
-5.28760068971838
  20
42.83319135544191
  30
1147.787
  0
SEQEND
  8
Unknown Area Type
  0
TEXT
  8
Unknown Area Type
 62
7
  1
PNOA-H_AMS_1956-57_33k_ES_PAN_2
 40
0.00045
  10
-5.27150064118545
  20
42.82739271613463
  0
POLYLINE
  8
Unknown Area Type
  70
9
  66
1
  0
VERTEX
  8
Unknown Area Type
  70
32
  10
-5.28760590423609
  20
42.83333350000005
  30
1147.397
  0
VERTEX
  8
Unknown Area Type
  70
32
  10
-5.25541737566146
  20
42.83333350000005
  30
1305.67
  0
VERTEX
  8
Unknown Area Type
  70
32
  10
-5.25541737529421
  20
42.83333333333339
  30
1305.67
  0
VERTEX
  8
Unknown Area Type
  70
32
  10
-5.27083333333334
  20
42.83333333333339
  30
1114.69
  0
VERTEX
  8
Unknown Area Type
  70
32
  10
-5.28760589812199
  20
42.83333333333339
  30
1147.398
  0
SEQEND
  8
Unknown Area Type
  0
TEXT
  8
Unknown Area Type
 62
7
  1
PNOA-H_AMS_1956-57_33k_ES_PAN_2
 40
0.00045
  10
-5.27151163976515
  20
42.83333341666672
  0
POLYLINE
  8
Unknown Area Type
  70
9
  66
1
  0
VERTEX
  8
Unknown Area Type
  70
32
  10
-5.28760589812199
  20
42.83333333333339
  30
1147.398
  0
VERTEX
  8
Unknown Area Type
  70
32
  10
-5.27083333333334
  20
42.83333333333339
  30
1114.69
  0
VERTEX
  8
Unknown Area Type
  70
32
  10
-5.25541737529421
  20
42.83333333333339
  30
1305.67
  0
VERTEX
  8
Unknown Area Type
  70
32
  10
-5.25539538424892
  20
42.82335345607753
  30
1317.289
  0
VERTEX
  8
Unknown Area Type
  70
32
  10
-5.26025596914179
  20
42.82145209893586
  30
1202.905
  0
VERTEX
  8
Unknown Area Type
  70
32
  10
-5.28547590760774
  20
42.82301335034308
  30
1005.492
  0
VERTEX
  8
Unknown Area Type
  70
32
  10
-5.28591118186035
  20
42.82304067646096
  30
1003.381
  0
VERTEX
  8
Unknown Area Type
  70
32
  10
-5.2859179571599
  20
42.82305855076341
  30
1003.582
  0
VERTEX
  8
Unknown Area Type
  70
32
  10
-5.28760068971838
  20
42.83319135544191
  30
1147.787
  0
SEQEND
  8
Unknown Area Type
  0
TEXT
  8
Unknown Area Type
 62
7
  1
PNOA-H_AMS_1956-57_33k_ES_PAN_2
 40
0.00045
  10
-5.27150064118545
  20
42.82739271613463
  0
POLYLINE
  8
Unknown Area Type
  70
9
  66
1
  0
VERTEX
  8
Unknown Area Type
  70
32
  10
-5.28760590005963
  20
42.83333333333339
  30
1146.909
  0
VERTEX
  8
Unknown Area Type
  70
32
  10
-5.28760102176032
  20
42.8332003536052
  30
1147.271
  0
VERTEX
  8
Unknown Area Type
  70
32
  10
-5.28800158158126
  20
42.83333333333339
  30
1144.979
  0
SEQEND
  8
Unknown Area Type
  0
TEXT
  8
Unknown Area Type
 62
7
  1
PNOA-H_AMS_1956-57_33k_ES_PAN_2
 40
0.00045
  10
-5.28780130167079
  20
42.83326684346929
  0
POLYLINE
  8
Unknown Area Type
  70
9
  66
1
  0
VERTEX
  8
Unknown Area Type
  70
32
  10
-5.28800208361245
  20
42.83333350000005
  30
1144.976
  0
VERTEX
  8
Unknown Area Type
  70
32
  10
-5.28760590617372
  20
42.83333350000005
  30
1146.908
  0
VERTEX
  8
Unknown Area Type
  70
32
  10
-5.28760590005963
  20
42.83333333333339
  30
1146.909
  0
VERTEX
  8
Unknown Area Type
  70
32
  10
-5.28800158158126
  20
42.83333333333339
  30
1144.979
  0
SEQEND
  8
Unknown Area Type
  0
TEXT
  8
Unknown Area Type
 62
7
  1
PNOA-H_AMS_1956-57_33k_ES_PAN_2
 40
0.00045
  10
-5.28780399183604
  20
42.83333341666672
  0
POLYLINE
  8
Unknown Area Type
  70
9
  66
1
  0
VERTEX
  8
Unknown Area Type
  70
32
  10
-5.28760590005963
  20
42.83333333333339
  30
1146.909
  0
VERTEX
  8
Unknown Area Type
  70
32
  10
-5.28760102176032
  20
42.8332003536052
  30
1147.271
  0
VERTEX
  8
Unknown Area Type
  70
32
  10
-5.28800158158126
  20
42.83333333333339
  30
1144.979
  0
SEQEND
  8
Unknown Area Type
  0
TEXT
  8
Unknown Area Type
 62
7
  1
PNOA-H_AMS_1956-57_33k_ES_PAN_2
 40
0.00045
  10
-5.28780130167079
  20
42.83326684346929
  0
POLYLINE
  8
Unknown Area Type
  70
9
  66
1
  0
VERTEX
  8
Unknown Area Type
  70
32
  10
-5.37856992851766
  20
42.82099482274165
  30
1256.929
  0
VERTEX
  8
Unknown Area Type
  70
32
  10
-5.37270890024259
  20
42.83333333333339
  30
1223.903
  0
VERTEX
  8
Unknown Area Type
  70
32
  10
-5.35416666666669
  20
42.83333333333339
  30
1057.64
  0
VERTEX
  8
Unknown Area Type
  70
32
  10
-5.35248479781311
  20
42.83333333333339
  30
1058.41
  0
VERTEX
  8
Unknown Area Type
  70
32
  10
-5.35037361766861
  20
42.8201726306033
  30
1096.94
  0
VERTEX
  8
Unknown Area Type
  70
32
  10
-5.35470957596752
  20
42.8183905998511
  30
1168.415
  0
VERTEX
  8
Unknown Area Type
  70
32
  10
-5.3784802738625
  20
42.82041137589837
  30
1247.642
  0
VERTEX
  8
Unknown Area Type
  70
32
  10
-5.37851100278711
  20
42.82041523963623
  30
1247.279
  0
SEQEND
  8
Unknown Area Type
  0
TEXT
  8
Unknown Area Type
 62
7
  1
PNOA-H_AMS_1956-57_33k_ES_PAN_2
 40
0.00045
  10
-5.36303886893032
  20
42.83052347653751
  0
POLYLINE
  8
Unknown Area Type
  70
9
  66
1
  0
VERTEX
  8
Unknown Area Type
  70
32
  10
-5.37270882107274
  20
42.83333350000005
  30
1223.903
  0
VERTEX
  8
Unknown Area Type
  70
32
  10
-5.35248482454902
  20
42.83333350000005
  30
1058.41
  0
VERTEX
  8
Unknown Area Type
  70
32
  10
-5.35248479781311
  20
42.83333333333339
  30
1058.41
  0
VERTEX
  8
Unknown Area Type
  70
32
  10
-5.35416666666669
  20
42.83333333333339
  30
1057.64
  0
VERTEX
  8
Unknown Area Type
  70
32
  10
-5.37270890024259
  20
42.83333333333339
  30
1223.903
  0
SEQEND
  8
Unknown Area Type
  0
TEXT
  8
Unknown Area Type
 62
7
  1
PNOA-H_AMS_1956-57_33k_ES_PAN_2
 40
0.00045
  10
-5.36259684902785
  20
42.83333341666672
  0
POLYLINE
  8
Unknown Area Type
  70
9
  66
1
  0
VERTEX
  8
Unknown Area Type
  70
32
  10
-5.37856992851766
  20
42.82099482274165
  30
1256.929
  0
VERTEX
  8
Unknown Area Type
  70
32
  10
-5.37270890024259
  20
42.83333333333339
  30
1223.903
  0
VERTEX
  8
Unknown Area Type
  70
32
  10
-5.35416666666669
  20
42.83333333333339
  30
1057.64
  0
VERTEX
  8
Unknown Area Type
  70
32
  10
-5.35248479781311
  20
42.83333333333339
  30
1058.41
  0
VERTEX
  8
Unknown Area Type
  70
32
  10
-5.35037361766861
  20
42.8201726306033
  30
1096.94
  0
VERTEX
  8
Unknown Area Type
  70
32
  10
-5.35470957596752
  20
42.8183905998511
  30
1168.415
  0
VERTEX
  8
Unknown Area Type
  70
32
  10
-5.3784802738625
  20
42.82041137589837
  30
1247.642
  0
VERTEX
  8
Unknown Area Type
  70
32
  10
-5.37851100278711
  20
42.82041523963623
  30
1247.279
  0
SEQEND
  8
Unknown Area Type
  0
TEXT
  8
Unknown Area Type
 62
7
  1
PNOA-H_AMS_1956-57_33k_ES_PAN_2
 40
0.00045
  10
-5.36303886893032
  20
42.83052347653751
  0
POLYLINE
  8
Unknown Area Type
  70
9
  66
1
  0
VERTEX
  8
Unknown Area Type
  70
32
  10
-5.40822485929006
  20
42.83053649050844
  30
987.671
  0
VERTEX
  8
Unknown Area Type
  70
32
  10
-5.40614378086831
  20
42.83333333333339
  30
1004.628
  0
VERTEX
  8
Unknown Area Type
  70
32
  10
-5.39583333333332
  20
42.83333333333339
  30
1106.979
  0
VERTEX
  8
Unknown Area Type
  70
32
  10
-5.38393504956861
  20
42.83333333333339
  30
1242.941
  0
VERTEX
  8
Unknown Area Type
  70
32
  10
-5.37857010106338
  20
42.82099932154132
  30
1256.887
  0
VERTEX
  8
Unknown Area Type
  70
32
  10
-5.37851428101494
  20
42.82050071684151
  30
1249.058
  0
VERTEX
  8
Unknown Area Type
  70
32
  10
-5.37851100278711
  20
42.82041523963623
  30
1247.279
  0
VERTEX
  8
Unknown Area Type
  70
32
  10
-5.37854698029047
  20
42.82039648234959
  30
1245.825
  0
VERTEX
  8
Unknown Area Type
  70
32
  10
-5.38636098166545
  20
42.8171541794818
  30
1230.356
  0
VERTEX
  8
Unknown Area Type
  70
32
  10
-5.4068016038341
  20
42.81924295646105
  30
977.057
  0
SEQEND
  8
Unknown Area Type
  0
TEXT
  8
Unknown Area Type
 62
7
  1
PNOA-H_AMS_1956-57_33k_ES_PAN_2
 40
0.00045
  10
-5.39510067018366
  20
42.82921188900591
  0
POLYLINE
  8
Unknown Area Type
  70
9
  66
1
  0
VERTEX
  8
Unknown Area Type
  70
32
  10
-5.40614365685476
  20
42.83333350000005
  30
1004.628
  0
VERTEX
  8
Unknown Area Type
  70
32
  10
-5.38393512206392
  20
42.83333350000005
  30
1242.941
  0
VERTEX
  8
Unknown Area Type
  70
32
  10
-5.38393504956861
  20
42.83333333333339
  30
1242.941
  0
VERTEX
  8
Unknown Area Type
  70
32
  10
-5.39583333333332
  20
42.83333333333339
  30
1106.979
  0
VERTEX
  8
Unknown Area Type
  70
32
  10
-5.40614378086831
  20
42.83333333333339
  30
1004.628
  0
SEQEND
  8
Unknown Area Type
  0
TEXT
  8
Unknown Area Type
 62
7
  1
PNOA-H_AMS_1956-57_33k_ES_PAN_2
 40
0.00045
  10
-5.39503941521846
  20
42.83333341666672
  0
POLYLINE
  8
Unknown Area Type
  70
9
  66
1
  0
VERTEX
  8
Unknown Area Type
  70
32
  10
-5.40822485929006
  20
42.83053649050844
  30
987.671
  0
VERTEX
  8
Unknown Area Type
  70
32
  10
-5.40614378086831
  20
42.83333333333339
  30
1004.628
  0
VERTEX
  8
Unknown Area Type
  70
32
  10
-5.39583333333332
  20
42.83333333333339
  30
1106.979
  0
VERTEX
  8
Unknown Area Type
  70
32
  10
-5.38393504956861
  20
42.83333333333339
  30
1242.941
  0
VERTEX
  8
Unknown Area Type
  70
32
  10
-5.37857010106338
  20
42.82099932154132
  30
1256.887
  0
VERTEX
  8
Unknown Area Type
  70
32
  10
-5.37851428101494
  20
42.82050071684151
  30
1249.058
  0
VERTEX
  8
Unknown Area Type
  70
32
  10
-5.37851100278711
  20
42.82041523963623
  30
1247.279
  0
VERTEX
  8
Unknown Area Type
  70
32
  10
-5.37854698029047
  20
42.82039648234959
  30
1245.825
  0
VERTEX
  8
Unknown Area Type
  70
32
  10
-5.38636098166545
  20
42.8171541794818
  30
1230.356
  0
VERTEX
  8
Unknown Area Type
  70
32
  10
-5.4068016038341
  20
42.81924295646105
  30
977.057
  0
SEQEND
  8
Unknown Area Type
  0
TEXT
  8
Unknown Area Type
 62
7
  1
PNOA-H_AMS_1956-57_33k_ES_PAN_2
 40
0.00045
  10
-5.39510067018366
  20
42.82921188900591
  0
POLYLINE
  8
Unknown Area Type
  70
9
  66
1
  0
VERTEX
  8
Unknown Area Type
  70
32
  10
-5.33965916219488
  20
42.83333333333339
  30
978.358
  0
VERTEX
  8
Unknown Area Type
  70
32
  10
-5.32174633347935
  20
42.83333333333339
  30
953.773
  0
VERTEX
  8
Unknown Area Type
  70
32
  10
-5.3223124262255
  20
42.8203267641559
  30
952.797
  0
VERTEX
  8
Unknown Area Type
  70
32
  10
-5.32284742037985
  20
42.82007727968853
  30
949.667
  0
VERTEX
  8
Unknown Area Type
  70
32
  10
-5.32295725866011
  20
42.82007054790466
  30
949.121
  0
VERTEX
  8
Unknown Area Type
  70
32
  10
-5.34089194012354
  20
42.82061459701479
  30
970.046
  0
SEQEND
  8
Unknown Area Type
  0
TEXT
  8
Unknown Area Type
 62
7
  1
PNOA-H_AMS_1956-57_33k_ES_PAN_2
 40
0.00045
  10
-5.33131913680144
  20
42.82670194061902
  0
POLYLINE
  8
Unknown Area Type
  70
9
  66
1
  0
VERTEX
  8
Unknown Area Type
  70
32
  10
-5.33965914604052
  20
42.83333350000005
  30
978.358
  0
VERTEX
  8
Unknown Area Type
  70
32
  10
-5.32174632622541
  20
42.83333350000005
  30
953.773
  0
VERTEX
  8
Unknown Area Type
  70
32
  10
-5.32174633347935
  20
42.83333333333339
  30
953.773
  0
VERTEX
  8
Unknown Area Type
  70
32
  10
-5.33965916219488
  20
42.83333333333339
  30
978.358
  0
SEQEND
  8
Unknown Area Type
  0
TEXT
  8
Unknown Area Type
 62
7
  1
PNOA-H_AMS_1956-57_33k_ES_PAN_2
 40
0.00045
  10
-5.33070274421015
  20
42.83333341666672
  0
POLYLINE
  8
Unknown Area Type
  70
9
  66
1
  0
VERTEX
  8
Unknown Area Type
  70
32
  10
-5.33965916219488
  20
42.83333333333339
  30
978.358
  0
VERTEX
  8
Unknown Area Type
  70
32
  10
-5.32174633347935
  20
42.83333333333339
  30
953.773
  0
VERTEX
  8
Unknown Area Type
  70
32
  10
-5.3223124262255
  20
42.8203267641559
  30
952.797
  0
VERTEX
  8
Unknown Area Type
  70
32
  10
-5.32284742037985
  20
42.82007727968853
  30
949.667
  0
VERTEX
  8
Unknown Area Type
  70
32
  10
-5.32295725866011
  20
42.82007054790466
  30
949.121
  0
VERTEX
  8
Unknown Area Type
  70
32
  10
-5.34089194012354
  20
42.82061459701479
  30
970.046
  0
SEQEND
  8
Unknown Area Type
  0
TEXT
  8
Unknown Area Type
 62
7
  1
PNOA-H_AMS_1956-57_33k_ES_PAN_2
 40
0.00045
  10
-5.33131913680144
  20
42.82670194061902
  0
POLYLINE
  8
Unknown Area Type
  70
9
  66
1
  0
VERTEX
  8
Unknown Area Type
  70
32
  10
-5.43565990164749
  20
42.83333333333339
  30
1199.17
  0
VERTEX
  8
Unknown Area Type
  70
32
  10
-5.41143616584398
  20
42.83333333333339
  30
1048.474
  0
VERTEX
  8
Unknown Area Type
  70
32
  10
-5.40824371998178
  20
42.83054960072044
  30
987.681
  0
VERTEX
  8
Unknown Area Type
  70
32
  10
-5.40822468453614
  20
42.83053199181381
  30
987.66
  0
VERTEX
  8
Unknown Area Type
  70
32
  10
-5.40821612585022
  20
42.83046913871141
  30
987.557
  0
VERTEX
  8
Unknown Area Type
  70
32
  10
-5.4068016038341
  20
42.81924295646105
  30
977.057
  0
VERTEX
  8
Unknown Area Type
  70
32
  10
-5.41798620390726
  20
42.81543680153766
  30
1069.889
  0
VERTEX
  8
Unknown Area Type
  70
32
  10
-5.41802286757121
  20
42.81543602688328
  30
1069.586
  0
VERTEX
  8
Unknown Area Type
  70
32
  10
-5.44377004017514
  20
42.82056661013731
  30
1177.919
  0
SEQEND
  8
Unknown Area Type
  0
TEXT
  8
Unknown Area Type
 62
7
  1
PNOA-H_AMS_1956-57_33k_ES_PAN_2
 40
0.00045
  10
-5.42332407645045
  20
42.82859622166633
  0
POLYLINE
  8
Unknown Area Type
  70
9
  66
1
  0
VERTEX
  8
Unknown Area Type
  70
32
  10
-5.43565979577148
  20
42.83333350000005
  30
1199.17
  0
VERTEX
  8
Unknown Area Type
  70
32
  10
-5.41143635698099
  20
42.83333350000005
  30
1048.477
  0
VERTEX
  8
Unknown Area Type
  70
32
  10
-5.41143616584398
  20
42.83333333333339
  30
1048.474
  0
VERTEX
  8
Unknown Area Type
  70
32
  10
-5.43565990164749
  20
42.83333333333339
  30
1199.17
  0
SEQEND
  8
Unknown Area Type
  0
TEXT
  8
Unknown Area Type
 62
7
  1
PNOA-H_AMS_1956-57_33k_ES_PAN_2
 40
0.00045
  10
-5.42354803374574
  20
42.83333341666672
  0
POLYLINE
  8
Unknown Area Type
  70
9
  66
1
  0
VERTEX
  8
Unknown Area Type
  70
32
  10
-5.43565990164749
  20
42.83333333333339
  30
1199.17
  0
VERTEX
  8
Unknown Area Type
  70
32
  10
-5.41143616584398
  20
42.83333333333339
  30
1048.474
  0
VERTEX
  8
Unknown Area Type
  70
32
  10
-5.40824371998178
  20
42.83054960072044
  30
987.681
  0
VERTEX
  8
Unknown Area Type
  70
32
  10
-5.40822468453614
  20
42.83053199181381
  30
987.66
  0
VERTEX
  8
Unknown Area Type
  70
32
  10
-5.40821612585022
  20
42.83046913871141
  30
987.557
  0
VERTEX
  8
Unknown Area Type
  70
32
  10
-5.4068016038341
  20
42.81924295646105
  30
977.057
  0
VERTEX
  8
Unknown Area Type
  70
32
  10
-5.41798620390726
  20
42.81543680153766
  30
1069.889
  0
VERTEX
  8
Unknown Area Type
  70
32
  10
-5.41802286757121
  20
42.81543602688328
  30
1069.586
  0
VERTEX
  8
Unknown Area Type
  70
32
  10
-5.44377004017514
  20
42.82056661013731
  30
1177.919
  0
SEQEND
  8
Unknown Area Type
  0
TEXT
  8
Unknown Area Type
 62
7
  1
PNOA-H_AMS_1956-57_33k_ES_PAN_2
 40
0.00045
  10
-5.42332407645045
  20
42.82859622166633
  0
POLYLINE
  8
Unknown Area Type
  70
9
  66
1
  0
VERTEX
  8
Unknown Area Type
  70
32
  10
-5.50001153852729
  20
42.83203489771643
  30
1153.116
  0
VERTEX
  8
Unknown Area Type
  70
32
  10
-5.49734309531
  20
42.83333333333339
  30
1154.652
  0
VERTEX
  8
Unknown Area Type
  70
32
  10
-5.47916666666666
  20
42.83333333333339
  30
1184.547
  0
VERTEX
  8
Unknown Area Type
  70
32
  10
-5.46970556755904
  20
42.83333333333339
  30
1206.578
  0
VERTEX
  8
Unknown Area Type
  70
32
  10
-5.45820742507431
  20
42.82342706223977
  30
1253.228
  0
VERTEX
  8
Unknown Area Type
  70
32
  10
-5.45788609205721
  20
42.82272709310398
  30
1233.623
  0
VERTEX
  8
Unknown Area Type
  70
32
  10
-5.49941507453815
  20
42.81981954037042
  30
1044.681
  0
SEQEND
  8
Unknown Area Type
  0
TEXT
  8
Unknown Area Type
 62
7
  1
PNOA-H_AMS_1956-57_33k_ES_PAN_2
 40
0.00045
  10
-5.48340284944341
  20
42.83087232041819
  0
POLYLINE
  8
Unknown Area Type
  70
9
  66
1
  0
VERTEX
  8
Unknown Area Type
  70
32
  10
-5.49734275278971
  20
42.83333350000005
  30
1154.652
  0
VERTEX
  8
Unknown Area Type
  70
32
  10
-5.46970576100792
  20
42.83333350000005
  30
1206.578
  0
VERTEX
  8
Unknown Area Type
  70
32
  10
-5.46970556755904
  20
42.83333333333339
  30
1206.578
  0
VERTEX
  8
Unknown Area Type
  70
32
  10
-5.47916666666666
  20
42.83333333333339
  30
1184.547
  0
VERTEX
  8
Unknown Area Type
  70
32
  10
-5.49734309531
  20
42.83333333333339
  30
1154.652
  0
SEQEND
  8
Unknown Area Type
  0
TEXT
  8
Unknown Area Type
 62
7
  1
PNOA-H_AMS_1956-57_33k_ES_PAN_2
 40
0.00045
  10
-5.48352433143452
  20
42.83333341666672
  0
POLYLINE
  8
Unknown Area Type
  70
9
  66
1
  0
VERTEX
  8
Unknown Area Type
  70
32
  10
-5.50001153852729
  20
42.83203489771643
  30
1153.116
  0
VERTEX
  8
Unknown Area Type
  70
32
  10
-5.49734309531
  20
42.83333333333339
  30
1154.652
  0
VERTEX
  8
Unknown Area Type
  70
32
  10
-5.47916666666666
  20
42.83333333333339
  30
1184.547
  0
VERTEX
  8
Unknown Area Type
  70
32
  10
-5.46970556755904
  20
42.83333333333339
  30
1206.578
  0
VERTEX
  8
Unknown Area Type
  70
32
  10
-5.45820742507431
  20
42.82342706223977
  30
1253.228
  0
VERTEX
  8
Unknown Area Type
  70
32
  10
-5.45788609205721
  20
42.82272709310398
  30
1233.623
  0
VERTEX
  8
Unknown Area Type
  70
32
  10
-5.49941507453815
  20
42.81981954037042
  30
1044.681
  0
SEQEND
  8
Unknown Area Type
  0
TEXT
  8
Unknown Area Type
 62
7
  1
PNOA-H_AMS_1956-57_33k_ES_PAN_2
 40
0.00045
  10
-5.48340284944341
  20
42.83087232041819
  0
POLYLINE
  8
Unknown Area Type
  70
9
  66
1
  0
VERTEX
  8
Unknown Area Type
  70
32
  10
-5.52083333333329
  20
42.83333333333339
  30
1000.444
  0
VERTEX
  8
Unknown Area Type
  70
32
  10
-5.50342027736722
  20
42.83333333333339
  30
1076.634
  0
VERTEX
  8
Unknown Area Type
  70
32
  10
-5.50235384435348
  20
42.83292919397896
  30
1083.397
  0
VERTEX
  8
Unknown Area Type
  70
32
  10
-5.5023414388662
  20
42.83292496291041
  30
1083.651
  0
VERTEX
  8
Unknown Area Type
  70
32
  10
-5.50003689311225
  20
42.83205685552753
  30
1152.461
  0
VERTEX
  8
Unknown Area Type
  70
32
  10
-5.50001153852729
  20
42.83203489771643
  30
1153.116
  0
VERTEX
  8
Unknown Area Type
  70
32
  10
-5.49941507453815
  20
42.81981954037042
  30
1044.681
  0
VERTEX
  8
Unknown Area Type
  70
32
  10
-5.50264892771654
  20
42.81675029464182
  30
990.224
  0
VERTEX
  8
Unknown Area Type
  70
32
  10
-5.5078589563822
  20
42.81492083866839
  30
965.16
  0
VERTEX
  8
Unknown Area Type
  70
32
  10
-5.50790118176012
  20
42.81490640623154
  30
965.157
  0
VERTEX
  8
Unknown Area Type
  70
32
  10
-5.50795617306617
  20
42.81490520107546
  30
965.168
  0
VERTEX
  8
Unknown Area Type
  70
32
  10
-5.52083333333329
  20
42.81597484196031
  30
1069.483
  0
SEQEND
  8
Unknown Area Type
  0
TEXT
  8
Unknown Area Type
 62
7
  1
PNOA-H_AMS_1956-57_33k_ES_PAN_2
 40
0.00045
  10
-5.51584678320602
  20
42.8268243861943
  0
POLYLINE
  8
Unknown Area Type
  70
9
  66
1
  0
VERTEX
  8
Unknown Area Type
  70
32
  10
-5.52083366666662
  20
42.83333350000005
  30
1000.445
  0
VERTEX
  8
Unknown Area Type
  70
32
  10
-5.52083333333329
  20
42.83333350000005
  30
1000.444
  0
VERTEX
  8
Unknown Area Type
  70
32
  10
-5.52083333333329
  20
42.83333333333339
  30
1000.444
  0
VERTEX
  8
Unknown Area Type
  70
32
  10
-5.52083366666662
  20
42.83333333333339
  30
1000.445
  0
SEQEND
  8
Unknown Area Type
  0
TEXT
  8
Unknown Area Type
 62
7
  1
PNOA-H_AMS_1956-57_33k_ES_PAN_2
 40
0.00045
  10
-5.52083349999996
  20
42.83333341666672
  0
POLYLINE
  8
Unknown Area Type
  70
9
  66
1
  0
VERTEX
  8
Unknown Area Type
  70
32
  10
-5.52083333333329
  20
42.83333350000005
  30
1000.444
  0
VERTEX
  8
Unknown Area Type
  70
32
  10
-5.50342071716313
  20
42.83333350000005
  30
1076.631
  0
VERTEX
  8
Unknown Area Type
  70
32
  10
-5.50342027736722
  20
42.83333333333339
  30
1076.634
  0
VERTEX
  8
Unknown Area Type
  70
32
  10
-5.52083333333329
  20
42.83333333333339
  30
1000.444
  0
SEQEND
  8
Unknown Area Type
  0
TEXT
  8
Unknown Area Type
 62
7
  1
PNOA-H_AMS_1956-57_33k_ES_PAN_2
 40
0.00045
  10
-5.51212680535026
  20
42.83333341666672
  0
POLYLINE
  8
Unknown Area Type
  70
9
  66
1
  0
VERTEX
  8
Unknown Area Type
  70
32
  10
-5.52083366666662
  20
42.83333333333339
  30
1000.445
  0
VERTEX
  8
Unknown Area Type
  70
32
  10
-5.52083333333329
  20
42.83333333333339
  30
1000.444
  0
VERTEX
  8
Unknown Area Type
  70
32
  10
-5.52083333333329
  20
42.81597484196031
  30
1069.483
  0
VERTEX
  8
Unknown Area Type
  70
32
  10
-5.52083366666662
  20
42.81597486964863
  30
1069.485
  0
SEQEND
  8
Unknown Area Type
  0
TEXT
  8
Unknown Area Type
 62
7
  1
PNOA-H_AMS_1956-57_33k_ES_PAN_2
 40
0.00045
  10
-5.52083349999996
  20
42.82465408764685
  0
POLYLINE
  8
Unknown Area Type
  70
9
  66
1
  0
VERTEX
  8
Unknown Area Type
  70
32
  10
-5.52083333333329
  20
42.83333333333339
  30
1000.444
  0
VERTEX
  8
Unknown Area Type
  70
32
  10
-5.50342027736722
  20
42.83333333333339
  30
1076.634
  0
VERTEX
  8
Unknown Area Type
  70
32
  10
-5.50235384435348
  20
42.83292919397896
  30
1083.397
  0
VERTEX
  8
Unknown Area Type
  70
32
  10
-5.5023414388662
  20
42.83292496291041
  30
1083.651
  0
VERTEX
  8
Unknown Area Type
  70
32
  10
-5.50003689311225
  20
42.83205685552753
  30
1152.461
  0
VERTEX
  8
Unknown Area Type
  70
32
  10
-5.50001153852729
  20
42.83203489771643
  30
1153.116
  0
VERTEX
  8
Unknown Area Type
  70
32
  10
-5.49941507453815
  20
42.81981954037042
  30
1044.681
  0
VERTEX
  8
Unknown Area Type
  70
32
  10
-5.50264892771654
  20
42.81675029464182
  30
990.224
  0
VERTEX
  8
Unknown Area Type
  70
32
  10
-5.5078589563822
  20
42.81492083866839
  30
965.16
  0
VERTEX
  8
Unknown Area Type
  70
32
  10
-5.50790118176012
  20
42.81490640623154
  30
965.157
  0
VERTEX
  8
Unknown Area Type
  70
32
  10
-5.50795617306617
  20
42.81490520107546
  30
965.168
  0
VERTEX
  8
Unknown Area Type
  70
32
  10
-5.52083333333329
  20
42.81597484196031
  30
1069.483
  0
SEQEND
  8
Unknown Area Type
  0
TEXT
  8
Unknown Area Type
 62
7
  1
PNOA-H_AMS_1956-57_33k_ES_PAN_2
 40
0.00045
  10
-5.51584678320602
  20
42.8268243861943
  0
POLYLINE
  8
Unknown Area Type
  70
9
  66
1
  0
VERTEX
  8
Unknown Area Type
  70
32
  10
-5.52083333333329
  20
42.75000000000004
  30
941.628
  0
VERTEX
  8
Unknown Area Type
  70
32
  10
-5.52083333333329
  20
42.77083333333336
  30
1051.047
  0
VERTEX
  8
Unknown Area Type
  70
32
  10
-5.52083333333329
  20
42.77809144579062
  30
1051.719
  0
VERTEX
  8
Unknown Area Type
  70
32
  10
-5.51797656197746
  20
42.77821149640926
  30
1058.021
  0
VERTEX
  8
Unknown Area Type
  70
32
  10
-5.51775080421969
  20
42.77822096551228
  30
1062.543
  0
VERTEX
  8
Unknown Area Type
  70
32
  10
-5.50995302810875
  20
42.77779342839809
  30
943.285
  0
VERTEX
  8
Unknown Area Type
  70
32
  10
-5.50907892852202
  20
42.7774884235976
  30
937.198
  0
VERTEX
  8
Unknown Area Type
  70
32
  10
-5.50907765640855
  20
42.77745693482711
  30
937.157
  0
VERTEX
  8
Unknown Area Type
  70
32
  10
-5.51558977323521
  20
42.73798109601149
  30
904.303
  0
VERTEX
  8
Unknown Area Type
  70
32
  10
-5.51669589522009
  20
42.73754255918234
  30
906.406
  0
VERTEX
  8
Unknown Area Type
  70
32
  10
-5.51670810022592
  20
42.73754229082188
  30
906.409
  0
VERTEX
  8
Unknown Area Type
  70
32
  10
-5.51678588111541
  20
42.73765314064676
  30
906.324
  0
VERTEX
  8
Unknown Area Type
  70
32
  10
-5.52083333333329
  20
42.74363326225451
  30
926.729
  0
SEQEND
  8
Unknown Area Type
  0
TEXT
  8
Unknown Area Type
 62
7
  1
PNOA-H_AMS_1956-57_33k_ES_PAN_2
 40
0.00045
  10
-5.51495549487092
  20
42.75788162816708
  0
POLYLINE
  8
Unknown Area Type
  70
9
  66
1
  0
VERTEX
  8
Unknown Area Type
  70
32
  10
-5.52083366666662
  20
42.7780914317829
  30
1051.718
  0
VERTEX
  8
Unknown Area Type
  70
32
  10
-5.52083333333329
  20
42.77809144579062
  30
1051.719
  0
VERTEX
  8
Unknown Area Type
  70
32
  10
-5.52083333333329
  20
42.77083333333336
  30
1051.047
  0
VERTEX
  8
Unknown Area Type
  70
32
  10
-5.52083333333329
  20
42.75000000000004
  30
941.628
  0
VERTEX
  8
Unknown Area Type
  70
32
  10
-5.52083333333329
  20
42.74363326225451
  30
926.729
  0
VERTEX
  8
Unknown Area Type
  70
32
  10
-5.52083366666662
  20
42.74363375475541
  30
926.73
  0
SEQEND
  8
Unknown Area Type
  0
TEXT
  8
Unknown Area Type
 62
7
  1
PNOA-H_AMS_1956-57_33k_ES_PAN_2
 40
0.00045
  10
-5.52083349999996
  20
42.76086235402256
  0
POLYLINE
  8
Unknown Area Type
  70
9
  66
1
  0
VERTEX
  8
Unknown Area Type
  70
32
  10
-5.52083333333329
  20
42.75000000000004
  30
941.628
  0
VERTEX
  8
Unknown Area Type
  70
32
  10
-5.52083333333329
  20
42.77083333333336
  30
1051.047
  0
VERTEX
  8
Unknown Area Type
  70
32
  10
-5.52083333333329
  20
42.77809144579062
  30
1051.719
  0
VERTEX
  8
Unknown Area Type
  70
32
  10
-5.51797656197746
  20
42.77821149640926
  30
1058.021
  0
VERTEX
  8
Unknown Area Type
  70
32
  10
-5.51775080421969
  20
42.77822096551228
  30
1062.543
  0
VERTEX
  8
Unknown Area Type
  70
32
  10
-5.50995302810875
  20
42.77779342839809
  30
943.285
  0
VERTEX
  8
Unknown Area Type
  70
32
  10
-5.50907892852202
  20
42.7774884235976
  30
937.198
  0
VERTEX
  8
Unknown Area Type
  70
32
  10
-5.50907765640855
  20
42.77745693482711
  30
937.157
  0
VERTEX
  8
Unknown Area Type
  70
32
  10
-5.51558977323521
  20
42.73798109601149
  30
904.303
  0
VERTEX
  8
Unknown Area Type
  70
32
  10
-5.51669589522009
  20
42.73754255918234
  30
906.406
  0
VERTEX
  8
Unknown Area Type
  70
32
  10
-5.51670810022592
  20
42.73754229082188
  30
906.409
  0
VERTEX
  8
Unknown Area Type
  70
32
  10
-5.51678588111541
  20
42.73765314064676
  30
906.324
  0
VERTEX
  8
Unknown Area Type
  70
32
  10
-5.52083333333329
  20
42.74363326225451
  30
926.729
  0
SEQEND
  8
Unknown Area Type
  0
TEXT
  8
Unknown Area Type
 62
7
  1
PNOA-H_AMS_1956-57_33k_ES_PAN_2
 40
0.00045
  10
-5.51495549487092
  20
42.75788162816708
  0
POLYLINE
  8
Unknown Area Type
  70
9
  66
1
  0
VERTEX
  8
Unknown Area Type
  70
32
  10
-5.50016177285153
  20
42.7774899672672
  30
951.795
  0
VERTEX
  8
Unknown Area Type
  70
32
  10
-5.47958244647668
  20
42.77885166179381
  30
1076.88
  0
VERTEX
  8
Unknown Area Type
  70
32
  10
-5.47945995266182
  20
42.7788453108278
  30
1076.225
  0
VERTEX
  8
Unknown Area Type
  70
32
  10
-5.47829555110694
  20
42.77846081358229
  30
1082.671
  0
VERTEX
  8
Unknown Area Type
  70
32
  10
-5.48175945780554
  20
42.73710775087139
  30
1089.992
  0
VERTEX
  8
Unknown Area Type
  70
32
  10
-5.48176986804877
  20
42.73706250102384
  30
1089.326
  0
VERTEX
  8
Unknown Area Type
  70
32
  10
-5.48268974163715
  20
42.73669586669831
  30
1094.983
  0
VERTEX
  8
Unknown Area Type
  70
32
  10
-5.4895543723685
  20
42.73774890944813
  30
1093.493
  0
VERTEX
  8
Unknown Area Type
  70
32
  10
-5.48956101522103
  20
42.73776227219598
  30
1093.535
  0
VERTEX
  8
Unknown Area Type
  70
32
  10
-5.50367258259137
  20
42.77725113282003
  30
935.217
  0
VERTEX
  8
Unknown Area Type
  70
32
  10
-5.50026540227731
  20
42.77748320101873
  30
952.3
  0
VERTEX
  8
Unknown Area Type
  70
32
  10
-5.50016177285153
  20
42.7774899672672
  30
951.795
  0
SEQEND
  8
Unknown Area Type
  0
TEXT
  8
Unknown Area Type
 62
7
  1
PNOA-H_AMS_1956-57_33k_ES_PAN_2
 40
0.00045
  10
-5.49098399695366
  20
42.75991947028339
  0
POLYLINE
  8
Unknown Area Type
  70
9
  66
1
  0
VERTEX
  8
Unknown Area Type
  70
32
  10
-5.50016177285153
  20
42.7774899672672
  30
951.795
  0
VERTEX
  8
Unknown Area Type
  70
32
  10
-5.47958244647668
  20
42.77885166179381
  30
1076.88
  0
VERTEX
  8
Unknown Area Type
  70
32
  10
-5.47945995266182
  20
42.7788453108278
  30
1076.225
  0
VERTEX
  8
Unknown Area Type
  70
32
  10
-5.47829555110694
  20
42.77846081358229
  30
1082.671
  0
VERTEX
  8
Unknown Area Type
  70
32
  10
-5.48175945780554
  20
42.73710775087139
  30
1089.992
  0
VERTEX
  8
Unknown Area Type
  70
32
  10
-5.48176986804877
  20
42.73706250102384
  30
1089.326
  0
VERTEX
  8
Unknown Area Type
  70
32
  10
-5.48268974163715
  20
42.73669586669831
  30
1094.983
  0
VERTEX
  8
Unknown Area Type
  70
32
  10
-5.4895543723685
  20
42.73774890944813
  30
1093.493
  0
VERTEX
  8
Unknown Area Type
  70
32
  10
-5.48956101522103
  20
42.73776227219598
  30
1093.535
  0
VERTEX
  8
Unknown Area Type
  70
32
  10
-5.50367258259137
  20
42.77725113282003
  30
935.217
  0
VERTEX
  8
Unknown Area Type
  70
32
  10
-5.50026540227731
  20
42.77748320101873
  30
952.3
  0
VERTEX
  8
Unknown Area Type
  70
32
  10
-5.50016177285153
  20
42.7774899672672
  30
951.795
  0
SEQEND
  8
Unknown Area Type
  0
TEXT
  8
Unknown Area Type
 62
7
  1
PNOA-H_AMS_1956-57_33k_ES_PAN_2
 40
0.00045
  10
-5.49098399695366
  20
42.75991947028339
  0
POLYLINE
  8
Unknown Area Type
  70
9
  66
1
  0
VERTEX
  8
Unknown Area Type
  70
32
  10
-5.46974137739974
  20
42.80818134064681
  30
1226.105
  0
VERTEX
  8
Unknown Area Type
  70
32
  10
-5.4801339600205
  20
42.79832151246168
  30
1154.747
  0
VERTEX
  8
Unknown Area Type
  70
32
  10
-5.48016989279888
  20
42.79830272424935
  30
1154.474
  0
VERTEX
  8
Unknown Area Type
  70
32
  10
-5.50264910923069
  20
42.81675479302881
  30
990.252
  0
VERTEX
  8
Unknown Area Type
  70
32
  10
-5.49945065073935
  20
42.81979174920613
  30
1044.608
  0
VERTEX
  8
Unknown Area Type
  70
32
  10
-5.49942118520682
  20
42.81981940690608
  30
1044.564
  0
VERTEX
  8
Unknown Area Type
  70
32
  10
-5.49938470249112
  20
42.81982470608307
  30
1045.145
  0
VERTEX
  8
Unknown Area Type
  70
32
  10
-5.45787998091005
  20
42.82272722435891
  30
1233.645
  0
VERTEX
  8
Unknown Area Type
  70
32
  10
-5.45586538754044
  20
42.82143327337707
  30
1222.577
  0
VERTEX
  8
Unknown Area Type
  70
32
  10
-5.45580878494544
  20
42.82139396677522
  30
1220.869
  0
VERTEX
  8
Unknown Area Type
  70
32
  10
-5.45581418337787
  20
42.82137584146273
  30
1220.369
  0
VERTEX
  8
Unknown Area Type
  70
32
  10
-5.46973562588881
  20
42.80819046951095
  30
1226.289
  0
VERTEX
  8
Unknown Area Type
  70
32
  10
-5.46974137739974
  20
42.80818134064681
  30
1226.105
  0
SEQEND
  8
Unknown Area Type
  0
TEXT
  8
Unknown Area Type
 62
7
  1
PNOA-H_AMS_1956-57_33k_ES_PAN_2
 40
0.00045
  10
-5.48116444036303
  20
42.81051359263769
  0
POLYLINE
  8
Unknown Area Type
  70
9
  66
1
  0
VERTEX
  8
Unknown Area Type
  70
32
  10
-5.46974137739974
  20
42.80818134064681
  30
1226.105
  0
VERTEX
  8
Unknown Area Type
  70
32
  10
-5.4801339600205
  20
42.79832151246168
  30
1154.747
  0
VERTEX
  8
Unknown Area Type
  70
32
  10
-5.48016989279888
  20
42.79830272424935
  30
1154.474
  0
VERTEX
  8
Unknown Area Type
  70
32
  10
-5.50264910923069
  20
42.81675479302881
  30
990.252
  0
VERTEX
  8
Unknown Area Type
  70
32
  10
-5.49945065073935
  20
42.81979174920613
  30
1044.608
  0
VERTEX
  8
Unknown Area Type
  70
32
  10
-5.49942118520682
  20
42.81981940690608
  30
1044.564
  0
VERTEX
  8
Unknown Area Type
  70
32
  10
-5.49938470249112
  20
42.81982470608307
  30
1045.145
  0
VERTEX
  8
Unknown Area Type
  70
32
  10
-5.45787998091005
  20
42.82272722435891
  30
1233.645
  0
VERTEX
  8
Unknown Area Type
  70
32
  10
-5.45586538754044
  20
42.82143327337707
  30
1222.577
  0
VERTEX
  8
Unknown Area Type
  70
32
  10
-5.45580878494544
  20
42.82139396677522
  30
1220.869
  0
VERTEX
  8
Unknown Area Type
  70
32
  10
-5.45581418337787
  20
42.82137584146273
  30
1220.369
  0
VERTEX
  8
Unknown Area Type
  70
32
  10
-5.46973562588881
  20
42.80819046951095
  30
1226.289
  0
VERTEX
  8
Unknown Area Type
  70
32
  10
-5.46974137739974
  20
42.80818134064681
  30
1226.105
  0
SEQEND
  8
Unknown Area Type
  0
TEXT
  8
Unknown Area Type
 62
7
  1
PNOA-H_AMS_1956-57_33k_ES_PAN_2
 40
0.00045
  10
-5.48116444036303
  20
42.81051359263769
  0
POLYLINE
  8
Unknown Area Type
  70
9
  66
1
  0
VERTEX
  8
Unknown Area Type
  70
32
  10
-5.5001600765163
  20
42.83333333333339
  30
1153.889
  0
VERTEX
  8
Unknown Area Type
  70
32
  10
-5.49733481921714
  20
42.83333333333339
  30
1157.146
  0
VERTEX
  8
Unknown Area Type
  70
32
  10
-5.4998853661953
  20
42.83209168231271
  30
1156.038
  0
VERTEX
  8
Unknown Area Type
  70
32
  10
-5.5000054266581
  20
42.83203503124271
  30
1153.289
  0
VERTEX
  8
Unknown Area Type
  70
32
  10
-5.5000239436863
  20
42.83203912904684
  30
1152.741
  0
VERTEX
  8
Unknown Area Type
  70
32
  10
-5.50003761879989
  20
42.83207484906303
  30
1152.517
  0
SEQEND
  8
Unknown Area Type
  0
TEXT
  8
Unknown Area Type
 62
7
  1
PNOA-H_AMS_1956-57_33k_ES_PAN_2
 40
0.00045
  10
-5.49874744786672
  20
42.83268418228805
  0
POLYLINE
  8
Unknown Area Type
  70
9
  66
1
  0
VERTEX
  8
Unknown Area Type
  70
32
  10
-5.50016009273392
  20
42.83333350000005
  30
1153.89
  0
VERTEX
  8
Unknown Area Type
  70
32
  10
-5.49733447685752
  20
42.83333350000005
  30
1157.147
  0
VERTEX
  8
Unknown Area Type
  70
32
  10
-5.49733481921714
  20
42.83333333333339
  30
1157.146
  0
VERTEX
  8
Unknown Area Type
  70
32
  10
-5.5001600765163
  20
42.83333333333339
  30
1153.889
  0
SEQEND
  8
Unknown Area Type
  0
TEXT
  8
Unknown Area Type
 62
7
  1
PNOA-H_AMS_1956-57_33k_ES_PAN_2
 40
0.00045
  10
-5.49874728479572
  20
42.83333341666672
  0
POLYLINE
  8
Unknown Area Type
  70
9
  66
1
  0
VERTEX
  8
Unknown Area Type
  70
32
  10
-5.5001600765163
  20
42.83333333333339
  30
1153.889
  0
VERTEX
  8
Unknown Area Type
  70
32
  10
-5.49733481921714
  20
42.83333333333339
  30
1157.146
  0
VERTEX
  8
Unknown Area Type
  70
32
  10
-5.4998853661953
  20
42.83209168231271
  30
1156.038
  0
VERTEX
  8
Unknown Area Type
  70
32
  10
-5.5000054266581
  20
42.83203503124271
  30
1153.289
  0
VERTEX
  8
Unknown Area Type
  70
32
  10
-5.5000239436863
  20
42.83203912904684
  30
1152.741
  0
VERTEX
  8
Unknown Area Type
  70
32
  10
-5.50003761879989
  20
42.83207484906303
  30
1152.517
  0
SEQEND
  8
Unknown Area Type
  0
TEXT
  8
Unknown Area Type
 62
7
  1
PNOA-H_AMS_1956-57_33k_ES_PAN_2
 40
0.00045
  10
-5.49874744786672
  20
42.83268418228805
  0
POLYLINE
  8
Unknown Area Type
  70
9
  66
1
  0
VERTEX
  8
Unknown Area Type
  70
32
  10
-5.46971431765993
  20
42.83333333333339
  30
1206.308
  0
VERTEX
  8
Unknown Area Type
  70
32
  10
-5.45641351539642
  20
42.83333333333339
  30
1244.823
  0
VERTEX
  8
Unknown Area Type
  70
32
  10
-5.45819484597798
  20
42.82341832772066
  30
1253.094
  0
VERTEX
  8
Unknown Area Type
  70
32
  10
-5.45820706840552
  20
42.82341806517346
  30
1253.195
  0
VERTEX
  8
Unknown Area Type
  70
32
  10
-5.45836537746325
  20
42.82355423773362
  30
1253.46
  0
SEQEND
  8
Unknown Area Type
  0
TEXT
  8
Unknown Area Type
 62
7
  1
PNOA-H_AMS_1956-57_33k_ES_PAN_2
 40
0.00045
  10
-5.46306391652818
  20
42.82837569925343
  0
POLYLINE
  8
Unknown Area Type
  70
9
  66
1
  0
VERTEX
  8
Unknown Area Type
  70
32
  10
-5.46971451108171
  20
42.83333350000005
  30
1206.307
  0
VERTEX
  8
Unknown Area Type
  70
32
  10
-5.45641348545308
  20
42.83333350000005
  30
1244.823
  0
VERTEX
  8
Unknown Area Type
  70
32
  10
-5.45641351539642
  20
42.83333333333339
  30
1244.823
  0
VERTEX
  8
Unknown Area Type
  70
32
  10
-5.46971431765993
  20
42.83333333333339
  30
1206.308
  0
SEQEND
  8
Unknown Area Type
  0
TEXT
  8
Unknown Area Type
 62
7
  1
PNOA-H_AMS_1956-57_33k_ES_PAN_2
 40
0.00045
  10
-5.46306399826739
  20
42.83333341666672
  0
POLYLINE
  8
Unknown Area Type
  70
9
  66
1
  0
VERTEX
  8
Unknown Area Type
  70
32
  10
-5.46971431765993
  20
42.83333333333339
  30
1206.308
  0
VERTEX
  8
Unknown Area Type
  70
32
  10
-5.45641351539642
  20
42.83333333333339
  30
1244.823
  0
VERTEX
  8
Unknown Area Type
  70
32
  10
-5.45819484597798
  20
42.82341832772066
  30
1253.094
  0
VERTEX
  8
Unknown Area Type
  70
32
  10
-5.45820706840552
  20
42.82341806517346
  30
1253.195
  0
VERTEX
  8
Unknown Area Type
  70
32
  10
-5.45836537746325
  20
42.82355423773362
  30
1253.46
  0
SEQEND
  8
Unknown Area Type
  0
TEXT
  8
Unknown Area Type
 62
7
  1
PNOA-H_AMS_1956-57_33k_ES_PAN_2
 40
0.00045
  10
-5.46306391652818
  20
42.82837569925343
  0
POLYLINE
  8
Unknown Area Type
  70
9
  66
1
  0
VERTEX
  8
Unknown Area Type
  70
32
  10
-5.50015517946391
  20
42.83333333333339
  30
1154
  0
VERTEX
  8
Unknown Area Type
  70
32
  10
-5.50003059981965
  20
42.83205249067131
  30
1152.614
  0
VERTEX
  8
Unknown Area Type
  70
32
  10
-5.5034145738857
  20
42.83333333333339
  30
1120.722
  0
SEQEND
  8
Unknown Area Type
  0
TEXT
  8
Unknown Area Type
 62
7
  1
PNOA-H_AMS_1956-57_33k_ES_PAN_2
 40
0.00045
  10
-5.50172258685267
  20
42.83269291200234
  0
POLYLINE
  8
Unknown Area Type
  70
9
  66
1
  0
VERTEX
  8
Unknown Area Type
  70
32
  10
-5.50341501421743
  20
42.83333350000005
  30
1120.718
  0
VERTEX
  8
Unknown Area Type
  70
32
  10
-5.50015519567454
  20
42.83333350000005
  30
1154
  0
VERTEX
  8
Unknown Area Type
  70
32
  10
-5.50015517946391
  20
42.83333333333339
  30
1154
  0
VERTEX
  8
Unknown Area Type
  70
32
  10
-5.5034145738857
  20
42.83333333333339
  30
1120.722
  0
SEQEND
  8
Unknown Area Type
  0
TEXT
  8
Unknown Area Type
 62
7
  1
PNOA-H_AMS_1956-57_33k_ES_PAN_2
 40
0.00045
  10
-5.50178509684067
  20
42.83333341666672
  0
POLYLINE
  8
Unknown Area Type
  70
9
  66
1
  0
VERTEX
  8
Unknown Area Type
  70
32
  10
-5.50015517946391
  20
42.83333333333339
  30
1154
  0
VERTEX
  8
Unknown Area Type
  70
32
  10
-5.50003059981965
  20
42.83205249067131
  30
1152.614
  0
VERTEX
  8
Unknown Area Type
  70
32
  10
-5.5034145738857
  20
42.83333333333339
  30
1120.722
  0
SEQEND
  8
Unknown Area Type
  0
TEXT
  8
Unknown Area Type
 62
7
  1
PNOA-H_AMS_1956-57_33k_ES_PAN_2
 40
0.00045
  10
-5.50172258685267
  20
42.83269291200234
  0
POLYLINE
  8
Unknown Area Type
  70
9
  66
1
  0
VERTEX
  8
Unknown Area Type
  70
32
  10
-5.41143827932531
  20
42.83333333333339
  30
1048.804
  0
VERTEX
  8
Unknown Area Type
  70
32
  10
-5.40613801865348
  20
42.83333333333339
  30
1004.473
  0
VERTEX
  8
Unknown Area Type
  70
32
  10
-5.40822468453614
  20
42.83053199181381
  30
987.66
  0
SEQEND
  8
Unknown Area Type
  0
TEXT
  8
Unknown Area Type
 62
7
  1
PNOA-H_AMS_1956-57_33k_ES_PAN_2
 40
0.00045
  10
-5.4087881489894
  20
42.83193266257359
  0
POLYLINE
  8
Unknown Area Type
  70
9
  66
1
  0
VERTEX
  8
Unknown Area Type
  70
32
  10
-5.41143847051912
  20
42.83333350000005
  30
1048.808
  0
VERTEX
  8
Unknown Area Type
  70
32
  10
-5.40613789450665
  20
42.83333350000005
  30
1004.474
  0
VERTEX
  8
Unknown Area Type
  70
32
  10
-5.40613801865348
  20
42.83333333333339
  30
1004.473
  0
VERTEX
  8
Unknown Area Type
  70
32
  10
-5.41143827932531
  20
42.83333333333339
  30
1048.804
  0
SEQEND
  8
Unknown Area Type
  0
TEXT
  8
Unknown Area Type
 62
7
  1
PNOA-H_AMS_1956-57_33k_ES_PAN_2
 40
0.00045
  10
-5.40878818251288
  20
42.83333341666672
  0
POLYLINE
  8
Unknown Area Type
  70
9
  66
1
  0
VERTEX
  8
Unknown Area Type
  70
32
  10
-5.41143827932531
  20
42.83333333333339
  30
1048.804
  0
VERTEX
  8
Unknown Area Type
  70
32
  10
-5.40613801865348
  20
42.83333333333339
  30
1004.473
  0
VERTEX
  8
Unknown Area Type
  70
32
  10
-5.40822468453614
  20
42.83053199181381
  30
987.66
  0
SEQEND
  8
Unknown Area Type
  0
TEXT
  8
Unknown Area Type
 62
7
  1
PNOA-H_AMS_1956-57_33k_ES_PAN_2
 40
0.00045
  10
-5.4087881489894
  20
42.83193266257359
  0
POLYLINE
  8
Unknown Area Type
  70
9
  66
1
  0
VERTEX
  8
Unknown Area Type
  70
32
  10
-5.32174633347934
  20
42.83333333333339
  30
953.773
  0
VERTEX
  8
Unknown Area Type
  70
32
  10
-5.31249999999997
  20
42.83333333333339
  30
1018.673
  0
VERTEX
  8
Unknown Area Type
  70
32
  10
-5.28799475600314
  20
42.83333333333339
  30
1144.93
  0
VERTEX
  8
Unknown Area Type
  70
32
  10
-5.28760730071493
  20
42.83320473049619
  30
1147.146
  0
VERTEX
  8
Unknown Area Type
  70
32
  10
-5.28758680365519
  20
42.83314660900504
  30
1149.904
  0
VERTEX
  8
Unknown Area Type
  70
32
  10
-5.28591184521882
  20
42.82305867284074
  30
1003.638
  0
VERTEX
  8
Unknown Area Type
  70
32
  10
-5.28591118186035
  20
42.82304067646096
  30
1003.381
  0
VERTEX
  8
Unknown Area Type
  70
32
  10
-5.28599525639722
  20
42.8229984754972
  30
1001.981
  0
VERTEX
  8
Unknown Area Type
  70
32
  10
-5.29114969269331
  20
42.82046860579364
  30
1016.2
  0
VERTEX
  8
Unknown Area Type
  70
32
  10
-5.3223124262255
  20
42.8203267641559
  30
952.797
  0
SEQEND
  8
Unknown Area Type
  0
TEXT
  8
Unknown Area Type
 62
7
  1
PNOA-H_AMS_1956-57_33k_ES_PAN_2
 40
0.00045
  10
-5.30462219255002
  20
42.83235176776085
  0
POLYLINE
  8
Unknown Area Type
  70
9
  66
1
  0
VERTEX
  8
Unknown Area Type
  70
32
  10
-5.32174632622541
  20
42.83333350000005
  30
953.773
  0
VERTEX
  8
Unknown Area Type
  70
32
  10
-5.28799525813733
  20
42.83333350000005
  30
1144.927
  0
VERTEX
  8
Unknown Area Type
  70
32
  10
-5.28799475600314
  20
42.83333333333339
  30
1144.93
  0
VERTEX
  8
Unknown Area Type
  70
32
  10
-5.31249999999997
  20
42.83333333333339
  30
1018.673
  0
VERTEX
  8
Unknown Area Type
  70
32
  10
-5.32174633347934
  20
42.83333333333339
  30
953.773
  0
SEQEND
  8
Unknown Area Type
  0
TEXT
  8
Unknown Area Type
 62
7
  1
PNOA-H_AMS_1956-57_33k_ES_PAN_2
 40
0.00045
  10
-5.30487054474124
  20
42.83333341666672
  0
POLYLINE
  8
Unknown Area Type
  70
9
  66
1
  0
VERTEX
  8
Unknown Area Type
  70
32
  10
-5.32174633347934
  20
42.83333333333339
  30
953.773
  0
VERTEX
  8
Unknown Area Type
  70
32
  10
-5.31249999999997
  20
42.83333333333339
  30
1018.673
  0
VERTEX
  8
Unknown Area Type
  70
32
  10
-5.28799475600314
  20
42.83333333333339
  30
1144.93
  0
VERTEX
  8
Unknown Area Type
  70
32
  10
-5.28760730071493
  20
42.83320473049619
  30
1147.146
  0
VERTEX
  8
Unknown Area Type
  70
32
  10
-5.28758680365519
  20
42.83314660900504
  30
1149.904
  0
VERTEX
  8
Unknown Area Type
  70
32
  10
-5.28591184521882
  20
42.82305867284074
  30
1003.638
  0
VERTEX
  8
Unknown Area Type
  70
32
  10
-5.28591118186035
  20
42.82304067646096
  30
1003.381
  0
VERTEX
  8
Unknown Area Type
  70
32
  10
-5.28599525639722
  20
42.8229984754972
  30
1001.981
  0
VERTEX
  8
Unknown Area Type
  70
32
  10
-5.29114969269331
  20
42.82046860579364
  30
1016.2
  0
VERTEX
  8
Unknown Area Type
  70
32
  10
-5.3223124262255
  20
42.8203267641559
  30
952.797
  0
SEQEND
  8
Unknown Area Type
  0
TEXT
  8
Unknown Area Type
 62
7
  1
PNOA-H_AMS_1956-57_33k_ES_PAN_2
 40
0.00045
  10
-5.30462219255002
  20
42.83235176776085
  0
POLYLINE
  8
Unknown Area Type
  70
9
  66
1
  0
VERTEX
  8
Unknown Area Type
  70
32
  10
-5.35248856538729
  20
42.83333333333339
  30
1058.924
  0
VERTEX
  8
Unknown Area Type
  70
32
  10
-5.33965916219488
  20
42.83333333333339
  30
978.358
  0
VERTEX
  8
Unknown Area Type
  70
32
  10
-5.34089194012354
  20
42.82061459701479
  30
970.046
  0
VERTEX
  8
Unknown Area Type
  70
32
  10
-5.35037361766861
  20
42.8201726306033
  30
1096.94
  0
SEQEND
  8
Unknown Area Type
  0
TEXT
  8
Unknown Area Type
 62
7
  1
PNOA-H_AMS_1956-57_33k_ES_PAN_2
 40
0.00045
  10
-5.34607386379108
  20
42.82675298196834
  0
POLYLINE
  8
Unknown Area Type
  70
9
  66
1
  0
VERTEX
  8
Unknown Area Type
  70
32
  10
-5.35248859217091
  20
42.83333350000005
  30
1058.923
  0
VERTEX
  8
Unknown Area Type
  70
32
  10
-5.33965914604052
  20
42.83333350000005
  30
978.358
  0
VERTEX
  8
Unknown Area Type
  70
32
  10
-5.33965916219488
  20
42.83333333333339
  30
978.358
  0
VERTEX
  8
Unknown Area Type
  70
32
  10
-5.35248856538729
  20
42.83333333333339
  30
1058.924
  0
SEQEND
  8
Unknown Area Type
  0
TEXT
  8
Unknown Area Type
 62
7
  1
PNOA-H_AMS_1956-57_33k_ES_PAN_2
 40
0.00045
  10
-5.34607386910572
  20
42.83333341666672
  0
POLYLINE
  8
Unknown Area Type
  70
9
  66
1
  0
VERTEX
  8
Unknown Area Type
  70
32
  10
-5.35248856538729
  20
42.83333333333339
  30
1058.924
  0
VERTEX
  8
Unknown Area Type
  70
32
  10
-5.33965916219488
  20
42.83333333333339
  30
978.358
  0
VERTEX
  8
Unknown Area Type
  70
32
  10
-5.34089194012354
  20
42.82061459701479
  30
970.046
  0
VERTEX
  8
Unknown Area Type
  70
32
  10
-5.35037361766861
  20
42.8201726306033
  30
1096.94
  0
SEQEND
  8
Unknown Area Type
  0
TEXT
  8
Unknown Area Type
 62
7
  1
PNOA-H_AMS_1956-57_33k_ES_PAN_2
 40
0.00045
  10
-5.34607386379108
  20
42.82675298196834
  0
POLYLINE
  8
Unknown Area Type
  70
9
  66
1
  0
VERTEX
  8
Unknown Area Type
  70
32
  10
-5.38394153626659
  20
42.83333333333339
  30
1242.802
  0
VERTEX
  8
Unknown Area Type
  70
32
  10
-5.37270284786746
  20
42.83333333333339
  30
1224.019
  0
VERTEX
  8
Unknown Area Type
  70
32
  10
-5.37856381718314
  20
42.82099494975932
  30
1257.057
  0
VERTEX
  8
Unknown Area Type
  70
32
  10
-5.37858284137323
  20
42.82101256390379
  30
1256.54
  0
SEQEND
  8
Unknown Area Type
  0
TEXT
  8
Unknown Area Type
 62
7
  1
PNOA-H_AMS_1956-57_33k_ES_PAN_2
 40
0.00045
  10
-5.37832219206703
  20
42.82716414154635
  0
POLYLINE
  8
Unknown Area Type
  70
9
  66
1
  0
VERTEX
  8
Unknown Area Type
  70
32
  10
-5.38394160875523
  20
42.83333350000005
  30
1242.802
  0
VERTEX
  8
Unknown Area Type
  70
32
  10
-5.37270276869759
  20
42.83333350000005
  30
1224.018
  0
VERTEX
  8
Unknown Area Type
  70
32
  10
-5.37270284786746
  20
42.83333333333339
  30
1224.019
  0
VERTEX
  8
Unknown Area Type
  70
32
  10
-5.38394153626659
  20
42.83333333333339
  30
1242.802
  0
SEQEND
  8
Unknown Area Type
  0
TEXT
  8
Unknown Area Type
 62
7
  1
PNOA-H_AMS_1956-57_33k_ES_PAN_2
 40
0.00045
  10
-5.37832218872641
  20
42.83333341666672
  0
POLYLINE
  8
Unknown Area Type
  70
9
  66
1
  0
VERTEX
  8
Unknown Area Type
  70
32
  10
-5.38394153626659
  20
42.83333333333339
  30
1242.802
  0
VERTEX
  8
Unknown Area Type
  70
32
  10
-5.37270284786746
  20
42.83333333333339
  30
1224.019
  0
VERTEX
  8
Unknown Area Type
  70
32
  10
-5.37856381718314
  20
42.82099494975932
  30
1257.057
  0
VERTEX
  8
Unknown Area Type
  70
32
  10
-5.37858284137323
  20
42.82101256390379
  30
1256.54
  0
SEQEND
  8
Unknown Area Type
  0
TEXT
  8
Unknown Area Type
 62
7
  1
PNOA-H_AMS_1956-57_33k_ES_PAN_2
 40
0.00045
  10
-5.37832219206703
  20
42.82716414154635
  0
POLYLINE
  8
Unknown Area Type
  70
9
  66
1
  0
VERTEX
  8
Unknown Area Type
  70
32
  10
-5.45820095719177
  20
42.82341819644723
  30
1253.144
  0
VERTEX
  8
Unknown Area Type
  70
32
  10
-5.45641880778728
  20
42.83333333333339
  30
1244.753
  0
VERTEX
  8
Unknown Area Type
  70
32
  10
-5.43750000000003
  20
42.83333333333339
  30
1197.918
  0
VERTEX
  8
Unknown Area Type
  70
32
  10
-5.43565389341477
  20
42.83333333333339
  30
1199.332
  0
VERTEX
  8
Unknown Area Type
  70
32
  10
-5.44376410644572
  20
42.82057123921766
  30
1177.732
  0
VERTEX
  8
Unknown Area Type
  70
32
  10
-5.44941260130749
  20
42.81972559865492
  30
1213.064
  0
VERTEX
  8
Unknown Area Type
  70
32
  10
-5.45580860679759
  20
42.82138946823236
  30
1220.724
  0
VERTEX
  8
Unknown Area Type
  70
32
  10
-5.45788609205721
  20
42.82272709310398
  30
1233.623
  0
SEQEND
  8
Unknown Area Type
  0
TEXT
  8
Unknown Area Type
 62
7
  1
PNOA-H_AMS_1956-57_33k_ES_PAN_2
 40
0.00045
  10
-5.44692742530327
  20
42.82652946599416
  0
POLYLINE
  8
Unknown Area Type
  70
9
  66
1
  0
VERTEX
  8
Unknown Area Type
  70
32
  10
-5.45641877783057
  20
42.83333350000005
  30
1244.753
  0
VERTEX
  8
Unknown Area Type
  70
32
  10
-5.43565378749939
  20
42.83333350000005
  30
1199.332
  0
VERTEX
  8
Unknown Area Type
  70
32
  10
-5.43565389341477
  20
42.83333333333339
  30
1199.332
  0
VERTEX
  8
Unknown Area Type
  70
32
  10
-5.43750000000003
  20
42.83333333333339
  30
1197.918
  0
VERTEX
  8
Unknown Area Type
  70
32
  10
-5.45641880778728
  20
42.83333333333339
  30
1244.753
  0
SEQEND
  8
Unknown Area Type
  0
TEXT
  8
Unknown Area Type
 62
7
  1
PNOA-H_AMS_1956-57_33k_ES_PAN_2
 40
0.00045
  10
-5.44603629764333
  20
42.83333341666672
  0
POLYLINE
  8
Unknown Area Type
  70
9
  66
1
  0
VERTEX
  8
Unknown Area Type
  70
32
  10
-5.45820095719177
  20
42.82341819644723
  30
1253.144
  0
VERTEX
  8
Unknown Area Type
  70
32
  10
-5.45641880778728
  20
42.83333333333339
  30
1244.753
  0
VERTEX
  8
Unknown Area Type
  70
32
  10
-5.43750000000003
  20
42.83333333333339
  30
1197.918
  0
VERTEX
  8
Unknown Area Type
  70
32
  10
-5.43565389341477
  20
42.83333333333339
  30
1199.332
  0
VERTEX
  8
Unknown Area Type
  70
32
  10
-5.44376410644572
  20
42.82057123921766
  30
1177.732
  0
VERTEX
  8
Unknown Area Type
  70
32
  10
-5.44941260130749
  20
42.81972559865492
  30
1213.064
  0
VERTEX
  8
Unknown Area Type
  70
32
  10
-5.45580860679759
  20
42.82138946823236
  30
1220.724
  0
VERTEX
  8
Unknown Area Type
  70
32
  10
-5.45788609205721
  20
42.82272709310398
  30
1233.623
  0
SEQEND
  8
Unknown Area Type
  0
TEXT
  8
Unknown Area Type
 62
7
  1
PNOA-H_AMS_1956-57_33k_ES_PAN_2
 40
0.00045
  10
-5.44692742530327
  20
42.82652946599416
  0
POLYLINE
  8
Unknown Area Type
  70
9
  66
1
  0
VERTEX
  8
Unknown Area Type
  70
32
  10
-5.19343123776247
  20
42.83333333333339
  30
1266.663
  0
VERTEX
  8
Unknown Area Type
  70
32
  10
-5.18749999999999
  20
42.83333333333339
  30
1266.004
  0
VERTEX
  8
Unknown Area Type
  70
32
  10
-5.18749999999999
  20
42.82416451897089
  30
1235.615
  0
VERTEX
  8
Unknown Area Type
  70
32
  10
-5.19304207625442
  20
42.82434010836695
  30
1243.511
  0
SEQEND
  8
Unknown Area Type
  0
TEXT
  8
Unknown Area Type
 62
7
  1
PNOA-H_AMS_1956-57_33k_ES_PAN_2
 40
0.00045
  10
-5.19046561888123
  20
42.82874892615214
  0
POLYLINE
  8
Unknown Area Type
  70
9
  66
1
  0
VERTEX
  8
Unknown Area Type
  70
32
  10
-5.1934312449746
  20
42.83333350000005
  30
1266.664
  0
VERTEX
  8
Unknown Area Type
  70
32
  10
-5.18749999999999
  20
42.83333350000005
  30
1266.004
  0
VERTEX
  8
Unknown Area Type
  70
32
  10
-5.18749999999999
  20
42.83333333333339
  30
1266.004
  0
VERTEX
  8
Unknown Area Type
  70
32
  10
-5.19343123776247
  20
42.83333333333339
  30
1266.663
  0
SEQEND
  8
Unknown Area Type
  0
TEXT
  8
Unknown Area Type
 62
7
  1
PNOA-H_AMS_1956-57_33k_ES_PAN_2
 40
0.00045
  10
-5.1904656224873
  20
42.83333341666672
  0
POLYLINE
  8
Unknown Area Type
  70
9
  66
1
  0
VERTEX
  8
Unknown Area Type
  70
32
  10
-5.18749999999999
  20
42.83333350000005
  30
1266.004
  0
VERTEX
  8
Unknown Area Type
  70
32
  10
-5.18749966666666
  20
42.83333350000005
  30
1266.004
  0
VERTEX
  8
Unknown Area Type
  70
32
  10
-5.18749966666666
  20
42.83333333333339
  30
1266.004
  0
VERTEX
  8
Unknown Area Type
  70
32
  10
-5.18749999999999
  20
42.83333333333339
  30
1266.004
  0
SEQEND
  8
Unknown Area Type
  0
TEXT
  8
Unknown Area Type
 62
7
  1
PNOA-H_AMS_1956-57_33k_ES_PAN_2
 40
0.00045
  10
-5.18749983333333
  20
42.83333341666672
  0
POLYLINE
  8
Unknown Area Type
  70
9
  66
1
  0
VERTEX
  8
Unknown Area Type
  70
32
  10
-5.19343123776247
  20
42.83333333333339
  30
1266.663
  0
VERTEX
  8
Unknown Area Type
  70
32
  10
-5.18749999999999
  20
42.83333333333339
  30
1266.004
  0
VERTEX
  8
Unknown Area Type
  70
32
  10
-5.18749999999999
  20
42.82416451897089
  30
1235.615
  0
VERTEX
  8
Unknown Area Type
  70
32
  10
-5.19304207625442
  20
42.82434010836695
  30
1243.511
  0
SEQEND
  8
Unknown Area Type
  0
TEXT
  8
Unknown Area Type
 62
7
  1
PNOA-H_AMS_1956-57_33k_ES_PAN_2
 40
0.00045
  10
-5.19046561888123
  20
42.82874892615214
  0
POLYLINE
  8
Unknown Area Type
  70
9
  66
1
  0
VERTEX
  8
Unknown Area Type
  70
32
  10
-5.18749999999999
  20
42.83333333333339
  30
1266.004
  0
VERTEX
  8
Unknown Area Type
  70
32
  10
-5.18749966666666
  20
42.83333333333339
  30
1266.004
  0
VERTEX
  8
Unknown Area Type
  70
32
  10
-5.18749966666666
  20
42.82416450840989
  30
1235.614
  0
VERTEX
  8
Unknown Area Type
  70
32
  10
-5.18749999999999
  20
42.82416451897089
  30
1235.615
  0
SEQEND
  8
Unknown Area Type
  0
TEXT
  8
Unknown Area Type
 62
7
  1
PNOA-H_AMS_1956-57_33k_ES_PAN_2
 40
0.00045
  10
-5.18749983333333
  20
42.82874892087164
  0
POLYLINE
  8
Unknown Area Type
  70
9
  66
1
  0
VERTEX
  8
Unknown Area Type
  70
32
  10
-5.40156396477949
  20
42.81870914802381
  30
1023.169
  0
VERTEX
  8
Unknown Area Type
  70
32
  10
-5.38637320350866
  20
42.81715392463211
  30
1229.864
  0
VERTEX
  8
Unknown Area Type
  70
32
  10
-5.38562581722839
  20
42.77926380999163
  30
1118.726
  0
VERTEX
  8
Unknown Area Type
  70
32
  10
-5.38873243349675
  20
42.77819497749572
  30
1122.504
  0
VERTEX
  8
Unknown Area Type
  70
32
  10
-5.41732607746045
  20
42.77918398441732
  30
982.93
  0
VERTEX
  8
Unknown Area Type
  70
32
  10
-5.41800453573942
  20
42.81543641421194
  30
1069.735
  0
VERTEX
  8
Unknown Area Type
  70
32
  10
-5.40681382590583
  20
42.81924269941967
  30
977.055
  0
VERTEX
  8
Unknown Area Type
  70
32
  10
-5.40158229779983
  20
42.81870876330364
  30
1022.229
  0
VERTEX
  8
Unknown Area Type
  70
32
  10
-5.40156396477949
  20
42.81870914802381
  30
1023.169
  0
SEQEND
  8
Unknown Area Type
  0
TEXT
  8
Unknown Area Type
 62
7
  1
PNOA-H_AMS_1956-57_33k_ES_PAN_2
 40
0.00045
  10
-5.40181529333414
  20
42.79868843913298
  0
POLYLINE
  8
Unknown Area Type
  70
9
  66
1
  0
VERTEX
  8
Unknown Area Type
  70
32
  10
-5.40156396477949
  20
42.81870914802381
  30
1023.169
  0
VERTEX
  8
Unknown Area Type
  70
32
  10
-5.38637320350866
  20
42.81715392463211
  30
1229.864
  0
VERTEX
  8
Unknown Area Type
  70
32
  10
-5.38562581722839
  20
42.77926380999163
  30
1118.726
  0
VERTEX
  8
Unknown Area Type
  70
32
  10
-5.38873243349675
  20
42.77819497749572
  30
1122.504
  0
VERTEX
  8
Unknown Area Type
  70
32
  10
-5.41732607746045
  20
42.77918398441732
  30
982.93
  0
VERTEX
  8
Unknown Area Type
  70
32
  10
-5.41800453573942
  20
42.81543641421194
  30
1069.735
  0
VERTEX
  8
Unknown Area Type
  70
32
  10
-5.40681382590583
  20
42.81924269941967
  30
977.055
  0
VERTEX
  8
Unknown Area Type
  70
32
  10
-5.40158229779983
  20
42.81870876330364
  30
1022.229
  0
VERTEX
  8
Unknown Area Type
  70
32
  10
-5.40156396477949
  20
42.81870914802381
  30
1023.169
  0
SEQEND
  8
Unknown Area Type
  0
TEXT
  8
Unknown Area Type
 62
7
  1
PNOA-H_AMS_1956-57_33k_ES_PAN_2
 40
0.00045
  10
-5.40181529333414
  20
42.79868843913298
  0
ENDSEC
  0
EOF
