  0
SECTION
  2
HEADER
  9
$ACADVER
  1
AC1009
  9
$LUNITS
  70
2
  9
$LIMMIN
  10
428162.900
  20
4539041.895
  9
$LIMMAX
  10
442470.000
  20
4557610.513
  9
$EXTMIN
  10
428162.900
  20
4539041.895
  9
$EXTMAX
  10
442470.000
  20
4557610.513
  999
Created by Global Mapper
  999
Projection: UTM
  999
Datum: ETRS89
  999
Ground Units: meters
  999
ZONE: 30
  0
ENDSEC
  0
SECTION
  2
TABLES
  0
ENDSEC
  0
SECTION
  2
BLOCKS
  0
BLOCK
  8
FeatureAttribs
  70
0
  2
FEATURE
  3
FEATURE
  10
0.00000000
  20
0.00000000
  0
ATTDEF
  8
FeatureAttribs
  70
0
  1
 
  2
NAME
  3
NAME
  10
0.00000000
  20
0.00000000
  40
1.00000000
  0
ENDBLK
  0
ENDSEC
  0
SECTION
  2
ENTITIES
  0
INSERT
  8
FeatureAttribs
  2
FEATURE
  41
1
  42
1
  43
1
  50
0
  10
432684.606
  20
4555848.534
 66
1
  0
ATTRIB
  8
FeatureAttribs
 70
0
  1
PNOA-H_AMS_1956-57_33k_ES_PAN_21mic_H50_0458_fot_50D-22090_E.tif
  2
NAME
  10
432684.606
  20
4555848.534
 40
23.44113
  0
SEQEND
  0
POLYLINE
  8
PNOA-H_AMS_1956-57_33k_ES_PAN_21mic_H50_0458_fot_50D-22090_E_tif
  70
9
  66
1
  0
VERTEX
  8
PNOA-H_AMS_1956-57_33k_ES_PAN_21mic_H50_0458_fot_50D-22090_E_tif
  70
32
  10
433722.877
  20
4554114.729
  30
1116.608
  0
VERTEX
  8
PNOA-H_AMS_1956-57_33k_ES_PAN_21mic_H50_0458_fot_50D-22090_E_tif
  70
32
  10
433721.500
  20
4554114.000
  30
1116.573
  0
VERTEX
  8
PNOA-H_AMS_1956-57_33k_ES_PAN_21mic_H50_0458_fot_50D-22090_E_tif
  70
32
  10
433075.125
  20
4554178.875
  30
1083.283
  0
VERTEX
  8
PNOA-H_AMS_1956-57_33k_ES_PAN_21mic_H50_0458_fot_50D-22090_E_tif
  70
32
  10
431137.238
  20
4554373.376
  30
983.475
  0
VERTEX
  8
PNOA-H_AMS_1956-57_33k_ES_PAN_21mic_H50_0458_fot_50D-22090_E_tif
  70
32
  10
431136.033
  20
4554373.497
  30
983.413
  0
VERTEX
  8
PNOA-H_AMS_1956-57_33k_ES_PAN_21mic_H50_0458_fot_50D-22090_E_tif
  70
32
  10
431136.000
  20
4554373.500
  30
983.412
  0
VERTEX
  8
PNOA-H_AMS_1956-57_33k_ES_PAN_21mic_H50_0458_fot_50D-22090_E_tif
  70
32
  10
431210.605
  20
4557583.068
  30
1059.876
  0
VERTEX
  8
PNOA-H_AMS_1956-57_33k_ES_PAN_21mic_H50_0458_fot_50D-22090_E_tif
  70
32
  10
431210.674
  20
4557583.067
  30
0
  0
VERTEX
  8
PNOA-H_AMS_1956-57_33k_ES_PAN_21mic_H50_0458_fot_50D-22090_E_tif
  70
32
  10
431839.615
  20
4557577.045
  30
0
  0
VERTEX
  8
PNOA-H_AMS_1956-57_33k_ES_PAN_21mic_H50_0458_fot_50D-22090_E_tif
  70
32
  10
434239.221
  20
4557555.219
  30
1122.665
  0
VERTEX
  8
PNOA-H_AMS_1956-57_33k_ES_PAN_21mic_H50_0458_fot_50D-22090_E_tif
  70
32
  10
434239.300
  20
4557555.218
  30
1122.652
  0
VERTEX
  8
PNOA-H_AMS_1956-57_33k_ES_PAN_21mic_H50_0458_fot_50D-22090_E_tif
  70
32
  10
434163.500
  20
4554351.000
  30
1127.223
  0
VERTEX
  8
PNOA-H_AMS_1956-57_33k_ES_PAN_21mic_H50_0458_fot_50D-22090_E_tif
  70
32
  10
434163.000
  20
4554348.000
  30
1127.296
  0
VERTEX
  8
PNOA-H_AMS_1956-57_33k_ES_PAN_21mic_H50_0458_fot_50D-22090_E_tif
  70
32
  10
434162.882
  20
4554347.929
  30
1127.3
  0
VERTEX
  8
PNOA-H_AMS_1956-57_33k_ES_PAN_21mic_H50_0458_fot_50D-22090_E_tif
  70
32
  10
434158.000
  20
4554345.000
  30
1127.454
  0
VERTEX
  8
PNOA-H_AMS_1956-57_33k_ES_PAN_21mic_H50_0458_fot_50D-22090_E_tif
  70
32
  10
433722.877
  20
4554114.729
  30
1116.608
  0
SEQEND
  8
PNOA-H_AMS_1956-57_33k_ES_PAN_21mic_H50_0458_fot_50D-22090_E_tif
  0
INSERT
  8
FeatureAttribs
  2
FEATURE
  41
1
  42
1
  43
1
  50
0
  10
429750.293
  20
4555945.506
 66
1
  0
ATTRIB
  8
FeatureAttribs
 70
0
  1
PNOA-H_AMS_1956-57_33k_ES_PAN_21mic_H50_0458_fot_50D-22089_E.tif
  2
NAME
  10
429750.293
  20
4555945.506
 40
23.44113
  0
SEQEND
  0
POLYLINE
  8
PNOA-H_AMS_1956-57_33k_ES_PAN_21mic_H50_0458_fot_50D-22089_E_tif
  70
9
  66
1
  0
VERTEX
  8
PNOA-H_AMS_1956-57_33k_ES_PAN_21mic_H50_0458_fot_50D-22089_E_tif
  70
32
  10
431134.206
  20
4554371.940
  30
984.274
  0
VERTEX
  8
PNOA-H_AMS_1956-57_33k_ES_PAN_21mic_H50_0458_fot_50D-22089_E_tif
  70
32
  10
430979.500
  20
4554280.500
  30
1047.98
  0
VERTEX
  8
PNOA-H_AMS_1956-57_33k_ES_PAN_21mic_H50_0458_fot_50D-22089_E_tif
  70
32
  10
430978.583
  20
4554280.549
  30
1047.992
  0
VERTEX
  8
PNOA-H_AMS_1956-57_33k_ES_PAN_21mic_H50_0458_fot_50D-22089_E_tif
  70
32
  10
428312.903
  20
4554422.903
  30
1082.729
  0
VERTEX
  8
PNOA-H_AMS_1956-57_33k_ES_PAN_21mic_H50_0458_fot_50D-22089_E_tif
  70
32
  10
428321.483
  20
4555297.717
  30
0
  0
VERTEX
  8
PNOA-H_AMS_1956-57_33k_ES_PAN_21mic_H50_0458_fot_50D-22089_E_tif
  70
32
  10
428344.176
  20
4557610.513
  30
0
  0
VERTEX
  8
PNOA-H_AMS_1956-57_33k_ES_PAN_21mic_H50_0458_fot_50D-22089_E_tif
  70
32
  10
431210.605
  20
4557583.068
  30
0
  0
VERTEX
  8
PNOA-H_AMS_1956-57_33k_ES_PAN_21mic_H50_0458_fot_50D-22089_E_tif
  70
32
  10
431210.674
  20
4557583.067
  30
1059.426
  0
VERTEX
  8
PNOA-H_AMS_1956-57_33k_ES_PAN_21mic_H50_0458_fot_50D-22089_E_tif
  70
32
  10
431136.500
  20
4554380.500
  30
981.666
  0
VERTEX
  8
PNOA-H_AMS_1956-57_33k_ES_PAN_21mic_H50_0458_fot_50D-22089_E_tif
  70
32
  10
431136.033
  20
4554373.497
  30
983.411
  0
VERTEX
  8
PNOA-H_AMS_1956-57_33k_ES_PAN_21mic_H50_0458_fot_50D-22089_E_tif
  70
32
  10
431136.000
  20
4554373.000
  30
983.535
  0
VERTEX
  8
PNOA-H_AMS_1956-57_33k_ES_PAN_21mic_H50_0458_fot_50D-22089_E_tif
  70
32
  10
431134.206
  20
4554371.940
  30
984.274
  0
SEQEND
  8
PNOA-H_AMS_1956-57_33k_ES_PAN_21mic_H50_0458_fot_50D-22089_E_tif
  0
INSERT
  8
FeatureAttribs
  2
FEATURE
  41
1
  42
1
  43
1
  50
0
  10
435707.794
  20
4555741.860
 66
1
  0
ATTRIB
  8
FeatureAttribs
 70
0
  1
PNOA-H_AMS_1956-57_33k_ES_PAN_21mic_H50_0458_fot_50D-22091_E.tif
  2
NAME
  10
435707.794
  20
4555741.860
 40
23.44113
  0
SEQEND
  0
POLYLINE
  8
PNOA-H_AMS_1956-57_33k_ES_PAN_21mic_H50_0458_fot_50D-22091_E_tif
  70
9
  66
1
  0
VERTEX
  8
PNOA-H_AMS_1956-57_33k_ES_PAN_21mic_H50_0458_fot_50D-22091_E_tif
  70
32
  10
437147.000
  20
4554255.500
  30
1192.848
  0
VERTEX
  8
PNOA-H_AMS_1956-57_33k_ES_PAN_21mic_H50_0458_fot_50D-22091_E_tif
  70
32
  10
436435.000
  20
4553928.500
  30
1206.256
  0
VERTEX
  8
PNOA-H_AMS_1956-57_33k_ES_PAN_21mic_H50_0458_fot_50D-22091_E_tif
  70
32
  10
436434.643
  20
4553928.566
  30
1206.244
  0
VERTEX
  8
PNOA-H_AMS_1956-57_33k_ES_PAN_21mic_H50_0458_fot_50D-22091_E_tif
  70
32
  10
434163.000
  20
4554348.000
  30
1127.296
  0
VERTEX
  8
PNOA-H_AMS_1956-57_33k_ES_PAN_21mic_H50_0458_fot_50D-22091_E_tif
  70
32
  10
434239.221
  20
4557555.219
  30
1122.637
  0
VERTEX
  8
PNOA-H_AMS_1956-57_33k_ES_PAN_21mic_H50_0458_fot_50D-22091_E_tif
  70
32
  10
434239.300
  20
4557555.218
  30
0
  0
VERTEX
  8
PNOA-H_AMS_1956-57_33k_ES_PAN_21mic_H50_0458_fot_50D-22091_E_tif
  70
32
  10
435335.049
  20
4557545.252
  30
0
  0
VERTEX
  8
PNOA-H_AMS_1956-57_33k_ES_PAN_21mic_H50_0458_fot_50D-22091_E_tif
  70
32
  10
437299.632
  20
4557528.323
  30
1137.124
  0
VERTEX
  8
PNOA-H_AMS_1956-57_33k_ES_PAN_21mic_H50_0458_fot_50D-22091_E_tif
  70
32
  10
437299.696
  20
4557528.322
  30
1137.128
  0
VERTEX
  8
PNOA-H_AMS_1956-57_33k_ES_PAN_21mic_H50_0458_fot_50D-22091_E_tif
  70
32
  10
437153.000
  20
4554262.000
  30
1192.779
  0
VERTEX
  8
PNOA-H_AMS_1956-57_33k_ES_PAN_21mic_H50_0458_fot_50D-22091_E_tif
  70
32
  10
437152.500
  20
4554258.500
  30
1192.821
  0
VERTEX
  8
PNOA-H_AMS_1956-57_33k_ES_PAN_21mic_H50_0458_fot_50D-22091_E_tif
  70
32
  10
437147.261
  20
4554255.643
  30
1192.847
  0
VERTEX
  8
PNOA-H_AMS_1956-57_33k_ES_PAN_21mic_H50_0458_fot_50D-22091_E_tif
  70
32
  10
437147.000
  20
4554255.500
  30
1192.848
  0
SEQEND
  8
PNOA-H_AMS_1956-57_33k_ES_PAN_21mic_H50_0458_fot_50D-22091_E_tif
  0
INSERT
  8
FeatureAttribs
  2
FEATURE
  41
1
  42
1
  43
1
  50
0
  10
438655.419
  20
4555662.412
 66
1
  0
ATTRIB
  8
FeatureAttribs
 70
0
  1
PNOA-H_AMS_1956-57_33k_ES_PAN_21mic_H50_0458_fot_50D-22092_E.tif
  2
NAME
  10
438655.419
  20
4555662.412
 40
23.44113
  0
SEQEND
  0
POLYLINE
  8
PNOA-H_AMS_1956-57_33k_ES_PAN_21mic_H50_0458_fot_50D-22092_E_tif
  70
9
  66
1
  0
VERTEX
  8
PNOA-H_AMS_1956-57_33k_ES_PAN_21mic_H50_0458_fot_50D-22092_E_tif
  70
32
  10
440083.639
  20
4554142.854
  30
1160.833
  0
VERTEX
  8
PNOA-H_AMS_1956-57_33k_ES_PAN_21mic_H50_0458_fot_50D-22092_E_tif
  70
32
  10
439225.000
  20
4553796.500
  30
1137.453
  0
VERTEX
  8
PNOA-H_AMS_1956-57_33k_ES_PAN_21mic_H50_0458_fot_50D-22092_E_tif
  70
32
  10
438534.167
  20
4553950.500
  30
1155.909
  0
VERTEX
  8
PNOA-H_AMS_1956-57_33k_ES_PAN_21mic_H50_0458_fot_50D-22092_E_tif
  70
32
  10
437153.173
  20
4554258.350
  30
1192.803
  0
VERTEX
  8
PNOA-H_AMS_1956-57_33k_ES_PAN_21mic_H50_0458_fot_50D-22092_E_tif
  70
32
  10
437152.500
  20
4554258.500
  30
1192.821
  0
VERTEX
  8
PNOA-H_AMS_1956-57_33k_ES_PAN_21mic_H50_0458_fot_50D-22092_E_tif
  70
32
  10
437299.632
  20
4557528.323
  30
1137.124
  0
VERTEX
  8
PNOA-H_AMS_1956-57_33k_ES_PAN_21mic_H50_0458_fot_50D-22092_E_tif
  70
32
  10
437299.696
  20
4557528.322
  30
0
  0
VERTEX
  8
PNOA-H_AMS_1956-57_33k_ES_PAN_21mic_H50_0458_fot_50D-22092_E_tif
  70
32
  10
438830.478
  20
4557515.132
  30
0
  0
VERTEX
  8
PNOA-H_AMS_1956-57_33k_ES_PAN_21mic_H50_0458_fot_50D-22092_E_tif
  70
32
  10
440108.535
  20
4557504.731
  30
0
  0
VERTEX
  8
PNOA-H_AMS_1956-57_33k_ES_PAN_21mic_H50_0458_fot_50D-22092_E_tif
  70
32
  10
440108.707
  20
4557504.729
  30
1134.238
  0
VERTEX
  8
PNOA-H_AMS_1956-57_33k_ES_PAN_21mic_H50_0458_fot_50D-22092_E_tif
  70
32
  10
440084.000
  20
4554143.000
  30
1160.842
  0
VERTEX
  8
PNOA-H_AMS_1956-57_33k_ES_PAN_21mic_H50_0458_fot_50D-22092_E_tif
  70
32
  10
440083.639
  20
4554142.854
  30
1160.833
  0
SEQEND
  8
PNOA-H_AMS_1956-57_33k_ES_PAN_21mic_H50_0458_fot_50D-22092_E_tif
  0
INSERT
  8
FeatureAttribs
  2
FEATURE
  41
1
  42
1
  43
1
  50
0
  10
441262.399
  20
4555622.615
 66
1
  0
ATTRIB
  8
FeatureAttribs
 70
0
  1
PNOA-H_AMS_1956-57_33k_ES_PAN_21mic_H50_0458_fot_50D-22093_E.tif
  2
NAME
  10
441262.399
  20
4555622.615
 40
23.44113
  0
SEQEND
  0
POLYLINE
  8
PNOA-H_AMS_1956-57_33k_ES_PAN_21mic_H50_0458_fot_50D-22093_E_tif
  70
9
  66
1
  0
VERTEX
  8
PNOA-H_AMS_1956-57_33k_ES_PAN_21mic_H50_0458_fot_50D-22093_E_tif
  70
32
  10
442059.834
  20
4553816.666
  30
1141.583
  0
VERTEX
  8
PNOA-H_AMS_1956-57_33k_ES_PAN_21mic_H50_0458_fot_50D-22093_E_tif
  70
32
  10
441850.500
  20
4553740.500
  30
1143.72
  0
VERTEX
  8
PNOA-H_AMS_1956-57_33k_ES_PAN_21mic_H50_0458_fot_50D-22093_E_tif
  70
32
  10
441236.503
  20
4553880.400
  30
1149.671
  0
VERTEX
  8
PNOA-H_AMS_1956-57_33k_ES_PAN_21mic_H50_0458_fot_50D-22093_E_tif
  70
32
  10
440779.628
  20
4553984.500
  30
1154.1
  0
VERTEX
  8
PNOA-H_AMS_1956-57_33k_ES_PAN_21mic_H50_0458_fot_50D-22093_E_tif
  70
32
  10
440084.000
  20
4554143.000
  30
1160.842
  0
VERTEX
  8
PNOA-H_AMS_1956-57_33k_ES_PAN_21mic_H50_0458_fot_50D-22093_E_tif
  70
32
  10
440108.535
  20
4557504.731
  30
1134.811
  0
VERTEX
  8
PNOA-H_AMS_1956-57_33k_ES_PAN_21mic_H50_0458_fot_50D-22093_E_tif
  70
32
  10
440108.707
  20
4557504.729
  30
1134.238
  0
VERTEX
  8
PNOA-H_AMS_1956-57_33k_ES_PAN_21mic_H50_0458_fot_50D-22093_E_tif
  70
32
  10
442325.903
  20
4557486.685
  30
0
  0
VERTEX
  8
PNOA-H_AMS_1956-57_33k_ES_PAN_21mic_H50_0458_fot_50D-22093_E_tif
  70
32
  10
442470.000
  20
4557485.581
  30
1134
  0
VERTEX
  8
PNOA-H_AMS_1956-57_33k_ES_PAN_21mic_H50_0458_fot_50D-22093_E_tif
  70
32
  10
442470.000
  20
4557380.000
  30
1134.617
  0
VERTEX
  8
PNOA-H_AMS_1956-57_33k_ES_PAN_21mic_H50_0458_fot_50D-22093_E_tif
  70
32
  10
442430.000
  20
4557380.000
  30
1134.617
  0
VERTEX
  8
PNOA-H_AMS_1956-57_33k_ES_PAN_21mic_H50_0458_fot_50D-22093_E_tif
  70
32
  10
442430.000
  20
4553951.592
  30
1137.803
  0
VERTEX
  8
PNOA-H_AMS_1956-57_33k_ES_PAN_21mic_H50_0458_fot_50D-22093_E_tif
  70
32
  10
442430.000
  20
4553951.352
  30
1137.804
  0
VERTEX
  8
PNOA-H_AMS_1956-57_33k_ES_PAN_21mic_H50_0458_fot_50D-22093_E_tif
  70
32
  10
442059.834
  20
4553816.666
  30
1141.583
  0
SEQEND
  8
PNOA-H_AMS_1956-57_33k_ES_PAN_21mic_H50_0458_fot_50D-22093_E_tif
  0
INSERT
  8
FeatureAttribs
  2
FEATURE
  41
1
  42
1
  43
1
  50
0
  10
432230.239
  20
4552110.500
 66
1
  0
ATTRIB
  8
FeatureAttribs
 70
0
  1
PNOA-H_AMS_1956-57_33k_ES_PAN_21mic_H50_0458_fot_51C-18132_E.tif
  2
NAME
  10
432230.239
  20
4552110.500
 40
23.44113
  0
SEQEND
  0
POLYLINE
  8
PNOA-H_AMS_1956-57_33k_ES_PAN_21mic_H50_0458_fot_51C-18132_E_tif
  70
9
  66
1
  0
VERTEX
  8
PNOA-H_AMS_1956-57_33k_ES_PAN_21mic_H50_0458_fot_51C-18132_E_tif
  70
32
  10
433488.500
  20
4550176.000
  30
1173.326
  0
VERTEX
  8
PNOA-H_AMS_1956-57_33k_ES_PAN_21mic_H50_0458_fot_51C-18132_E_tif
  70
32
  10
432570.500
  20
4549847.500
  30
1166.96
  0
VERTEX
  8
PNOA-H_AMS_1956-57_33k_ES_PAN_21mic_H50_0458_fot_51C-18132_E_tif
  70
32
  10
432569.000
  20
4549847.500
  30
1167.118
  0
VERTEX
  8
PNOA-H_AMS_1956-57_33k_ES_PAN_21mic_H50_0458_fot_51C-18132_E_tif
  70
32
  10
432567.500
  20
4549847.500
  30
1167.276
  0
VERTEX
  8
PNOA-H_AMS_1956-57_33k_ES_PAN_21mic_H50_0458_fot_51C-18132_E_tif
  70
32
  10
430755.431
  20
4550346.881
  30
1116.733
  0
VERTEX
  8
PNOA-H_AMS_1956-57_33k_ES_PAN_21mic_H50_0458_fot_51C-18132_E_tif
  70
32
  10
430755.000
  20
4550347.000
  30
1116.721
  0
VERTEX
  8
PNOA-H_AMS_1956-57_33k_ES_PAN_21mic_H50_0458_fot_51C-18132_E_tif
  70
32
  10
430978.500
  20
4554280.500
  30
1048.34
  0
VERTEX
  8
PNOA-H_AMS_1956-57_33k_ES_PAN_21mic_H50_0458_fot_51C-18132_E_tif
  70
32
  10
430978.583
  20
4554280.549
  30
1048.305
  0
VERTEX
  8
PNOA-H_AMS_1956-57_33k_ES_PAN_21mic_H50_0458_fot_51C-18132_E_tif
  70
32
  10
431128.000
  20
4554369.000
  30
984.72
  0
VERTEX
  8
PNOA-H_AMS_1956-57_33k_ES_PAN_21mic_H50_0458_fot_51C-18132_E_tif
  70
32
  10
431134.206
  20
4554371.940
  30
983.744
  0
VERTEX
  8
PNOA-H_AMS_1956-57_33k_ES_PAN_21mic_H50_0458_fot_51C-18132_E_tif
  70
32
  10
431137.238
  20
4554373.376
  30
983.267
  0
VERTEX
  8
PNOA-H_AMS_1956-57_33k_ES_PAN_21mic_H50_0458_fot_51C-18132_E_tif
  70
32
  10
431137.500
  20
4554373.500
  30
983.225
  0
VERTEX
  8
PNOA-H_AMS_1956-57_33k_ES_PAN_21mic_H50_0458_fot_51C-18132_E_tif
  70
32
  10
433075.125
  20
4554178.875
  30
1083.208
  0
VERTEX
  8
PNOA-H_AMS_1956-57_33k_ES_PAN_21mic_H50_0458_fot_51C-18132_E_tif
  70
32
  10
433721.000
  20
4554114.000
  30
1116.536
  0
VERTEX
  8
PNOA-H_AMS_1956-57_33k_ES_PAN_21mic_H50_0458_fot_51C-18132_E_tif
  70
32
  10
433720.962
  20
4554113.336
  30
1116.546
  0
VERTEX
  8
PNOA-H_AMS_1956-57_33k_ES_PAN_21mic_H50_0458_fot_51C-18132_E_tif
  70
32
  10
433593.514
  20
4551906.861
  30
1148.244
  0
VERTEX
  8
PNOA-H_AMS_1956-57_33k_ES_PAN_21mic_H50_0458_fot_51C-18132_E_tif
  70
32
  10
433494.000
  20
4550184.000
  30
1172.995
  0
VERTEX
  8
PNOA-H_AMS_1956-57_33k_ES_PAN_21mic_H50_0458_fot_51C-18132_E_tif
  70
32
  10
433494.000
  20
4550181.000
  30
1173.271
  0
VERTEX
  8
PNOA-H_AMS_1956-57_33k_ES_PAN_21mic_H50_0458_fot_51C-18132_E_tif
  70
32
  10
433494.000
  20
4550178.000
  30
1173.567
  0
VERTEX
  8
PNOA-H_AMS_1956-57_33k_ES_PAN_21mic_H50_0458_fot_51C-18132_E_tif
  70
32
  10
433492.731
  20
4550177.538
  30
1173.511
  0
VERTEX
  8
PNOA-H_AMS_1956-57_33k_ES_PAN_21mic_H50_0458_fot_51C-18132_E_tif
  70
32
  10
433488.500
  20
4550176.000
  30
1173.326
  0
SEQEND
  8
PNOA-H_AMS_1956-57_33k_ES_PAN_21mic_H50_0458_fot_51C-18132_E_tif
  0
INSERT
  8
FeatureAttribs
  2
FEATURE
  41
1
  42
1
  43
1
  50
0
  10
434987.061
  20
4552031.000
 66
1
  0
ATTRIB
  8
FeatureAttribs
 70
0
  1
PNOA-H_AMS_1956-57_33k_ES_PAN_21mic_H50_0458_fot_51C-18133_E.tif
  2
NAME
  10
434987.061
  20
4552031.000
 40
23.44113
  0
SEQEND
  0
POLYLINE
  8
PNOA-H_AMS_1956-57_33k_ES_PAN_21mic_H50_0458_fot_51C-18133_E_tif
  70
9
  66
1
  0
VERTEX
  8
PNOA-H_AMS_1956-57_33k_ES_PAN_21mic_H50_0458_fot_51C-18133_E_tif
  70
32
  10
436311.500
  20
4550122.000
  30
1139.857
  0
VERTEX
  8
PNOA-H_AMS_1956-57_33k_ES_PAN_21mic_H50_0458_fot_51C-18133_E_tif
  70
32
  10
435085.500
  20
4549714.000
  30
1132.739
  0
VERTEX
  8
PNOA-H_AMS_1956-57_33k_ES_PAN_21mic_H50_0458_fot_51C-18133_E_tif
  70
32
  10
435084.546
  20
4549714.182
  30
1132.705
  0
VERTEX
  8
PNOA-H_AMS_1956-57_33k_ES_PAN_21mic_H50_0458_fot_51C-18133_E_tif
  70
32
  10
435081.188
  20
4549714.821
  30
1132.587
  0
VERTEX
  8
PNOA-H_AMS_1956-57_33k_ES_PAN_21mic_H50_0458_fot_51C-18133_E_tif
  70
32
  10
435075.000
  20
4549716.000
  30
1132.37
  0
VERTEX
  8
PNOA-H_AMS_1956-57_33k_ES_PAN_21mic_H50_0458_fot_51C-18133_E_tif
  70
32
  10
433494.545
  20
4550177.841
  30
1173.553
  0
VERTEX
  8
PNOA-H_AMS_1956-57_33k_ES_PAN_21mic_H50_0458_fot_51C-18133_E_tif
  70
32
  10
433494.000
  20
4550178.000
  30
1173.567
  0
VERTEX
  8
PNOA-H_AMS_1956-57_33k_ES_PAN_21mic_H50_0458_fot_51C-18133_E_tif
  70
32
  10
433593.514
  20
4551906.861
  30
1148.49
  0
VERTEX
  8
PNOA-H_AMS_1956-57_33k_ES_PAN_21mic_H50_0458_fot_51C-18133_E_tif
  70
32
  10
433720.500
  20
4554113.000
  30
1116.489
  0
VERTEX
  8
PNOA-H_AMS_1956-57_33k_ES_PAN_21mic_H50_0458_fot_51C-18133_E_tif
  70
32
  10
433720.962
  20
4554113.336
  30
1116.52
  0
VERTEX
  8
PNOA-H_AMS_1956-57_33k_ES_PAN_21mic_H50_0458_fot_51C-18133_E_tif
  70
32
  10
433722.877
  20
4554114.729
  30
1116.646
  0
VERTEX
  8
PNOA-H_AMS_1956-57_33k_ES_PAN_21mic_H50_0458_fot_51C-18133_E_tif
  70
32
  10
433726.000
  20
4554117.000
  30
1116.852
  0
VERTEX
  8
PNOA-H_AMS_1956-57_33k_ES_PAN_21mic_H50_0458_fot_51C-18133_E_tif
  70
32
  10
434162.500
  20
4554348.000
  30
1127.305
  0
VERTEX
  8
PNOA-H_AMS_1956-57_33k_ES_PAN_21mic_H50_0458_fot_51C-18133_E_tif
  70
32
  10
434162.882
  20
4554347.929
  30
1127.318
  0
VERTEX
  8
PNOA-H_AMS_1956-57_33k_ES_PAN_21mic_H50_0458_fot_51C-18133_E_tif
  70
32
  10
436434.500
  20
4553928.500
  30
1206.224
  0
VERTEX
  8
PNOA-H_AMS_1956-57_33k_ES_PAN_21mic_H50_0458_fot_51C-18133_E_tif
  70
32
  10
436314.000
  20
4550182.500
  30
1139.823
  0
VERTEX
  8
PNOA-H_AMS_1956-57_33k_ES_PAN_21mic_H50_0458_fot_51C-18133_E_tif
  70
32
  10
436314.000
  20
4550181.000
  30
1139.82
  0
VERTEX
  8
PNOA-H_AMS_1956-57_33k_ES_PAN_21mic_H50_0458_fot_51C-18133_E_tif
  70
32
  10
436312.500
  20
4550122.500
  30
1139.863
  0
VERTEX
  8
PNOA-H_AMS_1956-57_33k_ES_PAN_21mic_H50_0458_fot_51C-18133_E_tif
  70
32
  10
436312.088
  20
4550122.294
  30
1139.861
  0
VERTEX
  8
PNOA-H_AMS_1956-57_33k_ES_PAN_21mic_H50_0458_fot_51C-18133_E_tif
  70
32
  10
436311.500
  20
4550122.000
  30
1139.857
  0
SEQEND
  8
PNOA-H_AMS_1956-57_33k_ES_PAN_21mic_H50_0458_fot_51C-18133_E_tif
  0
INSERT
  8
FeatureAttribs
  2
FEATURE
  41
1
  42
1
  43
1
  50
0
  10
429575.894
  20
4552205.951
 66
1
  0
ATTRIB
  8
FeatureAttribs
 70
0
  1
PNOA-H_AMS_1956-57_33k_ES_PAN_21mic_H50_0458_fot_51C-18131_E.tif
  2
NAME
  10
429575.894
  20
4552205.951
 40
23.44113
  0
SEQEND
  0
POLYLINE
  8
PNOA-H_AMS_1956-57_33k_ES_PAN_21mic_H50_0458_fot_51C-18131_E_tif
  70
9
  66
1
  0
VERTEX
  8
PNOA-H_AMS_1956-57_33k_ES_PAN_21mic_H50_0458_fot_51C-18131_E_tif
  70
32
  10
429817.705
  20
4549989.078
  30
1098.379
  0
VERTEX
  8
PNOA-H_AMS_1956-57_33k_ES_PAN_21mic_H50_0458_fot_51C-18131_E_tif
  70
32
  10
429817.500
  20
4549989.000
  30
1098.375
  0
VERTEX
  8
PNOA-H_AMS_1956-57_33k_ES_PAN_21mic_H50_0458_fot_51C-18131_E_tif
  70
32
  10
428936.500
  20
4550223.500
  30
1087.45
  0
VERTEX
  8
PNOA-H_AMS_1956-57_33k_ES_PAN_21mic_H50_0458_fot_51C-18131_E_tif
  70
32
  10
428273.459
  20
4550399.985
  30
1079.229
  0
VERTEX
  8
PNOA-H_AMS_1956-57_33k_ES_PAN_21mic_H50_0458_fot_51C-18131_E_tif
  70
32
  10
428276.126
  20
4550672.151
  30
0
  0
VERTEX
  8
PNOA-H_AMS_1956-57_33k_ES_PAN_21mic_H50_0458_fot_51C-18131_E_tif
  70
32
  10
428298.800
  20
4552984.930
  30
0
  0
VERTEX
  8
PNOA-H_AMS_1956-57_33k_ES_PAN_21mic_H50_0458_fot_51C-18131_E_tif
  70
32
  10
428312.903
  20
4554422.903
  30
1082.732
  0
VERTEX
  8
PNOA-H_AMS_1956-57_33k_ES_PAN_21mic_H50_0458_fot_51C-18131_E_tif
  70
32
  10
430978.500
  20
4554280.500
  30
1048.34
  0
VERTEX
  8
PNOA-H_AMS_1956-57_33k_ES_PAN_21mic_H50_0458_fot_51C-18131_E_tif
  70
32
  10
430755.000
  20
4550347.000
  30
1116.721
  0
VERTEX
  8
PNOA-H_AMS_1956-57_33k_ES_PAN_21mic_H50_0458_fot_51C-18131_E_tif
  70
32
  10
430754.384
  20
4550346.765
  30
1116.709
  0
VERTEX
  8
PNOA-H_AMS_1956-57_33k_ES_PAN_21mic_H50_0458_fot_51C-18131_E_tif
  70
32
  10
430001.921
  20
4550059.424
  30
1101.984
  0
VERTEX
  8
PNOA-H_AMS_1956-57_33k_ES_PAN_21mic_H50_0458_fot_51C-18131_E_tif
  70
32
  10
429817.705
  20
4549989.078
  30
1098.379
  0
SEQEND
  8
PNOA-H_AMS_1956-57_33k_ES_PAN_21mic_H50_0458_fot_51C-18131_E_tif
  0
INSERT
  8
FeatureAttribs
  2
FEATURE
  41
1
  42
1
  43
1
  50
0
  10
431086.440
  20
4547898.750
 66
1
  0
ATTRIB
  8
FeatureAttribs
 70
0
  1
PNOA-H_AMS_1956-57_33k_ES_PAN_21mic_H50_0458_fot_52D-28023_W.tif
  2
NAME
  10
431086.440
  20
4547898.750
 40
23.44113
  0
SEQEND
  0
POLYLINE
  8
PNOA-H_AMS_1956-57_33k_ES_PAN_21mic_H50_0458_fot_52D-28023_W_tif
  70
9
  66
1
  0
VERTEX
  8
PNOA-H_AMS_1956-57_33k_ES_PAN_21mic_H50_0458_fot_52D-28023_W_tif
  70
32
  10
431555.000
  20
4545450.500
  30
1225.448
  0
VERTEX
  8
PNOA-H_AMS_1956-57_33k_ES_PAN_21mic_H50_0458_fot_52D-28023_W_tif
  70
32
  10
431553.500
  20
4545450.500
  30
1225.32
  0
VERTEX
  8
PNOA-H_AMS_1956-57_33k_ES_PAN_21mic_H50_0458_fot_52D-28023_W_tif
  70
32
  10
431551.000
  20
4545450.500
  30
1225.106
  0
VERTEX
  8
PNOA-H_AMS_1956-57_33k_ES_PAN_21mic_H50_0458_fot_52D-28023_W_tif
  70
32
  10
430690.597
  20
4545605.882
  30
1211.365
  0
VERTEX
  8
PNOA-H_AMS_1956-57_33k_ES_PAN_21mic_H50_0458_fot_52D-28023_W_tif
  70
32
  10
429660.000
  20
4545792.000
  30
1194.906
  0
VERTEX
  8
PNOA-H_AMS_1956-57_33k_ES_PAN_21mic_H50_0458_fot_52D-28023_W_tif
  70
32
  10
429818.000
  20
4549989.000
  30
1098.405
  0
VERTEX
  8
PNOA-H_AMS_1956-57_33k_ES_PAN_21mic_H50_0458_fot_52D-28023_W_tif
  70
32
  10
430001.921
  20
4550059.424
  30
1104.661
  0
VERTEX
  8
PNOA-H_AMS_1956-57_33k_ES_PAN_21mic_H50_0458_fot_52D-28023_W_tif
  70
32
  10
430537.500
  20
4550264.500
  30
1122.876
  0
VERTEX
  8
PNOA-H_AMS_1956-57_33k_ES_PAN_21mic_H50_0458_fot_52D-28023_W_tif
  70
32
  10
430539.000
  20
4550265.000
  30
1122.834
  0
VERTEX
  8
PNOA-H_AMS_1956-57_33k_ES_PAN_21mic_H50_0458_fot_52D-28023_W_tif
  70
32
  10
430752.000
  20
4550346.500
  30
1116.674
  0
VERTEX
  8
PNOA-H_AMS_1956-57_33k_ES_PAN_21mic_H50_0458_fot_52D-28023_W_tif
  70
32
  10
430754.384
  20
4550346.765
  30
1116.719
  0
VERTEX
  8
PNOA-H_AMS_1956-57_33k_ES_PAN_21mic_H50_0458_fot_52D-28023_W_tif
  70
32
  10
430755.431
  20
4550346.881
  30
1116.738
  0
VERTEX
  8
PNOA-H_AMS_1956-57_33k_ES_PAN_21mic_H50_0458_fot_52D-28023_W_tif
  70
32
  10
430756.500
  20
4550347.000
  30
1116.758
  0
VERTEX
  8
PNOA-H_AMS_1956-57_33k_ES_PAN_21mic_H50_0458_fot_52D-28023_W_tif
  70
32
  10
432569.000
  20
4549847.500
  30
1167.118
  0
VERTEX
  8
PNOA-H_AMS_1956-57_33k_ES_PAN_21mic_H50_0458_fot_52D-28023_W_tif
  70
32
  10
432280.000
  20
4545689.000
  30
1230.545
  0
VERTEX
  8
PNOA-H_AMS_1956-57_33k_ES_PAN_21mic_H50_0458_fot_52D-28023_W_tif
  70
32
  10
432279.537
  20
4545688.537
  30
1230.628
  0
VERTEX
  8
PNOA-H_AMS_1956-57_33k_ES_PAN_21mic_H50_0458_fot_52D-28023_W_tif
  70
32
  10
432278.911
  20
4545687.911
  30
1230.741
  0
VERTEX
  8
PNOA-H_AMS_1956-57_33k_ES_PAN_21mic_H50_0458_fot_52D-28023_W_tif
  70
32
  10
432278.500
  20
4545687.500
  30
1230.815
  0
VERTEX
  8
PNOA-H_AMS_1956-57_33k_ES_PAN_21mic_H50_0458_fot_52D-28023_W_tif
  70
32
  10
431569.000
  20
4545455.000
  30
1225.412
  0
VERTEX
  8
PNOA-H_AMS_1956-57_33k_ES_PAN_21mic_H50_0458_fot_52D-28023_W_tif
  70
32
  10
431555.000
  20
4545450.500
  30
1225.448
  0
SEQEND
  8
PNOA-H_AMS_1956-57_33k_ES_PAN_21mic_H50_0458_fot_52D-28023_W_tif
  0
INSERT
  8
FeatureAttribs
  2
FEATURE
  41
1
  42
1
  43
1
  50
0
  10
428995.694
  20
4547964.692
 66
1
  0
ATTRIB
  8
FeatureAttribs
 70
0
  1
PNOA-H_AMS_1956-57_33k_ES_PAN_21mic_H50_0458_fot_52D-28024_W.tif
  2
NAME
  10
428995.694
  20
4547964.692
 40
23.44113
  0
SEQEND
  0
POLYLINE
  8
PNOA-H_AMS_1956-57_33k_ES_PAN_21mic_H50_0458_fot_52D-28024_W_tif
  70
9
  66
1
  0
VERTEX
  8
PNOA-H_AMS_1956-57_33k_ES_PAN_21mic_H50_0458_fot_52D-28024_W_tif
  70
32
  10
428949.417
  20
4545529.615
  30
1235.517
  0
VERTEX
  8
PNOA-H_AMS_1956-57_33k_ES_PAN_21mic_H50_0458_fot_52D-28024_W_tif
  70
32
  10
428948.500
  20
4545529.500
  30
1235.531
  0
VERTEX
  8
PNOA-H_AMS_1956-57_33k_ES_PAN_21mic_H50_0458_fot_52D-28024_W_tif
  70
32
  10
428514.991
  20
4545575.568
  30
1237.374
  0
VERTEX
  8
PNOA-H_AMS_1956-57_33k_ES_PAN_21mic_H50_0458_fot_52D-28024_W_tif
  70
32
  10
428226.495
  20
4545606.226
  30
1238.6
  0
VERTEX
  8
PNOA-H_AMS_1956-57_33k_ES_PAN_21mic_H50_0458_fot_52D-28024_W_tif
  70
32
  10
428230.807
  20
4546046.617
  30
0
  0
VERTEX
  8
PNOA-H_AMS_1956-57_33k_ES_PAN_21mic_H50_0458_fot_52D-28024_W_tif
  70
32
  10
428253.462
  20
4548359.380
  30
0
  0
VERTEX
  8
PNOA-H_AMS_1956-57_33k_ES_PAN_21mic_H50_0458_fot_52D-28024_W_tif
  70
32
  10
428273.458
  20
4550399.885
  30
1079.38
  0
VERTEX
  8
PNOA-H_AMS_1956-57_33k_ES_PAN_21mic_H50_0458_fot_52D-28024_W_tif
  70
32
  10
428936.500
  20
4550223.500
  30
1087.547
  0
VERTEX
  8
PNOA-H_AMS_1956-57_33k_ES_PAN_21mic_H50_0458_fot_52D-28024_W_tif
  70
32
  10
429817.705
  20
4549989.078
  30
1098.402
  0
VERTEX
  8
PNOA-H_AMS_1956-57_33k_ES_PAN_21mic_H50_0458_fot_52D-28024_W_tif
  70
32
  10
429818.000
  20
4549989.000
  30
1098.405
  0
VERTEX
  8
PNOA-H_AMS_1956-57_33k_ES_PAN_21mic_H50_0458_fot_52D-28024_W_tif
  70
32
  10
429660.000
  20
4545792.000
  30
1194.906
  0
VERTEX
  8
PNOA-H_AMS_1956-57_33k_ES_PAN_21mic_H50_0458_fot_52D-28024_W_tif
  70
32
  10
429659.672
  20
4545791.879
  30
1194.925
  0
VERTEX
  8
PNOA-H_AMS_1956-57_33k_ES_PAN_21mic_H50_0458_fot_52D-28024_W_tif
  70
32
  10
428952.500
  20
4545530.000
  30
1235.468
  0
VERTEX
  8
PNOA-H_AMS_1956-57_33k_ES_PAN_21mic_H50_0458_fot_52D-28024_W_tif
  70
32
  10
428951.518
  20
4545529.877
  30
1235.484
  0
VERTEX
  8
PNOA-H_AMS_1956-57_33k_ES_PAN_21mic_H50_0458_fot_52D-28024_W_tif
  70
32
  10
428949.417
  20
4545529.615
  30
1235.517
  0
SEQEND
  8
PNOA-H_AMS_1956-57_33k_ES_PAN_21mic_H50_0458_fot_52D-28024_W_tif
  0
INSERT
  8
FeatureAttribs
  2
FEATURE
  41
1
  42
1
  43
1
  50
0
  10
436383.276
  20
4547730.250
 66
1
  0
ATTRIB
  8
FeatureAttribs
 70
0
  1
PNOA-H_AMS_1956-57_33k_ES_PAN_21mic_H50_0458_fot_52D-28021_W.tif
  2
NAME
  10
436383.276
  20
4547730.250
 40
23.44113
  0
SEQEND
  0
POLYLINE
  8
PNOA-H_AMS_1956-57_33k_ES_PAN_21mic_H50_0458_fot_52D-28021_W_tif
  70
9
  66
1
  0
VERTEX
  8
PNOA-H_AMS_1956-57_33k_ES_PAN_21mic_H50_0458_fot_52D-28021_W_tif
  70
32
  10
436312.088
  20
4550122.294
  30
1139.865
  0
VERTEX
  8
PNOA-H_AMS_1956-57_33k_ES_PAN_21mic_H50_0458_fot_52D-28021_W_tif
  70
32
  10
436683.000
  20
4549992.500
  30
1147.04
  0
VERTEX
  8
PNOA-H_AMS_1956-57_33k_ES_PAN_21mic_H50_0458_fot_52D-28021_W_tif
  70
32
  10
436683.758
  20
4549992.500
  30
1147.103
  0
VERTEX
  8
PNOA-H_AMS_1956-57_33k_ES_PAN_21mic_H50_0458_fot_52D-28021_W_tif
  70
32
  10
436684.000
  20
4549992.500
  30
1147.123
  0
VERTEX
  8
PNOA-H_AMS_1956-57_33k_ES_PAN_21mic_H50_0458_fot_52D-28021_W_tif
  70
32
  10
437709.556
  20
4549633.655
  30
1167.741
  0
VERTEX
  8
PNOA-H_AMS_1956-57_33k_ES_PAN_21mic_H50_0458_fot_52D-28021_W_tif
  70
32
  10
437710.000
  20
4549633.500
  30
1167.75
  0
VERTEX
  8
PNOA-H_AMS_1956-57_33k_ES_PAN_21mic_H50_0458_fot_52D-28021_W_tif
  70
32
  10
437710.000
  20
4545691.500
  30
1595.508
  0
VERTEX
  8
PNOA-H_AMS_1956-57_33k_ES_PAN_21mic_H50_0458_fot_52D-28021_W_tif
  70
32
  10
437709.446
  20
4545691.356
  30
1595.452
  0
VERTEX
  8
PNOA-H_AMS_1956-57_33k_ES_PAN_21mic_H50_0458_fot_52D-28021_W_tif
  70
32
  10
436348.500
  20
4545338.000
  30
1459.286
  0
VERTEX
  8
PNOA-H_AMS_1956-57_33k_ES_PAN_21mic_H50_0458_fot_52D-28021_W_tif
  70
32
  10
436348.230
  20
4545338.060
  30
1459.258
  0
VERTEX
  8
PNOA-H_AMS_1956-57_33k_ES_PAN_21mic_H50_0458_fot_52D-28021_W_tif
  70
32
  10
435027.500
  20
4545630.500
  30
1323.909
  0
VERTEX
  8
PNOA-H_AMS_1956-57_33k_ES_PAN_21mic_H50_0458_fot_52D-28021_W_tif
  70
32
  10
435027.550
  20
4545634.126
  30
1323.74
  0
VERTEX
  8
PNOA-H_AMS_1956-57_33k_ES_PAN_21mic_H50_0458_fot_52D-28021_W_tif
  70
32
  10
435084.000
  20
4549714.000
  30
1132.736
  0
VERTEX
  8
PNOA-H_AMS_1956-57_33k_ES_PAN_21mic_H50_0458_fot_52D-28021_W_tif
  70
32
  10
435084.546
  20
4549714.182
  30
1132.739
  0
VERTEX
  8
PNOA-H_AMS_1956-57_33k_ES_PAN_21mic_H50_0458_fot_52D-28021_W_tif
  70
32
  10
436311.500
  20
4550122.500
  30
1139.853
  0
VERTEX
  8
PNOA-H_AMS_1956-57_33k_ES_PAN_21mic_H50_0458_fot_52D-28021_W_tif
  70
32
  10
436312.088
  20
4550122.294
  30
1139.865
  0
SEQEND
  8
PNOA-H_AMS_1956-57_33k_ES_PAN_21mic_H50_0458_fot_52D-28021_W_tif
  0
INSERT
  8
FeatureAttribs
  2
FEATURE
  41
1
  42
1
  43
1
  50
0
  10
433739.747
  20
4547744.000
 66
1
  0
ATTRIB
  8
FeatureAttribs
 70
0
  1
PNOA-H_AMS_1956-57_33k_ES_PAN_21mic_H50_0458_fot_52D-28022_W.tif
  2
NAME
  10
433739.747
  20
4547744.000
 40
23.44113
  0
SEQEND
  0
POLYLINE
  8
PNOA-H_AMS_1956-57_33k_ES_PAN_21mic_H50_0458_fot_52D-28022_W_tif
  70
9
  66
1
  0
VERTEX
  8
PNOA-H_AMS_1956-57_33k_ES_PAN_21mic_H50_0458_fot_52D-28022_W_tif
  70
32
  10
434026.404
  20
4545310.129
  30
1314.051
  0
VERTEX
  8
PNOA-H_AMS_1956-57_33k_ES_PAN_21mic_H50_0458_fot_52D-28022_W_tif
  70
32
  10
434026.000
  20
4545310.000
  30
1314.047
  0
VERTEX
  8
PNOA-H_AMS_1956-57_33k_ES_PAN_21mic_H50_0458_fot_52D-28022_W_tif
  70
32
  10
432586.755
  20
4545621.500
  30
1245.354
  0
VERTEX
  8
PNOA-H_AMS_1956-57_33k_ES_PAN_21mic_H50_0458_fot_52D-28022_W_tif
  70
32
  10
432279.500
  20
4545688.000
  30
1230.689
  0
VERTEX
  8
PNOA-H_AMS_1956-57_33k_ES_PAN_21mic_H50_0458_fot_52D-28022_W_tif
  70
32
  10
432279.537
  20
4545688.537
  30
1230.681
  0
VERTEX
  8
PNOA-H_AMS_1956-57_33k_ES_PAN_21mic_H50_0458_fot_52D-28022_W_tif
  70
32
  10
432568.500
  20
4549841.500
  30
1167.151
  0
VERTEX
  8
PNOA-H_AMS_1956-57_33k_ES_PAN_21mic_H50_0458_fot_52D-28022_W_tif
  70
32
  10
432569.000
  20
4549847.500
  30
1167.118
  0
VERTEX
  8
PNOA-H_AMS_1956-57_33k_ES_PAN_21mic_H50_0458_fot_52D-28022_W_tif
  70
32
  10
432585.500
  20
4549853.500
  30
1164.919
  0
VERTEX
  8
PNOA-H_AMS_1956-57_33k_ES_PAN_21mic_H50_0458_fot_52D-28022_W_tif
  70
32
  10
432587.000
  20
4549854.000
  30
1164.716
  0
VERTEX
  8
PNOA-H_AMS_1956-57_33k_ES_PAN_21mic_H50_0458_fot_52D-28022_W_tif
  70
32
  10
433489.500
  20
4550177.000
  30
1173.331
  0
VERTEX
  8
PNOA-H_AMS_1956-57_33k_ES_PAN_21mic_H50_0458_fot_52D-28022_W_tif
  70
32
  10
433492.731
  20
4550177.538
  30
1173.513
  0
VERTEX
  8
PNOA-H_AMS_1956-57_33k_ES_PAN_21mic_H50_0458_fot_52D-28022_W_tif
  70
32
  10
433494.545
  20
4550177.841
  30
1173.615
  0
VERTEX
  8
PNOA-H_AMS_1956-57_33k_ES_PAN_21mic_H50_0458_fot_52D-28022_W_tif
  70
32
  10
433495.500
  20
4550178.000
  30
1173.669
  0
VERTEX
  8
PNOA-H_AMS_1956-57_33k_ES_PAN_21mic_H50_0458_fot_52D-28022_W_tif
  70
32
  10
435081.188
  20
4549714.821
  30
1132.808
  0
VERTEX
  8
PNOA-H_AMS_1956-57_33k_ES_PAN_21mic_H50_0458_fot_52D-28022_W_tif
  70
32
  10
435084.000
  20
4549714.000
  30
1132.736
  0
VERTEX
  8
PNOA-H_AMS_1956-57_33k_ES_PAN_21mic_H50_0458_fot_52D-28022_W_tif
  70
32
  10
435028.000
  20
4545637.500
  30
1323.847
  0
VERTEX
  8
PNOA-H_AMS_1956-57_33k_ES_PAN_21mic_H50_0458_fot_52D-28022_W_tif
  70
32
  10
435027.550
  20
4545634.126
  30
1323.867
  0
VERTEX
  8
PNOA-H_AMS_1956-57_33k_ES_PAN_21mic_H50_0458_fot_52D-28022_W_tif
  70
32
  10
435027.065
  20
4545630.486
  30
1323.888
  0
VERTEX
  8
PNOA-H_AMS_1956-57_33k_ES_PAN_21mic_H50_0458_fot_52D-28022_W_tif
  70
32
  10
435027.000
  20
4545630.000
  30
1323.891
  0
VERTEX
  8
PNOA-H_AMS_1956-57_33k_ES_PAN_21mic_H50_0458_fot_52D-28022_W_tif
  70
32
  10
434426.400
  20
4545438.000
  30
1317.985
  0
VERTEX
  8
PNOA-H_AMS_1956-57_33k_ES_PAN_21mic_H50_0458_fot_52D-28022_W_tif
  70
32
  10
434026.404
  20
4545310.129
  30
1314.051
  0
SEQEND
  8
PNOA-H_AMS_1956-57_33k_ES_PAN_21mic_H50_0458_fot_52D-28022_W_tif
  0
INSERT
  8
FeatureAttribs
  2
FEATURE
  41
1
  42
1
  43
1
  50
0
  10
434668.208
  20
4543200.252
 66
1
  0
ATTRIB
  8
FeatureAttribs
 70
0
  1
PNOA-H_AMS_1956-57_33k_ES_PAN_21mic_H50_0458_fot_53B-23606_W.tif
  2
NAME
  10
434668.208
  20
4543200.252
 40
23.44113
  0
SEQEND
  0
POLYLINE
  8
PNOA-H_AMS_1956-57_33k_ES_PAN_21mic_H50_0458_fot_53B-23606_W_tif
  70
9
  66
1
  0
VERTEX
  8
PNOA-H_AMS_1956-57_33k_ES_PAN_21mic_H50_0458_fot_53B-23606_W_tif
  70
32
  10
435320.000
  20
4540770.029
  30
1961.601
  0
VERTEX
  8
PNOA-H_AMS_1956-57_33k_ES_PAN_21mic_H50_0458_fot_53B-23606_W_tif
  70
32
  10
435320.000
  20
4540770.004
  30
1961.604
  0
VERTEX
  8
PNOA-H_AMS_1956-57_33k_ES_PAN_21mic_H50_0458_fot_53B-23606_W_tif
  70
32
  10
435204.893
  20
4540783.571
  30
1947.149
  0
VERTEX
  8
PNOA-H_AMS_1956-57_33k_ES_PAN_21mic_H50_0458_fot_53B-23606_W_tif
  70
32
  10
434005.000
  20
4540925.000
  30
1796.465
  0
VERTEX
  8
PNOA-H_AMS_1956-57_33k_ES_PAN_21mic_H50_0458_fot_53B-23606_W_tif
  70
32
  10
434027.000
  20
4545310.000
  30
1314.037
  0
VERTEX
  8
PNOA-H_AMS_1956-57_33k_ES_PAN_21mic_H50_0458_fot_53B-23606_W_tif
  70
32
  10
434426.400
  20
4545438.000
  30
1317.951
  0
VERTEX
  8
PNOA-H_AMS_1956-57_33k_ES_PAN_21mic_H50_0458_fot_53B-23606_W_tif
  70
32
  10
435025.500
  20
4545630.000
  30
1323.824
  0
VERTEX
  8
PNOA-H_AMS_1956-57_33k_ES_PAN_21mic_H50_0458_fot_53B-23606_W_tif
  70
32
  10
435027.000
  20
4545630.500
  30
1323.888
  0
VERTEX
  8
PNOA-H_AMS_1956-57_33k_ES_PAN_21mic_H50_0458_fot_53B-23606_W_tif
  70
32
  10
435027.065
  20
4545630.486
  30
1323.894
  0
VERTEX
  8
PNOA-H_AMS_1956-57_33k_ES_PAN_21mic_H50_0458_fot_53B-23606_W_tif
  70
32
  10
436348.000
  20
4545338.000
  30
1459.24
  0
VERTEX
  8
PNOA-H_AMS_1956-57_33k_ES_PAN_21mic_H50_0458_fot_53B-23606_W_tif
  70
32
  10
436415.596
  20
4543510.000
  30
1635.646
  0
VERTEX
  8
PNOA-H_AMS_1956-57_33k_ES_PAN_21mic_H50_0458_fot_53B-23606_W_tif
  70
32
  10
435320.000
  20
4543510.000
  30
1644.581
  0
VERTEX
  8
PNOA-H_AMS_1956-57_33k_ES_PAN_21mic_H50_0458_fot_53B-23606_W_tif
  70
32
  10
435320.000
  20
4540770.029
  30
1961.601
  0
SEQEND
  8
PNOA-H_AMS_1956-57_33k_ES_PAN_21mic_H50_0458_fot_53B-23606_W_tif
  0
INSERT
  8
FeatureAttribs
  2
FEATURE
  41
1
  42
1
  43
1
  50
0
  10
432750.109
  20
4543224.750
 66
1
  0
ATTRIB
  8
FeatureAttribs
 70
0
  1
PNOA-H_AMS_1956-57_33k_ES_PAN_21mic_H50_0458_fot_53B-23607_W.tif
  2
NAME
  10
432750.109
  20
4543224.750
 40
23.44113
  0
SEQEND
  0
POLYLINE
  8
PNOA-H_AMS_1956-57_33k_ES_PAN_21mic_H50_0458_fot_53B-23607_W_tif
  70
9
  66
1
  0
VERTEX
  8
PNOA-H_AMS_1956-57_33k_ES_PAN_21mic_H50_0458_fot_53B-23607_W_tif
  70
32
  10
432278.911
  20
4545687.911
  30
1230.74
  0
VERTEX
  8
PNOA-H_AMS_1956-57_33k_ES_PAN_21mic_H50_0458_fot_53B-23607_W_tif
  70
32
  10
432586.000
  20
4545621.500
  30
1222.259
  0
VERTEX
  8
PNOA-H_AMS_1956-57_33k_ES_PAN_21mic_H50_0458_fot_53B-23607_W_tif
  70
32
  10
432586.755
  20
4545621.500
  30
1222.305
  0
VERTEX
  8
PNOA-H_AMS_1956-57_33k_ES_PAN_21mic_H50_0458_fot_53B-23607_W_tif
  70
32
  10
432588.000
  20
4545621.500
  30
1222.382
  0
VERTEX
  8
PNOA-H_AMS_1956-57_33k_ES_PAN_21mic_H50_0458_fot_53B-23607_W_tif
  70
32
  10
434026.404
  20
4545310.129
  30
1313.999
  0
VERTEX
  8
PNOA-H_AMS_1956-57_33k_ES_PAN_21mic_H50_0458_fot_53B-23607_W_tif
  70
32
  10
434027.000
  20
4545310.000
  30
1314.037
  0
VERTEX
  8
PNOA-H_AMS_1956-57_33k_ES_PAN_21mic_H50_0458_fot_53B-23607_W_tif
  70
32
  10
434005.000
  20
4540925.000
  30
1796.465
  0
VERTEX
  8
PNOA-H_AMS_1956-57_33k_ES_PAN_21mic_H50_0458_fot_53B-23607_W_tif
  70
32
  10
434004.895
  20
4540924.953
  30
1796.429
  0
VERTEX
  8
PNOA-H_AMS_1956-57_33k_ES_PAN_21mic_H50_0458_fot_53B-23607_W_tif
  70
32
  10
433638.000
  20
4540761.500
  30
1672.087
  0
VERTEX
  8
PNOA-H_AMS_1956-57_33k_ES_PAN_21mic_H50_0458_fot_53B-23607_W_tif
  70
32
  10
433637.529
  20
4540761.513
  30
1672.093
  0
VERTEX
  8
PNOA-H_AMS_1956-57_33k_ES_PAN_21mic_H50_0458_fot_53B-23607_W_tif
  70
32
  10
432247.844
  20
4540800.088
  30
1690.793
  0
VERTEX
  8
PNOA-H_AMS_1956-57_33k_ES_PAN_21mic_H50_0458_fot_53B-23607_W_tif
  70
32
  10
431530.500
  20
4540820.000
  30
1700.446
  0
VERTEX
  8
PNOA-H_AMS_1956-57_33k_ES_PAN_21mic_H50_0458_fot_53B-23607_W_tif
  70
32
  10
431529.452
  20
4540820.487
  30
1700.713
  0
VERTEX
  8
PNOA-H_AMS_1956-57_33k_ES_PAN_21mic_H50_0458_fot_53B-23607_W_tif
  70
32
  10
431410.000
  20
4540876.000
  30
1731.137
  0
VERTEX
  8
PNOA-H_AMS_1956-57_33k_ES_PAN_21mic_H50_0458_fot_53B-23607_W_tif
  70
32
  10
431553.500
  20
4545450.500
  30
1225.343
  0
VERTEX
  8
PNOA-H_AMS_1956-57_33k_ES_PAN_21mic_H50_0458_fot_53B-23607_W_tif
  70
32
  10
432278.500
  20
4545688.000
  30
1230.752
  0
VERTEX
  8
PNOA-H_AMS_1956-57_33k_ES_PAN_21mic_H50_0458_fot_53B-23607_W_tif
  70
32
  10
432278.911
  20
4545687.911
  30
1230.74
  0
SEQEND
  8
PNOA-H_AMS_1956-57_33k_ES_PAN_21mic_H50_0458_fot_53B-23607_W_tif
  0
INSERT
  8
FeatureAttribs
  2
FEATURE
  41
1
  42
1
  43
1
  50
0
  10
430258.757
  20
4543270.250
 66
1
  0
ATTRIB
  8
FeatureAttribs
 70
0
  1
PNOA-H_AMS_1956-57_33k_ES_PAN_21mic_H50_0458_fot_53B-23608_W.tif
  2
NAME
  10
430258.757
  20
4543270.250
 40
23.44113
  0
SEQEND
  0
POLYLINE
  8
PNOA-H_AMS_1956-57_33k_ES_PAN_21mic_H50_0458_fot_53B-23608_W_tif
  70
9
  66
1
  0
VERTEX
  8
PNOA-H_AMS_1956-57_33k_ES_PAN_21mic_H50_0458_fot_53B-23608_W_tif
  70
32
  10
429498.927
  20
4540748.529
  30
1769.08
  0
VERTEX
  8
PNOA-H_AMS_1956-57_33k_ES_PAN_21mic_H50_0458_fot_53B-23608_W_tif
  70
32
  10
429498.500
  20
4540748.500
  30
1769.088
  0
VERTEX
  8
PNOA-H_AMS_1956-57_33k_ES_PAN_21mic_H50_0458_fot_53B-23608_W_tif
  70
32
  10
429119.457
  20
4540895.629
  30
1661.802
  0
VERTEX
  8
PNOA-H_AMS_1956-57_33k_ES_PAN_21mic_H50_0458_fot_53B-23608_W_tif
  70
32
  10
429118.500
  20
4540896.000
  30
1661.531
  0
VERTEX
  8
PNOA-H_AMS_1956-57_33k_ES_PAN_21mic_H50_0458_fot_53B-23608_W_tif
  70
32
  10
428950.500
  20
4545529.500
  30
1235.537
  0
VERTEX
  8
PNOA-H_AMS_1956-57_33k_ES_PAN_21mic_H50_0458_fot_53B-23608_W_tif
  70
32
  10
428951.518
  20
4545529.877
  30
1235.479
  0
VERTEX
  8
PNOA-H_AMS_1956-57_33k_ES_PAN_21mic_H50_0458_fot_53B-23608_W_tif
  70
32
  10
429659.000
  20
4545792.000
  30
1194.94
  0
VERTEX
  8
PNOA-H_AMS_1956-57_33k_ES_PAN_21mic_H50_0458_fot_53B-23608_W_tif
  70
32
  10
429659.672
  20
4545791.879
  30
1194.924
  0
VERTEX
  8
PNOA-H_AMS_1956-57_33k_ES_PAN_21mic_H50_0458_fot_53B-23608_W_tif
  70
32
  10
430537.500
  20
4545633.500
  30
1173.765
  0
VERTEX
  8
PNOA-H_AMS_1956-57_33k_ES_PAN_21mic_H50_0458_fot_53B-23608_W_tif
  70
32
  10
430540.000
  20
4545633.000
  30
1174.56
  0
VERTEX
  8
PNOA-H_AMS_1956-57_33k_ES_PAN_21mic_H50_0458_fot_53B-23608_W_tif
  70
32
  10
430690.597
  20
4545605.882
  30
1182.106
  0
VERTEX
  8
PNOA-H_AMS_1956-57_33k_ES_PAN_21mic_H50_0458_fot_53B-23608_W_tif
  70
32
  10
431553.500
  20
4545450.500
  30
1225.343
  0
VERTEX
  8
PNOA-H_AMS_1956-57_33k_ES_PAN_21mic_H50_0458_fot_53B-23608_W_tif
  70
32
  10
431410.000
  20
4540876.500
  30
1731.004
  0
VERTEX
  8
PNOA-H_AMS_1956-57_33k_ES_PAN_21mic_H50_0458_fot_53B-23608_W_tif
  70
32
  10
431408.689
  20
4540876.412
  30
1731.03
  0
VERTEX
  8
PNOA-H_AMS_1956-57_33k_ES_PAN_21mic_H50_0458_fot_53B-23608_W_tif
  70
32
  10
429966.735
  20
4540779.854
  30
1759.759
  0
VERTEX
  8
PNOA-H_AMS_1956-57_33k_ES_PAN_21mic_H50_0458_fot_53B-23608_W_tif
  70
32
  10
429498.927
  20
4540748.529
  30
1769.08
  0
SEQEND
  8
PNOA-H_AMS_1956-57_33k_ES_PAN_21mic_H50_0458_fot_53B-23608_W_tif
  0
INSERT
  8
FeatureAttribs
  2
FEATURE
  41
1
  42
1
  43
1
  50
0
  10
428619.022
  20
4543194.515
 66
1
  0
ATTRIB
  8
FeatureAttribs
 70
0
  1
PNOA-H_AMS_1956-57_33k_ES_PAN_21mic_H50_0458_fot_53B-23609_W.tif
  2
NAME
  10
428619.022
  20
4543194.515
 40
23.44113
  0
SEQEND
  0
POLYLINE
  8
PNOA-H_AMS_1956-57_33k_ES_PAN_21mic_H50_0458_fot_53B-23609_W_tif
  70
9
  66
1
  0
VERTEX
  8
PNOA-H_AMS_1956-57_33k_ES_PAN_21mic_H50_0458_fot_53B-23609_W_tif
  70
32
  10
429117.069
  20
4540895.828
  30
1661.719
  0
VERTEX
  8
PNOA-H_AMS_1956-57_33k_ES_PAN_21mic_H50_0458_fot_53B-23609_W_tif
  70
32
  10
428179.282
  20
4540782.864
  30
1784.413
  0
VERTEX
  8
PNOA-H_AMS_1956-57_33k_ES_PAN_21mic_H50_0458_fot_53B-23609_W_tif
  70
32
  10
428179.283
  20
4540782.982
  30
0
  0
VERTEX
  8
PNOA-H_AMS_1956-57_33k_ES_PAN_21mic_H50_0458_fot_53B-23609_W_tif
  70
32
  10
428185.526
  20
4541421.117
  30
0
  0
VERTEX
  8
PNOA-H_AMS_1956-57_33k_ES_PAN_21mic_H50_0458_fot_53B-23609_W_tif
  70
32
  10
428208.162
  20
4543733.863
  30
0
  0
VERTEX
  8
PNOA-H_AMS_1956-57_33k_ES_PAN_21mic_H50_0458_fot_53B-23609_W_tif
  70
32
  10
428226.494
  20
4545606.166
  30
1235.855
  0
VERTEX
  8
PNOA-H_AMS_1956-57_33k_ES_PAN_21mic_H50_0458_fot_53B-23609_W_tif
  70
32
  10
428486.500
  20
4545578.500
  30
1234.15
  0
VERTEX
  8
PNOA-H_AMS_1956-57_33k_ES_PAN_21mic_H50_0458_fot_53B-23609_W_tif
  70
32
  10
428492.000
  20
4545578.000
  30
1233.783
  0
VERTEX
  8
PNOA-H_AMS_1956-57_33k_ES_PAN_21mic_H50_0458_fot_53B-23609_W_tif
  70
32
  10
428514.991
  20
4545575.568
  30
1233.871
  0
VERTEX
  8
PNOA-H_AMS_1956-57_33k_ES_PAN_21mic_H50_0458_fot_53B-23609_W_tif
  70
32
  10
428949.417
  20
4545529.615
  30
1235.533
  0
VERTEX
  8
PNOA-H_AMS_1956-57_33k_ES_PAN_21mic_H50_0458_fot_53B-23609_W_tif
  70
32
  10
428950.500
  20
4545529.500
  30
1235.537
  0
VERTEX
  8
PNOA-H_AMS_1956-57_33k_ES_PAN_21mic_H50_0458_fot_53B-23609_W_tif
  70
32
  10
429118.500
  20
4540896.000
  30
1661.531
  0
VERTEX
  8
PNOA-H_AMS_1956-57_33k_ES_PAN_21mic_H50_0458_fot_53B-23609_W_tif
  70
32
  10
429117.069
  20
4540895.828
  30
1661.719
  0
SEQEND
  8
PNOA-H_AMS_1956-57_33k_ES_PAN_21mic_H50_0458_fot_53B-23609_W_tif
  0
INSERT
  8
FeatureAttribs
  2
FEATURE
  41
1
  42
1
  43
1
  50
0
  10
430517.945
  20
4539976.218
 66
1
  0
ATTRIB
  8
FeatureAttribs
 70
0
  1
PNOA-H_AMS_1956-57_33k_ES_PAN_21mic_H50_0458_fot_54C-27504_E.tif
  2
NAME
  10
430517.945
  20
4539976.218
 40
23.44113
  0
SEQEND
  0
POLYLINE
  8
PNOA-H_AMS_1956-57_33k_ES_PAN_21mic_H50_0458_fot_54C-27504_E_tif
  70
9
  66
1
  0
VERTEX
  8
PNOA-H_AMS_1956-57_33k_ES_PAN_21mic_H50_0458_fot_54C-27504_E_tif
  70
32
  10
431529.000
  20
4540820.500
  30
1700.945
  0
VERTEX
  8
PNOA-H_AMS_1956-57_33k_ES_PAN_21mic_H50_0458_fot_54C-27504_E_tif
  70
32
  10
431562.565
  20
4539075.937
  30
1638.503
  0
VERTEX
  8
PNOA-H_AMS_1956-57_33k_ES_PAN_21mic_H50_0458_fot_54C-27504_E_tif
  70
32
  10
429481.124
  20
4539095.799
  30
1832.588
  0
VERTEX
  8
PNOA-H_AMS_1956-57_33k_ES_PAN_21mic_H50_0458_fot_54C-27504_E_tif
  70
32
  10
429499.000
  20
4540748.500
  30
1769.049
  0
VERTEX
  8
PNOA-H_AMS_1956-57_33k_ES_PAN_21mic_H50_0458_fot_54C-27504_E_tif
  70
32
  10
429966.735
  20
4540779.854
  30
1760.373
  0
VERTEX
  8
PNOA-H_AMS_1956-57_33k_ES_PAN_21mic_H50_0458_fot_54C-27504_E_tif
  70
32
  10
431401.000
  20
4540876.000
  30
1733.77
  0
VERTEX
  8
PNOA-H_AMS_1956-57_33k_ES_PAN_21mic_H50_0458_fot_54C-27504_E_tif
  70
32
  10
431408.500
  20
4540876.500
  30
1731.462
  0
VERTEX
  8
PNOA-H_AMS_1956-57_33k_ES_PAN_21mic_H50_0458_fot_54C-27504_E_tif
  70
32
  10
431408.689
  20
4540876.412
  30
1731.414
  0
VERTEX
  8
PNOA-H_AMS_1956-57_33k_ES_PAN_21mic_H50_0458_fot_54C-27504_E_tif
  70
32
  10
431529.000
  20
4540820.500
  30
1700.945
  0
SEQEND
  8
PNOA-H_AMS_1956-57_33k_ES_PAN_21mic_H50_0458_fot_54C-27504_E_tif
  0
INSERT
  8
FeatureAttribs
  2
FEATURE
  41
1
  42
1
  43
1
  50
0
  10
434486.716
  20
4539983.447
 66
1
  0
ATTRIB
  8
FeatureAttribs
 70
0
  1
PNOA-H_AMS_1956-57_33k_ES_PAN_21mic_H50_0458_fot_54C-27506_E.tif
  2
NAME
  10
434486.716
  20
4539983.447
 40
23.44113
  0
SEQEND
  0
POLYLINE
  8
PNOA-H_AMS_1956-57_33k_ES_PAN_21mic_H50_0458_fot_54C-27506_E_tif
  70
9
  66
1
  0
VERTEX
  8
PNOA-H_AMS_1956-57_33k_ES_PAN_21mic_H50_0458_fot_54C-27506_E_tif
  70
32
  10
435320.000
  20
4540770.004
  30
1999.623
  0
VERTEX
  8
PNOA-H_AMS_1956-57_33k_ES_PAN_21mic_H50_0458_fot_54C-27506_E_tif
  70
32
  10
435320.000
  20
4539041.895
  30
1622.826
  0
VERTEX
  8
PNOA-H_AMS_1956-57_33k_ES_PAN_21mic_H50_0458_fot_54C-27506_E_tif
  70
32
  10
435171.460
  20
4539043.171
  30
0
  0
VERTEX
  8
PNOA-H_AMS_1956-57_33k_ES_PAN_21mic_H50_0458_fot_54C-27506_E_tif
  70
32
  10
433672.592
  20
4539056.758
  30
1570.379
  0
VERTEX
  8
PNOA-H_AMS_1956-57_33k_ES_PAN_21mic_H50_0458_fot_54C-27506_E_tif
  70
32
  10
433672.409
  20
4539056.760
  30
1570.375
  0
VERTEX
  8
PNOA-H_AMS_1956-57_33k_ES_PAN_21mic_H50_0458_fot_54C-27506_E_tif
  70
32
  10
433637.500
  20
4540761.500
  30
1672.024
  0
VERTEX
  8
PNOA-H_AMS_1956-57_33k_ES_PAN_21mic_H50_0458_fot_54C-27506_E_tif
  70
32
  10
433637.529
  20
4540761.513
  30
1672.034
  0
VERTEX
  8
PNOA-H_AMS_1956-57_33k_ES_PAN_21mic_H50_0458_fot_54C-27506_E_tif
  70
32
  10
434004.500
  20
4540925.000
  30
1796.402
  0
VERTEX
  8
PNOA-H_AMS_1956-57_33k_ES_PAN_21mic_H50_0458_fot_54C-27506_E_tif
  70
32
  10
434004.895
  20
4540924.953
  30
1796.508
  0
VERTEX
  8
PNOA-H_AMS_1956-57_33k_ES_PAN_21mic_H50_0458_fot_54C-27506_E_tif
  70
32
  10
434635.000
  20
4540850.500
  30
1964.949
  0
VERTEX
  8
PNOA-H_AMS_1956-57_33k_ES_PAN_21mic_H50_0458_fot_54C-27506_E_tif
  70
32
  10
434636.000
  20
4540850.500
  30
1965.397
  0
VERTEX
  8
PNOA-H_AMS_1956-57_33k_ES_PAN_21mic_H50_0458_fot_54C-27506_E_tif
  70
32
  10
435204.893
  20
4540783.571
  30
1993.868
  0
VERTEX
  8
PNOA-H_AMS_1956-57_33k_ES_PAN_21mic_H50_0458_fot_54C-27506_E_tif
  70
32
  10
435320.000
  20
4540770.029
  30
1999.628
  0
VERTEX
  8
PNOA-H_AMS_1956-57_33k_ES_PAN_21mic_H50_0458_fot_54C-27506_E_tif
  70
32
  10
435320.000
  20
4540770.004
  30
1999.623
  0
SEQEND
  8
PNOA-H_AMS_1956-57_33k_ES_PAN_21mic_H50_0458_fot_54C-27506_E_tif
  0
INSERT
  8
FeatureAttribs
  2
FEATURE
  41
1
  42
1
  43
1
  50
0
  10
432600.203
  20
4539938.629
 66
1
  0
ATTRIB
  8
FeatureAttribs
 70
0
  1
PNOA-H_AMS_1956-57_33k_ES_PAN_21mic_H50_0458_fot_54C-27505_E.tif
  2
NAME
  10
432600.203
  20
4539938.629
 40
23.44113
  0
SEQEND
  0
POLYLINE
  8
PNOA-H_AMS_1956-57_33k_ES_PAN_21mic_H50_0458_fot_54C-27505_E_tif
  70
9
  66
1
  0
VERTEX
  8
PNOA-H_AMS_1956-57_33k_ES_PAN_21mic_H50_0458_fot_54C-27505_E_tif
  70
32
  10
432247.844
  20
4540800.088
  30
1548.074
  0
VERTEX
  8
PNOA-H_AMS_1956-57_33k_ES_PAN_21mic_H50_0458_fot_54C-27505_E_tif
  70
32
  10
432585.500
  20
4540790.500
  30
1476.268
  0
VERTEX
  8
PNOA-H_AMS_1956-57_33k_ES_PAN_21mic_H50_0458_fot_54C-27505_E_tif
  70
32
  10
432588.000
  20
4540790.500
  30
1476.835
  0
VERTEX
  8
PNOA-H_AMS_1956-57_33k_ES_PAN_21mic_H50_0458_fot_54C-27505_E_tif
  70
32
  10
433637.500
  20
4540761.500
  30
1672.024
  0
VERTEX
  8
PNOA-H_AMS_1956-57_33k_ES_PAN_21mic_H50_0458_fot_54C-27505_E_tif
  70
32
  10
433672.592
  20
4539056.758
  30
1569.989
  0
VERTEX
  8
PNOA-H_AMS_1956-57_33k_ES_PAN_21mic_H50_0458_fot_54C-27505_E_tif
  70
32
  10
433672.409
  20
4539056.760
  30
1569.995
  0
VERTEX
  8
PNOA-H_AMS_1956-57_33k_ES_PAN_21mic_H50_0458_fot_54C-27505_E_tif
  70
32
  10
431667.182
  20
4539074.938
  30
0
  0
VERTEX
  8
PNOA-H_AMS_1956-57_33k_ES_PAN_21mic_H50_0458_fot_54C-27505_E_tif
  70
32
  10
431562.565
  20
4539075.937
  30
1638.503
  0
VERTEX
  8
PNOA-H_AMS_1956-57_33k_ES_PAN_21mic_H50_0458_fot_54C-27505_E_tif
  70
32
  10
431529.000
  20
4540820.500
  30
1700.945
  0
VERTEX
  8
PNOA-H_AMS_1956-57_33k_ES_PAN_21mic_H50_0458_fot_54C-27505_E_tif
  70
32
  10
431529.452
  20
4540820.487
  30
1700.849
  0
VERTEX
  8
PNOA-H_AMS_1956-57_33k_ES_PAN_21mic_H50_0458_fot_54C-27505_E_tif
  70
32
  10
432247.844
  20
4540800.088
  30
1548.074
  0
SEQEND
  8
PNOA-H_AMS_1956-57_33k_ES_PAN_21mic_H50_0458_fot_54C-27505_E_tif
  0
INSERT
  8
FeatureAttribs
  2
FEATURE
  41
1
  42
1
  43
1
  50
0
  10
428831.221
  20
4539995.900
 66
1
  0
ATTRIB
  8
FeatureAttribs
 70
0
  1
PNOA-H_AMS_1956-57_33k_ES_PAN_21mic_H50_0458_fot_54C-27503_E.tif
  2
NAME
  10
428831.221
  20
4539995.900
 40
23.44113
  0
SEQEND
  0
POLYLINE
  8
PNOA-H_AMS_1956-57_33k_ES_PAN_21mic_H50_0458_fot_54C-27503_E_tif
  70
9
  66
1
  0
VERTEX
  8
PNOA-H_AMS_1956-57_33k_ES_PAN_21mic_H50_0458_fot_54C-27503_E_tif
  70
32
  10
429499.000
  20
4540748.500
  30
1769.049
  0
VERTEX
  8
PNOA-H_AMS_1956-57_33k_ES_PAN_21mic_H50_0458_fot_54C-27503_E_tif
  70
32
  10
429481.124
  20
4539095.799
  30
1832.588
  0
VERTEX
  8
PNOA-H_AMS_1956-57_33k_ES_PAN_21mic_H50_0458_fot_54C-27503_E_tif
  70
32
  10
428162.900
  20
4539108.379
  30
0
  0
VERTEX
  8
PNOA-H_AMS_1956-57_33k_ES_PAN_21mic_H50_0458_fot_54C-27503_E_tif
  70
32
  10
428179.282
  20
4540782.864
  30
0
  0
VERTEX
  8
PNOA-H_AMS_1956-57_33k_ES_PAN_21mic_H50_0458_fot_54C-27503_E_tif
  70
32
  10
428179.283
  20
4540782.982
  30
1782.676
  0
VERTEX
  8
PNOA-H_AMS_1956-57_33k_ES_PAN_21mic_H50_0458_fot_54C-27503_E_tif
  70
32
  10
429110.500
  20
4540895.500
  30
1658.985
  0
VERTEX
  8
PNOA-H_AMS_1956-57_33k_ES_PAN_21mic_H50_0458_fot_54C-27503_E_tif
  70
32
  10
429115.000
  20
4540896.000
  30
1660.343
  0
VERTEX
  8
PNOA-H_AMS_1956-57_33k_ES_PAN_21mic_H50_0458_fot_54C-27503_E_tif
  70
32
  10
429117.069
  20
4540895.828
  30
1661.101
  0
VERTEX
  8
PNOA-H_AMS_1956-57_33k_ES_PAN_21mic_H50_0458_fot_54C-27503_E_tif
  70
32
  10
429119.457
  20
4540895.629
  30
1661.977
  0
VERTEX
  8
PNOA-H_AMS_1956-57_33k_ES_PAN_21mic_H50_0458_fot_54C-27503_E_tif
  70
32
  10
429121.000
  20
4540895.500
  30
1662.543
  0
VERTEX
  8
PNOA-H_AMS_1956-57_33k_ES_PAN_21mic_H50_0458_fot_54C-27503_E_tif
  70
32
  10
429498.927
  20
4540748.529
  30
1769.028
  0
VERTEX
  8
PNOA-H_AMS_1956-57_33k_ES_PAN_21mic_H50_0458_fot_54C-27503_E_tif
  70
32
  10
429499.000
  20
4540748.500
  30
1769.049
  0
SEQEND
  8
PNOA-H_AMS_1956-57_33k_ES_PAN_21mic_H50_0458_fot_54C-27503_E_tif
  0
INSERT
  8
FeatureAttribs
  2
FEATURE
  41
1
  42
1
  43
1
  50
0
  10
442090.861
  20
4551824.950
 66
1
  0
ATTRIB
  8
FeatureAttribs
 70
0
  1
PNOA-H_AMS_1956-57_33k_ES_PAN_21mic_H50_0458_fot_51C-18136_E.tif
  2
NAME
  10
442090.861
  20
4551824.950
 40
23.44113
  0
SEQEND
  0
POLYLINE
  8
PNOA-H_AMS_1956-57_33k_ES_PAN_21mic_H50_0458_fot_51C-18136_E_tif
  70
9
  66
1
  0
VERTEX
  8
PNOA-H_AMS_1956-57_33k_ES_PAN_21mic_H50_0458_fot_51C-18136_E_tif
  70
32
  10
442390.000
  20
4549698.733
  30
1438.799
  0
VERTEX
  8
PNOA-H_AMS_1956-57_33k_ES_PAN_21mic_H50_0458_fot_51C-18136_E_tif
  70
32
  10
442390.000
  20
4549698.308
  30
1438.817
  0
VERTEX
  8
PNOA-H_AMS_1956-57_33k_ES_PAN_21mic_H50_0458_fot_51C-18136_E_tif
  70
32
  10
441736.752
  20
4549977.678
  30
1337.188
  0
VERTEX
  8
PNOA-H_AMS_1956-57_33k_ES_PAN_21mic_H50_0458_fot_51C-18136_E_tif
  70
32
  10
441736.000
  20
4549978.000
  30
1337.071
  0
VERTEX
  8
PNOA-H_AMS_1956-57_33k_ES_PAN_21mic_H50_0458_fot_51C-18136_E_tif
  70
32
  10
441849.500
  20
4553740.000
  30
1143.76
  0
VERTEX
  8
PNOA-H_AMS_1956-57_33k_ES_PAN_21mic_H50_0458_fot_51C-18136_E_tif
  70
32
  10
441849.990
  20
4553740.179
  30
1143.755
  0
VERTEX
  8
PNOA-H_AMS_1956-57_33k_ES_PAN_21mic_H50_0458_fot_51C-18136_E_tif
  70
32
  10
442059.834
  20
4553816.666
  30
1141.57
  0
VERTEX
  8
PNOA-H_AMS_1956-57_33k_ES_PAN_21mic_H50_0458_fot_51C-18136_E_tif
  70
32
  10
442430.000
  20
4553951.592
  30
1137.716
  0
VERTEX
  8
PNOA-H_AMS_1956-57_33k_ES_PAN_21mic_H50_0458_fot_51C-18136_E_tif
  70
32
  10
442430.000
  20
4553951.352
  30
1137.75
  0
VERTEX
  8
PNOA-H_AMS_1956-57_33k_ES_PAN_21mic_H50_0458_fot_51C-18136_E_tif
  70
32
  10
442430.000
  20
4552760.000
  30
1305.632
  0
VERTEX
  8
PNOA-H_AMS_1956-57_33k_ES_PAN_21mic_H50_0458_fot_51C-18136_E_tif
  70
32
  10
442390.000
  20
4552760.000
  30
1305.632
  0
VERTEX
  8
PNOA-H_AMS_1956-57_33k_ES_PAN_21mic_H50_0458_fot_51C-18136_E_tif
  70
32
  10
442390.000
  20
4549698.733
  30
1438.799
  0
SEQEND
  8
PNOA-H_AMS_1956-57_33k_ES_PAN_21mic_H50_0458_fot_51C-18136_E_tif
  0
INSERT
  8
FeatureAttribs
  2
FEATURE
  41
1
  42
1
  43
1
  50
0
  10
440462.347
  20
4551881.250
 66
1
  0
ATTRIB
  8
FeatureAttribs
 70
0
  1
PNOA-H_AMS_1956-57_33k_ES_PAN_21mic_H50_0458_fot_51C-18135_E.tif
  2
NAME
  10
440462.347
  20
4551881.250
 40
23.44113
  0
SEQEND
  0
POLYLINE
  8
PNOA-H_AMS_1956-57_33k_ES_PAN_21mic_H50_0458_fot_51C-18135_E_tif
  70
9
  66
1
  0
VERTEX
  8
PNOA-H_AMS_1956-57_33k_ES_PAN_21mic_H50_0458_fot_51C-18135_E_tif
  70
32
  10
440083.639
  20
4554142.854
  30
1160.832
  0
VERTEX
  8
PNOA-H_AMS_1956-57_33k_ES_PAN_21mic_H50_0458_fot_51C-18135_E_tif
  70
32
  10
440778.500
  20
4553984.500
  30
1178.166
  0
VERTEX
  8
PNOA-H_AMS_1956-57_33k_ES_PAN_21mic_H50_0458_fot_51C-18135_E_tif
  70
32
  10
440779.628
  20
4553984.500
  30
1178.219
  0
VERTEX
  8
PNOA-H_AMS_1956-57_33k_ES_PAN_21mic_H50_0458_fot_51C-18135_E_tif
  70
32
  10
440780.000
  20
4553984.500
  30
1178.236
  0
VERTEX
  8
PNOA-H_AMS_1956-57_33k_ES_PAN_21mic_H50_0458_fot_51C-18135_E_tif
  70
32
  10
441236.503
  20
4553880.400
  30
1163.518
  0
VERTEX
  8
PNOA-H_AMS_1956-57_33k_ES_PAN_21mic_H50_0458_fot_51C-18135_E_tif
  70
32
  10
441850.000
  20
4553740.500
  30
1143.739
  0
VERTEX
  8
PNOA-H_AMS_1956-57_33k_ES_PAN_21mic_H50_0458_fot_51C-18135_E_tif
  70
32
  10
441849.990
  20
4553740.179
  30
1143.755
  0
VERTEX
  8
PNOA-H_AMS_1956-57_33k_ES_PAN_21mic_H50_0458_fot_51C-18135_E_tif
  70
32
  10
441736.000
  20
4549978.000
  30
1337.071
  0
VERTEX
  8
PNOA-H_AMS_1956-57_33k_ES_PAN_21mic_H50_0458_fot_51C-18135_E_tif
  70
32
  10
441735.446
  20
4549977.865
  30
1337.057
  0
VERTEX
  8
PNOA-H_AMS_1956-57_33k_ES_PAN_21mic_H50_0458_fot_51C-18135_E_tif
  70
32
  10
440265.000
  20
4549619.500
  30
1299.88
  0
VERTEX
  8
PNOA-H_AMS_1956-57_33k_ES_PAN_21mic_H50_0458_fot_51C-18135_E_tif
  70
32
  10
440263.774
  20
4549619.689
  30
1299.82
  0
VERTEX
  8
PNOA-H_AMS_1956-57_33k_ES_PAN_21mic_H50_0458_fot_51C-18135_E_tif
  70
32
  10
440261.503
  20
4549620.038
  30
1299.709
  0
VERTEX
  8
PNOA-H_AMS_1956-57_33k_ES_PAN_21mic_H50_0458_fot_51C-18135_E_tif
  70
32
  10
440258.500
  20
4549620.500
  30
1299.561
  0
VERTEX
  8
PNOA-H_AMS_1956-57_33k_ES_PAN_21mic_H50_0458_fot_51C-18135_E_tif
  70
32
  10
439489.964
  20
4549897.325
  30
1229.903
  0
VERTEX
  8
PNOA-H_AMS_1956-57_33k_ES_PAN_21mic_H50_0458_fot_51C-18135_E_tif
  70
32
  10
439042.500
  20
4550058.500
  30
1189.345
  0
VERTEX
  8
PNOA-H_AMS_1956-57_33k_ES_PAN_21mic_H50_0458_fot_51C-18135_E_tif
  70
32
  10
439224.000
  20
4553795.500
  30
1137.436
  0
VERTEX
  8
PNOA-H_AMS_1956-57_33k_ES_PAN_21mic_H50_0458_fot_51C-18135_E_tif
  70
32
  10
439224.474
  20
4553795.974
  30
1137.443
  0
VERTEX
  8
PNOA-H_AMS_1956-57_33k_ES_PAN_21mic_H50_0458_fot_51C-18135_E_tif
  70
32
  10
439225.000
  20
4553796.500
  30
1137.451
  0
VERTEX
  8
PNOA-H_AMS_1956-57_33k_ES_PAN_21mic_H50_0458_fot_51C-18135_E_tif
  70
32
  10
439226.000
  20
4553797.500
  30
1137.466
  0
VERTEX
  8
PNOA-H_AMS_1956-57_33k_ES_PAN_21mic_H50_0458_fot_51C-18135_E_tif
  70
32
  10
439239.500
  20
4553803.000
  30
1137.456
  0
VERTEX
  8
PNOA-H_AMS_1956-57_33k_ES_PAN_21mic_H50_0458_fot_51C-18135_E_tif
  70
32
  10
440083.000
  20
4554143.000
  30
1160.816
  0
VERTEX
  8
PNOA-H_AMS_1956-57_33k_ES_PAN_21mic_H50_0458_fot_51C-18135_E_tif
  70
32
  10
440083.639
  20
4554142.854
  30
1160.832
  0
SEQEND
  8
PNOA-H_AMS_1956-57_33k_ES_PAN_21mic_H50_0458_fot_51C-18135_E_tif
  0
INSERT
  8
FeatureAttribs
  2
FEATURE
  41
1
  42
1
  43
1
  50
0
  10
437752.676
  20
4551946.000
 66
1
  0
ATTRIB
  8
FeatureAttribs
 70
0
  1
PNOA-H_AMS_1956-57_33k_ES_PAN_21mic_H50_0458_fot_51C-18134_E.tif
  2
NAME
  10
437752.676
  20
4551946.000
 40
23.44113
  0
SEQEND
  0
POLYLINE
  8
PNOA-H_AMS_1956-57_33k_ES_PAN_21mic_H50_0458_fot_51C-18134_E_tif
  70
9
  66
1
  0
VERTEX
  8
PNOA-H_AMS_1956-57_33k_ES_PAN_21mic_H50_0458_fot_51C-18134_E_tif
  70
32
  10
437709.556
  20
4549633.655
  30
1167.731
  0
VERTEX
  8
PNOA-H_AMS_1956-57_33k_ES_PAN_21mic_H50_0458_fot_51C-18134_E_tif
  70
32
  10
437709.000
  20
4549633.500
  30
1167.704
  0
VERTEX
  8
PNOA-H_AMS_1956-57_33k_ES_PAN_21mic_H50_0458_fot_51C-18134_E_tif
  70
32
  10
436683.758
  20
4549992.500
  30
1147.265
  0
VERTEX
  8
PNOA-H_AMS_1956-57_33k_ES_PAN_21mic_H50_0458_fot_51C-18134_E_tif
  70
32
  10
436312.500
  20
4550122.500
  30
1139.863
  0
VERTEX
  8
PNOA-H_AMS_1956-57_33k_ES_PAN_21mic_H50_0458_fot_51C-18134_E_tif
  70
32
  10
436434.500
  20
4553928.500
  30
1206.224
  0
VERTEX
  8
PNOA-H_AMS_1956-57_33k_ES_PAN_21mic_H50_0458_fot_51C-18134_E_tif
  70
32
  10
436434.643
  20
4553928.566
  30
1206.229
  0
VERTEX
  8
PNOA-H_AMS_1956-57_33k_ES_PAN_21mic_H50_0458_fot_51C-18134_E_tif
  70
32
  10
436682.000
  20
4554042.500
  30
1216.32
  0
VERTEX
  8
PNOA-H_AMS_1956-57_33k_ES_PAN_21mic_H50_0458_fot_51C-18134_E_tif
  70
32
  10
436683.000
  20
4554043.000
  30
1216.349
  0
VERTEX
  8
PNOA-H_AMS_1956-57_33k_ES_PAN_21mic_H50_0458_fot_51C-18134_E_tif
  70
32
  10
437147.261
  20
4554255.643
  30
1193.128
  0
VERTEX
  8
PNOA-H_AMS_1956-57_33k_ES_PAN_21mic_H50_0458_fot_51C-18134_E_tif
  70
32
  10
437153.173
  20
4554258.350
  30
1192.832
  0
VERTEX
  8
PNOA-H_AMS_1956-57_33k_ES_PAN_21mic_H50_0458_fot_51C-18134_E_tif
  70
32
  10
437153.500
  20
4554258.500
  30
1192.816
  0
VERTEX
  8
PNOA-H_AMS_1956-57_33k_ES_PAN_21mic_H50_0458_fot_51C-18134_E_tif
  70
32
  10
438534.167
  20
4553950.500
  30
1155.903
  0
VERTEX
  8
PNOA-H_AMS_1956-57_33k_ES_PAN_21mic_H50_0458_fot_51C-18134_E_tif
  70
32
  10
439224.500
  20
4553796.500
  30
1137.446
  0
VERTEX
  8
PNOA-H_AMS_1956-57_33k_ES_PAN_21mic_H50_0458_fot_51C-18134_E_tif
  70
32
  10
439224.474
  20
4553795.974
  30
1137.454
  0
VERTEX
  8
PNOA-H_AMS_1956-57_33k_ES_PAN_21mic_H50_0458_fot_51C-18134_E_tif
  70
32
  10
439042.500
  20
4550058.500
  30
1189.345
  0
VERTEX
  8
PNOA-H_AMS_1956-57_33k_ES_PAN_21mic_H50_0458_fot_51C-18134_E_tif
  70
32
  10
439041.971
  20
4550058.331
  30
1189.337
  0
VERTEX
  8
PNOA-H_AMS_1956-57_33k_ES_PAN_21mic_H50_0458_fot_51C-18134_E_tif
  70
32
  10
437730.500
  20
4549639.500
  30
1168.759
  0
VERTEX
  8
PNOA-H_AMS_1956-57_33k_ES_PAN_21mic_H50_0458_fot_51C-18134_E_tif
  70
32
  10
437716.938
  20
4549635.715
  30
1168.093
  0
VERTEX
  8
PNOA-H_AMS_1956-57_33k_ES_PAN_21mic_H50_0458_fot_51C-18134_E_tif
  70
32
  10
437709.556
  20
4549633.655
  30
1167.731
  0
SEQEND
  8
PNOA-H_AMS_1956-57_33k_ES_PAN_21mic_H50_0458_fot_51C-18134_E_tif
  0
INSERT
  8
FeatureAttribs
  2
FEATURE
  41
1
  42
1
  43
1
  50
0
  10
438983.161
  20
4547711.000
 66
1
  0
ATTRIB
  8
FeatureAttribs
 70
0
  1
PNOA-H_AMS_1956-57_33k_ES_PAN_21mic_H50_0458_fot_52D-28020_W.tif
  2
NAME
  10
438983.161
  20
4547711.000
 40
23.44113
  0
SEQEND
  0
POLYLINE
  8
PNOA-H_AMS_1956-57_33k_ES_PAN_21mic_H50_0458_fot_52D-28020_W_tif
  70
9
  66
1
  0
VERTEX
  8
PNOA-H_AMS_1956-57_33k_ES_PAN_21mic_H50_0458_fot_52D-28020_W_tif
  70
32
  10
438724.987
  20
4545363.665
  30
1757.396
  0
VERTEX
  8
PNOA-H_AMS_1956-57_33k_ES_PAN_21mic_H50_0458_fot_52D-28020_W_tif
  70
32
  10
438724.000
  20
4545363.500
  30
1757.351
  0
VERTEX
  8
PNOA-H_AMS_1956-57_33k_ES_PAN_21mic_H50_0458_fot_52D-28020_W_tif
  70
32
  10
438115.600
  20
4545560.300
  30
1660.245
  0
VERTEX
  8
PNOA-H_AMS_1956-57_33k_ES_PAN_21mic_H50_0458_fot_52D-28020_W_tif
  70
32
  10
437710.000
  20
4545691.500
  30
1595.508
  0
VERTEX
  8
PNOA-H_AMS_1956-57_33k_ES_PAN_21mic_H50_0458_fot_52D-28020_W_tif
  70
32
  10
437710.000
  20
4549633.500
  30
1167.75
  0
VERTEX
  8
PNOA-H_AMS_1956-57_33k_ES_PAN_21mic_H50_0458_fot_52D-28020_W_tif
  70
32
  10
437716.938
  20
4549635.715
  30
1167.864
  0
VERTEX
  8
PNOA-H_AMS_1956-57_33k_ES_PAN_21mic_H50_0458_fot_52D-28020_W_tif
  70
32
  10
439039.500
  20
4550058.000
  30
1189.601
  0
VERTEX
  8
PNOA-H_AMS_1956-57_33k_ES_PAN_21mic_H50_0458_fot_52D-28020_W_tif
  70
32
  10
439041.500
  20
4550058.500
  30
1189.424
  0
VERTEX
  8
PNOA-H_AMS_1956-57_33k_ES_PAN_21mic_H50_0458_fot_52D-28020_W_tif
  70
32
  10
439041.971
  20
4550058.331
  30
1189.466
  0
VERTEX
  8
PNOA-H_AMS_1956-57_33k_ES_PAN_21mic_H50_0458_fot_52D-28020_W_tif
  70
32
  10
439489.964
  20
4549897.325
  30
1229.946
  0
VERTEX
  8
PNOA-H_AMS_1956-57_33k_ES_PAN_21mic_H50_0458_fot_52D-28020_W_tif
  70
32
  10
440261.503
  20
4549620.038
  30
1299.661
  0
VERTEX
  8
PNOA-H_AMS_1956-57_33k_ES_PAN_21mic_H50_0458_fot_52D-28020_W_tif
  70
32
  10
440263.000
  20
4549619.500
  30
1299.796
  0
VERTEX
  8
PNOA-H_AMS_1956-57_33k_ES_PAN_21mic_H50_0458_fot_52D-28020_W_tif
  70
32
  10
440249.000
  20
4545619.000
  30
1826.534
  0
VERTEX
  8
PNOA-H_AMS_1956-57_33k_ES_PAN_21mic_H50_0458_fot_52D-28020_W_tif
  70
32
  10
438724.987
  20
4545363.665
  30
1757.396
  0
SEQEND
  8
PNOA-H_AMS_1956-57_33k_ES_PAN_21mic_H50_0458_fot_52D-28020_W_tif
  0
INSERT
  8
FeatureAttribs
  2
FEATURE
  41
1
  42
1
  43
1
  50
0
  10
441308.081
  20
4547665.750
 66
1
  0
ATTRIB
  8
FeatureAttribs
 70
0
  1
PNOA-H_AMS_1956-57_33k_ES_PAN_21mic_H50_0458_fot_52D-28019_W.tif
  2
NAME
  10
441308.081
  20
4547665.750
 40
23.44113
  0
SEQEND
  0
POLYLINE
  8
PNOA-H_AMS_1956-57_33k_ES_PAN_21mic_H50_0458_fot_52D-28019_W_tif
  70
9
  66
1
  0
VERTEX
  8
PNOA-H_AMS_1956-57_33k_ES_PAN_21mic_H50_0458_fot_52D-28019_W_tif
  70
32
  10
442360.000
  20
4545627.396
  30
1593.364
  0
VERTEX
  8
PNOA-H_AMS_1956-57_33k_ES_PAN_21mic_H50_0458_fot_52D-28019_W_tif
  70
32
  10
441032.500
  20
4545353.500
  30
1625.481
  0
VERTEX
  8
PNOA-H_AMS_1956-57_33k_ES_PAN_21mic_H50_0458_fot_52D-28019_W_tif
  70
32
  10
441031.880
  20
4545353.682
  30
1625.694
  0
VERTEX
  8
PNOA-H_AMS_1956-57_33k_ES_PAN_21mic_H50_0458_fot_52D-28019_W_tif
  70
32
  10
441021.669
  20
4545356.670
  30
1629.199
  0
VERTEX
  8
PNOA-H_AMS_1956-57_33k_ES_PAN_21mic_H50_0458_fot_52D-28019_W_tif
  70
32
  10
441012.000
  20
4545359.500
  30
1632.518
  0
VERTEX
  8
PNOA-H_AMS_1956-57_33k_ES_PAN_21mic_H50_0458_fot_52D-28019_W_tif
  70
32
  10
440249.165
  20
4545618.944
  30
1826.492
  0
VERTEX
  8
PNOA-H_AMS_1956-57_33k_ES_PAN_21mic_H50_0458_fot_52D-28019_W_tif
  70
32
  10
440249.000
  20
4545619.000
  30
1826.534
  0
VERTEX
  8
PNOA-H_AMS_1956-57_33k_ES_PAN_21mic_H50_0458_fot_52D-28019_W_tif
  70
32
  10
440263.000
  20
4549619.500
  30
1299.796
  0
VERTEX
  8
PNOA-H_AMS_1956-57_33k_ES_PAN_21mic_H50_0458_fot_52D-28019_W_tif
  70
32
  10
440263.774
  20
4549619.689
  30
1299.816
  0
VERTEX
  8
PNOA-H_AMS_1956-57_33k_ES_PAN_21mic_H50_0458_fot_52D-28019_W_tif
  70
32
  10
441732.500
  20
4549977.500
  30
1336.683
  0
VERTEX
  8
PNOA-H_AMS_1956-57_33k_ES_PAN_21mic_H50_0458_fot_52D-28019_W_tif
  70
32
  10
441734.500
  20
4549978.000
  30
1336.874
  0
VERTEX
  8
PNOA-H_AMS_1956-57_33k_ES_PAN_21mic_H50_0458_fot_52D-28019_W_tif
  70
32
  10
441735.446
  20
4549977.865
  30
1337.018
  0
VERTEX
  8
PNOA-H_AMS_1956-57_33k_ES_PAN_21mic_H50_0458_fot_52D-28019_W_tif
  70
32
  10
441736.752
  20
4549977.678
  30
1337.216
  0
VERTEX
  8
PNOA-H_AMS_1956-57_33k_ES_PAN_21mic_H50_0458_fot_52D-28019_W_tif
  70
32
  10
441738.000
  20
4549977.500
  30
1337.405
  0
VERTEX
  8
PNOA-H_AMS_1956-57_33k_ES_PAN_21mic_H50_0458_fot_52D-28019_W_tif
  70
32
  10
441765.000
  20
4549966.000
  30
1340.631
  0
VERTEX
  8
PNOA-H_AMS_1956-57_33k_ES_PAN_21mic_H50_0458_fot_52D-28019_W_tif
  70
32
  10
442390.000
  20
4549698.733
  30
1438.217
  0
VERTEX
  8
PNOA-H_AMS_1956-57_33k_ES_PAN_21mic_H50_0458_fot_52D-28019_W_tif
  70
32
  10
442390.000
  20
4549698.308
  30
1438.228
  0
VERTEX
  8
PNOA-H_AMS_1956-57_33k_ES_PAN_21mic_H50_0458_fot_52D-28019_W_tif
  70
32
  10
442390.000
  20
4548130.000
  30
1476.965
  0
VERTEX
  8
PNOA-H_AMS_1956-57_33k_ES_PAN_21mic_H50_0458_fot_52D-28019_W_tif
  70
32
  10
442360.000
  20
4548130.000
  30
1476.965
  0
VERTEX
  8
PNOA-H_AMS_1956-57_33k_ES_PAN_21mic_H50_0458_fot_52D-28019_W_tif
  70
32
  10
442360.000
  20
4545627.791
  30
1593.345
  0
VERTEX
  8
PNOA-H_AMS_1956-57_33k_ES_PAN_21mic_H50_0458_fot_52D-28019_W_tif
  70
32
  10
442360.000
  20
4545627.396
  30
1593.364
  0
SEQEND
  8
PNOA-H_AMS_1956-57_33k_ES_PAN_21mic_H50_0458_fot_52D-28019_W_tif
  0
INSERT
  8
FeatureAttribs
  2
FEATURE
  41
1
  42
1
  43
1
  50
0
  10
437547.459
  20
4544600.750
 66
1
  0
ATTRIB
  8
FeatureAttribs
 70
0
  1
PNOA-H_AMS_1956-57_33k_ES_PAN_21mic_H50_0458_fot_53B-23605_W.tif
  2
NAME
  10
437547.459
  20
4544600.750
 40
23.44113
  0
SEQEND
  0
POLYLINE
  8
PNOA-H_AMS_1956-57_33k_ES_PAN_21mic_H50_0458_fot_53B-23605_W_tif
  70
9
  66
1
  0
VERTEX
  8
PNOA-H_AMS_1956-57_33k_ES_PAN_21mic_H50_0458_fot_53B-23605_W_tif
  70
32
  10
438711.056
  20
4543510.000
  30
1644.734
  0
VERTEX
  8
PNOA-H_AMS_1956-57_33k_ES_PAN_21mic_H50_0458_fot_53B-23605_W_tif
  70
32
  10
436415.596
  20
4543510.000
  30
1635.646
  0
VERTEX
  8
PNOA-H_AMS_1956-57_33k_ES_PAN_21mic_H50_0458_fot_53B-23605_W_tif
  70
32
  10
436348.000
  20
4545338.000
  30
1459.24
  0
VERTEX
  8
PNOA-H_AMS_1956-57_33k_ES_PAN_21mic_H50_0458_fot_53B-23605_W_tif
  70
32
  10
436348.230
  20
4545338.060
  30
1459.263
  0
VERTEX
  8
PNOA-H_AMS_1956-57_33k_ES_PAN_21mic_H50_0458_fot_53B-23605_W_tif
  70
32
  10
437707.000
  20
4545691.000
  30
1595.085
  0
VERTEX
  8
PNOA-H_AMS_1956-57_33k_ES_PAN_21mic_H50_0458_fot_53B-23605_W_tif
  70
32
  10
437709.000
  20
4545691.500
  30
1595.301
  0
VERTEX
  8
PNOA-H_AMS_1956-57_33k_ES_PAN_21mic_H50_0458_fot_53B-23605_W_tif
  70
32
  10
437709.446
  20
4545691.356
  30
1595.372
  0
VERTEX
  8
PNOA-H_AMS_1956-57_33k_ES_PAN_21mic_H50_0458_fot_53B-23605_W_tif
  70
32
  10
438115.600
  20
4545560.300
  30
1659.973
  0
VERTEX
  8
PNOA-H_AMS_1956-57_33k_ES_PAN_21mic_H50_0458_fot_53B-23605_W_tif
  70
32
  10
438724.987
  20
4545363.665
  30
1756.9
  0
VERTEX
  8
PNOA-H_AMS_1956-57_33k_ES_PAN_21mic_H50_0458_fot_53B-23605_W_tif
  70
32
  10
438725.500
  20
4545363.500
  30
1756.982
  0
VERTEX
  8
PNOA-H_AMS_1956-57_33k_ES_PAN_21mic_H50_0458_fot_53B-23605_W_tif
  70
32
  10
438711.299
  20
4543510.000
  30
1644.734
  0
VERTEX
  8
PNOA-H_AMS_1956-57_33k_ES_PAN_21mic_H50_0458_fot_53B-23605_W_tif
  70
32
  10
438711.056
  20
4543510.000
  30
1644.734
  0
SEQEND
  8
PNOA-H_AMS_1956-57_33k_ES_PAN_21mic_H50_0458_fot_53B-23605_W_tif
  0
INSERT
  8
FeatureAttribs
  2
FEATURE
  41
1
  42
1
  43
1
  50
0
  10
439891.498
  20
4544564.500
 66
1
  0
ATTRIB
  8
FeatureAttribs
 70
0
  1
PNOA-H_AMS_1956-57_33k_ES_PAN_21mic_H50_0458_fot_53B-23604_W.tif
  2
NAME
  10
439891.498
  20
4544564.500
 40
23.44113
  0
SEQEND
  0
POLYLINE
  8
PNOA-H_AMS_1956-57_33k_ES_PAN_21mic_H50_0458_fot_53B-23604_W_tif
  70
9
  66
1
  0
VERTEX
  8
PNOA-H_AMS_1956-57_33k_ES_PAN_21mic_H50_0458_fot_53B-23604_W_tif
  70
32
  10
438711.299
  20
4543510.000
  30
1643.935
  0
VERTEX
  8
PNOA-H_AMS_1956-57_33k_ES_PAN_21mic_H50_0458_fot_53B-23604_W_tif
  70
32
  10
438711.056
  20
4543510.000
  30
1643.957
  0
VERTEX
  8
PNOA-H_AMS_1956-57_33k_ES_PAN_21mic_H50_0458_fot_53B-23604_W_tif
  70
32
  10
438725.000
  20
4545352.000
  30
1754.859
  0
VERTEX
  8
PNOA-H_AMS_1956-57_33k_ES_PAN_21mic_H50_0458_fot_53B-23604_W_tif
  70
32
  10
438725.500
  20
4545363.500
  30
1756.982
  0
VERTEX
  8
PNOA-H_AMS_1956-57_33k_ES_PAN_21mic_H50_0458_fot_53B-23604_W_tif
  70
32
  10
438728.000
  20
4545364.000
  30
1756.503
  0
VERTEX
  8
PNOA-H_AMS_1956-57_33k_ES_PAN_21mic_H50_0458_fot_53B-23604_W_tif
  70
32
  10
438730.500
  20
4545364.500
  30
1756.192
  0
VERTEX
  8
PNOA-H_AMS_1956-57_33k_ES_PAN_21mic_H50_0458_fot_53B-23604_W_tif
  70
32
  10
440249.165
  20
4545618.944
  30
1826.428
  0
VERTEX
  8
PNOA-H_AMS_1956-57_33k_ES_PAN_21mic_H50_0458_fot_53B-23604_W_tif
  70
32
  10
440249.500
  20
4545619.000
  30
1826.444
  0
VERTEX
  8
PNOA-H_AMS_1956-57_33k_ES_PAN_21mic_H50_0458_fot_53B-23604_W_tif
  70
32
  10
441021.669
  20
4545356.670
  30
1628.277
  0
VERTEX
  8
PNOA-H_AMS_1956-57_33k_ES_PAN_21mic_H50_0458_fot_53B-23604_W_tif
  70
32
  10
441031.000
  20
4545353.500
  30
1625.882
  0
VERTEX
  8
PNOA-H_AMS_1956-57_33k_ES_PAN_21mic_H50_0458_fot_53B-23604_W_tif
  70
32
  10
441108.005
  20
4543510.000
  30
1433.322
  0
VERTEX
  8
PNOA-H_AMS_1956-57_33k_ES_PAN_21mic_H50_0458_fot_53B-23604_W_tif
  70
32
  10
441107.795
  20
4543510.000
  30
1433.34
  0
VERTEX
  8
PNOA-H_AMS_1956-57_33k_ES_PAN_21mic_H50_0458_fot_53B-23604_W_tif
  70
32
  10
438711.299
  20
4543510.000
  30
1643.935
  0
SEQEND
  8
PNOA-H_AMS_1956-57_33k_ES_PAN_21mic_H50_0458_fot_53B-23604_W_tif
  0
INSERT
  8
FeatureAttribs
  2
FEATURE
  41
1
  42
1
  43
1
  50
0
  10
441711.842
  20
4544568.895
 66
1
  0
ATTRIB
  8
FeatureAttribs
 70
0
  1
PNOA-H_AMS_1956-57_33k_ES_PAN_21mic_H50_0458_fot_53B-23603_W.tif
  2
NAME
  10
441711.842
  20
4544568.895
 40
23.44113
  0
SEQEND
  0
POLYLINE
  8
PNOA-H_AMS_1956-57_33k_ES_PAN_21mic_H50_0458_fot_53B-23603_W_tif
  70
9
  66
1
  0
VERTEX
  8
PNOA-H_AMS_1956-57_33k_ES_PAN_21mic_H50_0458_fot_53B-23603_W_tif
  70
32
  10
441108.005
  20
4543510.000
  30
1433.673
  0
VERTEX
  8
PNOA-H_AMS_1956-57_33k_ES_PAN_21mic_H50_0458_fot_53B-23603_W_tif
  70
32
  10
441107.795
  20
4543510.000
  30
1433.684
  0
VERTEX
  8
PNOA-H_AMS_1956-57_33k_ES_PAN_21mic_H50_0458_fot_53B-23603_W_tif
  70
32
  10
441031.000
  20
4545353.500
  30
1625.882
  0
VERTEX
  8
PNOA-H_AMS_1956-57_33k_ES_PAN_21mic_H50_0458_fot_53B-23603_W_tif
  70
32
  10
441031.880
  20
4545353.682
  30
1625.86
  0
VERTEX
  8
PNOA-H_AMS_1956-57_33k_ES_PAN_21mic_H50_0458_fot_53B-23603_W_tif
  70
32
  10
442360.000
  20
4545627.791
  30
1593.219
  0
VERTEX
  8
PNOA-H_AMS_1956-57_33k_ES_PAN_21mic_H50_0458_fot_53B-23603_W_tif
  70
32
  10
442360.000
  20
4545627.396
  30
1593.178
  0
VERTEX
  8
PNOA-H_AMS_1956-57_33k_ES_PAN_21mic_H50_0458_fot_53B-23603_W_tif
  70
32
  10
442360.000
  20
4543510.000
  30
1372.707
  0
VERTEX
  8
PNOA-H_AMS_1956-57_33k_ES_PAN_21mic_H50_0458_fot_53B-23603_W_tif
  70
32
  10
441108.005
  20
4543510.000
  30
1433.673
  0
SEQEND
  8
PNOA-H_AMS_1956-57_33k_ES_PAN_21mic_H50_0458_fot_53B-23603_W_tif
  0
ENDSEC
  0
EOF
