  0
SECTION
  2
HEADER
  9
$ACADVER
  1
AC1009
  9
$LUNITS
  70
2
  9
$LIMMIN
  10
540095.004
  20
4557369.555
  9
$LIMMAX
  10
568160.385
  20
4576079.679
  9
$EXTMIN
  10
540095.004
  20
4557369.555
  9
$EXTMAX
  10
568160.385
  20
4576079.679
  999
Created by Global Mapper
  999
Projection: UTM
  999
Datum: ETRS89
  999
Ground Units: meters
  999
ZONE: 30
  0
ENDSEC
  0
SECTION
  2
TABLES
  0
ENDSEC
  0
SECTION
  2
BLOCKS
  0
BLOCK
  8
FeatureAttribs
  70
0
  2
FEATURE
  3
FEATURE
  10
0.00000000
  20
0.00000000
  0
ATTDEF
  8
FeatureAttribs
  70
0
  1
 
  2
NAME
  3
NAME
  10
0.00000000
  20
0.00000000
  40
1.00000000
  0
ENDBLK
  0
ENDSEC
  0
SECTION
  2
ENTITIES
  0
INSERT
  8
FeatureAttribs
  2
FEATURE
  41
1
  42
1
  43
1
  50
0
  10
540487.829
  20
4573857.589
 66
1
  0
ATTRIB
  8
FeatureAttribs
 70
0
  1
PNOA-H_AMS_1956-57_33k_ES_PAN_21mic_H50_0434_fot_46B-29771_E.tif
  2
NAME
  10
540487.829
  20
4573857.589
 40
33.73032
  0
SEQEND
  0
POLYLINE
  8
PNOA-H_AMS_1956-57_33k_ES_PAN_21mic_H50_0434_fot_46B-29771_E_tif
  70
9
  66
1
  0
VERTEX
  8
PNOA-H_AMS_1956-57_33k_ES_PAN_21mic_H50_0434_fot_46B-29771_E_tif
  70
32
  10
540736.679
  20
4571915.858
  30
1124.63
  0
VERTEX
  8
PNOA-H_AMS_1956-57_33k_ES_PAN_21mic_H50_0434_fot_46B-29771_E_tif
  70
32
  10
540606.500
  20
4571839.000
  30
1126.509
  0
VERTEX
  8
PNOA-H_AMS_1956-57_33k_ES_PAN_21mic_H50_0434_fot_46B-29771_E_tif
  70
32
  10
540606.050
  20
4571839.029
  30
1126.508
  0
VERTEX
  8
PNOA-H_AMS_1956-57_33k_ES_PAN_21mic_H50_0434_fot_46B-29771_E_tif
  70
32
  10
540117.096
  20
4571870.714
  30
1125.572
  0
VERTEX
  8
PNOA-H_AMS_1956-57_33k_ES_PAN_21mic_H50_0434_fot_46B-29771_E_tif
  70
32
  10
540107.776
  20
4573559.189
  30
0
  0
VERTEX
  8
PNOA-H_AMS_1956-57_33k_ES_PAN_21mic_H50_0434_fot_46B-29771_E_tif
  70
32
  10
540095.004
  20
4575872.027
  30
0
  0
VERTEX
  8
PNOA-H_AMS_1956-57_33k_ES_PAN_21mic_H50_0434_fot_46B-29771_E_tif
  70
32
  10
540814.626
  20
4575876.175
  30
0
  0
VERTEX
  8
PNOA-H_AMS_1956-57_33k_ES_PAN_21mic_H50_0434_fot_46B-29771_E_tif
  70
32
  10
540815.084
  20
4575876.177
  30
1075.675
  0
VERTEX
  8
PNOA-H_AMS_1956-57_33k_ES_PAN_21mic_H50_0434_fot_46B-29771_E_tif
  70
32
  10
540919.000
  20
4572023.500
  30
1121.999
  0
VERTEX
  8
PNOA-H_AMS_1956-57_33k_ES_PAN_21mic_H50_0434_fot_46B-29771_E_tif
  70
32
  10
540918.960
  20
4572023.476
  30
1121.999
  0
VERTEX
  8
PNOA-H_AMS_1956-57_33k_ES_PAN_21mic_H50_0434_fot_46B-29771_E_tif
  70
32
  10
540918.291
  20
4572023.081
  30
1122.009
  0
VERTEX
  8
PNOA-H_AMS_1956-57_33k_ES_PAN_21mic_H50_0434_fot_46B-29771_E_tif
  70
32
  10
540736.679
  20
4571915.858
  30
1124.63
  0
SEQEND
  8
PNOA-H_AMS_1956-57_33k_ES_PAN_21mic_H50_0434_fot_46B-29771_E_tif
  0
INSERT
  8
FeatureAttribs
  2
FEATURE
  41
1
  42
1
  43
1
  50
0
  10
547648.834
  20
4573969.726
 66
1
  0
ATTRIB
  8
FeatureAttribs
 70
0
  1
PNOA-H_AMS_1956-57_33k_ES_PAN_21mic_H50_0435_fot_46B-29768_E.tif
  2
NAME
  10
547648.834
  20
4573969.726
 40
33.73032
  0
SEQEND
  0
POLYLINE
  8
PNOA-H_AMS_1956-57_33k_ES_PAN_21mic_H50_0435_fot_46B-29768_E_tif
  70
9
  66
1
  0
VERTEX
  8
PNOA-H_AMS_1956-57_33k_ES_PAN_21mic_H50_0435_fot_46B-29768_E_tif
  70
32
  10
549079.000
  20
4572059.000
  30
1107.48
  0
VERTEX
  8
PNOA-H_AMS_1956-57_33k_ES_PAN_21mic_H50_0435_fot_46B-29768_E_tif
  70
32
  10
546366.500
  20
4572013.500
  30
1155.811
  0
VERTEX
  8
PNOA-H_AMS_1956-57_33k_ES_PAN_21mic_H50_0435_fot_46B-29768_E_tif
  70
32
  10
546360.949
  20
4572013.673
  30
1155.841
  0
VERTEX
  8
PNOA-H_AMS_1956-57_33k_ES_PAN_21mic_H50_0435_fot_46B-29768_E_tif
  70
32
  10
546350.980
  20
4572013.985
  30
1155.895
  0
VERTEX
  8
PNOA-H_AMS_1956-57_33k_ES_PAN_21mic_H50_0435_fot_46B-29768_E_tif
  70
32
  10
546350.500
  20
4572014.000
  30
1155.898
  0
VERTEX
  8
PNOA-H_AMS_1956-57_33k_ES_PAN_21mic_H50_0435_fot_46B-29768_E_tif
  70
32
  10
546192.258
  20
4575889.000
  30
1046.488
  0
VERTEX
  8
PNOA-H_AMS_1956-57_33k_ES_PAN_21mic_H50_0435_fot_46B-29768_E_tif
  70
32
  10
546191.465
  20
4575908.418
  30
1045.94
  0
VERTEX
  8
PNOA-H_AMS_1956-57_33k_ES_PAN_21mic_H50_0435_fot_46B-29768_E_tif
  70
32
  10
547068.075
  20
4575913.892
  30
0
  0
VERTEX
  8
PNOA-H_AMS_1956-57_33k_ES_PAN_21mic_H50_0435_fot_46B-29768_E_tif
  70
32
  10
548860.182
  20
4575925.942
  30
0
  0
VERTEX
  8
PNOA-H_AMS_1956-57_33k_ES_PAN_21mic_H50_0435_fot_46B-29768_E_tif
  70
32
  10
548861.610
  20
4575925.952
  30
1053.414
  0
VERTEX
  8
PNOA-H_AMS_1956-57_33k_ES_PAN_21mic_H50_0435_fot_46B-29768_E_tif
  70
32
  10
548943.500
  20
4575895.500
  30
1055.246
  0
VERTEX
  8
PNOA-H_AMS_1956-57_33k_ES_PAN_21mic_H50_0435_fot_46B-29768_E_tif
  70
32
  10
549109.498
  20
4572068.555
  30
1105.006
  0
VERTEX
  8
PNOA-H_AMS_1956-57_33k_ES_PAN_21mic_H50_0435_fot_46B-29768_E_tif
  70
32
  10
549109.500
  20
4572068.500
  30
1105.006
  0
VERTEX
  8
PNOA-H_AMS_1956-57_33k_ES_PAN_21mic_H50_0435_fot_46B-29768_E_tif
  70
32
  10
549096.007
  20
4572059.505
  30
1105.987
  0
VERTEX
  8
PNOA-H_AMS_1956-57_33k_ES_PAN_21mic_H50_0435_fot_46B-29768_E_tif
  70
32
  10
549096.000
  20
4572059.500
  30
1105.988
  0
VERTEX
  8
PNOA-H_AMS_1956-57_33k_ES_PAN_21mic_H50_0435_fot_46B-29768_E_tif
  70
32
  10
549079.000
  20
4572059.000
  30
1107.48
  0
SEQEND
  8
PNOA-H_AMS_1956-57_33k_ES_PAN_21mic_H50_0435_fot_46B-29768_E_tif
  0
INSERT
  8
FeatureAttribs
  2
FEATURE
  41
1
  42
1
  43
1
  50
0
  10
544906.548
  20
4573942.209
 66
1
  0
ATTRIB
  8
FeatureAttribs
 70
0
  1
PNOA-H_AMS_1956-57_33k_ES_PAN_21mic_H50_0435_fot_46B-29769_E.tif
  2
NAME
  10
544906.548
  20
4573942.209
 40
33.73032
  0
SEQEND
  0
POLYLINE
  8
PNOA-H_AMS_1956-57_33k_ES_PAN_21mic_H50_0435_fot_46B-29769_E_tif
  70
9
  66
1
  0
VERTEX
  8
PNOA-H_AMS_1956-57_33k_ES_PAN_21mic_H50_0435_fot_46B-29769_E_tif
  70
32
  10
546350.326
  20
4572013.049
  30
1155.883
  0
VERTEX
  8
PNOA-H_AMS_1956-57_33k_ES_PAN_21mic_H50_0435_fot_46B-29769_E_tif
  70
32
  10
546295.000
  20
4571976.000
  30
1155.738
  0
VERTEX
  8
PNOA-H_AMS_1956-57_33k_ES_PAN_21mic_H50_0435_fot_46B-29769_E_tif
  70
32
  10
543564.500
  20
4571976.500
  30
1141.225
  0
VERTEX
  8
PNOA-H_AMS_1956-57_33k_ES_PAN_21mic_H50_0435_fot_46B-29769_E_tif
  70
32
  10
543517.884
  20
4575891.755
  30
1064.296
  0
VERTEX
  8
PNOA-H_AMS_1956-57_33k_ES_PAN_21mic_H50_0435_fot_46B-29769_E_tif
  70
32
  10
543517.898
  20
4575891.755
  30
0
  0
VERTEX
  8
PNOA-H_AMS_1956-57_33k_ES_PAN_21mic_H50_0435_fot_46B-29769_E_tif
  70
32
  10
543581.538
  20
4575892.122
  30
0
  0
VERTEX
  8
PNOA-H_AMS_1956-57_33k_ES_PAN_21mic_H50_0435_fot_46B-29769_E_tif
  70
32
  10
546191.463
  20
4575908.418
  30
1045.941
  0
VERTEX
  8
PNOA-H_AMS_1956-57_33k_ES_PAN_21mic_H50_0435_fot_46B-29769_E_tif
  70
32
  10
546192.258
  20
4575889.000
  30
1046.489
  0
VERTEX
  8
PNOA-H_AMS_1956-57_33k_ES_PAN_21mic_H50_0435_fot_46B-29769_E_tif
  70
32
  10
546350.980
  20
4572013.985
  30
1155.871
  0
VERTEX
  8
PNOA-H_AMS_1956-57_33k_ES_PAN_21mic_H50_0435_fot_46B-29769_E_tif
  70
32
  10
546351.000
  20
4572013.500
  30
1155.885
  0
VERTEX
  8
PNOA-H_AMS_1956-57_33k_ES_PAN_21mic_H50_0435_fot_46B-29769_E_tif
  70
32
  10
546350.326
  20
4572013.049
  30
1155.883
  0
SEQEND
  8
PNOA-H_AMS_1956-57_33k_ES_PAN_21mic_H50_0435_fot_46B-29769_E_tif
  0
INSERT
  8
FeatureAttribs
  2
FEATURE
  41
1
  42
1
  43
1
  50
0
  10
542205.081
  20
4573892.628
 66
1
  0
ATTRIB
  8
FeatureAttribs
 70
0
  1
PNOA-H_AMS_1956-57_33k_ES_PAN_21mic_H50_0435_fot_46B-29770_E.tif
  2
NAME
  10
542205.081
  20
4573892.628
 40
33.73032
  0
SEQEND
  0
POLYLINE
  8
PNOA-H_AMS_1956-57_33k_ES_PAN_21mic_H50_0435_fot_46B-29770_E_tif
  70
9
  66
1
  0
VERTEX
  8
PNOA-H_AMS_1956-57_33k_ES_PAN_21mic_H50_0435_fot_46B-29770_E_tif
  70
32
  10
543431.500
  20
4571893.500
  30
1145.959
  0
VERTEX
  8
PNOA-H_AMS_1956-57_33k_ES_PAN_21mic_H50_0435_fot_46B-29770_E_tif
  70
32
  10
543424.500
  20
4571893.500
  30
1146.242
  0
VERTEX
  8
PNOA-H_AMS_1956-57_33k_ES_PAN_21mic_H50_0435_fot_46B-29770_E_tif
  70
32
  10
541086.033
  20
4572014.833
  30
1123.615
  0
VERTEX
  8
PNOA-H_AMS_1956-57_33k_ES_PAN_21mic_H50_0435_fot_46B-29770_E_tif
  70
32
  10
540919.000
  20
4572023.500
  30
1121.999
  0
VERTEX
  8
PNOA-H_AMS_1956-57_33k_ES_PAN_21mic_H50_0435_fot_46B-29770_E_tif
  70
32
  10
540814.626
  20
4575876.175
  30
1075.683
  0
VERTEX
  8
PNOA-H_AMS_1956-57_33k_ES_PAN_21mic_H50_0435_fot_46B-29770_E_tif
  70
32
  10
540815.084
  20
4575876.177
  30
0
  0
VERTEX
  8
PNOA-H_AMS_1956-57_33k_ES_PAN_21mic_H50_0435_fot_46B-29770_E_tif
  70
32
  10
543517.884
  20
4575891.755
  30
1064.296
  0
VERTEX
  8
PNOA-H_AMS_1956-57_33k_ES_PAN_21mic_H50_0435_fot_46B-29770_E_tif
  70
32
  10
543517.898
  20
4575891.755
  30
1064.396
  0
VERTEX
  8
PNOA-H_AMS_1956-57_33k_ES_PAN_21mic_H50_0435_fot_46B-29770_E_tif
  70
32
  10
543564.500
  20
4571994.000
  30
1142.351
  0
VERTEX
  8
PNOA-H_AMS_1956-57_33k_ES_PAN_21mic_H50_0435_fot_46B-29770_E_tif
  70
32
  10
543564.500
  20
4571976.500
  30
1141.225
  0
VERTEX
  8
PNOA-H_AMS_1956-57_33k_ES_PAN_21mic_H50_0435_fot_46B-29770_E_tif
  70
32
  10
543564.500
  20
4571976.000
  30
1141.193
  0
VERTEX
  8
PNOA-H_AMS_1956-57_33k_ES_PAN_21mic_H50_0435_fot_46B-29770_E_tif
  70
32
  10
543434.000
  20
4571894.500
  30
1145.835
  0
VERTEX
  8
PNOA-H_AMS_1956-57_33k_ES_PAN_21mic_H50_0435_fot_46B-29770_E_tif
  70
32
  10
543432.000
  20
4571893.500
  30
1145.939
  0
VERTEX
  8
PNOA-H_AMS_1956-57_33k_ES_PAN_21mic_H50_0435_fot_46B-29770_E_tif
  70
32
  10
543431.500
  20
4571893.500
  30
1145.959
  0
SEQEND
  8
PNOA-H_AMS_1956-57_33k_ES_PAN_21mic_H50_0435_fot_46B-29770_E_tif
  0
INSERT
  8
FeatureAttribs
  2
FEATURE
  41
1
  42
1
  43
1
  50
0
  10
548944.000
  20
4575911.299
 66
1
  0
ATTRIB
  8
FeatureAttribs
 70
0
  1
PNOA-H_AMS_1956-57_33k_ES_PAN_21mic_H50_0407_fot_166-36186_X.tif
  2
NAME
  10
548944.000
  20
4575911.299
 40
33.73032
  0
SEQEND
  0
POLYLINE
  8
PNOA-H_AMS_1956-57_33k_ES_PAN_21mic_H50_0407_fot_166-36186_X_tif
  70
9
  66
1
  0
VERTEX
  8
PNOA-H_AMS_1956-57_33k_ES_PAN_21mic_H50_0407_fot_166-36186_X_tif
  70
32
  10
548943.500
  20
4575895.500
  30
1055.247
  0
VERTEX
  8
PNOA-H_AMS_1956-57_33k_ES_PAN_21mic_H50_0407_fot_166-36186_X_tif
  70
32
  10
548942.000
  20
4575895.500
  30
1055.267
  0
VERTEX
  8
PNOA-H_AMS_1956-57_33k_ES_PAN_21mic_H50_0407_fot_166-36186_X_tif
  70
32
  10
548932.500
  20
4575899.000
  30
1055.357
  0
VERTEX
  8
PNOA-H_AMS_1956-57_33k_ES_PAN_21mic_H50_0407_fot_166-36186_X_tif
  70
32
  10
548860.182
  20
4575925.942
  30
1053.699
  0
VERTEX
  8
PNOA-H_AMS_1956-57_33k_ES_PAN_21mic_H50_0407_fot_166-36186_X_tif
  70
32
  10
548861.610
  20
4575925.952
  30
1053.706
  0
VERTEX
  8
PNOA-H_AMS_1956-57_33k_ES_PAN_21mic_H50_0407_fot_166-36186_X_tif
  70
32
  10
549030.450
  20
4575927.087
  30
1054.54
  0
VERTEX
  8
PNOA-H_AMS_1956-57_33k_ES_PAN_21mic_H50_0407_fot_166-36186_X_tif
  70
32
  10
549032.023
  20
4575927.098
  30
1054.547
  0
VERTEX
  8
PNOA-H_AMS_1956-57_33k_ES_PAN_21mic_H50_0407_fot_166-36186_X_tif
  70
32
  10
548945.000
  20
4575895.500
  30
1055.227
  0
VERTEX
  8
PNOA-H_AMS_1956-57_33k_ES_PAN_21mic_H50_0407_fot_166-36186_X_tif
  70
32
  10
548943.500
  20
4575895.500
  30
1055.247
  0
SEQEND
  8
PNOA-H_AMS_1956-57_33k_ES_PAN_21mic_H50_0407_fot_166-36186_X_tif
  0
INSERT
  8
FeatureAttribs
  2
FEATURE
  41
1
  42
1
  43
1
  50
0
  10
553113.850
  20
4574060.930
 66
1
  0
ATTRIB
  8
FeatureAttribs
 70
0
  1
PNOA-H_AMS_1956-57_33k_ES_PAN_21mic_H50_0435_fot_46B-29766_E.tif
  2
NAME
  10
553113.850
  20
4574060.930
 40
33.73032
  0
SEQEND
  0
POLYLINE
  8
PNOA-H_AMS_1956-57_33k_ES_PAN_21mic_H50_0435_fot_46B-29766_E_tif
  70
9
  66
1
  0
VERTEX
  8
PNOA-H_AMS_1956-57_33k_ES_PAN_21mic_H50_0435_fot_46B-29766_E_tif
  70
32
  10
554547.000
  20
4572301.500
  30
915.239
  0
VERTEX
  8
PNOA-H_AMS_1956-57_33k_ES_PAN_21mic_H50_0435_fot_46B-29766_E_tif
  70
32
  10
551866.000
  20
4572156.500
  30
932.994
  0
VERTEX
  8
PNOA-H_AMS_1956-57_33k_ES_PAN_21mic_H50_0435_fot_46B-29766_E_tif
  70
32
  10
551861.013
  20
4572156.500
  30
933.218
  0
VERTEX
  8
PNOA-H_AMS_1956-57_33k_ES_PAN_21mic_H50_0435_fot_46B-29766_E_tif
  70
32
  10
551861.000
  20
4572156.500
  30
933.219
  0
VERTEX
  8
PNOA-H_AMS_1956-57_33k_ES_PAN_21mic_H50_0435_fot_46B-29766_E_tif
  70
32
  10
551850.500
  20
4572162.000
  30
933.743
  0
VERTEX
  8
PNOA-H_AMS_1956-57_33k_ES_PAN_21mic_H50_0435_fot_46B-29766_E_tif
  70
32
  10
551850.204
  20
4572162.889
  30
933.748
  0
VERTEX
  8
PNOA-H_AMS_1956-57_33k_ES_PAN_21mic_H50_0435_fot_46B-29766_E_tif
  70
32
  10
551849.364
  20
4572165.408
  30
933.764
  0
VERTEX
  8
PNOA-H_AMS_1956-57_33k_ES_PAN_21mic_H50_0435_fot_46B-29766_E_tif
  70
32
  10
551849.000
  20
4572166.500
  30
933.771
  0
VERTEX
  8
PNOA-H_AMS_1956-57_33k_ES_PAN_21mic_H50_0435_fot_46B-29766_E_tif
  70
32
  10
551635.829
  20
4575945.125
  30
1059.164
  0
VERTEX
  8
PNOA-H_AMS_1956-57_33k_ES_PAN_21mic_H50_0435_fot_46B-29766_E_tif
  70
32
  10
551635.834
  20
4575945.125
  30
1059.164
  0
VERTEX
  8
PNOA-H_AMS_1956-57_33k_ES_PAN_21mic_H50_0435_fot_46B-29766_E_tif
  70
32
  10
554041.159
  20
4575962.455
  30
0
  0
VERTEX
  8
PNOA-H_AMS_1956-57_33k_ES_PAN_21mic_H50_0435_fot_46B-29766_E_tif
  70
32
  10
554419.085
  20
4575965.359
  30
1134.818
  0
VERTEX
  8
PNOA-H_AMS_1956-57_33k_ES_PAN_21mic_H50_0435_fot_46B-29766_E_tif
  70
32
  10
554547.000
  20
4572301.500
  30
915.239
  0
SEQEND
  8
PNOA-H_AMS_1956-57_33k_ES_PAN_21mic_H50_0435_fot_46B-29766_E_tif
  0
INSERT
  8
FeatureAttribs
  2
FEATURE
  41
1
  42
1
  43
1
  50
0
  10
550385.380
  20
4574006.813
 66
1
  0
ATTRIB
  8
FeatureAttribs
 70
0
  1
PNOA-H_AMS_1956-57_33k_ES_PAN_21mic_H50_0435_fot_46B-29767_E.tif
  2
NAME
  10
550385.380
  20
4574006.813
 40
33.73032
  0
SEQEND
  0
POLYLINE
  8
PNOA-H_AMS_1956-57_33k_ES_PAN_21mic_H50_0435_fot_46B-29767_E_tif
  70
9
  66
1
  0
VERTEX
  8
PNOA-H_AMS_1956-57_33k_ES_PAN_21mic_H50_0435_fot_46B-29767_E_tif
  70
32
  10
551849.500
  20
4572163.000
  30
933.786
  0
VERTEX
  8
PNOA-H_AMS_1956-57_33k_ES_PAN_21mic_H50_0435_fot_46B-29767_E_tif
  70
32
  10
549109.500
  20
4572068.500
  30
1105.006
  0
VERTEX
  8
PNOA-H_AMS_1956-57_33k_ES_PAN_21mic_H50_0435_fot_46B-29767_E_tif
  70
32
  10
549109.498
  20
4572068.555
  30
1105.006
  0
VERTEX
  8
PNOA-H_AMS_1956-57_33k_ES_PAN_21mic_H50_0435_fot_46B-29767_E_tif
  70
32
  10
548943.500
  20
4575895.500
  30
1055.246
  0
VERTEX
  8
PNOA-H_AMS_1956-57_33k_ES_PAN_21mic_H50_0435_fot_46B-29767_E_tif
  70
32
  10
549030.450
  20
4575927.087
  30
1054.459
  0
VERTEX
  8
PNOA-H_AMS_1956-57_33k_ES_PAN_21mic_H50_0435_fot_46B-29767_E_tif
  70
32
  10
549032.023
  20
4575927.098
  30
0
  0
VERTEX
  8
PNOA-H_AMS_1956-57_33k_ES_PAN_21mic_H50_0435_fot_46B-29767_E_tif
  70
32
  10
550554.615
  20
4575937.336
  30
0
  0
VERTEX
  8
PNOA-H_AMS_1956-57_33k_ES_PAN_21mic_H50_0435_fot_46B-29767_E_tif
  70
32
  10
551635.829
  20
4575945.125
  30
0
  0
VERTEX
  8
PNOA-H_AMS_1956-57_33k_ES_PAN_21mic_H50_0435_fot_46B-29767_E_tif
  70
32
  10
551635.834
  20
4575945.125
  30
1059.166
  0
VERTEX
  8
PNOA-H_AMS_1956-57_33k_ES_PAN_21mic_H50_0435_fot_46B-29767_E_tif
  70
32
  10
551849.364
  20
4572165.408
  30
933.865
  0
VERTEX
  8
PNOA-H_AMS_1956-57_33k_ES_PAN_21mic_H50_0435_fot_46B-29767_E_tif
  70
32
  10
551849.500
  20
4572163.000
  30
933.786
  0
SEQEND
  8
PNOA-H_AMS_1956-57_33k_ES_PAN_21mic_H50_0435_fot_46B-29767_E_tif
  0
INSERT
  8
FeatureAttribs
  2
FEATURE
  41
1
  42
1
  43
1
  50
0
  10
561536.794
  20
4574236.449
 66
1
  0
ATTRIB
  8
FeatureAttribs
 70
0
  1
PNOA-H_AMS_1956-57_33k_ES_PAN_21mic_H50_0435_fot_46B-29763_E.tif
  2
NAME
  10
561536.794
  20
4574236.449
 40
33.73032
  0
SEQEND
  0
POLYLINE
  8
PNOA-H_AMS_1956-57_33k_ES_PAN_21mic_H50_0435_fot_46B-29763_E_tif
  70
9
  66
1
  0
VERTEX
  8
PNOA-H_AMS_1956-57_33k_ES_PAN_21mic_H50_0435_fot_46B-29763_E_tif
  70
32
  10
563023.000
  20
4572593.500
  30
826.88
  0
VERTEX
  8
PNOA-H_AMS_1956-57_33k_ES_PAN_21mic_H50_0435_fot_46B-29763_E_tif
  70
32
  10
560247.000
  20
4572438.000
  30
854.511
  0
VERTEX
  8
PNOA-H_AMS_1956-57_33k_ES_PAN_21mic_H50_0435_fot_46B-29763_E_tif
  70
32
  10
560242.405
  20
4572438.219
  30
854.885
  0
VERTEX
  8
PNOA-H_AMS_1956-57_33k_ES_PAN_21mic_H50_0435_fot_46B-29763_E_tif
  70
32
  10
560237.753
  20
4572438.440
  30
855.263
  0
VERTEX
  8
PNOA-H_AMS_1956-57_33k_ES_PAN_21mic_H50_0435_fot_46B-29763_E_tif
  70
32
  10
560236.500
  20
4572438.500
  30
855.365
  0
VERTEX
  8
PNOA-H_AMS_1956-57_33k_ES_PAN_21mic_H50_0435_fot_46B-29763_E_tif
  70
32
  10
560072.171
  20
4572535.604
  30
876.257
  0
VERTEX
  8
PNOA-H_AMS_1956-57_33k_ES_PAN_21mic_H50_0435_fot_46B-29763_E_tif
  70
32
  10
560071.500
  20
4572536.000
  30
876.343
  0
VERTEX
  8
PNOA-H_AMS_1956-57_33k_ES_PAN_21mic_H50_0435_fot_46B-29763_E_tif
  70
32
  10
560046.930
  20
4576009.819
  30
919.872
  0
VERTEX
  8
PNOA-H_AMS_1956-57_33k_ES_PAN_21mic_H50_0435_fot_46B-29763_E_tif
  70
32
  10
561014.257
  20
4576017.717
  30
0
  0
VERTEX
  8
PNOA-H_AMS_1956-57_33k_ES_PAN_21mic_H50_0435_fot_46B-29763_E_tif
  70
32
  10
563001.413
  20
4576034.897
  30
0
  0
VERTEX
  8
PNOA-H_AMS_1956-57_33k_ES_PAN_21mic_H50_0435_fot_46B-29763_E_tif
  70
32
  10
563001.443
  20
4576034.898
  30
890.282
  0
VERTEX
  8
PNOA-H_AMS_1956-57_33k_ES_PAN_21mic_H50_0435_fot_46B-29763_E_tif
  70
32
  10
563025.500
  20
4572620.500
  30
828.124
  0
VERTEX
  8
PNOA-H_AMS_1956-57_33k_ES_PAN_21mic_H50_0435_fot_46B-29763_E_tif
  70
32
  10
563025.500
  20
4572594.000
  30
826.946
  0
VERTEX
  8
PNOA-H_AMS_1956-57_33k_ES_PAN_21mic_H50_0435_fot_46B-29763_E_tif
  70
32
  10
563025.497
  20
4572593.999
  30
826.945
  0
VERTEX
  8
PNOA-H_AMS_1956-57_33k_ES_PAN_21mic_H50_0435_fot_46B-29763_E_tif
  70
32
  10
563024.184
  20
4572593.737
  30
826.911
  0
VERTEX
  8
PNOA-H_AMS_1956-57_33k_ES_PAN_21mic_H50_0435_fot_46B-29763_E_tif
  70
32
  10
563023.000
  20
4572593.500
  30
826.88
  0
SEQEND
  8
PNOA-H_AMS_1956-57_33k_ES_PAN_21mic_H50_0435_fot_46B-29763_E_tif
  0
INSERT
  8
FeatureAttribs
  2
FEATURE
  41
1
  42
1
  43
1
  50
0
  10
555855.392
  20
4574112.730
 66
1
  0
ATTRIB
  8
FeatureAttribs
 70
0
  1
PNOA-H_AMS_1956-57_33k_ES_PAN_21mic_H50_0435_fot_46B-29765_E.tif
  2
NAME
  10
555855.392
  20
4574112.730
 40
33.73032
  0
SEQEND
  0
POLYLINE
  8
PNOA-H_AMS_1956-57_33k_ES_PAN_21mic_H50_0435_fot_46B-29765_E_tif
  70
9
  66
1
  0
VERTEX
  8
PNOA-H_AMS_1956-57_33k_ES_PAN_21mic_H50_0435_fot_46B-29765_E_tif
  70
32
  10
557282.614
  20
4572411.442
  30
888.865
  0
VERTEX
  8
PNOA-H_AMS_1956-57_33k_ES_PAN_21mic_H50_0435_fot_46B-29765_E_tif
  70
32
  10
554668.500
  20
4572239.000
  30
908.67
  0
VERTEX
  8
PNOA-H_AMS_1956-57_33k_ES_PAN_21mic_H50_0435_fot_46B-29765_E_tif
  70
32
  10
554661.500
  20
4572239.000
  30
908.86
  0
VERTEX
  8
PNOA-H_AMS_1956-57_33k_ES_PAN_21mic_H50_0435_fot_46B-29765_E_tif
  70
32
  10
554661.100
  20
4572239.000
  30
908.871
  0
VERTEX
  8
PNOA-H_AMS_1956-57_33k_ES_PAN_21mic_H50_0435_fot_46B-29765_E_tif
  70
32
  10
554661.000
  20
4572239.000
  30
908.873
  0
VERTEX
  8
PNOA-H_AMS_1956-57_33k_ES_PAN_21mic_H50_0435_fot_46B-29765_E_tif
  70
32
  10
554656.000
  20
4572241.500
  30
909.01
  0
VERTEX
  8
PNOA-H_AMS_1956-57_33k_ES_PAN_21mic_H50_0435_fot_46B-29765_E_tif
  70
32
  10
554547.000
  20
4572301.500
  30
915.239
  0
VERTEX
  8
PNOA-H_AMS_1956-57_33k_ES_PAN_21mic_H50_0435_fot_46B-29765_E_tif
  70
32
  10
554419.085
  20
4575965.359
  30
1134.818
  0
VERTEX
  8
PNOA-H_AMS_1956-57_33k_ES_PAN_21mic_H50_0435_fot_46B-29765_E_tif
  70
32
  10
557164.810
  20
4575986.460
  30
970.219
  0
VERTEX
  8
PNOA-H_AMS_1956-57_33k_ES_PAN_21mic_H50_0435_fot_46B-29765_E_tif
  70
32
  10
557283.500
  20
4572411.500
  30
888.859
  0
VERTEX
  8
PNOA-H_AMS_1956-57_33k_ES_PAN_21mic_H50_0435_fot_46B-29765_E_tif
  70
32
  10
557283.483
  20
4572411.499
  30
888.859
  0
VERTEX
  8
PNOA-H_AMS_1956-57_33k_ES_PAN_21mic_H50_0435_fot_46B-29765_E_tif
  70
32
  10
557282.614
  20
4572411.442
  30
888.865
  0
SEQEND
  8
PNOA-H_AMS_1956-57_33k_ES_PAN_21mic_H50_0435_fot_46B-29765_E_tif
  0
INSERT
  8
FeatureAttribs
  2
FEATURE
  41
1
  42
1
  43
1
  50
0
  10
558642.437
  20
4574174.409
 66
1
  0
ATTRIB
  8
FeatureAttribs
 70
0
  1
PNOA-H_AMS_1956-57_33k_ES_PAN_21mic_H50_0435_fot_46B-29764_E.tif
  2
NAME
  10
558642.437
  20
4574174.409
 40
33.73032
  0
SEQEND
  0
POLYLINE
  8
PNOA-H_AMS_1956-57_33k_ES_PAN_21mic_H50_0435_fot_46B-29764_E_tif
  70
9
  66
1
  0
VERTEX
  8
PNOA-H_AMS_1956-57_33k_ES_PAN_21mic_H50_0435_fot_46B-29764_E_tif
  70
32
  10
557424.500
  20
4572339.000
  30
886.59
  0
VERTEX
  8
PNOA-H_AMS_1956-57_33k_ES_PAN_21mic_H50_0435_fot_46B-29764_E_tif
  70
32
  10
557423.500
  20
4572339.000
  30
886.592
  0
VERTEX
  8
PNOA-H_AMS_1956-57_33k_ES_PAN_21mic_H50_0435_fot_46B-29764_E_tif
  70
32
  10
557286.338
  20
4572409.541
  30
888.8
  0
VERTEX
  8
PNOA-H_AMS_1956-57_33k_ES_PAN_21mic_H50_0435_fot_46B-29764_E_tif
  70
32
  10
557283.500
  20
4572411.000
  30
888.846
  0
VERTEX
  8
PNOA-H_AMS_1956-57_33k_ES_PAN_21mic_H50_0435_fot_46B-29764_E_tif
  70
32
  10
557283.483
  20
4572411.499
  30
888.857
  0
VERTEX
  8
PNOA-H_AMS_1956-57_33k_ES_PAN_21mic_H50_0435_fot_46B-29764_E_tif
  70
32
  10
557164.810
  20
4575986.460
  30
970.219
  0
VERTEX
  8
PNOA-H_AMS_1956-57_33k_ES_PAN_21mic_H50_0435_fot_46B-29764_E_tif
  70
32
  10
557527.706
  20
4575989.249
  30
0
  0
VERTEX
  8
PNOA-H_AMS_1956-57_33k_ES_PAN_21mic_H50_0435_fot_46B-29764_E_tif
  70
32
  10
560046.930
  20
4576009.819
  30
919.872
  0
VERTEX
  8
PNOA-H_AMS_1956-57_33k_ES_PAN_21mic_H50_0435_fot_46B-29764_E_tif
  70
32
  10
560071.500
  20
4572536.000
  30
876.343
  0
VERTEX
  8
PNOA-H_AMS_1956-57_33k_ES_PAN_21mic_H50_0435_fot_46B-29764_E_tif
  70
32
  10
560069.934
  20
4572535.883
  30
876.349
  0
VERTEX
  8
PNOA-H_AMS_1956-57_33k_ES_PAN_21mic_H50_0435_fot_46B-29764_E_tif
  70
32
  10
557431.000
  20
4572339.000
  30
886.578
  0
VERTEX
  8
PNOA-H_AMS_1956-57_33k_ES_PAN_21mic_H50_0435_fot_46B-29764_E_tif
  70
32
  10
557424.500
  20
4572339.000
  30
886.59
  0
SEQEND
  8
PNOA-H_AMS_1956-57_33k_ES_PAN_21mic_H50_0435_fot_46B-29764_E_tif
  0
INSERT
  8
FeatureAttribs
  2
FEATURE
  41
1
  42
1
  43
1
  50
0
  10
566961.048
  20
4574332.339
 66
1
  0
ATTRIB
  8
FeatureAttribs
 70
0
  1
PNOA-H_AMS_1956-57_33k_ES_PAN_21mic_H50_0435_fot_46B-29761_E.tif
  2
NAME
  10
566961.048
  20
4574332.339
 40
33.73032
  0
SEQEND
  0
POLYLINE
  8
PNOA-H_AMS_1956-57_33k_ES_PAN_21mic_H50_0435_fot_46B-29761_E_tif
  70
9
  66
1
  0
VERTEX
  8
PNOA-H_AMS_1956-57_33k_ES_PAN_21mic_H50_0435_fot_46B-29761_E_tif
  70
32
  10
568018.847
  20
4572718.172
  30
815.003
  0
VERTEX
  8
PNOA-H_AMS_1956-57_33k_ES_PAN_21mic_H50_0435_fot_46B-29761_E_tif
  70
32
  10
566111.500
  20
4572585.000
  30
824.059
  0
VERTEX
  8
PNOA-H_AMS_1956-57_33k_ES_PAN_21mic_H50_0435_fot_46B-29761_E_tif
  70
32
  10
566110.341
  20
4572585.129
  30
824.098
  0
VERTEX
  8
PNOA-H_AMS_1956-57_33k_ES_PAN_21mic_H50_0435_fot_46B-29761_E_tif
  70
32
  10
566107.865
  20
4572585.404
  30
824.182
  0
VERTEX
  8
PNOA-H_AMS_1956-57_33k_ES_PAN_21mic_H50_0435_fot_46B-29761_E_tif
  70
32
  10
566107.000
  20
4572585.500
  30
824.211
  0
VERTEX
  8
PNOA-H_AMS_1956-57_33k_ES_PAN_21mic_H50_0435_fot_46B-29761_E_tif
  70
32
  10
565934.500
  20
4572695.000
  30
844.272
  0
VERTEX
  8
PNOA-H_AMS_1956-57_33k_ES_PAN_21mic_H50_0435_fot_46B-29761_E_tif
  70
32
  10
565934.495
  20
4572695.500
  30
844.272
  0
VERTEX
  8
PNOA-H_AMS_1956-57_33k_ES_PAN_21mic_H50_0435_fot_46B-29761_E_tif
  70
32
  10
565901.323
  20
4576060.642
  30
847.901
  0
VERTEX
  8
PNOA-H_AMS_1956-57_33k_ES_PAN_21mic_H50_0435_fot_46B-29761_E_tif
  70
32
  10
567987.373
  20
4576079.679
  30
0
  0
VERTEX
  8
PNOA-H_AMS_1956-57_33k_ES_PAN_21mic_H50_0435_fot_46B-29761_E_tif
  70
32
  10
568009.031
  20
4573766.821
  30
0
  0
VERTEX
  8
PNOA-H_AMS_1956-57_33k_ES_PAN_21mic_H50_0435_fot_46B-29761_E_tif
  70
32
  10
568018.843
  20
4572718.585
  30
0
  0
VERTEX
  8
PNOA-H_AMS_1956-57_33k_ES_PAN_21mic_H50_0435_fot_46B-29761_E_tif
  70
32
  10
568018.847
  20
4572718.172
  30
815.003
  0
SEQEND
  8
PNOA-H_AMS_1956-57_33k_ES_PAN_21mic_H50_0435_fot_46B-29761_E_tif
  0
INSERT
  8
FeatureAttribs
  2
FEATURE
  41
1
  42
1
  43
1
  50
0
  10
564466.059
  20
4574307.071
 66
1
  0
ATTRIB
  8
FeatureAttribs
 70
0
  1
PNOA-H_AMS_1956-57_33k_ES_PAN_21mic_H50_0435_fot_46B-29762_E.tif
  2
NAME
  10
564466.059
  20
4574307.071
 40
33.73032
  0
SEQEND
  0
POLYLINE
  8
PNOA-H_AMS_1956-57_33k_ES_PAN_21mic_H50_0435_fot_46B-29762_E_tif
  70
9
  66
1
  0
VERTEX
  8
PNOA-H_AMS_1956-57_33k_ES_PAN_21mic_H50_0435_fot_46B-29762_E_tif
  70
32
  10
563092.930
  20
4572553.546
  30
826.443
  0
VERTEX
  8
PNOA-H_AMS_1956-57_33k_ES_PAN_21mic_H50_0435_fot_46B-29762_E_tif
  70
32
  10
563092.000
  20
4572553.500
  30
826.437
  0
VERTEX
  8
PNOA-H_AMS_1956-57_33k_ES_PAN_21mic_H50_0435_fot_46B-29762_E_tif
  70
32
  10
563025.646
  20
4572593.412
  30
826.925
  0
VERTEX
  8
PNOA-H_AMS_1956-57_33k_ES_PAN_21mic_H50_0435_fot_46B-29762_E_tif
  70
32
  10
563025.500
  20
4572593.500
  30
826.927
  0
VERTEX
  8
PNOA-H_AMS_1956-57_33k_ES_PAN_21mic_H50_0435_fot_46B-29762_E_tif
  70
32
  10
563025.497
  20
4572593.999
  30
826.936
  0
VERTEX
  8
PNOA-H_AMS_1956-57_33k_ES_PAN_21mic_H50_0435_fot_46B-29762_E_tif
  70
32
  10
563001.413
  20
4576034.897
  30
890.219
  0
VERTEX
  8
PNOA-H_AMS_1956-57_33k_ES_PAN_21mic_H50_0435_fot_46B-29762_E_tif
  70
32
  10
563001.443
  20
4576034.898
  30
0
  0
VERTEX
  8
PNOA-H_AMS_1956-57_33k_ES_PAN_21mic_H50_0435_fot_46B-29762_E_tif
  70
32
  10
564500.813
  20
4576047.861
  30
0
  0
VERTEX
  8
PNOA-H_AMS_1956-57_33k_ES_PAN_21mic_H50_0435_fot_46B-29762_E_tif
  70
32
  10
565901.323
  20
4576060.642
  30
847.881
  0
VERTEX
  8
PNOA-H_AMS_1956-57_33k_ES_PAN_21mic_H50_0435_fot_46B-29762_E_tif
  70
32
  10
565934.500
  20
4572695.500
  30
844.148
  0
VERTEX
  8
PNOA-H_AMS_1956-57_33k_ES_PAN_21mic_H50_0435_fot_46B-29762_E_tif
  70
32
  10
565934.495
  20
4572695.500
  30
844.148
  0
VERTEX
  8
PNOA-H_AMS_1956-57_33k_ES_PAN_21mic_H50_0435_fot_46B-29762_E_tif
  70
32
  10
563462.907
  20
4572572.029
  30
828.748
  0
VERTEX
  8
PNOA-H_AMS_1956-57_33k_ES_PAN_21mic_H50_0435_fot_46B-29762_E_tif
  70
32
  10
563092.930
  20
4572553.546
  30
826.443
  0
SEQEND
  8
PNOA-H_AMS_1956-57_33k_ES_PAN_21mic_H50_0435_fot_46B-29762_E_tif
  0
INSERT
  8
FeatureAttribs
  2
FEATURE
  41
1
  42
1
  43
1
  50
0
  10
540372.854
  20
4569848.426
 66
1
  0
ATTRIB
  8
FeatureAttribs
 70
0
  1
PNOA-H_AMS_1956-57_33k_ES_PAN_21mic_H50_0434_fot_47B-27915_E.tif
  2
NAME
  10
540372.854
  20
4569848.426
 40
33.73032
  0
SEQEND
  0
POLYLINE
  8
PNOA-H_AMS_1956-57_33k_ES_PAN_21mic_H50_0434_fot_47B-27915_E_tif
  70
9
  66
1
  0
VERTEX
  8
PNOA-H_AMS_1956-57_33k_ES_PAN_21mic_H50_0434_fot_47B-27915_E_tif
  70
32
  10
540627.200
  20
4567927.729
  30
1121
  0
VERTEX
  8
PNOA-H_AMS_1956-57_33k_ES_PAN_21mic_H50_0434_fot_47B-27915_E_tif
  70
32
  10
540139.411
  20
4567826.211
  30
1128.539
  0
VERTEX
  8
PNOA-H_AMS_1956-57_33k_ES_PAN_21mic_H50_0434_fot_47B-27915_E_tif
  70
32
  10
540139.409
  20
4567826.610
  30
0
  0
VERTEX
  8
PNOA-H_AMS_1956-57_33k_ES_PAN_21mic_H50_0434_fot_47B-27915_E_tif
  70
32
  10
540133.304
  20
4568933.537
  30
0
  0
VERTEX
  8
PNOA-H_AMS_1956-57_33k_ES_PAN_21mic_H50_0434_fot_47B-27915_E_tif
  70
32
  10
540120.542
  20
4571246.359
  30
0
  0
VERTEX
  8
PNOA-H_AMS_1956-57_33k_ES_PAN_21mic_H50_0434_fot_47B-27915_E_tif
  70
32
  10
540117.096
  20
4571870.641
  30
1123.776
  0
VERTEX
  8
PNOA-H_AMS_1956-57_33k_ES_PAN_21mic_H50_0434_fot_47B-27915_E_tif
  70
32
  10
540606.000
  20
4571839.000
  30
1126.532
  0
VERTEX
  8
PNOA-H_AMS_1956-57_33k_ES_PAN_21mic_H50_0434_fot_47B-27915_E_tif
  70
32
  10
540628.500
  20
4567928.000
  30
1120.979
  0
VERTEX
  8
PNOA-H_AMS_1956-57_33k_ES_PAN_21mic_H50_0434_fot_47B-27915_E_tif
  70
32
  10
540627.200
  20
4567927.729
  30
1121
  0
SEQEND
  8
PNOA-H_AMS_1956-57_33k_ES_PAN_21mic_H50_0434_fot_47B-27915_E_tif
  0
INSERT
  8
FeatureAttribs
  2
FEATURE
  41
1
  42
1
  43
1
  50
0
  10
544863.785
  20
4569815.000
 66
1
  0
ATTRIB
  8
FeatureAttribs
 70
0
  1
PNOA-H_AMS_1956-57_33k_ES_PAN_21mic_H50_0435_fot_47B-27917_E.tif
  2
NAME
  10
544863.785
  20
4569815.000
 40
33.73032
  0
SEQEND
  0
POLYLINE
  8
PNOA-H_AMS_1956-57_33k_ES_PAN_21mic_H50_0435_fot_47B-27917_E_tif
  70
9
  66
1
  0
VERTEX
  8
PNOA-H_AMS_1956-57_33k_ES_PAN_21mic_H50_0435_fot_47B-27917_E_tif
  70
32
  10
543564.500
  20
4571976.500
  30
1141.225
  0
VERTEX
  8
PNOA-H_AMS_1956-57_33k_ES_PAN_21mic_H50_0435_fot_47B-27917_E_tif
  70
32
  10
545142.500
  20
4571976.000
  30
1153.931
  0
VERTEX
  8
PNOA-H_AMS_1956-57_33k_ES_PAN_21mic_H50_0435_fot_47B-27917_E_tif
  70
32
  10
545228.000
  20
4571976.000
  30
1154.42
  0
VERTEX
  8
PNOA-H_AMS_1956-57_33k_ES_PAN_21mic_H50_0435_fot_47B-27917_E_tif
  70
32
  10
546295.000
  20
4571976.000
  30
1155.738
  0
VERTEX
  8
PNOA-H_AMS_1956-57_33k_ES_PAN_21mic_H50_0435_fot_47B-27917_E_tif
  70
32
  10
546302.500
  20
4567912.500
  30
1094.32
  0
VERTEX
  8
PNOA-H_AMS_1956-57_33k_ES_PAN_21mic_H50_0435_fot_47B-27917_E_tif
  70
32
  10
544063.500
  20
4567653.500
  30
1101.598
  0
VERTEX
  8
PNOA-H_AMS_1956-57_33k_ES_PAN_21mic_H50_0435_fot_47B-27917_E_tif
  70
32
  10
544060.000
  20
4567653.500
  30
1101.712
  0
VERTEX
  8
PNOA-H_AMS_1956-57_33k_ES_PAN_21mic_H50_0435_fot_47B-27917_E_tif
  70
32
  10
544059.500
  20
4567653.500
  30
1101.728
  0
VERTEX
  8
PNOA-H_AMS_1956-57_33k_ES_PAN_21mic_H50_0435_fot_47B-27917_E_tif
  70
32
  10
544043.500
  20
4567661.500
  30
1102.346
  0
VERTEX
  8
PNOA-H_AMS_1956-57_33k_ES_PAN_21mic_H50_0435_fot_47B-27917_E_tif
  70
32
  10
543760.662
  20
4567806.469
  30
1110.003
  0
VERTEX
  8
PNOA-H_AMS_1956-57_33k_ES_PAN_21mic_H50_0435_fot_47B-27917_E_tif
  70
32
  10
543426.000
  20
4567978.000
  30
1119.063
  0
VERTEX
  8
PNOA-H_AMS_1956-57_33k_ES_PAN_21mic_H50_0435_fot_47B-27917_E_tif
  70
32
  10
543431.500
  20
4571893.500
  30
1145.959
  0
VERTEX
  8
PNOA-H_AMS_1956-57_33k_ES_PAN_21mic_H50_0435_fot_47B-27917_E_tif
  70
32
  10
543564.500
  20
4571976.500
  30
1141.225
  0
SEQEND
  8
PNOA-H_AMS_1956-57_33k_ES_PAN_21mic_H50_0435_fot_47B-27917_E_tif
  0
INSERT
  8
FeatureAttribs
  2
FEATURE
  41
1
  42
1
  43
1
  50
0
  10
542023.130
  20
4569806.750
 66
1
  0
ATTRIB
  8
FeatureAttribs
 70
0
  1
PNOA-H_AMS_1956-57_33k_ES_PAN_21mic_H50_0435_fot_47B-27916_E.tif
  2
NAME
  10
542023.130
  20
4569806.750
 40
33.73032
  0
SEQEND
  0
POLYLINE
  8
PNOA-H_AMS_1956-57_33k_ES_PAN_21mic_H50_0435_fot_47B-27916_E_tif
  70
9
  66
1
  0
VERTEX
  8
PNOA-H_AMS_1956-57_33k_ES_PAN_21mic_H50_0435_fot_47B-27916_E_tif
  70
32
  10
543425.271
  20
4567977.861
  30
1119.068
  0
VERTEX
  8
PNOA-H_AMS_1956-57_33k_ES_PAN_21mic_H50_0435_fot_47B-27916_E_tif
  70
32
  10
541387.000
  20
4567590.000
  30
1132.865
  0
VERTEX
  8
PNOA-H_AMS_1956-57_33k_ES_PAN_21mic_H50_0435_fot_47B-27916_E_tif
  70
32
  10
541386.701
  20
4567590.133
  30
1132.86
  0
VERTEX
  8
PNOA-H_AMS_1956-57_33k_ES_PAN_21mic_H50_0435_fot_47B-27916_E_tif
  70
32
  10
541007.750
  20
4567759.000
  30
1126.922
  0
VERTEX
  8
PNOA-H_AMS_1956-57_33k_ES_PAN_21mic_H50_0435_fot_47B-27916_E_tif
  70
32
  10
540628.709
  20
4567927.907
  30
1120.983
  0
VERTEX
  8
PNOA-H_AMS_1956-57_33k_ES_PAN_21mic_H50_0435_fot_47B-27916_E_tif
  70
32
  10
540628.500
  20
4567928.000
  30
1120.979
  0
VERTEX
  8
PNOA-H_AMS_1956-57_33k_ES_PAN_21mic_H50_0435_fot_47B-27916_E_tif
  70
32
  10
540606.000
  20
4571839.000
  30
1126.532
  0
VERTEX
  8
PNOA-H_AMS_1956-57_33k_ES_PAN_21mic_H50_0435_fot_47B-27916_E_tif
  70
32
  10
540606.050
  20
4571839.029
  30
1126.531
  0
VERTEX
  8
PNOA-H_AMS_1956-57_33k_ES_PAN_21mic_H50_0435_fot_47B-27916_E_tif
  70
32
  10
540736.679
  20
4571915.858
  30
1124.561
  0
VERTEX
  8
PNOA-H_AMS_1956-57_33k_ES_PAN_21mic_H50_0435_fot_47B-27916_E_tif
  70
32
  10
540918.000
  20
4572022.500
  30
1121.826
  0
VERTEX
  8
PNOA-H_AMS_1956-57_33k_ES_PAN_21mic_H50_0435_fot_47B-27916_E_tif
  70
32
  10
540918.291
  20
4572023.081
  30
1121.961
  0
VERTEX
  8
PNOA-H_AMS_1956-57_33k_ES_PAN_21mic_H50_0435_fot_47B-27916_E_tif
  70
32
  10
540918.500
  20
4572023.500
  30
1122.058
  0
VERTEX
  8
PNOA-H_AMS_1956-57_33k_ES_PAN_21mic_H50_0435_fot_47B-27916_E_tif
  70
32
  10
540918.960
  20
4572023.476
  30
1122.063
  0
VERTEX
  8
PNOA-H_AMS_1956-57_33k_ES_PAN_21mic_H50_0435_fot_47B-27916_E_tif
  70
32
  10
541086.033
  20
4572014.833
  30
1123.651
  0
VERTEX
  8
PNOA-H_AMS_1956-57_33k_ES_PAN_21mic_H50_0435_fot_47B-27916_E_tif
  70
32
  10
543431.500
  20
4571893.500
  30
1145.959
  0
VERTEX
  8
PNOA-H_AMS_1956-57_33k_ES_PAN_21mic_H50_0435_fot_47B-27916_E_tif
  70
32
  10
543426.000
  20
4567978.000
  30
1119.063
  0
VERTEX
  8
PNOA-H_AMS_1956-57_33k_ES_PAN_21mic_H50_0435_fot_47B-27916_E_tif
  70
32
  10
543425.271
  20
4567977.861
  30
1119.068
  0
SEQEND
  8
PNOA-H_AMS_1956-57_33k_ES_PAN_21mic_H50_0435_fot_47B-27916_E_tif
  0
INSERT
  8
FeatureAttribs
  2
FEATURE
  41
1
  42
1
  43
1
  50
0
  10
547712.677
  20
4569888.750
 66
1
  0
ATTRIB
  8
FeatureAttribs
 70
0
  1
PNOA-H_AMS_1956-57_33k_ES_PAN_21mic_H50_0435_fot_47B-27918_E.tif
  2
NAME
  10
547712.677
  20
4569888.750
 40
33.73032
  0
SEQEND
  0
POLYLINE
  8
PNOA-H_AMS_1956-57_33k_ES_PAN_21mic_H50_0435_fot_47B-27918_E_tif
  70
9
  66
1
  0
VERTEX
  8
PNOA-H_AMS_1956-57_33k_ES_PAN_21mic_H50_0435_fot_47B-27918_E_tif
  70
32
  10
549155.000
  20
4567860.500
  30
1158.785
  0
VERTEX
  8
PNOA-H_AMS_1956-57_33k_ES_PAN_21mic_H50_0435_fot_47B-27918_E_tif
  70
32
  10
546642.000
  20
4567718.000
  30
1103.603
  0
VERTEX
  8
PNOA-H_AMS_1956-57_33k_ES_PAN_21mic_H50_0435_fot_47B-27918_E_tif
  70
32
  10
546638.503
  20
4567718.000
  30
1103.607
  0
VERTEX
  8
PNOA-H_AMS_1956-57_33k_ES_PAN_21mic_H50_0435_fot_47B-27918_E_tif
  70
32
  10
546638.500
  20
4567718.000
  30
1103.607
  0
VERTEX
  8
PNOA-H_AMS_1956-57_33k_ES_PAN_21mic_H50_0435_fot_47B-27918_E_tif
  70
32
  10
546629.500
  20
4567723.000
  30
1103.357
  0
VERTEX
  8
PNOA-H_AMS_1956-57_33k_ES_PAN_21mic_H50_0435_fot_47B-27918_E_tif
  70
32
  10
546302.500
  20
4567912.500
  30
1094.32
  0
VERTEX
  8
PNOA-H_AMS_1956-57_33k_ES_PAN_21mic_H50_0435_fot_47B-27918_E_tif
  70
32
  10
546295.000
  20
4571976.000
  30
1155.729
  0
VERTEX
  8
PNOA-H_AMS_1956-57_33k_ES_PAN_21mic_H50_0435_fot_47B-27918_E_tif
  70
32
  10
546295.000
  20
4571976.500
  30
1155.736
  0
VERTEX
  8
PNOA-H_AMS_1956-57_33k_ES_PAN_21mic_H50_0435_fot_47B-27918_E_tif
  70
32
  10
546349.500
  20
4572013.000
  30
1155.891
  0
VERTEX
  8
PNOA-H_AMS_1956-57_33k_ES_PAN_21mic_H50_0435_fot_47B-27918_E_tif
  70
32
  10
546350.326
  20
4572013.049
  30
1155.887
  0
VERTEX
  8
PNOA-H_AMS_1956-57_33k_ES_PAN_21mic_H50_0435_fot_47B-27918_E_tif
  70
32
  10
546360.949
  20
4572013.673
  30
1155.84
  0
VERTEX
  8
PNOA-H_AMS_1956-57_33k_ES_PAN_21mic_H50_0435_fot_47B-27918_E_tif
  70
32
  10
546366.500
  20
4572014.000
  30
1155.816
  0
VERTEX
  8
PNOA-H_AMS_1956-57_33k_ES_PAN_21mic_H50_0435_fot_47B-27918_E_tif
  70
32
  10
549049.000
  20
4572059.000
  30
1109.775
  0
VERTEX
  8
PNOA-H_AMS_1956-57_33k_ES_PAN_21mic_H50_0435_fot_47B-27918_E_tif
  70
32
  10
549079.000
  20
4572059.500
  30
1107.503
  0
VERTEX
  8
PNOA-H_AMS_1956-57_33k_ES_PAN_21mic_H50_0435_fot_47B-27918_E_tif
  70
32
  10
549096.000
  20
4572059.500
  30
1105.988
  0
VERTEX
  8
PNOA-H_AMS_1956-57_33k_ES_PAN_21mic_H50_0435_fot_47B-27918_E_tif
  70
32
  10
549155.000
  20
4567860.500
  30
1158.785
  0
SEQEND
  8
PNOA-H_AMS_1956-57_33k_ES_PAN_21mic_H50_0435_fot_47B-27918_E_tif
  0
INSERT
  8
FeatureAttribs
  2
FEATURE
  41
1
  42
1
  43
1
  50
0
  10
545354.831
  20
4565608.000
 66
1
  0
ATTRIB
  8
FeatureAttribs
 70
0
  1
PNOA-H_AMS_1956-57_33k_ES_PAN_21mic_H50_0435_fot_48D-18101_W.tif
  2
NAME
  10
545354.831
  20
4565608.000
 40
33.73032
  0
SEQEND
  0
POLYLINE
  8
PNOA-H_AMS_1956-57_33k_ES_PAN_21mic_H50_0435_fot_48D-18101_W_tif
  70
9
  66
1
  0
VERTEX
  8
PNOA-H_AMS_1956-57_33k_ES_PAN_21mic_H50_0435_fot_48D-18101_W_tif
  70
32
  10
546194.564
  20
4563610.584
  30
1147.529
  0
VERTEX
  8
PNOA-H_AMS_1956-57_33k_ES_PAN_21mic_H50_0435_fot_48D-18101_W_tif
  70
32
  10
544731.000
  20
4563303.500
  30
1119.777
  0
VERTEX
  8
PNOA-H_AMS_1956-57_33k_ES_PAN_21mic_H50_0435_fot_48D-18101_W_tif
  70
32
  10
544730.996
  20
4563303.502
  30
1119.777
  0
VERTEX
  8
PNOA-H_AMS_1956-57_33k_ES_PAN_21mic_H50_0435_fot_48D-18101_W_tif
  70
32
  10
544053.500
  20
4563642.500
  30
1118.999
  0
VERTEX
  8
PNOA-H_AMS_1956-57_33k_ES_PAN_21mic_H50_0435_fot_48D-18101_W_tif
  70
32
  10
544053.500
  20
4563642.749
  30
1118.998
  0
VERTEX
  8
PNOA-H_AMS_1956-57_33k_ES_PAN_21mic_H50_0435_fot_48D-18101_W_tif
  70
32
  10
544060.000
  20
4567653.500
  30
1101.712
  0
VERTEX
  8
PNOA-H_AMS_1956-57_33k_ES_PAN_21mic_H50_0435_fot_48D-18101_W_tif
  70
32
  10
546294.000
  20
4567912.000
  30
1094.275
  0
VERTEX
  8
PNOA-H_AMS_1956-57_33k_ES_PAN_21mic_H50_0435_fot_48D-18101_W_tif
  70
32
  10
546298.500
  20
4567912.500
  30
1094.286
  0
VERTEX
  8
PNOA-H_AMS_1956-57_33k_ES_PAN_21mic_H50_0435_fot_48D-18101_W_tif
  70
32
  10
546302.500
  20
4567912.500
  30
1094.316
  0
VERTEX
  8
PNOA-H_AMS_1956-57_33k_ES_PAN_21mic_H50_0435_fot_48D-18101_W_tif
  70
32
  10
546303.500
  20
4567912.500
  30
1094.324
  0
VERTEX
  8
PNOA-H_AMS_1956-57_33k_ES_PAN_21mic_H50_0435_fot_48D-18101_W_tif
  70
32
  10
546638.500
  20
4567718.500
  30
1103.574
  0
VERTEX
  8
PNOA-H_AMS_1956-57_33k_ES_PAN_21mic_H50_0435_fot_48D-18101_W_tif
  70
32
  10
546638.503
  20
4567718.000
  30
1103.581
  0
VERTEX
  8
PNOA-H_AMS_1956-57_33k_ES_PAN_21mic_H50_0435_fot_48D-18101_W_tif
  70
32
  10
546666.000
  20
4563709.500
  30
1156.469
  0
VERTEX
  8
PNOA-H_AMS_1956-57_33k_ES_PAN_21mic_H50_0435_fot_48D-18101_W_tif
  70
32
  10
546194.564
  20
4563610.584
  30
1147.529
  0
SEQEND
  8
PNOA-H_AMS_1956-57_33k_ES_PAN_21mic_H50_0435_fot_48D-18101_W_tif
  0
INSERT
  8
FeatureAttribs
  2
FEATURE
  41
1
  42
1
  43
1
  50
0
  10
542749.549
  20
4565703.750
 66
1
  0
ATTRIB
  8
FeatureAttribs
 70
0
  1
PNOA-H_AMS_1956-57_33k_ES_PAN_21mic_H50_0435_fot_48D-18102_W.tif
  2
NAME
  10
542749.549
  20
4565703.750
 40
33.73032
  0
SEQEND
  0
POLYLINE
  8
PNOA-H_AMS_1956-57_33k_ES_PAN_21mic_H50_0435_fot_48D-18102_W_tif
  70
9
  66
1
  0
VERTEX
  8
PNOA-H_AMS_1956-57_33k_ES_PAN_21mic_H50_0435_fot_48D-18102_W_tif
  70
32
  10
544053.000
  20
4563642.500
  30
1119.027
  0
VERTEX
  8
PNOA-H_AMS_1956-57_33k_ES_PAN_21mic_H50_0435_fot_48D-18102_W_tif
  70
32
  10
541707.500
  20
4563429.500
  30
1159.566
  0
VERTEX
  8
PNOA-H_AMS_1956-57_33k_ES_PAN_21mic_H50_0435_fot_48D-18102_W_tif
  70
32
  10
541705.834
  20
4563429.667
  30
1159.472
  0
VERTEX
  8
PNOA-H_AMS_1956-57_33k_ES_PAN_21mic_H50_0435_fot_48D-18102_W_tif
  70
32
  10
541703.321
  20
4563429.918
  30
1159.331
  0
VERTEX
  8
PNOA-H_AMS_1956-57_33k_ES_PAN_21mic_H50_0435_fot_48D-18102_W_tif
  70
32
  10
541702.500
  20
4563430.000
  30
1159.285
  0
VERTEX
  8
PNOA-H_AMS_1956-57_33k_ES_PAN_21mic_H50_0435_fot_48D-18102_W_tif
  70
32
  10
541507.004
  20
4563550.498
  30
1139.615
  0
VERTEX
  8
PNOA-H_AMS_1956-57_33k_ES_PAN_21mic_H50_0435_fot_48D-18102_W_tif
  70
32
  10
541507.000
  20
4563550.500
  30
1139.614
  0
VERTEX
  8
PNOA-H_AMS_1956-57_33k_ES_PAN_21mic_H50_0435_fot_48D-18102_W_tif
  70
32
  10
541386.000
  20
4567590.000
  30
1132.906
  0
VERTEX
  8
PNOA-H_AMS_1956-57_33k_ES_PAN_21mic_H50_0435_fot_48D-18102_W_tif
  70
32
  10
541386.701
  20
4567590.133
  30
1132.901
  0
VERTEX
  8
PNOA-H_AMS_1956-57_33k_ES_PAN_21mic_H50_0435_fot_48D-18102_W_tif
  70
32
  10
543422.500
  20
4567977.500
  30
1119.203
  0
VERTEX
  8
PNOA-H_AMS_1956-57_33k_ES_PAN_21mic_H50_0435_fot_48D-18102_W_tif
  70
32
  10
543425.000
  20
4567978.000
  30
1119.103
  0
VERTEX
  8
PNOA-H_AMS_1956-57_33k_ES_PAN_21mic_H50_0435_fot_48D-18102_W_tif
  70
32
  10
543425.271
  20
4567977.861
  30
1119.096
  0
VERTEX
  8
PNOA-H_AMS_1956-57_33k_ES_PAN_21mic_H50_0435_fot_48D-18102_W_tif
  70
32
  10
543760.662
  20
4567806.469
  30
1109.91
  0
VERTEX
  8
PNOA-H_AMS_1956-57_33k_ES_PAN_21mic_H50_0435_fot_48D-18102_W_tif
  70
32
  10
544060.000
  20
4567653.500
  30
1101.712
  0
VERTEX
  8
PNOA-H_AMS_1956-57_33k_ES_PAN_21mic_H50_0435_fot_48D-18102_W_tif
  70
32
  10
544053.000
  20
4563643.000
  30
1119.025
  0
VERTEX
  8
PNOA-H_AMS_1956-57_33k_ES_PAN_21mic_H50_0435_fot_48D-18102_W_tif
  70
32
  10
544053.000
  20
4563642.500
  30
1119.027
  0
SEQEND
  8
PNOA-H_AMS_1956-57_33k_ES_PAN_21mic_H50_0435_fot_48D-18102_W_tif
  0
INSERT
  8
FeatureAttribs
  2
FEATURE
  41
1
  42
1
  43
1
  50
0
  10
547979.338
  20
4565566.000
 66
1
  0
ATTRIB
  8
FeatureAttribs
 70
0
  1
PNOA-H_AMS_1956-57_33k_ES_PAN_21mic_H50_0435_fot_48D-18100_W.tif
  2
NAME
  10
547979.338
  20
4565566.000
 40
33.73032
  0
SEQEND
  0
POLYLINE
  8
PNOA-H_AMS_1956-57_33k_ES_PAN_21mic_H50_0435_fot_48D-18100_W_tif
  70
9
  66
1
  0
VERTEX
  8
PNOA-H_AMS_1956-57_33k_ES_PAN_21mic_H50_0435_fot_48D-18100_W_tif
  70
32
  10
549152.000
  20
4567860.500
  30
1158.779
  0
VERTEX
  8
PNOA-H_AMS_1956-57_33k_ES_PAN_21mic_H50_0435_fot_48D-18100_W_tif
  70
32
  10
549155.000
  20
4567860.500
  30
1158.785
  0
VERTEX
  8
PNOA-H_AMS_1956-57_33k_ES_PAN_21mic_H50_0435_fot_48D-18100_W_tif
  70
32
  10
549155.500
  20
4567860.500
  30
1158.786
  0
VERTEX
  8
PNOA-H_AMS_1956-57_33k_ES_PAN_21mic_H50_0435_fot_48D-18100_W_tif
  70
32
  10
549158.000
  20
4567859.000
  30
1158.805
  0
VERTEX
  8
PNOA-H_AMS_1956-57_33k_ES_PAN_21mic_H50_0435_fot_48D-18100_W_tif
  70
32
  10
549267.000
  20
4567791.000
  30
1157.865
  0
VERTEX
  8
PNOA-H_AMS_1956-57_33k_ES_PAN_21mic_H50_0435_fot_48D-18100_W_tif
  70
32
  10
549324.000
  20
4564492.000
  30
1077.177
  0
VERTEX
  8
PNOA-H_AMS_1956-57_33k_ES_PAN_21mic_H50_0435_fot_48D-18100_W_tif
  70
32
  10
549324.000
  20
4564463.783
  30
1077.481
  0
VERTEX
  8
PNOA-H_AMS_1956-57_33k_ES_PAN_21mic_H50_0435_fot_48D-18100_W_tif
  70
32
  10
549324.000
  20
4564463.000
  30
1077.489
  0
VERTEX
  8
PNOA-H_AMS_1956-57_33k_ES_PAN_21mic_H50_0435_fot_48D-18100_W_tif
  70
32
  10
549324.326
  20
4564444.782
  30
1075.632
  0
VERTEX
  8
PNOA-H_AMS_1956-57_33k_ES_PAN_21mic_H50_0435_fot_48D-18100_W_tif
  70
32
  10
549336.000
  20
4563793.000
  30
1009.198
  0
VERTEX
  8
PNOA-H_AMS_1956-57_33k_ES_PAN_21mic_H50_0435_fot_48D-18100_W_tif
  70
32
  10
549335.757
  20
4563779.150
  30
1014.155
  0
VERTEX
  8
PNOA-H_AMS_1956-57_33k_ES_PAN_21mic_H50_0435_fot_48D-18100_W_tif
  70
32
  10
549335.509
  20
4563764.997
  30
1019.219
  0
VERTEX
  8
PNOA-H_AMS_1956-57_33k_ES_PAN_21mic_H50_0435_fot_48D-18100_W_tif
  70
32
  10
549335.500
  20
4563764.500
  30
1019.397
  0
VERTEX
  8
PNOA-H_AMS_1956-57_33k_ES_PAN_21mic_H50_0435_fot_48D-18100_W_tif
  70
32
  10
547803.500
  20
4563271.500
  30
1152.081
  0
VERTEX
  8
PNOA-H_AMS_1956-57_33k_ES_PAN_21mic_H50_0435_fot_48D-18100_W_tif
  70
32
  10
547803.272
  20
4563271.588
  30
1152.082
  0
VERTEX
  8
PNOA-H_AMS_1956-57_33k_ES_PAN_21mic_H50_0435_fot_48D-18100_W_tif
  70
32
  10
547424.333
  20
4563417.500
  30
1153.543
  0
VERTEX
  8
PNOA-H_AMS_1956-57_33k_ES_PAN_21mic_H50_0435_fot_48D-18100_W_tif
  70
32
  10
546666.352
  20
4563709.364
  30
1156.467
  0
VERTEX
  8
PNOA-H_AMS_1956-57_33k_ES_PAN_21mic_H50_0435_fot_48D-18100_W_tif
  70
32
  10
546666.000
  20
4563709.500
  30
1156.469
  0
VERTEX
  8
PNOA-H_AMS_1956-57_33k_ES_PAN_21mic_H50_0435_fot_48D-18100_W_tif
  70
32
  10
546638.500
  20
4567708.500
  30
1104.21
  0
VERTEX
  8
PNOA-H_AMS_1956-57_33k_ES_PAN_21mic_H50_0435_fot_48D-18100_W_tif
  70
32
  10
546638.500
  20
4567718.000
  30
1103.607
  0
VERTEX
  8
PNOA-H_AMS_1956-57_33k_ES_PAN_21mic_H50_0435_fot_48D-18100_W_tif
  70
32
  10
546638.503
  20
4567718.000
  30
1103.607
  0
VERTEX
  8
PNOA-H_AMS_1956-57_33k_ES_PAN_21mic_H50_0435_fot_48D-18100_W_tif
  70
32
  10
546642.000
  20
4567718.500
  30
1103.57
  0
VERTEX
  8
PNOA-H_AMS_1956-57_33k_ES_PAN_21mic_H50_0435_fot_48D-18100_W_tif
  70
32
  10
549152.000
  20
4567860.500
  30
1158.779
  0
SEQEND
  8
PNOA-H_AMS_1956-57_33k_ES_PAN_21mic_H50_0435_fot_48D-18100_W_tif
  0
INSERT
  8
FeatureAttribs
  2
FEATURE
  41
1
  42
1
  43
1
  50
0
  10
540796.235
  20
4565736.086
 66
1
  0
ATTRIB
  8
FeatureAttribs
 70
0
  1
PNOA-H_AMS_1956-57_33k_ES_PAN_21mic_H50_0435_fot_48D-18103_W.tif
  2
NAME
  10
540796.235
  20
4565736.086
 40
33.73032
  0
SEQEND
  0
POLYLINE
  8
PNOA-H_AMS_1956-57_33k_ES_PAN_21mic_H50_0435_fot_48D-18103_W_tif
  70
9
  66
1
  0
VERTEX
  8
PNOA-H_AMS_1956-57_33k_ES_PAN_21mic_H50_0435_fot_48D-18103_W_tif
  70
32
  10
541484.341
  20
4563550.393
  30
1139.355
  0
VERTEX
  8
PNOA-H_AMS_1956-57_33k_ES_PAN_21mic_H50_0435_fot_48D-18103_W_tif
  70
32
  10
540163.020
  20
4563544.172
  30
1124.264
  0
VERTEX
  8
PNOA-H_AMS_1956-57_33k_ES_PAN_21mic_H50_0435_fot_48D-18103_W_tif
  70
32
  10
540163.019
  20
4563544.307
  30
0
  0
VERTEX
  8
PNOA-H_AMS_1956-57_33k_ES_PAN_21mic_H50_0435_fot_48D-18103_W_tif
  70
32
  10
540158.811
  20
4564307.919
  30
0
  0
VERTEX
  8
PNOA-H_AMS_1956-57_33k_ES_PAN_21mic_H50_0435_fot_48D-18103_W_tif
  70
32
  10
540146.060
  20
4566620.724
  30
0
  0
VERTEX
  8
PNOA-H_AMS_1956-57_33k_ES_PAN_21mic_H50_0435_fot_48D-18103_W_tif
  70
32
  10
540139.411
  20
4567826.211
  30
0
  0
VERTEX
  8
PNOA-H_AMS_1956-57_33k_ES_PAN_21mic_H50_0435_fot_48D-18103_W_tif
  70
32
  10
540139.409
  20
4567826.610
  30
1124.356
  0
VERTEX
  8
PNOA-H_AMS_1956-57_33k_ES_PAN_21mic_H50_0435_fot_48D-18103_W_tif
  70
32
  10
540621.000
  20
4567927.000
  30
1121.05
  0
VERTEX
  8
PNOA-H_AMS_1956-57_33k_ES_PAN_21mic_H50_0435_fot_48D-18103_W_tif
  70
32
  10
540627.200
  20
4567927.729
  30
1120.995
  0
VERTEX
  8
PNOA-H_AMS_1956-57_33k_ES_PAN_21mic_H50_0435_fot_48D-18103_W_tif
  70
32
  10
540628.709
  20
4567927.907
  30
1120.982
  0
VERTEX
  8
PNOA-H_AMS_1956-57_33k_ES_PAN_21mic_H50_0435_fot_48D-18103_W_tif
  70
32
  10
540629.500
  20
4567928.000
  30
1120.975
  0
VERTEX
  8
PNOA-H_AMS_1956-57_33k_ES_PAN_21mic_H50_0435_fot_48D-18103_W_tif
  70
32
  10
541007.750
  20
4567759.000
  30
1126.94
  0
VERTEX
  8
PNOA-H_AMS_1956-57_33k_ES_PAN_21mic_H50_0435_fot_48D-18103_W_tif
  70
32
  10
541386.000
  20
4567590.000
  30
1132.906
  0
VERTEX
  8
PNOA-H_AMS_1956-57_33k_ES_PAN_21mic_H50_0435_fot_48D-18103_W_tif
  70
32
  10
541507.000
  20
4563550.500
  30
1139.614
  0
VERTEX
  8
PNOA-H_AMS_1956-57_33k_ES_PAN_21mic_H50_0435_fot_48D-18103_W_tif
  70
32
  10
541484.341
  20
4563550.393
  30
1139.355
  0
SEQEND
  8
PNOA-H_AMS_1956-57_33k_ES_PAN_21mic_H50_0435_fot_48D-18103_W_tif
  0
INSERT
  8
FeatureAttribs
  2
FEATURE
  41
1
  42
1
  43
1
  50
0
  10
540911.394
  20
4561257.831
 66
1
  0
ATTRIB
  8
FeatureAttribs
 70
0
  1
PNOA-H_AMS_1956-57_33k_ES_PAN_21mic_H50_0435_fot_49C-11593_E.tif
  2
NAME
  10
540911.394
  20
4561257.831
 40
33.73032
  0
SEQEND
  0
POLYLINE
  8
PNOA-H_AMS_1956-57_33k_ES_PAN_21mic_H50_0435_fot_49C-11593_E_tif
  70
9
  66
1
  0
VERTEX
  8
PNOA-H_AMS_1956-57_33k_ES_PAN_21mic_H50_0435_fot_49C-11593_E_tif
  70
32
  10
541589.500
  20
4559054.000
  30
1169.036
  0
VERTEX
  8
PNOA-H_AMS_1956-57_33k_ES_PAN_21mic_H50_0435_fot_49C-11593_E_tif
  70
32
  10
540188.245
  20
4558965.161
  30
1147.98
  0
VERTEX
  8
PNOA-H_AMS_1956-57_33k_ES_PAN_21mic_H50_0435_fot_49C-11593_E_tif
  70
32
  10
540188.244
  20
4558965.423
  30
0
  0
VERTEX
  8
PNOA-H_AMS_1956-57_33k_ES_PAN_21mic_H50_0435_fot_49C-11593_E_tif
  70
32
  10
540184.296
  20
4559682.334
  30
0
  0
VERTEX
  8
PNOA-H_AMS_1956-57_33k_ES_PAN_21mic_H50_0435_fot_49C-11593_E_tif
  70
32
  10
540171.556
  20
4561995.123
  30
0
  0
VERTEX
  8
PNOA-H_AMS_1956-57_33k_ES_PAN_21mic_H50_0435_fot_49C-11593_E_tif
  70
32
  10
540163.020
  20
4563544.172
  30
0
  0
VERTEX
  8
PNOA-H_AMS_1956-57_33k_ES_PAN_21mic_H50_0435_fot_49C-11593_E_tif
  70
32
  10
540163.019
  20
4563544.307
  30
1120.59
  0
VERTEX
  8
PNOA-H_AMS_1956-57_33k_ES_PAN_21mic_H50_0435_fot_49C-11593_E_tif
  70
32
  10
541484.341
  20
4563550.393
  30
1139.36
  0
VERTEX
  8
PNOA-H_AMS_1956-57_33k_ES_PAN_21mic_H50_0435_fot_49C-11593_E_tif
  70
32
  10
541507.004
  20
4563550.498
  30
1139.682
  0
VERTEX
  8
PNOA-H_AMS_1956-57_33k_ES_PAN_21mic_H50_0435_fot_49C-11593_E_tif
  70
32
  10
541507.500
  20
4563550.500
  30
1139.689
  0
VERTEX
  8
PNOA-H_AMS_1956-57_33k_ES_PAN_21mic_H50_0435_fot_49C-11593_E_tif
  70
32
  10
541703.321
  20
4563429.918
  30
1159.298
  0
VERTEX
  8
PNOA-H_AMS_1956-57_33k_ES_PAN_21mic_H50_0435_fot_49C-11593_E_tif
  70
32
  10
541704.000
  20
4563429.500
  30
1159.366
  0
VERTEX
  8
PNOA-H_AMS_1956-57_33k_ES_PAN_21mic_H50_0435_fot_49C-11593_E_tif
  70
32
  10
541589.500
  20
4559054.000
  30
1169.036
  0
SEQEND
  8
PNOA-H_AMS_1956-57_33k_ES_PAN_21mic_H50_0435_fot_49C-11593_E_tif
  0
INSERT
  8
FeatureAttribs
  2
FEATURE
  41
1
  42
1
  43
1
  50
0
  10
546265.283
  20
4561265.000
 66
1
  0
ATTRIB
  8
FeatureAttribs
 70
0
  1
PNOA-H_AMS_1956-57_33k_ES_PAN_21mic_H50_0434_fot_49C-11595_E.tif
  2
NAME
  10
546265.283
  20
4561265.000
 40
33.73032
  0
SEQEND
  0
POLYLINE
  8
PNOA-H_AMS_1956-57_33k_ES_PAN_21mic_H50_0434_fot_49C-11595_E_tif
  70
9
  66
1
  0
VERTEX
  8
PNOA-H_AMS_1956-57_33k_ES_PAN_21mic_H50_0434_fot_49C-11595_E_tif
  70
32
  10
547832.500
  20
4559031.500
  30
1061.712
  0
VERTEX
  8
PNOA-H_AMS_1956-57_33k_ES_PAN_21mic_H50_0434_fot_49C-11595_E_tif
  70
32
  10
547413.000
  20
4558820.500
  30
1082.452
  0
VERTEX
  8
PNOA-H_AMS_1956-57_33k_ES_PAN_21mic_H50_0434_fot_49C-11595_E_tif
  70
32
  10
547412.531
  20
4558820.515
  30
1082.466
  0
VERTEX
  8
PNOA-H_AMS_1956-57_33k_ES_PAN_21mic_H50_0434_fot_49C-11595_E_tif
  70
32
  10
546341.458
  20
4558855.727
  30
1115.068
  0
VERTEX
  8
PNOA-H_AMS_1956-57_33k_ES_PAN_21mic_H50_0434_fot_49C-11595_E_tif
  70
32
  10
544797.000
  20
4558906.500
  30
1162.078
  0
VERTEX
  8
PNOA-H_AMS_1956-57_33k_ES_PAN_21mic_H50_0434_fot_49C-11595_E_tif
  70
32
  10
544794.496
  20
4558906.858
  30
1162.091
  0
VERTEX
  8
PNOA-H_AMS_1956-57_33k_ES_PAN_21mic_H50_0434_fot_49C-11595_E_tif
  70
32
  10
544793.500
  20
4558907.000
  30
1162.096
  0
VERTEX
  8
PNOA-H_AMS_1956-57_33k_ES_PAN_21mic_H50_0434_fot_49C-11595_E_tif
  70
32
  10
544694.000
  20
4558967.000
  30
1168.137
  0
VERTEX
  8
PNOA-H_AMS_1956-57_33k_ES_PAN_21mic_H50_0434_fot_49C-11595_E_tif
  70
32
  10
544694.004
  20
4558967.497
  30
1168.131
  0
VERTEX
  8
PNOA-H_AMS_1956-57_33k_ES_PAN_21mic_H50_0434_fot_49C-11595_E_tif
  70
32
  10
544694.009
  20
4558968.061
  30
1168.125
  0
VERTEX
  8
PNOA-H_AMS_1956-57_33k_ES_PAN_21mic_H50_0434_fot_49C-11595_E_tif
  70
32
  10
544730.996
  20
4563303.502
  30
1119.699
  0
VERTEX
  8
PNOA-H_AMS_1956-57_33k_ES_PAN_21mic_H50_0434_fot_49C-11595_E_tif
  70
32
  10
544731.000
  20
4563304.000
  30
1119.694
  0
VERTEX
  8
PNOA-H_AMS_1956-57_33k_ES_PAN_21mic_H50_0434_fot_49C-11595_E_tif
  70
32
  10
545225.000
  20
4563407.500
  30
1128.091
  0
VERTEX
  8
PNOA-H_AMS_1956-57_33k_ES_PAN_21mic_H50_0434_fot_49C-11595_E_tif
  70
32
  10
545227.000
  20
4563408.000
  30
1127.515
  0
VERTEX
  8
PNOA-H_AMS_1956-57_33k_ES_PAN_21mic_H50_0434_fot_49C-11595_E_tif
  70
32
  10
546194.564
  20
4563610.584
  30
1146.938
  0
VERTEX
  8
PNOA-H_AMS_1956-57_33k_ES_PAN_21mic_H50_0434_fot_49C-11595_E_tif
  70
32
  10
546666.352
  20
4563709.364
  30
1156.409
  0
VERTEX
  8
PNOA-H_AMS_1956-57_33k_ES_PAN_21mic_H50_0434_fot_49C-11595_E_tif
  70
32
  10
546667.000
  20
4563709.500
  30
1156.422
  0
VERTEX
  8
PNOA-H_AMS_1956-57_33k_ES_PAN_21mic_H50_0434_fot_49C-11595_E_tif
  70
32
  10
547424.333
  20
4563417.500
  30
1153.528
  0
VERTEX
  8
PNOA-H_AMS_1956-57_33k_ES_PAN_21mic_H50_0434_fot_49C-11595_E_tif
  70
32
  10
547803.000
  20
4563271.500
  30
1152.082
  0
VERTEX
  8
PNOA-H_AMS_1956-57_33k_ES_PAN_21mic_H50_0434_fot_49C-11595_E_tif
  70
32
  10
547832.497
  20
4559031.998
  30
1061.723
  0
VERTEX
  8
PNOA-H_AMS_1956-57_33k_ES_PAN_21mic_H50_0434_fot_49C-11595_E_tif
  70
32
  10
547832.500
  20
4559031.500
  30
1061.712
  0
SEQEND
  8
PNOA-H_AMS_1956-57_33k_ES_PAN_21mic_H50_0434_fot_49C-11595_E_tif
  0
INSERT
  8
FeatureAttribs
  2
FEATURE
  41
1
  42
1
  43
1
  50
0
  10
543180.412
  20
4561257.750
 66
1
  0
ATTRIB
  8
FeatureAttribs
 70
0
  1
PNOA-H_AMS_1956-57_33k_ES_PAN_21mic_H50_0435_fot_49C-11594_E.tif
  2
NAME
  10
543180.412
  20
4561257.750
 40
33.73032
  0
SEQEND
  0
POLYLINE
  8
PNOA-H_AMS_1956-57_33k_ES_PAN_21mic_H50_0435_fot_49C-11594_E_tif
  70
9
  66
1
  0
VERTEX
  8
PNOA-H_AMS_1956-57_33k_ES_PAN_21mic_H50_0435_fot_49C-11594_E_tif
  70
32
  10
541914.943
  20
4558872.532
  30
1224.919
  0
VERTEX
  8
PNOA-H_AMS_1956-57_33k_ES_PAN_21mic_H50_0435_fot_49C-11594_E_tif
  70
32
  10
541914.000
  20
4558872.500
  30
1224.939
  0
VERTEX
  8
PNOA-H_AMS_1956-57_33k_ES_PAN_21mic_H50_0435_fot_49C-11594_E_tif
  70
32
  10
541589.500
  20
4559054.000
  30
1169.036
  0
VERTEX
  8
PNOA-H_AMS_1956-57_33k_ES_PAN_21mic_H50_0435_fot_49C-11594_E_tif
  70
32
  10
541704.000
  20
4563429.500
  30
1159.366
  0
VERTEX
  8
PNOA-H_AMS_1956-57_33k_ES_PAN_21mic_H50_0435_fot_49C-11594_E_tif
  70
32
  10
541705.834
  20
4563429.667
  30
1159.335
  0
VERTEX
  8
PNOA-H_AMS_1956-57_33k_ES_PAN_21mic_H50_0435_fot_49C-11594_E_tif
  70
32
  10
544047.500
  20
4563642.500
  30
1119.329
  0
VERTEX
  8
PNOA-H_AMS_1956-57_33k_ES_PAN_21mic_H50_0435_fot_49C-11594_E_tif
  70
32
  10
544053.000
  20
4563643.000
  30
1119.038
  0
VERTEX
  8
PNOA-H_AMS_1956-57_33k_ES_PAN_21mic_H50_0435_fot_49C-11594_E_tif
  70
32
  10
544053.500
  20
4563642.749
  30
1119.039
  0
VERTEX
  8
PNOA-H_AMS_1956-57_33k_ES_PAN_21mic_H50_0435_fot_49C-11594_E_tif
  70
32
  10
544730.996
  20
4563303.502
  30
1119.777
  0
VERTEX
  8
PNOA-H_AMS_1956-57_33k_ES_PAN_21mic_H50_0435_fot_49C-11594_E_tif
  70
32
  10
544731.000
  20
4563303.500
  30
1119.777
  0
VERTEX
  8
PNOA-H_AMS_1956-57_33k_ES_PAN_21mic_H50_0435_fot_49C-11594_E_tif
  70
32
  10
544694.500
  20
4558998.500
  30
1171.65
  0
VERTEX
  8
PNOA-H_AMS_1956-57_33k_ES_PAN_21mic_H50_0435_fot_49C-11594_E_tif
  70
32
  10
544694.009
  20
4558968.061
  30
1168.254
  0
VERTEX
  8
PNOA-H_AMS_1956-57_33k_ES_PAN_21mic_H50_0435_fot_49C-11594_E_tif
  70
32
  10
544694.000
  20
4558967.500
  30
1168.191
  0
VERTEX
  8
PNOA-H_AMS_1956-57_33k_ES_PAN_21mic_H50_0435_fot_49C-11594_E_tif
  70
32
  10
544692.500
  20
4558967.000
  30
1168.092
  0
VERTEX
  8
PNOA-H_AMS_1956-57_33k_ES_PAN_21mic_H50_0435_fot_49C-11594_E_tif
  70
32
  10
542051.469
  20
4558877.175
  30
1222.126
  0
VERTEX
  8
PNOA-H_AMS_1956-57_33k_ES_PAN_21mic_H50_0435_fot_49C-11594_E_tif
  70
32
  10
541914.943
  20
4558872.532
  30
1224.919
  0
SEQEND
  8
PNOA-H_AMS_1956-57_33k_ES_PAN_21mic_H50_0435_fot_49C-11594_E_tif
  0
INSERT
  8
FeatureAttribs
  2
FEATURE
  41
1
  42
1
  43
1
  50
0
  10
541050.366
  20
4558211.777
 66
1
  0
ATTRIB
  8
FeatureAttribs
 70
0
  1
PNOA-H_AMS_1956-57_33k_ES_PAN_21mic_H50_0461_fot_000-11671_R.tif
  2
NAME
  10
541050.366
  20
4558211.777
 40
33.73032
  0
SEQEND
  0
POLYLINE
  8
PNOA-H_AMS_1956-57_33k_ES_PAN_21mic_H50_0461_fot_000-11671_R_tif
  70
9
  66
1
  0
VERTEX
  8
PNOA-H_AMS_1956-57_33k_ES_PAN_21mic_H50_0461_fot_000-11671_R_tif
  70
32
  10
541586.500
  20
4559054.000
  30
1168.968
  0
VERTEX
  8
PNOA-H_AMS_1956-57_33k_ES_PAN_21mic_H50_0461_fot_000-11671_R_tif
  70
32
  10
541589.500
  20
4559054.000
  30
1169.036
  0
VERTEX
  8
PNOA-H_AMS_1956-57_33k_ES_PAN_21mic_H50_0461_fot_000-11671_R_tif
  70
32
  10
541590.000
  20
4559054.000
  30
1169.047
  0
VERTEX
  8
PNOA-H_AMS_1956-57_33k_ES_PAN_21mic_H50_0461_fot_000-11671_R_tif
  70
32
  10
541914.943
  20
4558872.532
  30
1224.924
  0
VERTEX
  8
PNOA-H_AMS_1956-57_33k_ES_PAN_21mic_H50_0461_fot_000-11671_R_tif
  70
32
  10
541915.000
  20
4558872.500
  30
1224.934
  0
VERTEX
  8
PNOA-H_AMS_1956-57_33k_ES_PAN_21mic_H50_0461_fot_000-11671_R_tif
  70
32
  10
541899.945
  20
4557379.337
  30
1184.094
  0
VERTEX
  8
PNOA-H_AMS_1956-57_33k_ES_PAN_21mic_H50_0461_fot_000-11671_R_tif
  70
32
  10
540197.031
  20
4557369.555
  30
0
  0
VERTEX
  8
PNOA-H_AMS_1956-57_33k_ES_PAN_21mic_H50_0461_fot_000-11671_R_tif
  70
32
  10
540188.245
  20
4558965.161
  30
0
  0
VERTEX
  8
PNOA-H_AMS_1956-57_33k_ES_PAN_21mic_H50_0461_fot_000-11671_R_tif
  70
32
  10
540188.244
  20
4558965.423
  30
1147.918
  0
VERTEX
  8
PNOA-H_AMS_1956-57_33k_ES_PAN_21mic_H50_0461_fot_000-11671_R_tif
  70
32
  10
541578.500
  20
4559053.500
  30
1168.787
  0
VERTEX
  8
PNOA-H_AMS_1956-57_33k_ES_PAN_21mic_H50_0461_fot_000-11671_R_tif
  70
32
  10
541586.500
  20
4559054.000
  30
1168.968
  0
SEQEND
  8
PNOA-H_AMS_1956-57_33k_ES_PAN_21mic_H50_0461_fot_000-11671_R_tif
  0
INSERT
  8
FeatureAttribs
  2
FEATURE
  41
1
  42
1
  43
1
  50
0
  10
543339.663
  20
4558173.418
 66
1
  0
ATTRIB
  8
FeatureAttribs
 70
0
  1
PNOA-H_AMS_1956-57_33k_ES_PAN_21mic_H50_0462_fot_000-11670_R.tif
  2
NAME
  10
543339.663
  20
4558173.418
 40
33.73032
  0
SEQEND
  0
POLYLINE
  8
PNOA-H_AMS_1956-57_33k_ES_PAN_21mic_H50_0462_fot_000-11670_R_tif
  70
9
  66
1
  0
VERTEX
  8
PNOA-H_AMS_1956-57_33k_ES_PAN_21mic_H50_0462_fot_000-11670_R_tif
  70
32
  10
543692.438
  20
4557389.634
  30
0
  0
VERTEX
  8
PNOA-H_AMS_1956-57_33k_ES_PAN_21mic_H50_0462_fot_000-11670_R_tif
  70
32
  10
541899.945
  20
4557379.337
  30
1184.094
  0
VERTEX
  8
PNOA-H_AMS_1956-57_33k_ES_PAN_21mic_H50_0462_fot_000-11670_R_tif
  70
32
  10
541915.000
  20
4558872.500
  30
1224.934
  0
VERTEX
  8
PNOA-H_AMS_1956-57_33k_ES_PAN_21mic_H50_0462_fot_000-11670_R_tif
  70
32
  10
542051.469
  20
4558877.175
  30
1218.99
  0
VERTEX
  8
PNOA-H_AMS_1956-57_33k_ES_PAN_21mic_H50_0462_fot_000-11670_R_tif
  70
32
  10
543155.500
  20
4558915.000
  30
1170.901
  0
VERTEX
  8
PNOA-H_AMS_1956-57_33k_ES_PAN_21mic_H50_0462_fot_000-11670_R_tif
  70
32
  10
543170.000
  20
4558915.500
  30
1170.908
  0
VERTEX
  8
PNOA-H_AMS_1956-57_33k_ES_PAN_21mic_H50_0462_fot_000-11670_R_tif
  70
32
  10
544694.000
  20
4558967.500
  30
1168.191
  0
VERTEX
  8
PNOA-H_AMS_1956-57_33k_ES_PAN_21mic_H50_0462_fot_000-11670_R_tif
  70
32
  10
544694.004
  20
4558967.497
  30
1168.191
  0
VERTEX
  8
PNOA-H_AMS_1956-57_33k_ES_PAN_21mic_H50_0462_fot_000-11670_R_tif
  70
32
  10
544794.500
  20
4558907.000
  30
1162.107
  0
VERTEX
  8
PNOA-H_AMS_1956-57_33k_ES_PAN_21mic_H50_0462_fot_000-11670_R_tif
  70
32
  10
544794.496
  20
4558906.858
  30
1162.104
  0
VERTEX
  8
PNOA-H_AMS_1956-57_33k_ES_PAN_21mic_H50_0462_fot_000-11670_R_tif
  70
32
  10
544746.874
  20
4557396.196
  30
1139.9
  0
VERTEX
  8
PNOA-H_AMS_1956-57_33k_ES_PAN_21mic_H50_0462_fot_000-11670_R_tif
  70
32
  10
544746.738
  20
4557396.195
  30
1139.902
  0
VERTEX
  8
PNOA-H_AMS_1956-57_33k_ES_PAN_21mic_H50_0462_fot_000-11670_R_tif
  70
32
  10
543692.438
  20
4557389.634
  30
0
  0
SEQEND
  8
PNOA-H_AMS_1956-57_33k_ES_PAN_21mic_H50_0462_fot_000-11670_R_tif
  0
INSERT
  8
FeatureAttribs
  2
FEATURE
  41
1
  42
1
  43
1
  50
0
  10
546093.258
  20
4558151.598
 66
1
  0
ATTRIB
  8
FeatureAttribs
 70
0
  1
PNOA-H_AMS_1956-57_33k_ES_PAN_21mic_H50_0462_fot_000-11669_R.tif
  2
NAME
  10
546093.258
  20
4558151.598
 40
33.73032
  0
SEQEND
  0
POLYLINE
  8
PNOA-H_AMS_1956-57_33k_ES_PAN_21mic_H50_0462_fot_000-11669_R_tif
  70
9
  66
1
  0
VERTEX
  8
PNOA-H_AMS_1956-57_33k_ES_PAN_21mic_H50_0462_fot_000-11669_R_tif
  70
32
  10
546341.458
  20
4558855.727
  30
1118.152
  0
VERTEX
  8
PNOA-H_AMS_1956-57_33k_ES_PAN_21mic_H50_0462_fot_000-11669_R_tif
  70
32
  10
547268.500
  20
4558825.000
  30
1091.812
  0
VERTEX
  8
PNOA-H_AMS_1956-57_33k_ES_PAN_21mic_H50_0462_fot_000-11669_R_tif
  70
32
  10
547276.000
  20
4558825.000
  30
1091.784
  0
VERTEX
  8
PNOA-H_AMS_1956-57_33k_ES_PAN_21mic_H50_0462_fot_000-11669_R_tif
  70
32
  10
547412.500
  20
4558820.500
  30
1082.5
  0
VERTEX
  8
PNOA-H_AMS_1956-57_33k_ES_PAN_21mic_H50_0462_fot_000-11669_R_tif
  70
32
  10
547419.650
  20
4557412.940
  30
1086.924
  0
VERTEX
  8
PNOA-H_AMS_1956-57_33k_ES_PAN_21mic_H50_0462_fot_000-11669_R_tif
  70
32
  10
547187.847
  20
4557411.387
  30
0
  0
VERTEX
  8
PNOA-H_AMS_1956-57_33k_ES_PAN_21mic_H50_0462_fot_000-11669_R_tif
  70
32
  10
544746.874
  20
4557396.196
  30
1139.687
  0
VERTEX
  8
PNOA-H_AMS_1956-57_33k_ES_PAN_21mic_H50_0462_fot_000-11669_R_tif
  70
32
  10
544746.738
  20
4557396.195
  30
1139.689
  0
VERTEX
  8
PNOA-H_AMS_1956-57_33k_ES_PAN_21mic_H50_0462_fot_000-11669_R_tif
  70
32
  10
544794.496
  20
4558906.858
  30
1162.104
  0
VERTEX
  8
PNOA-H_AMS_1956-57_33k_ES_PAN_21mic_H50_0462_fot_000-11669_R_tif
  70
32
  10
544794.500
  20
4558907.000
  30
1162.107
  0
VERTEX
  8
PNOA-H_AMS_1956-57_33k_ES_PAN_21mic_H50_0462_fot_000-11669_R_tif
  70
32
  10
546341.458
  20
4558855.727
  30
1118.152
  0
SEQEND
  8
PNOA-H_AMS_1956-57_33k_ES_PAN_21mic_H50_0462_fot_000-11669_R_tif
  0
INSERT
  8
FeatureAttribs
  2
FEATURE
  41
1
  42
1
  43
1
  50
0
  10
553327.947
  20
4570071.500
 66
1
  0
ATTRIB
  8
FeatureAttribs
 70
0
  1
PNOA-H_AMS_1956-57_33k_ES_PAN_21mic_H50_0435_fot_47B-27920_E.tif
  2
NAME
  10
553327.947
  20
4570071.500
 40
33.73032
  0
SEQEND
  0
POLYLINE
  8
PNOA-H_AMS_1956-57_33k_ES_PAN_21mic_H50_0435_fot_47B-27920_E_tif
  70
9
  66
1
  0
VERTEX
  8
PNOA-H_AMS_1956-57_33k_ES_PAN_21mic_H50_0435_fot_47B-27920_E_tif
  70
32
  10
554810.500
  20
4567935.500
  30
945.041
  0
VERTEX
  8
PNOA-H_AMS_1956-57_33k_ES_PAN_21mic_H50_0435_fot_47B-27920_E_tif
  70
32
  10
552019.500
  20
4567841.500
  30
1160.191
  0
VERTEX
  8
PNOA-H_AMS_1956-57_33k_ES_PAN_21mic_H50_0435_fot_47B-27920_E_tif
  70
32
  10
552019.475
  20
4567841.516
  30
1160.191
  0
VERTEX
  8
PNOA-H_AMS_1956-57_33k_ES_PAN_21mic_H50_0435_fot_47B-27920_E_tif
  70
32
  10
552019.003
  20
4567841.814
  30
1160.188
  0
VERTEX
  8
PNOA-H_AMS_1956-57_33k_ES_PAN_21mic_H50_0435_fot_47B-27920_E_tif
  70
32
  10
551993.400
  20
4567858.000
  30
1160.033
  0
VERTEX
  8
PNOA-H_AMS_1956-57_33k_ES_PAN_21mic_H50_0435_fot_47B-27920_E_tif
  70
32
  10
551976.000
  20
4567869.000
  30
1159.928
  0
VERTEX
  8
PNOA-H_AMS_1956-57_33k_ES_PAN_21mic_H50_0435_fot_47B-27920_E_tif
  70
32
  10
551975.987
  20
4567869.493
  30
1159.902
  0
VERTEX
  8
PNOA-H_AMS_1956-57_33k_ES_PAN_21mic_H50_0435_fot_47B-27920_E_tif
  70
32
  10
551861.000
  20
4572156.500
  30
933.219
  0
VERTEX
  8
PNOA-H_AMS_1956-57_33k_ES_PAN_21mic_H50_0435_fot_47B-27920_E_tif
  70
32
  10
551861.013
  20
4572156.500
  30
933.219
  0
VERTEX
  8
PNOA-H_AMS_1956-57_33k_ES_PAN_21mic_H50_0435_fot_47B-27920_E_tif
  70
32
  10
554534.500
  20
4572301.000
  30
915.864
  0
VERTEX
  8
PNOA-H_AMS_1956-57_33k_ES_PAN_21mic_H50_0435_fot_47B-27920_E_tif
  70
32
  10
554544.000
  20
4572301.500
  30
915.358
  0
VERTEX
  8
PNOA-H_AMS_1956-57_33k_ES_PAN_21mic_H50_0435_fot_47B-27920_E_tif
  70
32
  10
554547.000
  20
4572301.500
  30
915.239
  0
VERTEX
  8
PNOA-H_AMS_1956-57_33k_ES_PAN_21mic_H50_0435_fot_47B-27920_E_tif
  70
32
  10
554547.500
  20
4572301.500
  30
915.219
  0
VERTEX
  8
PNOA-H_AMS_1956-57_33k_ES_PAN_21mic_H50_0435_fot_47B-27920_E_tif
  70
32
  10
554550.500
  20
4572300.000
  30
915.151
  0
VERTEX
  8
PNOA-H_AMS_1956-57_33k_ES_PAN_21mic_H50_0435_fot_47B-27920_E_tif
  70
32
  10
554661.000
  20
4572239.500
  30
908.882
  0
VERTEX
  8
PNOA-H_AMS_1956-57_33k_ES_PAN_21mic_H50_0435_fot_47B-27920_E_tif
  70
32
  10
554661.100
  20
4572239.000
  30
908.87
  0
VERTEX
  8
PNOA-H_AMS_1956-57_33k_ES_PAN_21mic_H50_0435_fot_47B-27920_E_tif
  70
32
  10
554661.587
  20
4572236.567
  30
908.81
  0
VERTEX
  8
PNOA-H_AMS_1956-57_33k_ES_PAN_21mic_H50_0435_fot_47B-27920_E_tif
  70
32
  10
554662.000
  20
4572234.500
  30
908.76
  0
VERTEX
  8
PNOA-H_AMS_1956-57_33k_ES_PAN_21mic_H50_0435_fot_47B-27920_E_tif
  70
32
  10
554814.500
  20
4567949.000
  30
944.456
  0
VERTEX
  8
PNOA-H_AMS_1956-57_33k_ES_PAN_21mic_H50_0435_fot_47B-27920_E_tif
  70
32
  10
554814.500
  20
4567937.518
  30
944.875
  0
VERTEX
  8
PNOA-H_AMS_1956-57_33k_ES_PAN_21mic_H50_0435_fot_47B-27920_E_tif
  70
32
  10
554814.500
  20
4567937.500
  30
944.875
  0
VERTEX
  8
PNOA-H_AMS_1956-57_33k_ES_PAN_21mic_H50_0435_fot_47B-27920_E_tif
  70
32
  10
554813.000
  20
4567936.750
  30
944.938
  0
VERTEX
  8
PNOA-H_AMS_1956-57_33k_ES_PAN_21mic_H50_0435_fot_47B-27920_E_tif
  70
32
  10
554811.500
  20
4567936.000
  30
945
  0
VERTEX
  8
PNOA-H_AMS_1956-57_33k_ES_PAN_21mic_H50_0435_fot_47B-27920_E_tif
  70
32
  10
554810.500
  20
4567935.500
  30
945.041
  0
SEQEND
  8
PNOA-H_AMS_1956-57_33k_ES_PAN_21mic_H50_0435_fot_47B-27920_E_tif
  0
INSERT
  8
FeatureAttribs
  2
FEATURE
  41
1
  42
1
  43
1
  50
0
  10
550522.453
  20
4569977.000
 66
1
  0
ATTRIB
  8
FeatureAttribs
 70
0
  1
PNOA-H_AMS_1956-57_33k_ES_PAN_21mic_H50_0435_fot_47B-27919_E.tif
  2
NAME
  10
550522.453
  20
4569977.000
 40
33.73032
  0
SEQEND
  0
POLYLINE
  8
PNOA-H_AMS_1956-57_33k_ES_PAN_21mic_H50_0435_fot_47B-27919_E_tif
  70
9
  66
1
  0
VERTEX
  8
PNOA-H_AMS_1956-57_33k_ES_PAN_21mic_H50_0435_fot_47B-27919_E_tif
  70
32
  10
551975.000
  20
4567869.000
  30
1159.92
  0
VERTEX
  8
PNOA-H_AMS_1956-57_33k_ES_PAN_21mic_H50_0435_fot_47B-27919_E_tif
  70
32
  10
549278.500
  20
4567791.000
  30
1157.808
  0
VERTEX
  8
PNOA-H_AMS_1956-57_33k_ES_PAN_21mic_H50_0435_fot_47B-27919_E_tif
  70
32
  10
549267.000
  20
4567791.000
  30
1157.867
  0
VERTEX
  8
PNOA-H_AMS_1956-57_33k_ES_PAN_21mic_H50_0435_fot_47B-27919_E_tif
  70
32
  10
549266.500
  20
4567791.000
  30
1157.87
  0
VERTEX
  8
PNOA-H_AMS_1956-57_33k_ES_PAN_21mic_H50_0435_fot_47B-27919_E_tif
  70
32
  10
549155.000
  20
4567860.500
  30
1158.785
  0
VERTEX
  8
PNOA-H_AMS_1956-57_33k_ES_PAN_21mic_H50_0435_fot_47B-27919_E_tif
  70
32
  10
549096.007
  20
4572059.505
  30
1106.012
  0
VERTEX
  8
PNOA-H_AMS_1956-57_33k_ES_PAN_21mic_H50_0435_fot_47B-27919_E_tif
  70
32
  10
549096.000
  20
4572060.000
  30
1106.005
  0
VERTEX
  8
PNOA-H_AMS_1956-57_33k_ES_PAN_21mic_H50_0435_fot_47B-27919_E_tif
  70
32
  10
549109.000
  20
4572068.500
  30
1105.041
  0
VERTEX
  8
PNOA-H_AMS_1956-57_33k_ES_PAN_21mic_H50_0435_fot_47B-27919_E_tif
  70
32
  10
549109.498
  20
4572068.555
  30
1105.008
  0
VERTEX
  8
PNOA-H_AMS_1956-57_33k_ES_PAN_21mic_H50_0435_fot_47B-27919_E_tif
  70
32
  10
549113.500
  20
4572069.000
  30
1104.749
  0
VERTEX
  8
PNOA-H_AMS_1956-57_33k_ES_PAN_21mic_H50_0435_fot_47B-27919_E_tif
  70
32
  10
549302.000
  20
4572075.500
  30
1090.151
  0
VERTEX
  8
PNOA-H_AMS_1956-57_33k_ES_PAN_21mic_H50_0435_fot_47B-27919_E_tif
  70
32
  10
549316.500
  20
4572076.000
  30
1091.36
  0
VERTEX
  8
PNOA-H_AMS_1956-57_33k_ES_PAN_21mic_H50_0435_fot_47B-27919_E_tif
  70
32
  10
551843.500
  20
4572163.000
  30
934.068
  0
VERTEX
  8
PNOA-H_AMS_1956-57_33k_ES_PAN_21mic_H50_0435_fot_47B-27919_E_tif
  70
32
  10
551849.500
  20
4572163.000
  30
933.785
  0
VERTEX
  8
PNOA-H_AMS_1956-57_33k_ES_PAN_21mic_H50_0435_fot_47B-27919_E_tif
  70
32
  10
551850.000
  20
4572163.000
  30
933.761
  0
VERTEX
  8
PNOA-H_AMS_1956-57_33k_ES_PAN_21mic_H50_0435_fot_47B-27919_E_tif
  70
32
  10
551850.204
  20
4572162.889
  30
933.751
  0
VERTEX
  8
PNOA-H_AMS_1956-57_33k_ES_PAN_21mic_H50_0435_fot_47B-27919_E_tif
  70
32
  10
551861.000
  20
4572157.000
  30
933.222
  0
VERTEX
  8
PNOA-H_AMS_1956-57_33k_ES_PAN_21mic_H50_0435_fot_47B-27919_E_tif
  70
32
  10
551861.013
  20
4572156.500
  30
933.249
  0
VERTEX
  8
PNOA-H_AMS_1956-57_33k_ES_PAN_21mic_H50_0435_fot_47B-27919_E_tif
  70
32
  10
551975.500
  20
4567900.500
  30
1159.825
  0
VERTEX
  8
PNOA-H_AMS_1956-57_33k_ES_PAN_21mic_H50_0435_fot_47B-27919_E_tif
  70
32
  10
551976.000
  20
4567869.500
  30
1159.925
  0
VERTEX
  8
PNOA-H_AMS_1956-57_33k_ES_PAN_21mic_H50_0435_fot_47B-27919_E_tif
  70
32
  10
551975.987
  20
4567869.493
  30
1159.925
  0
VERTEX
  8
PNOA-H_AMS_1956-57_33k_ES_PAN_21mic_H50_0435_fot_47B-27919_E_tif
  70
32
  10
551975.444
  20
4567869.222
  30
1159.922
  0
VERTEX
  8
PNOA-H_AMS_1956-57_33k_ES_PAN_21mic_H50_0435_fot_47B-27919_E_tif
  70
32
  10
551975.000
  20
4567869.000
  30
1159.92
  0
SEQEND
  8
PNOA-H_AMS_1956-57_33k_ES_PAN_21mic_H50_0435_fot_47B-27919_E_tif
  0
INSERT
  8
FeatureAttribs
  2
FEATURE
  41
1
  42
1
  43
1
  50
0
  10
553439.375
  20
4565638.750
 66
1
  0
ATTRIB
  8
FeatureAttribs
 70
0
  1
PNOA-H_AMS_1956-57_33k_ES_PAN_21mic_H50_0435_fot_48D-18098_W.tif
  2
NAME
  10
553439.375
  20
4565638.750
 40
33.73032
  0
SEQEND
  0
POLYLINE
  8
PNOA-H_AMS_1956-57_33k_ES_PAN_21mic_H50_0435_fot_48D-18098_W_tif
  70
9
  66
1
  0
VERTEX
  8
PNOA-H_AMS_1956-57_33k_ES_PAN_21mic_H50_0435_fot_48D-18098_W_tif
  70
32
  10
554837.880
  20
4563748.444
  30
951.804
  0
VERTEX
  8
PNOA-H_AMS_1956-57_33k_ES_PAN_21mic_H50_0435_fot_48D-18098_W_tif
  70
32
  10
553963.000
  20
4563341.500
  30
945.07
  0
VERTEX
  8
PNOA-H_AMS_1956-57_33k_ES_PAN_21mic_H50_0435_fot_48D-18098_W_tif
  70
32
  10
553962.667
  20
4563341.578
  30
945.074
  0
VERTEX
  8
PNOA-H_AMS_1956-57_33k_ES_PAN_21mic_H50_0435_fot_48D-18098_W_tif
  70
32
  10
553492.375
  20
4563451.625
  30
950.431
  0
VERTEX
  8
PNOA-H_AMS_1956-57_33k_ES_PAN_21mic_H50_0435_fot_48D-18098_W_tif
  70
32
  10
552081.069
  20
4563781.867
  30
966.505
  0
VERTEX
  8
PNOA-H_AMS_1956-57_33k_ES_PAN_21mic_H50_0435_fot_48D-18098_W_tif
  70
32
  10
552080.500
  20
4563782.000
  30
966.512
  0
VERTEX
  8
PNOA-H_AMS_1956-57_33k_ES_PAN_21mic_H50_0435_fot_48D-18098_W_tif
  70
32
  10
552019.000
  20
4567841.500
  30
1160.19
  0
VERTEX
  8
PNOA-H_AMS_1956-57_33k_ES_PAN_21mic_H50_0435_fot_48D-18098_W_tif
  70
32
  10
552019.008
  20
4567841.500
  30
1160.189
  0
VERTEX
  8
PNOA-H_AMS_1956-57_33k_ES_PAN_21mic_H50_0435_fot_48D-18098_W_tif
  70
32
  10
552019.475
  20
4567841.516
  30
1160.153
  0
VERTEX
  8
PNOA-H_AMS_1956-57_33k_ES_PAN_21mic_H50_0435_fot_48D-18098_W_tif
  70
32
  10
554795.500
  20
4567935.500
  30
945.492
  0
VERTEX
  8
PNOA-H_AMS_1956-57_33k_ES_PAN_21mic_H50_0435_fot_48D-18098_W_tif
  70
32
  10
554810.500
  20
4567936.000
  30
945.021
  0
VERTEX
  8
PNOA-H_AMS_1956-57_33k_ES_PAN_21mic_H50_0435_fot_48D-18098_W_tif
  70
32
  10
554811.500
  20
4567936.000
  30
944.998
  0
VERTEX
  8
PNOA-H_AMS_1956-57_33k_ES_PAN_21mic_H50_0435_fot_48D-18098_W_tif
  70
32
  10
554812.000
  20
4567936.000
  30
944.986
  0
VERTEX
  8
PNOA-H_AMS_1956-57_33k_ES_PAN_21mic_H50_0435_fot_48D-18098_W_tif
  70
32
  10
554812.500
  20
4567896.000
  30
946.663
  0
VERTEX
  8
PNOA-H_AMS_1956-57_33k_ES_PAN_21mic_H50_0435_fot_48D-18098_W_tif
  70
32
  10
554838.000
  20
4563748.500
  30
951.805
  0
VERTEX
  8
PNOA-H_AMS_1956-57_33k_ES_PAN_21mic_H50_0435_fot_48D-18098_W_tif
  70
32
  10
554837.880
  20
4563748.444
  30
951.804
  0
SEQEND
  8
PNOA-H_AMS_1956-57_33k_ES_PAN_21mic_H50_0435_fot_48D-18098_W_tif
  0
INSERT
  8
FeatureAttribs
  2
FEATURE
  41
1
  42
1
  43
1
  50
0
  10
550678.858
  20
4565591.750
 66
1
  0
ATTRIB
  8
FeatureAttribs
 70
0
  1
PNOA-H_AMS_1956-57_33k_ES_PAN_21mic_H50_0435_fot_48D-18099_W.tif
  2
NAME
  10
550678.858
  20
4565591.750
 40
33.73032
  0
SEQEND
  0
POLYLINE
  8
PNOA-H_AMS_1956-57_33k_ES_PAN_21mic_H50_0435_fot_48D-18099_W_tif
  70
9
  66
1
  0
VERTEX
  8
PNOA-H_AMS_1956-57_33k_ES_PAN_21mic_H50_0435_fot_48D-18099_W_tif
  70
32
  10
552079.655
  20
4563781.665
  30
966.575
  0
VERTEX
  8
PNOA-H_AMS_1956-57_33k_ES_PAN_21mic_H50_0435_fot_48D-18099_W_tif
  70
32
  10
550900.000
  20
4563314.000
  30
1055.311
  0
VERTEX
  8
PNOA-H_AMS_1956-57_33k_ES_PAN_21mic_H50_0435_fot_48D-18099_W_tif
  70
32
  10
550899.710
  20
4563314.084
  30
1055.304
  0
VERTEX
  8
PNOA-H_AMS_1956-57_33k_ES_PAN_21mic_H50_0435_fot_48D-18099_W_tif
  70
32
  10
550899.498
  20
4563314.145
  30
1055.299
  0
VERTEX
  8
PNOA-H_AMS_1956-57_33k_ES_PAN_21mic_H50_0435_fot_48D-18099_W_tif
  70
32
  10
549786.500
  20
4563635.092
  30
1029.681
  0
VERTEX
  8
PNOA-H_AMS_1956-57_33k_ES_PAN_21mic_H50_0435_fot_48D-18099_W_tif
  70
32
  10
549336.000
  20
4563765.000
  30
1019.311
  0
VERTEX
  8
PNOA-H_AMS_1956-57_33k_ES_PAN_21mic_H50_0435_fot_48D-18099_W_tif
  70
32
  10
549335.757
  20
4563779.150
  30
1019.8
  0
VERTEX
  8
PNOA-H_AMS_1956-57_33k_ES_PAN_21mic_H50_0435_fot_48D-18099_W_tif
  70
32
  10
549324.326
  20
4564444.782
  30
1042.774
  0
VERTEX
  8
PNOA-H_AMS_1956-57_33k_ES_PAN_21mic_H50_0435_fot_48D-18099_W_tif
  70
32
  10
549324.000
  20
4564463.783
  30
1043.429
  0
VERTEX
  8
PNOA-H_AMS_1956-57_33k_ES_PAN_21mic_H50_0435_fot_48D-18099_W_tif
  70
32
  10
549267.000
  20
4567783.000
  30
1157.99
  0
VERTEX
  8
PNOA-H_AMS_1956-57_33k_ES_PAN_21mic_H50_0435_fot_48D-18099_W_tif
  70
32
  10
549267.000
  20
4567791.000
  30
1157.865
  0
VERTEX
  8
PNOA-H_AMS_1956-57_33k_ES_PAN_21mic_H50_0435_fot_48D-18099_W_tif
  70
32
  10
549295.500
  20
4567792.000
  30
1157.975
  0
VERTEX
  8
PNOA-H_AMS_1956-57_33k_ES_PAN_21mic_H50_0435_fot_48D-18099_W_tif
  70
32
  10
549313.000
  20
4567792.500
  30
1158.187
  0
VERTEX
  8
PNOA-H_AMS_1956-57_33k_ES_PAN_21mic_H50_0435_fot_48D-18099_W_tif
  70
32
  10
551975.000
  20
4567869.500
  30
1159.917
  0
VERTEX
  8
PNOA-H_AMS_1956-57_33k_ES_PAN_21mic_H50_0435_fot_48D-18099_W_tif
  70
32
  10
551975.444
  20
4567869.222
  30
1159.92
  0
VERTEX
  8
PNOA-H_AMS_1956-57_33k_ES_PAN_21mic_H50_0435_fot_48D-18099_W_tif
  70
32
  10
551993.400
  20
4567858.000
  30
1160.032
  0
VERTEX
  8
PNOA-H_AMS_1956-57_33k_ES_PAN_21mic_H50_0435_fot_48D-18099_W_tif
  70
32
  10
552019.000
  20
4567842.000
  30
1160.191
  0
VERTEX
  8
PNOA-H_AMS_1956-57_33k_ES_PAN_21mic_H50_0435_fot_48D-18099_W_tif
  70
32
  10
552019.003
  20
4567841.814
  30
1160.182
  0
VERTEX
  8
PNOA-H_AMS_1956-57_33k_ES_PAN_21mic_H50_0435_fot_48D-18099_W_tif
  70
32
  10
552019.008
  20
4567841.500
  30
1160.167
  0
VERTEX
  8
PNOA-H_AMS_1956-57_33k_ES_PAN_21mic_H50_0435_fot_48D-18099_W_tif
  70
32
  10
552080.500
  20
4563782.000
  30
966.512
  0
VERTEX
  8
PNOA-H_AMS_1956-57_33k_ES_PAN_21mic_H50_0435_fot_48D-18099_W_tif
  70
32
  10
552079.655
  20
4563781.665
  30
966.575
  0
SEQEND
  8
PNOA-H_AMS_1956-57_33k_ES_PAN_21mic_H50_0435_fot_48D-18099_W_tif
  0
INSERT
  8
FeatureAttribs
  2
FEATURE
  41
1
  42
1
  43
1
  50
0
  10
555499.415
  20
4561210.750
 66
1
  0
ATTRIB
  8
FeatureAttribs
 70
0
  1
PNOA-H_AMS_1956-57_33k_ES_PAN_21mic_H50_0435_fot_49C-11598_E.tif
  2
NAME
  10
555499.415
  20
4561210.750
 40
33.73032
  0
SEQEND
  0
POLYLINE
  8
PNOA-H_AMS_1956-57_33k_ES_PAN_21mic_H50_0435_fot_49C-11598_E_tif
  70
9
  66
1
  0
VERTEX
  8
PNOA-H_AMS_1956-57_33k_ES_PAN_21mic_H50_0435_fot_49C-11598_E_tif
  70
32
  10
557011.546
  20
4559097.818
  30
1097.396
  0
VERTEX
  8
PNOA-H_AMS_1956-57_33k_ES_PAN_21mic_H50_0435_fot_49C-11598_E_tif
  70
32
  10
555952.000
  20
4558673.000
  30
1020.029
  0
VERTEX
  8
PNOA-H_AMS_1956-57_33k_ES_PAN_21mic_H50_0435_fot_49C-11598_E_tif
  70
32
  10
555951.329
  20
4558673.132
  30
1020.047
  0
VERTEX
  8
PNOA-H_AMS_1956-57_33k_ES_PAN_21mic_H50_0435_fot_49C-11598_E_tif
  70
32
  10
553979.500
  20
4559060.000
  30
1071.605
  0
VERTEX
  8
PNOA-H_AMS_1956-57_33k_ES_PAN_21mic_H50_0435_fot_49C-11598_E_tif
  70
32
  10
553962.500
  20
4563341.500
  30
944.911
  0
VERTEX
  8
PNOA-H_AMS_1956-57_33k_ES_PAN_21mic_H50_0435_fot_49C-11598_E_tif
  70
32
  10
553962.667
  20
4563341.578
  30
944.912
  0
VERTEX
  8
PNOA-H_AMS_1956-57_33k_ES_PAN_21mic_H50_0435_fot_49C-11598_E_tif
  70
32
  10
554837.500
  20
4563748.500
  30
951.663
  0
VERTEX
  8
PNOA-H_AMS_1956-57_33k_ES_PAN_21mic_H50_0435_fot_49C-11598_E_tif
  70
32
  10
554837.880
  20
4563748.444
  30
951.67
  0
VERTEX
  8
PNOA-H_AMS_1956-57_33k_ES_PAN_21mic_H50_0435_fot_49C-11598_E_tif
  70
32
  10
555466.500
  20
4563656.000
  30
963.909
  0
VERTEX
  8
PNOA-H_AMS_1956-57_33k_ES_PAN_21mic_H50_0435_fot_49C-11598_E_tif
  70
32
  10
555468.000
  20
4563656.000
  30
964.545
  0
VERTEX
  8
PNOA-H_AMS_1956-57_33k_ES_PAN_21mic_H50_0435_fot_49C-11598_E_tif
  70
32
  10
557044.500
  20
4563425.000
  30
930.249
  0
VERTEX
  8
PNOA-H_AMS_1956-57_33k_ES_PAN_21mic_H50_0435_fot_49C-11598_E_tif
  70
32
  10
557012.000
  20
4559098.000
  30
1097.429
  0
VERTEX
  8
PNOA-H_AMS_1956-57_33k_ES_PAN_21mic_H50_0435_fot_49C-11598_E_tif
  70
32
  10
557011.546
  20
4559097.818
  30
1097.396
  0
SEQEND
  8
PNOA-H_AMS_1956-57_33k_ES_PAN_21mic_H50_0435_fot_49C-11598_E_tif
  0
INSERT
  8
FeatureAttribs
  2
FEATURE
  41
1
  42
1
  43
1
  50
0
  10
549351.531
  20
4561251.250
 66
1
  0
ATTRIB
  8
FeatureAttribs
 70
0
  1
PNOA-H_AMS_1956-57_33k_ES_PAN_21mic_H50_0435_fot_49C-11596_E.tif
  2
NAME
  10
549351.531
  20
4561251.250
 40
33.73032
  0
SEQEND
  0
POLYLINE
  8
PNOA-H_AMS_1956-57_33k_ES_PAN_21mic_H50_0435_fot_49C-11596_E_tif
  70
9
  66
1
  0
VERTEX
  8
PNOA-H_AMS_1956-57_33k_ES_PAN_21mic_H50_0435_fot_49C-11596_E_tif
  70
32
  10
550871.500
  20
4559034.000
  30
1147.421
  0
VERTEX
  8
PNOA-H_AMS_1956-57_33k_ES_PAN_21mic_H50_0435_fot_49C-11596_E_tif
  70
32
  10
550188.500
  20
4558737.500
  30
1026.571
  0
VERTEX
  8
PNOA-H_AMS_1956-57_33k_ES_PAN_21mic_H50_0435_fot_49C-11596_E_tif
  70
32
  10
550188.491
  20
4558737.501
  30
1026.571
  0
VERTEX
  8
PNOA-H_AMS_1956-57_33k_ES_PAN_21mic_H50_0435_fot_49C-11596_E_tif
  70
32
  10
547832.500
  20
4559032.000
  30
1061.751
  0
VERTEX
  8
PNOA-H_AMS_1956-57_33k_ES_PAN_21mic_H50_0435_fot_49C-11596_E_tif
  70
32
  10
547803.000
  20
4563271.500
  30
1152.082
  0
VERTEX
  8
PNOA-H_AMS_1956-57_33k_ES_PAN_21mic_H50_0435_fot_49C-11596_E_tif
  70
32
  10
547803.272
  20
4563271.588
  30
1152.058
  0
VERTEX
  8
PNOA-H_AMS_1956-57_33k_ES_PAN_21mic_H50_0435_fot_49C-11596_E_tif
  70
32
  10
549334.000
  20
4563764.500
  30
1019.213
  0
VERTEX
  8
PNOA-H_AMS_1956-57_33k_ES_PAN_21mic_H50_0435_fot_49C-11596_E_tif
  70
32
  10
549335.500
  20
4563765.000
  30
1019.248
  0
VERTEX
  8
PNOA-H_AMS_1956-57_33k_ES_PAN_21mic_H50_0435_fot_49C-11596_E_tif
  70
32
  10
549335.509
  20
4563764.997
  30
1019.248
  0
VERTEX
  8
PNOA-H_AMS_1956-57_33k_ES_PAN_21mic_H50_0435_fot_49C-11596_E_tif
  70
32
  10
549786.500
  20
4563635.092
  30
1029.713
  0
VERTEX
  8
PNOA-H_AMS_1956-57_33k_ES_PAN_21mic_H50_0435_fot_49C-11596_E_tif
  70
32
  10
550899.500
  20
4563314.500
  30
1055.541
  0
VERTEX
  8
PNOA-H_AMS_1956-57_33k_ES_PAN_21mic_H50_0435_fot_49C-11596_E_tif
  70
32
  10
550899.498
  20
4563314.145
  30
1055.548
  0
VERTEX
  8
PNOA-H_AMS_1956-57_33k_ES_PAN_21mic_H50_0435_fot_49C-11596_E_tif
  70
32
  10
550885.500
  20
4561174.250
  30
1101.481
  0
VERTEX
  8
PNOA-H_AMS_1956-57_33k_ES_PAN_21mic_H50_0435_fot_49C-11596_E_tif
  70
32
  10
550871.503
  20
4559034.499
  30
1147.411
  0
VERTEX
  8
PNOA-H_AMS_1956-57_33k_ES_PAN_21mic_H50_0435_fot_49C-11596_E_tif
  70
32
  10
550871.500
  20
4559034.000
  30
1147.421
  0
SEQEND
  8
PNOA-H_AMS_1956-57_33k_ES_PAN_21mic_H50_0435_fot_49C-11596_E_tif
  0
INSERT
  8
FeatureAttribs
  2
FEATURE
  41
1
  42
1
  43
1
  50
0
  10
552428.362
  20
4561220.500
 66
1
  0
ATTRIB
  8
FeatureAttribs
 70
0
  1
PNOA-H_AMS_1956-57_33k_ES_PAN_21mic_H50_0435_fot_49C-11597_E.tif
  2
NAME
  10
552428.362
  20
4561220.500
 40
33.73032
  0
SEQEND
  0
POLYLINE
  8
PNOA-H_AMS_1956-57_33k_ES_PAN_21mic_H50_0435_fot_49C-11597_E_tif
  70
9
  66
1
  0
VERTEX
  8
PNOA-H_AMS_1956-57_33k_ES_PAN_21mic_H50_0435_fot_49C-11597_E_tif
  70
32
  10
553979.187
  20
4559059.865
  30
1071.602
  0
VERTEX
  8
PNOA-H_AMS_1956-57_33k_ES_PAN_21mic_H50_0435_fot_49C-11597_E_tif
  70
32
  10
553048.000
  20
4558659.000
  30
1062.578
  0
VERTEX
  8
PNOA-H_AMS_1956-57_33k_ES_PAN_21mic_H50_0435_fot_49C-11597_E_tif
  70
32
  10
553047.286
  20
4558659.123
  30
1062.606
  0
VERTEX
  8
PNOA-H_AMS_1956-57_33k_ES_PAN_21mic_H50_0435_fot_49C-11597_E_tif
  70
32
  10
550871.503
  20
4559034.499
  30
1147.218
  0
VERTEX
  8
PNOA-H_AMS_1956-57_33k_ES_PAN_21mic_H50_0435_fot_49C-11597_E_tif
  70
32
  10
550871.500
  20
4559034.500
  30
1147.219
  0
VERTEX
  8
PNOA-H_AMS_1956-57_33k_ES_PAN_21mic_H50_0435_fot_49C-11597_E_tif
  70
32
  10
550885.500
  20
4561174.250
  30
1101.283
  0
VERTEX
  8
PNOA-H_AMS_1956-57_33k_ES_PAN_21mic_H50_0435_fot_49C-11597_E_tif
  70
32
  10
550899.500
  20
4563314.000
  30
1055.347
  0
VERTEX
  8
PNOA-H_AMS_1956-57_33k_ES_PAN_21mic_H50_0435_fot_49C-11597_E_tif
  70
32
  10
550899.710
  20
4563314.084
  30
1055.325
  0
VERTEX
  8
PNOA-H_AMS_1956-57_33k_ES_PAN_21mic_H50_0435_fot_49C-11597_E_tif
  70
32
  10
551369.500
  20
4563500.500
  30
1008.323
  0
VERTEX
  8
PNOA-H_AMS_1956-57_33k_ES_PAN_21mic_H50_0435_fot_49C-11597_E_tif
  70
32
  10
551370.500
  20
4563501.000
  30
1008.206
  0
VERTEX
  8
PNOA-H_AMS_1956-57_33k_ES_PAN_21mic_H50_0435_fot_49C-11597_E_tif
  70
32
  10
552078.500
  20
4563781.500
  30
966.822
  0
VERTEX
  8
PNOA-H_AMS_1956-57_33k_ES_PAN_21mic_H50_0435_fot_49C-11597_E_tif
  70
32
  10
552079.655
  20
4563781.665
  30
966.641
  0
VERTEX
  8
PNOA-H_AMS_1956-57_33k_ES_PAN_21mic_H50_0435_fot_49C-11597_E_tif
  70
32
  10
552081.069
  20
4563781.867
  30
966.419
  0
VERTEX
  8
PNOA-H_AMS_1956-57_33k_ES_PAN_21mic_H50_0435_fot_49C-11597_E_tif
  70
32
  10
552082.000
  20
4563782.000
  30
966.272
  0
VERTEX
  8
PNOA-H_AMS_1956-57_33k_ES_PAN_21mic_H50_0435_fot_49C-11597_E_tif
  70
32
  10
553492.375
  20
4563451.625
  30
950.252
  0
VERTEX
  8
PNOA-H_AMS_1956-57_33k_ES_PAN_21mic_H50_0435_fot_49C-11597_E_tif
  70
32
  10
553962.500
  20
4563341.500
  30
944.911
  0
VERTEX
  8
PNOA-H_AMS_1956-57_33k_ES_PAN_21mic_H50_0435_fot_49C-11597_E_tif
  70
32
  10
553979.500
  20
4559060.000
  30
1071.605
  0
VERTEX
  8
PNOA-H_AMS_1956-57_33k_ES_PAN_21mic_H50_0435_fot_49C-11597_E_tif
  70
32
  10
553979.187
  20
4559059.865
  30
1071.602
  0
SEQEND
  8
PNOA-H_AMS_1956-57_33k_ES_PAN_21mic_H50_0435_fot_49C-11597_E_tif
  0
INSERT
  8
FeatureAttribs
  2
FEATURE
  41
1
  42
1
  43
1
  50
0
  10
551613.398
  20
4558232.921
 66
1
  0
ATTRIB
  8
FeatureAttribs
 70
0
  1
PNOA-H_AMS_1956-57_33k_ES_PAN_21mic_H50_0462_fot_000-11667_R.tif
  2
NAME
  10
551613.398
  20
4558232.921
 40
33.73032
  0
SEQEND
  0
POLYLINE
  8
PNOA-H_AMS_1956-57_33k_ES_PAN_21mic_H50_0462_fot_000-11667_R_tif
  70
9
  66
1
  0
VERTEX
  8
PNOA-H_AMS_1956-57_33k_ES_PAN_21mic_H50_0462_fot_000-11667_R_tif
  70
32
  10
550165.369
  20
4557431.342
  30
0
  0
VERTEX
  8
PNOA-H_AMS_1956-57_33k_ES_PAN_21mic_H50_0462_fot_000-11667_R_tif
  70
32
  10
550165.366
  20
4557431.342
  30
1070.09
  0
VERTEX
  8
PNOA-H_AMS_1956-57_33k_ES_PAN_21mic_H50_0462_fot_000-11667_R_tif
  70
32
  10
550188.491
  20
4558737.501
  30
1026.756
  0
VERTEX
  8
PNOA-H_AMS_1956-57_33k_ES_PAN_21mic_H50_0462_fot_000-11667_R_tif
  70
32
  10
550188.500
  20
4558738.000
  30
1026.739
  0
VERTEX
  8
PNOA-H_AMS_1956-57_33k_ES_PAN_21mic_H50_0462_fot_000-11667_R_tif
  70
32
  10
550870.500
  20
4559034.000
  30
1146.875
  0
VERTEX
  8
PNOA-H_AMS_1956-57_33k_ES_PAN_21mic_H50_0462_fot_000-11667_R_tif
  70
32
  10
550871.500
  20
4559034.500
  30
1147.219
  0
VERTEX
  8
PNOA-H_AMS_1956-57_33k_ES_PAN_21mic_H50_0462_fot_000-11667_R_tif
  70
32
  10
550871.503
  20
4559034.499
  30
1147.218
  0
VERTEX
  8
PNOA-H_AMS_1956-57_33k_ES_PAN_21mic_H50_0462_fot_000-11667_R_tif
  70
32
  10
553047.000
  20
4558659.000
  30
1062.719
  0
VERTEX
  8
PNOA-H_AMS_1956-57_33k_ES_PAN_21mic_H50_0462_fot_000-11667_R_tif
  70
32
  10
553047.676
  20
4557451.791
  30
1097.672
  0
VERTEX
  8
PNOA-H_AMS_1956-57_33k_ES_PAN_21mic_H50_0462_fot_000-11667_R_tif
  70
32
  10
550683.260
  20
4557434.813
  30
0
  0
VERTEX
  8
PNOA-H_AMS_1956-57_33k_ES_PAN_21mic_H50_0462_fot_000-11667_R_tif
  70
32
  10
550165.369
  20
4557431.342
  30
0
  0
SEQEND
  8
PNOA-H_AMS_1956-57_33k_ES_PAN_21mic_H50_0462_fot_000-11667_R_tif
  0
INSERT
  8
FeatureAttribs
  2
FEATURE
  41
1
  42
1
  43
1
  50
0
  10
548797.459
  20
4558222.470
 66
1
  0
ATTRIB
  8
FeatureAttribs
 70
0
  1
PNOA-H_AMS_1956-57_33k_ES_PAN_21mic_H50_0462_fot_000-11668_R.tif
  2
NAME
  10
548797.459
  20
4558222.470
 40
33.73032
  0
SEQEND
  0
POLYLINE
  8
PNOA-H_AMS_1956-57_33k_ES_PAN_21mic_H50_0462_fot_000-11668_R_tif
  70
9
  66
1
  0
VERTEX
  8
PNOA-H_AMS_1956-57_33k_ES_PAN_21mic_H50_0462_fot_000-11668_R_tif
  70
32
  10
550165.366
  20
4557431.342
  30
0
  0
VERTEX
  8
PNOA-H_AMS_1956-57_33k_ES_PAN_21mic_H50_0462_fot_000-11668_R_tif
  70
32
  10
547419.650
  20
4557412.940
  30
1086.924
  0
VERTEX
  8
PNOA-H_AMS_1956-57_33k_ES_PAN_21mic_H50_0462_fot_000-11668_R_tif
  70
32
  10
547412.500
  20
4558820.500
  30
1082.5
  0
VERTEX
  8
PNOA-H_AMS_1956-57_33k_ES_PAN_21mic_H50_0462_fot_000-11668_R_tif
  70
32
  10
547412.531
  20
4558820.515
  30
1082.498
  0
VERTEX
  8
PNOA-H_AMS_1956-57_33k_ES_PAN_21mic_H50_0462_fot_000-11668_R_tif
  70
32
  10
547831.500
  20
4559031.500
  30
1061.696
  0
VERTEX
  8
PNOA-H_AMS_1956-57_33k_ES_PAN_21mic_H50_0462_fot_000-11668_R_tif
  70
32
  10
547832.497
  20
4559031.998
  30
1061.75
  0
VERTEX
  8
PNOA-H_AMS_1956-57_33k_ES_PAN_21mic_H50_0462_fot_000-11668_R_tif
  70
32
  10
547832.500
  20
4559032.000
  30
1061.751
  0
VERTEX
  8
PNOA-H_AMS_1956-57_33k_ES_PAN_21mic_H50_0462_fot_000-11668_R_tif
  70
32
  10
550188.491
  20
4558737.501
  30
1026.571
  0
VERTEX
  8
PNOA-H_AMS_1956-57_33k_ES_PAN_21mic_H50_0462_fot_000-11668_R_tif
  70
32
  10
550188.500
  20
4558737.500
  30
1026.571
  0
VERTEX
  8
PNOA-H_AMS_1956-57_33k_ES_PAN_21mic_H50_0462_fot_000-11668_R_tif
  70
32
  10
550165.369
  20
4557431.342
  30
1069.939
  0
VERTEX
  8
PNOA-H_AMS_1956-57_33k_ES_PAN_21mic_H50_0462_fot_000-11668_R_tif
  70
32
  10
550165.366
  20
4557431.342
  30
0
  0
SEQEND
  8
PNOA-H_AMS_1956-57_33k_ES_PAN_21mic_H50_0462_fot_000-11668_R_tif
  0
INSERT
  8
FeatureAttribs
  2
FEATURE
  41
1
  42
1
  43
1
  50
0
  10
554506.112
  20
4558255.895
 66
1
  0
ATTRIB
  8
FeatureAttribs
 70
0
  1
PNOA-H_AMS_1956-57_33k_ES_PAN_21mic_H50_0462_fot_000-11666_R.tif
  2
NAME
  10
554506.112
  20
4558255.895
 40
33.73032
  0
SEQEND
  0
POLYLINE
  8
PNOA-H_AMS_1956-57_33k_ES_PAN_21mic_H50_0462_fot_000-11666_R_tif
  70
9
  66
1
  0
VERTEX
  8
PNOA-H_AMS_1956-57_33k_ES_PAN_21mic_H50_0462_fot_000-11666_R_tif
  70
32
  10
554178.677
  20
4557459.912
  30
0
  0
VERTEX
  8
PNOA-H_AMS_1956-57_33k_ES_PAN_21mic_H50_0462_fot_000-11666_R_tif
  70
32
  10
553047.676
  20
4557451.791
  30
1097.672
  0
VERTEX
  8
PNOA-H_AMS_1956-57_33k_ES_PAN_21mic_H50_0462_fot_000-11666_R_tif
  70
32
  10
553047.000
  20
4558659.000
  30
1062.719
  0
VERTEX
  8
PNOA-H_AMS_1956-57_33k_ES_PAN_21mic_H50_0462_fot_000-11666_R_tif
  70
32
  10
553047.286
  20
4558659.123
  30
1062.722
  0
VERTEX
  8
PNOA-H_AMS_1956-57_33k_ES_PAN_21mic_H50_0462_fot_000-11666_R_tif
  70
32
  10
553978.500
  20
4559060.000
  30
1071.371
  0
VERTEX
  8
PNOA-H_AMS_1956-57_33k_ES_PAN_21mic_H50_0462_fot_000-11666_R_tif
  70
32
  10
553979.187
  20
4559059.865
  30
1071.405
  0
VERTEX
  8
PNOA-H_AMS_1956-57_33k_ES_PAN_21mic_H50_0462_fot_000-11666_R_tif
  70
32
  10
555465.000
  20
4558768.000
  30
1143.839
  0
VERTEX
  8
PNOA-H_AMS_1956-57_33k_ES_PAN_21mic_H50_0462_fot_000-11666_R_tif
  70
32
  10
555468.000
  20
4558767.500
  30
1142.381
  0
VERTEX
  8
PNOA-H_AMS_1956-57_33k_ES_PAN_21mic_H50_0462_fot_000-11666_R_tif
  70
32
  10
555951.000
  20
4558673.000
  30
1019.854
  0
VERTEX
  8
PNOA-H_AMS_1956-57_33k_ES_PAN_21mic_H50_0462_fot_000-11666_R_tif
  70
32
  10
555991.244
  20
4557473.795
  30
1062.355
  0
VERTEX
  8
PNOA-H_AMS_1956-57_33k_ES_PAN_21mic_H50_0462_fot_000-11666_R_tif
  70
32
  10
554178.677
  20
4557459.912
  30
0
  0
SEQEND
  8
PNOA-H_AMS_1956-57_33k_ES_PAN_21mic_H50_0462_fot_000-11666_R_tif
  0
INSERT
  8
FeatureAttribs
  2
FEATURE
  41
1
  42
1
  43
1
  50
0
  10
561793.962
  20
4570339.500
 66
1
  0
ATTRIB
  8
FeatureAttribs
 70
0
  1
PNOA-H_AMS_1956-57_33k_ES_PAN_21mic_H50_0435_fot_47B-27923_E.tif
  2
NAME
  10
561793.962
  20
4570339.500
 40
33.73032
  0
SEQEND
  0
POLYLINE
  8
PNOA-H_AMS_1956-57_33k_ES_PAN_21mic_H50_0435_fot_47B-27923_E_tif
  70
9
  66
1
  0
VERTEX
  8
PNOA-H_AMS_1956-57_33k_ES_PAN_21mic_H50_0435_fot_47B-27923_E_tif
  70
32
  10
563353.500
  20
4568154.488
  30
890.032
  0
VERTEX
  8
PNOA-H_AMS_1956-57_33k_ES_PAN_21mic_H50_0435_fot_47B-27923_E_tif
  70
32
  10
560457.000
  20
4568085.000
  30
890.387
  0
VERTEX
  8
PNOA-H_AMS_1956-57_33k_ES_PAN_21mic_H50_0435_fot_47B-27923_E_tif
  70
32
  10
560455.500
  20
4568085.000
  30
890.144
  0
VERTEX
  8
PNOA-H_AMS_1956-57_33k_ES_PAN_21mic_H50_0435_fot_47B-27923_E_tif
  70
32
  10
560455.267
  20
4568086.633
  30
890.443
  0
VERTEX
  8
PNOA-H_AMS_1956-57_33k_ES_PAN_21mic_H50_0435_fot_47B-27923_E_tif
  70
32
  10
560455.000
  20
4568088.500
  30
890.784
  0
VERTEX
  8
PNOA-H_AMS_1956-57_33k_ES_PAN_21mic_H50_0435_fot_47B-27923_E_tif
  70
32
  10
560238.500
  20
4572438.000
  30
855.17
  0
VERTEX
  8
PNOA-H_AMS_1956-57_33k_ES_PAN_21mic_H50_0435_fot_47B-27923_E_tif
  70
32
  10
560242.405
  20
4572438.219
  30
855.13
  0
VERTEX
  8
PNOA-H_AMS_1956-57_33k_ES_PAN_21mic_H50_0435_fot_47B-27923_E_tif
  70
32
  10
563014.000
  20
4572593.500
  30
826.734
  0
VERTEX
  8
PNOA-H_AMS_1956-57_33k_ES_PAN_21mic_H50_0435_fot_47B-27923_E_tif
  70
32
  10
563023.000
  20
4572594.000
  30
826.9
  0
VERTEX
  8
PNOA-H_AMS_1956-57_33k_ES_PAN_21mic_H50_0435_fot_47B-27923_E_tif
  70
32
  10
563024.184
  20
4572593.737
  30
826.911
  0
VERTEX
  8
PNOA-H_AMS_1956-57_33k_ES_PAN_21mic_H50_0435_fot_47B-27923_E_tif
  70
32
  10
563025.646
  20
4572593.412
  30
826.926
  0
VERTEX
  8
PNOA-H_AMS_1956-57_33k_ES_PAN_21mic_H50_0435_fot_47B-27923_E_tif
  70
32
  10
563027.500
  20
4572593.000
  30
826.944
  0
VERTEX
  8
PNOA-H_AMS_1956-57_33k_ES_PAN_21mic_H50_0435_fot_47B-27923_E_tif
  70
32
  10
563091.500
  20
4572554.500
  30
826.474
  0
VERTEX
  8
PNOA-H_AMS_1956-57_33k_ES_PAN_21mic_H50_0435_fot_47B-27923_E_tif
  70
32
  10
563092.930
  20
4572553.546
  30
826.445
  0
VERTEX
  8
PNOA-H_AMS_1956-57_33k_ES_PAN_21mic_H50_0435_fot_47B-27923_E_tif
  70
32
  10
563093.000
  20
4572553.500
  30
826.443
  0
VERTEX
  8
PNOA-H_AMS_1956-57_33k_ES_PAN_21mic_H50_0435_fot_47B-27923_E_tif
  70
32
  10
563093.500
  20
4572550.000
  30
826.315
  0
VERTEX
  8
PNOA-H_AMS_1956-57_33k_ES_PAN_21mic_H50_0435_fot_47B-27923_E_tif
  70
32
  10
563392.500
  20
4568186.500
  30
891.366
  0
VERTEX
  8
PNOA-H_AMS_1956-57_33k_ES_PAN_21mic_H50_0435_fot_47B-27923_E_tif
  70
32
  10
563392.293
  20
4568184.019
  30
891.278
  0
VERTEX
  8
PNOA-H_AMS_1956-57_33k_ES_PAN_21mic_H50_0435_fot_47B-27923_E_tif
  70
32
  10
563392.010
  20
4568180.615
  30
891.157
  0
VERTEX
  8
PNOA-H_AMS_1956-57_33k_ES_PAN_21mic_H50_0435_fot_47B-27923_E_tif
  70
32
  10
563392.000
  20
4568180.500
  30
891.153
  0
VERTEX
  8
PNOA-H_AMS_1956-57_33k_ES_PAN_21mic_H50_0435_fot_47B-27923_E_tif
  70
32
  10
563354.000
  20
4568154.500
  30
890.032
  0
VERTEX
  8
PNOA-H_AMS_1956-57_33k_ES_PAN_21mic_H50_0435_fot_47B-27923_E_tif
  70
32
  10
563353.500
  20
4568154.488
  30
890.032
  0
SEQEND
  8
PNOA-H_AMS_1956-57_33k_ES_PAN_21mic_H50_0435_fot_47B-27923_E_tif
  0
INSERT
  8
FeatureAttribs
  2
FEATURE
  41
1
  42
1
  43
1
  50
0
  10
556129.709
  20
4570174.500
 66
1
  0
ATTRIB
  8
FeatureAttribs
 70
0
  1
PNOA-H_AMS_1956-57_33k_ES_PAN_21mic_H50_0435_fot_47B-27921_E.tif
  2
NAME
  10
556129.709
  20
4570174.500
 40
33.73032
  0
SEQEND
  0
POLYLINE
  8
PNOA-H_AMS_1956-57_33k_ES_PAN_21mic_H50_0435_fot_47B-27921_E_tif
  70
9
  66
1
  0
VERTEX
  8
PNOA-H_AMS_1956-57_33k_ES_PAN_21mic_H50_0435_fot_47B-27921_E_tif
  70
32
  10
557526.500
  20
4567955.997
  30
897.152
  0
VERTEX
  8
PNOA-H_AMS_1956-57_33k_ES_PAN_21mic_H50_0435_fot_47B-27921_E_tif
  70
32
  10
554814.500
  20
4567937.500
  30
944.875
  0
VERTEX
  8
PNOA-H_AMS_1956-57_33k_ES_PAN_21mic_H50_0435_fot_47B-27921_E_tif
  70
32
  10
554814.500
  20
4567937.518
  30
944.875
  0
VERTEX
  8
PNOA-H_AMS_1956-57_33k_ES_PAN_21mic_H50_0435_fot_47B-27921_E_tif
  70
32
  10
554661.587
  20
4572236.567
  30
908.883
  0
VERTEX
  8
PNOA-H_AMS_1956-57_33k_ES_PAN_21mic_H50_0435_fot_47B-27921_E_tif
  70
32
  10
554661.500
  20
4572239.000
  30
908.863
  0
VERTEX
  8
PNOA-H_AMS_1956-57_33k_ES_PAN_21mic_H50_0435_fot_47B-27921_E_tif
  70
32
  10
555459.000
  20
4572291.500
  30
893.765
  0
VERTEX
  8
PNOA-H_AMS_1956-57_33k_ES_PAN_21mic_H50_0435_fot_47B-27921_E_tif
  70
32
  10
555466.500
  20
4572292.000
  30
894.112
  0
VERTEX
  8
PNOA-H_AMS_1956-57_33k_ES_PAN_21mic_H50_0435_fot_47B-27921_E_tif
  70
32
  10
557282.500
  20
4572411.500
  30
888.852
  0
VERTEX
  8
PNOA-H_AMS_1956-57_33k_ES_PAN_21mic_H50_0435_fot_47B-27921_E_tif
  70
32
  10
557282.614
  20
4572411.442
  30
888.85
  0
VERTEX
  8
PNOA-H_AMS_1956-57_33k_ES_PAN_21mic_H50_0435_fot_47B-27921_E_tif
  70
32
  10
557286.338
  20
4572409.541
  30
888.791
  0
VERTEX
  8
PNOA-H_AMS_1956-57_33k_ES_PAN_21mic_H50_0435_fot_47B-27921_E_tif
  70
32
  10
557424.500
  20
4572339.000
  30
886.591
  0
VERTEX
  8
PNOA-H_AMS_1956-57_33k_ES_PAN_21mic_H50_0435_fot_47B-27921_E_tif
  70
32
  10
557623.500
  20
4568031.000
  30
893.888
  0
VERTEX
  8
PNOA-H_AMS_1956-57_33k_ES_PAN_21mic_H50_0435_fot_47B-27921_E_tif
  70
32
  10
557623.499
  20
4568021.538
  30
893.701
  0
VERTEX
  8
PNOA-H_AMS_1956-57_33k_ES_PAN_21mic_H50_0435_fot_47B-27921_E_tif
  70
32
  10
557623.500
  20
4568021.500
  30
893.7
  0
VERTEX
  8
PNOA-H_AMS_1956-57_33k_ES_PAN_21mic_H50_0435_fot_47B-27921_E_tif
  70
32
  10
557622.500
  20
4568020.500
  30
893.752
  0
VERTEX
  8
PNOA-H_AMS_1956-57_33k_ES_PAN_21mic_H50_0435_fot_47B-27921_E_tif
  70
32
  10
557527.000
  20
4567956.000
  30
897.143
  0
VERTEX
  8
PNOA-H_AMS_1956-57_33k_ES_PAN_21mic_H50_0435_fot_47B-27921_E_tif
  70
32
  10
557526.500
  20
4567955.997
  30
897.152
  0
SEQEND
  8
PNOA-H_AMS_1956-57_33k_ES_PAN_21mic_H50_0435_fot_47B-27921_E_tif
  0
INSERT
  8
FeatureAttribs
  2
FEATURE
  41
1
  42
1
  43
1
  50
0
  10
558932.783
  20
4570278.750
 66
1
  0
ATTRIB
  8
FeatureAttribs
 70
0
  1
PNOA-H_AMS_1956-57_33k_ES_PAN_21mic_H50_0435_fot_47B-27922_E.tif
  2
NAME
  10
558932.783
  20
4570278.750
 40
33.73032
  0
SEQEND
  0
POLYLINE
  8
PNOA-H_AMS_1956-57_33k_ES_PAN_21mic_H50_0435_fot_47B-27922_E_tif
  70
9
  66
1
  0
VERTEX
  8
PNOA-H_AMS_1956-57_33k_ES_PAN_21mic_H50_0435_fot_47B-27922_E_tif
  70
32
  10
560429.500
  20
4568070.500
  30
885.877
  0
VERTEX
  8
PNOA-H_AMS_1956-57_33k_ES_PAN_21mic_H50_0435_fot_47B-27922_E_tif
  70
32
  10
557623.500
  20
4568021.500
  30
893.7
  0
VERTEX
  8
PNOA-H_AMS_1956-57_33k_ES_PAN_21mic_H50_0435_fot_47B-27922_E_tif
  70
32
  10
557623.499
  20
4568021.538
  30
893.7
  0
VERTEX
  8
PNOA-H_AMS_1956-57_33k_ES_PAN_21mic_H50_0435_fot_47B-27922_E_tif
  70
32
  10
557424.500
  20
4572334.000
  30
886.486
  0
VERTEX
  8
PNOA-H_AMS_1956-57_33k_ES_PAN_21mic_H50_0435_fot_47B-27922_E_tif
  70
32
  10
557424.500
  20
4572339.000
  30
886.591
  0
VERTEX
  8
PNOA-H_AMS_1956-57_33k_ES_PAN_21mic_H50_0435_fot_47B-27922_E_tif
  70
32
  10
557504.500
  20
4572345.000
  30
885.854
  0
VERTEX
  8
PNOA-H_AMS_1956-57_33k_ES_PAN_21mic_H50_0435_fot_47B-27922_E_tif
  70
32
  10
557511.500
  20
4572345.500
  30
885.903
  0
VERTEX
  8
PNOA-H_AMS_1956-57_33k_ES_PAN_21mic_H50_0435_fot_47B-27922_E_tif
  70
32
  10
560069.000
  20
4572536.000
  30
876.417
  0
VERTEX
  8
PNOA-H_AMS_1956-57_33k_ES_PAN_21mic_H50_0435_fot_47B-27922_E_tif
  70
32
  10
560069.934
  20
4572535.883
  30
876.392
  0
VERTEX
  8
PNOA-H_AMS_1956-57_33k_ES_PAN_21mic_H50_0435_fot_47B-27922_E_tif
  70
32
  10
560072.171
  20
4572535.604
  30
876.331
  0
VERTEX
  8
PNOA-H_AMS_1956-57_33k_ES_PAN_21mic_H50_0435_fot_47B-27922_E_tif
  70
32
  10
560073.000
  20
4572535.500
  30
876.308
  0
VERTEX
  8
PNOA-H_AMS_1956-57_33k_ES_PAN_21mic_H50_0435_fot_47B-27922_E_tif
  70
32
  10
560237.753
  20
4572438.440
  30
855.266
  0
VERTEX
  8
PNOA-H_AMS_1956-57_33k_ES_PAN_21mic_H50_0435_fot_47B-27922_E_tif
  70
32
  10
560238.500
  20
4572438.000
  30
855.17
  0
VERTEX
  8
PNOA-H_AMS_1956-57_33k_ES_PAN_21mic_H50_0435_fot_47B-27922_E_tif
  70
32
  10
560455.500
  20
4568088.500
  30
890.88
  0
VERTEX
  8
PNOA-H_AMS_1956-57_33k_ES_PAN_21mic_H50_0435_fot_47B-27922_E_tif
  70
32
  10
560455.267
  20
4568086.633
  30
890.449
  0
VERTEX
  8
PNOA-H_AMS_1956-57_33k_ES_PAN_21mic_H50_0435_fot_47B-27922_E_tif
  70
32
  10
560455.043
  20
4568084.848
  30
890.038
  0
VERTEX
  8
PNOA-H_AMS_1956-57_33k_ES_PAN_21mic_H50_0435_fot_47B-27922_E_tif
  70
32
  10
560455.000
  20
4568084.500
  30
889.958
  0
VERTEX
  8
PNOA-H_AMS_1956-57_33k_ES_PAN_21mic_H50_0435_fot_47B-27922_E_tif
  70
32
  10
560439.500
  20
4568073.500
  30
886.439
  0
VERTEX
  8
PNOA-H_AMS_1956-57_33k_ES_PAN_21mic_H50_0435_fot_47B-27922_E_tif
  70
32
  10
560435.500
  20
4568071.000
  30
886.162
  0
VERTEX
  8
PNOA-H_AMS_1956-57_33k_ES_PAN_21mic_H50_0435_fot_47B-27922_E_tif
  70
32
  10
560435.000
  20
4568070.958
  30
886.139
  0
VERTEX
  8
PNOA-H_AMS_1956-57_33k_ES_PAN_21mic_H50_0435_fot_47B-27922_E_tif
  70
32
  10
560429.500
  20
4568070.500
  30
885.877
  0
SEQEND
  8
PNOA-H_AMS_1956-57_33k_ES_PAN_21mic_H50_0435_fot_47B-27922_E_tif
  0
INSERT
  8
FeatureAttribs
  2
FEATURE
  41
1
  42
1
  43
1
  50
0
  10
559009.397
  20
4565783.750
 66
1
  0
ATTRIB
  8
FeatureAttribs
 70
0
  1
PNOA-H_AMS_1956-57_33k_ES_PAN_21mic_H50_0435_fot_48D-18096_W.tif
  2
NAME
  10
559009.397
  20
4565783.750
 40
33.73032
  0
SEQEND
  0
POLYLINE
  8
PNOA-H_AMS_1956-57_33k_ES_PAN_21mic_H50_0435_fot_48D-18096_W_tif
  70
9
  66
1
  0
VERTEX
  8
PNOA-H_AMS_1956-57_33k_ES_PAN_21mic_H50_0435_fot_48D-18096_W_tif
  70
32
  10
560439.927
  20
4563716.460
  30
853.617
  0
VERTEX
  8
PNOA-H_AMS_1956-57_33k_ES_PAN_21mic_H50_0435_fot_48D-18096_W_tif
  70
32
  10
560036.000
  20
4563496.500
  30
864.795
  0
VERTEX
  8
PNOA-H_AMS_1956-57_33k_ES_PAN_21mic_H50_0435_fot_48D-18096_W_tif
  70
32
  10
560035.992
  20
4563496.501
  30
864.795
  0
VERTEX
  8
PNOA-H_AMS_1956-57_33k_ES_PAN_21mic_H50_0435_fot_48D-18096_W_tif
  70
32
  10
559972.500
  20
4563502.500
  30
865.79
  0
VERTEX
  8
PNOA-H_AMS_1956-57_33k_ES_PAN_21mic_H50_0435_fot_48D-18096_W_tif
  70
32
  10
559970.000
  20
4563504.500
  30
873.063
  0
VERTEX
  8
PNOA-H_AMS_1956-57_33k_ES_PAN_21mic_H50_0435_fot_48D-18096_W_tif
  70
32
  10
559946.500
  20
4563505.000
  30
891.912
  0
VERTEX
  8
PNOA-H_AMS_1956-57_33k_ES_PAN_21mic_H50_0435_fot_48D-18096_W_tif
  70
32
  10
557632.500
  20
4563728.000
  30
899.235
  0
VERTEX
  8
PNOA-H_AMS_1956-57_33k_ES_PAN_21mic_H50_0435_fot_48D-18096_W_tif
  70
32
  10
557526.500
  20
4567955.997
  30
897.193
  0
VERTEX
  8
PNOA-H_AMS_1956-57_33k_ES_PAN_21mic_H50_0435_fot_48D-18096_W_tif
  70
32
  10
557526.500
  20
4567956.000
  30
897.193
  0
VERTEX
  8
PNOA-H_AMS_1956-57_33k_ES_PAN_21mic_H50_0435_fot_48D-18096_W_tif
  70
32
  10
557623.000
  20
4568021.500
  30
893.741
  0
VERTEX
  8
PNOA-H_AMS_1956-57_33k_ES_PAN_21mic_H50_0435_fot_48D-18096_W_tif
  70
32
  10
557623.499
  20
4568021.538
  30
893.702
  0
VERTEX
  8
PNOA-H_AMS_1956-57_33k_ES_PAN_21mic_H50_0435_fot_48D-18096_W_tif
  70
32
  10
557629.500
  20
4568022.000
  30
893.23
  0
VERTEX
  8
PNOA-H_AMS_1956-57_33k_ES_PAN_21mic_H50_0435_fot_48D-18096_W_tif
  70
32
  10
560401.000
  20
4568070.500
  30
885.216
  0
VERTEX
  8
PNOA-H_AMS_1956-57_33k_ES_PAN_21mic_H50_0435_fot_48D-18096_W_tif
  70
32
  10
560429.500
  20
4568071.000
  30
885.876
  0
VERTEX
  8
PNOA-H_AMS_1956-57_33k_ES_PAN_21mic_H50_0435_fot_48D-18096_W_tif
  70
32
  10
560435.000
  20
4568071.000
  30
886.135
  0
VERTEX
  8
PNOA-H_AMS_1956-57_33k_ES_PAN_21mic_H50_0435_fot_48D-18096_W_tif
  70
32
  10
560435.000
  20
4568070.958
  30
886.135
  0
VERTEX
  8
PNOA-H_AMS_1956-57_33k_ES_PAN_21mic_H50_0435_fot_48D-18096_W_tif
  70
32
  10
560435.500
  20
4568009.500
  30
886.671
  0
VERTEX
  8
PNOA-H_AMS_1956-57_33k_ES_PAN_21mic_H50_0435_fot_48D-18096_W_tif
  70
32
  10
560440.000
  20
4563716.500
  30
853.615
  0
VERTEX
  8
PNOA-H_AMS_1956-57_33k_ES_PAN_21mic_H50_0435_fot_48D-18096_W_tif
  70
32
  10
560439.927
  20
4563716.460
  30
853.617
  0
SEQEND
  8
PNOA-H_AMS_1956-57_33k_ES_PAN_21mic_H50_0435_fot_48D-18096_W_tif
  0
INSERT
  8
FeatureAttribs
  2
FEATURE
  41
1
  42
1
  43
1
  50
0
  10
561898.899
  20
4565816.500
 66
1
  0
ATTRIB
  8
FeatureAttribs
 70
0
  1
PNOA-H_AMS_1956-57_33k_ES_PAN_21mic_H50_0435_fot_48D-18095_W.tif
  2
NAME
  10
561898.899
  20
4565816.500
 40
33.73032
  0
SEQEND
  0
POLYLINE
  8
PNOA-H_AMS_1956-57_33k_ES_PAN_21mic_H50_0435_fot_48D-18095_W_tif
  70
9
  66
1
  0
VERTEX
  8
PNOA-H_AMS_1956-57_33k_ES_PAN_21mic_H50_0435_fot_48D-18095_W_tif
  70
32
  10
563208.500
  20
4563593.779
  30
829.556
  0
VERTEX
  8
PNOA-H_AMS_1956-57_33k_ES_PAN_21mic_H50_0435_fot_48D-18095_W_tif
  70
32
  10
563005.000
  20
4563478.500
  30
828.253
  0
VERTEX
  8
PNOA-H_AMS_1956-57_33k_ES_PAN_21mic_H50_0435_fot_48D-18095_W_tif
  70
32
  10
563004.141
  20
4563478.580
  30
828.261
  0
VERTEX
  8
PNOA-H_AMS_1956-57_33k_ES_PAN_21mic_H50_0435_fot_48D-18095_W_tif
  70
32
  10
560440.000
  20
4563716.500
  30
853.615
  0
VERTEX
  8
PNOA-H_AMS_1956-57_33k_ES_PAN_21mic_H50_0435_fot_48D-18095_W_tif
  70
32
  10
560435.000
  20
4568070.958
  30
886.135
  0
VERTEX
  8
PNOA-H_AMS_1956-57_33k_ES_PAN_21mic_H50_0435_fot_48D-18095_W_tif
  70
32
  10
560435.000
  20
4568071.000
  30
886.135
  0
VERTEX
  8
PNOA-H_AMS_1956-57_33k_ES_PAN_21mic_H50_0435_fot_48D-18095_W_tif
  70
32
  10
560454.000
  20
4568084.500
  30
889.799
  0
VERTEX
  8
PNOA-H_AMS_1956-57_33k_ES_PAN_21mic_H50_0435_fot_48D-18095_W_tif
  70
32
  10
560455.043
  20
4568084.848
  30
890.043
  0
VERTEX
  8
PNOA-H_AMS_1956-57_33k_ES_PAN_21mic_H50_0435_fot_48D-18095_W_tif
  70
32
  10
560455.500
  20
4568085.000
  30
890.15
  0
VERTEX
  8
PNOA-H_AMS_1956-57_33k_ES_PAN_21mic_H50_0435_fot_48D-18095_W_tif
  70
32
  10
560457.000
  20
4568085.500
  30
890.5
  0
VERTEX
  8
PNOA-H_AMS_1956-57_33k_ES_PAN_21mic_H50_0435_fot_48D-18095_W_tif
  70
32
  10
563318.500
  20
4568154.000
  30
892.686
  0
VERTEX
  8
PNOA-H_AMS_1956-57_33k_ES_PAN_21mic_H50_0435_fot_48D-18095_W_tif
  70
32
  10
563339.500
  20
4568154.500
  30
890.932
  0
VERTEX
  8
PNOA-H_AMS_1956-57_33k_ES_PAN_21mic_H50_0435_fot_48D-18095_W_tif
  70
32
  10
563353.500
  20
4568154.500
  30
890.057
  0
VERTEX
  8
PNOA-H_AMS_1956-57_33k_ES_PAN_21mic_H50_0435_fot_48D-18095_W_tif
  70
32
  10
563353.500
  20
4568154.488
  30
890.058
  0
VERTEX
  8
PNOA-H_AMS_1956-57_33k_ES_PAN_21mic_H50_0435_fot_48D-18095_W_tif
  70
32
  10
563354.000
  20
4568104.500
  30
890.782
  0
VERTEX
  8
PNOA-H_AMS_1956-57_33k_ES_PAN_21mic_H50_0435_fot_48D-18095_W_tif
  70
32
  10
563366.000
  20
4563683.000
  30
830.565
  0
VERTEX
  8
PNOA-H_AMS_1956-57_33k_ES_PAN_21mic_H50_0435_fot_48D-18095_W_tif
  70
32
  10
563365.952
  20
4563682.973
  30
830.565
  0
VERTEX
  8
PNOA-H_AMS_1956-57_33k_ES_PAN_21mic_H50_0435_fot_48D-18095_W_tif
  70
32
  10
563365.302
  20
4563682.605
  30
830.56
  0
VERTEX
  8
PNOA-H_AMS_1956-57_33k_ES_PAN_21mic_H50_0435_fot_48D-18095_W_tif
  70
32
  10
563208.500
  20
4563593.779
  30
829.556
  0
SEQEND
  8
PNOA-H_AMS_1956-57_33k_ES_PAN_21mic_H50_0435_fot_48D-18095_W_tif
  0
INSERT
  8
FeatureAttribs
  2
FEATURE
  41
1
  42
1
  43
1
  50
0
  10
556204.620
  20
4565690.500
 66
1
  0
ATTRIB
  8
FeatureAttribs
 70
0
  1
PNOA-H_AMS_1956-57_33k_ES_PAN_21mic_H50_0435_fot_48D-18097_W.tif
  2
NAME
  10
556204.620
  20
4565690.500
 40
33.73032
  0
SEQEND
  0
POLYLINE
  8
PNOA-H_AMS_1956-57_33k_ES_PAN_21mic_H50_0435_fot_48D-18097_W_tif
  70
9
  66
1
  0
VERTEX
  8
PNOA-H_AMS_1956-57_33k_ES_PAN_21mic_H50_0435_fot_48D-18097_W_tif
  70
32
  10
557632.500
  20
4563728.000
  30
899.235
  0
VERTEX
  8
PNOA-H_AMS_1956-57_33k_ES_PAN_21mic_H50_0435_fot_48D-18097_W_tif
  70
32
  10
557045.500
  20
4563425.000
  30
930.221
  0
VERTEX
  8
PNOA-H_AMS_1956-57_33k_ES_PAN_21mic_H50_0435_fot_48D-18097_W_tif
  70
32
  10
557044.721
  20
4563425.114
  30
930.229
  0
VERTEX
  8
PNOA-H_AMS_1956-57_33k_ES_PAN_21mic_H50_0435_fot_48D-18097_W_tif
  70
32
  10
554838.000
  20
4563748.500
  30
951.805
  0
VERTEX
  8
PNOA-H_AMS_1956-57_33k_ES_PAN_21mic_H50_0435_fot_48D-18097_W_tif
  70
32
  10
554812.000
  20
4567936.000
  30
944.986
  0
VERTEX
  8
PNOA-H_AMS_1956-57_33k_ES_PAN_21mic_H50_0435_fot_48D-18097_W_tif
  70
32
  10
554813.000
  20
4567936.750
  30
944.936
  0
VERTEX
  8
PNOA-H_AMS_1956-57_33k_ES_PAN_21mic_H50_0435_fot_48D-18097_W_tif
  70
32
  10
554814.000
  20
4567937.500
  30
944.886
  0
VERTEX
  8
PNOA-H_AMS_1956-57_33k_ES_PAN_21mic_H50_0435_fot_48D-18097_W_tif
  70
32
  10
554814.500
  20
4567937.518
  30
944.878
  0
VERTEX
  8
PNOA-H_AMS_1956-57_33k_ES_PAN_21mic_H50_0435_fot_48D-18097_W_tif
  70
32
  10
554827.500
  20
4567938.000
  30
944.676
  0
VERTEX
  8
PNOA-H_AMS_1956-57_33k_ES_PAN_21mic_H50_0435_fot_48D-18097_W_tif
  70
32
  10
555344.000
  20
4567941.500
  30
940.195
  0
VERTEX
  8
PNOA-H_AMS_1956-57_33k_ES_PAN_21mic_H50_0435_fot_48D-18097_W_tif
  70
32
  10
555418.000
  20
4567942.000
  30
945.104
  0
VERTEX
  8
PNOA-H_AMS_1956-57_33k_ES_PAN_21mic_H50_0435_fot_48D-18097_W_tif
  70
32
  10
557526.500
  20
4567956.000
  30
897.193
  0
VERTEX
  8
PNOA-H_AMS_1956-57_33k_ES_PAN_21mic_H50_0435_fot_48D-18097_W_tif
  70
32
  10
557526.500
  20
4567955.997
  30
897.193
  0
VERTEX
  8
PNOA-H_AMS_1956-57_33k_ES_PAN_21mic_H50_0435_fot_48D-18097_W_tif
  70
32
  10
557632.500
  20
4563728.000
  30
899.235
  0
SEQEND
  8
PNOA-H_AMS_1956-57_33k_ES_PAN_21mic_H50_0435_fot_48D-18097_W_tif
  0
INSERT
  8
FeatureAttribs
  2
FEATURE
  41
1
  42
1
  43
1
  50
0
  10
561503.064
  20
4561205.500
 66
1
  0
ATTRIB
  8
FeatureAttribs
 70
0
  1
PNOA-H_AMS_1956-57_33k_ES_PAN_21mic_H50_0435_fot_49C-11600_E.tif
  2
NAME
  10
561503.064
  20
4561205.500
 40
33.73032
  0
SEQEND
  0
POLYLINE
  8
PNOA-H_AMS_1956-57_33k_ES_PAN_21mic_H50_0435_fot_49C-11600_E_tif
  70
9
  66
1
  0
VERTEX
  8
PNOA-H_AMS_1956-57_33k_ES_PAN_21mic_H50_0435_fot_49C-11600_E_tif
  70
32
  10
563007.006
  20
4559130.841
  30
944.347
  0
VERTEX
  8
PNOA-H_AMS_1956-57_33k_ES_PAN_21mic_H50_0435_fot_49C-11600_E_tif
  70
32
  10
561651.500
  20
4558694.500
  30
947.738
  0
VERTEX
  8
PNOA-H_AMS_1956-57_33k_ES_PAN_21mic_H50_0435_fot_49C-11600_E_tif
  70
32
  10
561651.214
  20
4558694.569
  30
947.75
  0
VERTEX
  8
PNOA-H_AMS_1956-57_33k_ES_PAN_21mic_H50_0435_fot_49C-11600_E_tif
  70
32
  10
561230.500
  20
4558796.000
  30
965.669
  0
VERTEX
  8
PNOA-H_AMS_1956-57_33k_ES_PAN_21mic_H50_0435_fot_49C-11600_E_tif
  70
32
  10
559967.500
  20
4559100.500
  30
1019.463
  0
VERTEX
  8
PNOA-H_AMS_1956-57_33k_ES_PAN_21mic_H50_0435_fot_49C-11600_E_tif
  70
32
  10
560035.992
  20
4563496.501
  30
864.815
  0
VERTEX
  8
PNOA-H_AMS_1956-57_33k_ES_PAN_21mic_H50_0435_fot_49C-11600_E_tif
  70
32
  10
560036.000
  20
4563497.000
  30
864.798
  0
VERTEX
  8
PNOA-H_AMS_1956-57_33k_ES_PAN_21mic_H50_0435_fot_49C-11600_E_tif
  70
32
  10
560439.500
  20
4563716.500
  30
853.6
  0
VERTEX
  8
PNOA-H_AMS_1956-57_33k_ES_PAN_21mic_H50_0435_fot_49C-11600_E_tif
  70
32
  10
560439.927
  20
4563716.460
  30
853.586
  0
VERTEX
  8
PNOA-H_AMS_1956-57_33k_ES_PAN_21mic_H50_0435_fot_49C-11600_E_tif
  70
32
  10
561611.000
  20
4563607.500
  30
816.951
  0
VERTEX
  8
PNOA-H_AMS_1956-57_33k_ES_PAN_21mic_H50_0435_fot_49C-11600_E_tif
  70
32
  10
561612.000
  20
4563607.500
  30
816.768
  0
VERTEX
  8
PNOA-H_AMS_1956-57_33k_ES_PAN_21mic_H50_0435_fot_49C-11600_E_tif
  70
32
  10
563004.000
  20
4563478.500
  30
828.242
  0
VERTEX
  8
PNOA-H_AMS_1956-57_33k_ES_PAN_21mic_H50_0435_fot_49C-11600_E_tif
  70
32
  10
563007.500
  20
4559131.000
  30
944.345
  0
VERTEX
  8
PNOA-H_AMS_1956-57_33k_ES_PAN_21mic_H50_0435_fot_49C-11600_E_tif
  70
32
  10
563007.006
  20
4559130.841
  30
944.347
  0
SEQEND
  8
PNOA-H_AMS_1956-57_33k_ES_PAN_21mic_H50_0435_fot_49C-11600_E_tif
  0
INSERT
  8
FeatureAttribs
  2
FEATURE
  41
1
  42
1
  43
1
  50
0
  10
558514.189
  20
4561216.250
 66
1
  0
ATTRIB
  8
FeatureAttribs
 70
0
  1
PNOA-H_AMS_1956-57_33k_ES_PAN_21mic_H50_0435_fot_49C-11599_E.tif
  2
NAME
  10
558514.189
  20
4561216.250
 40
33.73032
  0
SEQEND
  0
POLYLINE
  8
PNOA-H_AMS_1956-57_33k_ES_PAN_21mic_H50_0435_fot_49C-11599_E_tif
  70
9
  66
1
  0
VERTEX
  8
PNOA-H_AMS_1956-57_33k_ES_PAN_21mic_H50_0435_fot_49C-11599_E_tif
  70
32
  10
559967.500
  20
4559100.500
  30
1019.463
  0
VERTEX
  8
PNOA-H_AMS_1956-57_33k_ES_PAN_21mic_H50_0435_fot_49C-11599_E_tif
  70
32
  10
558897.500
  20
4558704.500
  30
1024.453
  0
VERTEX
  8
PNOA-H_AMS_1956-57_33k_ES_PAN_21mic_H50_0435_fot_49C-11599_E_tif
  70
32
  10
558896.860
  20
4558704.633
  30
1024.477
  0
VERTEX
  8
PNOA-H_AMS_1956-57_33k_ES_PAN_21mic_H50_0435_fot_49C-11599_E_tif
  70
32
  10
558337.636
  20
4558821.343
  30
1046.122
  0
VERTEX
  8
PNOA-H_AMS_1956-57_33k_ES_PAN_21mic_H50_0435_fot_49C-11599_E_tif
  70
32
  10
557019.500
  20
4559096.435
  30
1097.139
  0
VERTEX
  8
PNOA-H_AMS_1956-57_33k_ES_PAN_21mic_H50_0435_fot_49C-11599_E_tif
  70
32
  10
557012.000
  20
4559098.000
  30
1097.429
  0
VERTEX
  8
PNOA-H_AMS_1956-57_33k_ES_PAN_21mic_H50_0435_fot_49C-11599_E_tif
  70
32
  10
557044.500
  20
4563425.000
  30
930.249
  0
VERTEX
  8
PNOA-H_AMS_1956-57_33k_ES_PAN_21mic_H50_0435_fot_49C-11599_E_tif
  70
32
  10
557044.721
  20
4563425.114
  30
930.237
  0
VERTEX
  8
PNOA-H_AMS_1956-57_33k_ES_PAN_21mic_H50_0435_fot_49C-11599_E_tif
  70
32
  10
557514.500
  20
4563667.500
  30
905.515
  0
VERTEX
  8
PNOA-H_AMS_1956-57_33k_ES_PAN_21mic_H50_0435_fot_49C-11599_E_tif
  70
32
  10
557515.500
  20
4563668.000
  30
905.451
  0
VERTEX
  8
PNOA-H_AMS_1956-57_33k_ES_PAN_21mic_H50_0435_fot_49C-11599_E_tif
  70
32
  10
557632.000
  20
4563728.000
  30
899.243
  0
VERTEX
  8
PNOA-H_AMS_1956-57_33k_ES_PAN_21mic_H50_0435_fot_49C-11599_E_tif
  70
32
  10
557632.500
  20
4563728.000
  30
899.234
  0
VERTEX
  8
PNOA-H_AMS_1956-57_33k_ES_PAN_21mic_H50_0435_fot_49C-11599_E_tif
  70
32
  10
557636.000
  20
4563728.000
  30
899.171
  0
VERTEX
  8
PNOA-H_AMS_1956-57_33k_ES_PAN_21mic_H50_0435_fot_49C-11599_E_tif
  70
32
  10
559946.500
  20
4563505.000
  30
891.912
  0
VERTEX
  8
PNOA-H_AMS_1956-57_33k_ES_PAN_21mic_H50_0435_fot_49C-11599_E_tif
  70
32
  10
559970.000
  20
4563504.500
  30
873.063
  0
VERTEX
  8
PNOA-H_AMS_1956-57_33k_ES_PAN_21mic_H50_0435_fot_49C-11599_E_tif
  70
32
  10
559972.500
  20
4563502.500
  30
865.79
  0
VERTEX
  8
PNOA-H_AMS_1956-57_33k_ES_PAN_21mic_H50_0435_fot_49C-11599_E_tif
  70
32
  10
560035.992
  20
4563496.501
  30
864.795
  0
VERTEX
  8
PNOA-H_AMS_1956-57_33k_ES_PAN_21mic_H50_0435_fot_49C-11599_E_tif
  70
32
  10
560036.000
  20
4563496.500
  30
864.795
  0
VERTEX
  8
PNOA-H_AMS_1956-57_33k_ES_PAN_21mic_H50_0435_fot_49C-11599_E_tif
  70
32
  10
559967.500
  20
4559100.500
  30
1019.463
  0
SEQEND
  8
PNOA-H_AMS_1956-57_33k_ES_PAN_21mic_H50_0435_fot_49C-11599_E_tif
  0
INSERT
  8
FeatureAttribs
  2
FEATURE
  41
1
  42
1
  43
1
  50
0
  10
557431.620
  20
4558285.898
 66
1
  0
ATTRIB
  8
FeatureAttribs
 70
0
  1
PNOA-H_AMS_1956-57_33k_ES_PAN_21mic_H50_0462_fot_000-11665_R.tif
  2
NAME
  10
557431.620
  20
4558285.898
 40
33.73032
  0
SEQEND
  0
POLYLINE
  8
PNOA-H_AMS_1956-57_33k_ES_PAN_21mic_H50_0462_fot_000-11665_R_tif
  70
9
  66
1
  0
VERTEX
  8
PNOA-H_AMS_1956-57_33k_ES_PAN_21mic_H50_0462_fot_000-11665_R_tif
  70
32
  10
557674.098
  20
4557486.685
  30
0
  0
VERTEX
  8
PNOA-H_AMS_1956-57_33k_ES_PAN_21mic_H50_0462_fot_000-11665_R_tif
  70
32
  10
555991.248
  20
4557473.795
  30
1062.377
  0
VERTEX
  8
PNOA-H_AMS_1956-57_33k_ES_PAN_21mic_H50_0462_fot_000-11665_R_tif
  70
32
  10
555951.000
  20
4558673.000
  30
1019.854
  0
VERTEX
  8
PNOA-H_AMS_1956-57_33k_ES_PAN_21mic_H50_0462_fot_000-11665_R_tif
  70
32
  10
555951.329
  20
4558673.132
  30
1019.879
  0
VERTEX
  8
PNOA-H_AMS_1956-57_33k_ES_PAN_21mic_H50_0462_fot_000-11665_R_tif
  70
32
  10
557009.500
  20
4559097.500
  30
1099.064
  0
VERTEX
  8
PNOA-H_AMS_1956-57_33k_ES_PAN_21mic_H50_0462_fot_000-11665_R_tif
  70
32
  10
557010.500
  20
4559098.000
  30
1098.477
  0
VERTEX
  8
PNOA-H_AMS_1956-57_33k_ES_PAN_21mic_H50_0462_fot_000-11665_R_tif
  70
32
  10
557011.546
  20
4559097.818
  30
1097.766
  0
VERTEX
  8
PNOA-H_AMS_1956-57_33k_ES_PAN_21mic_H50_0462_fot_000-11665_R_tif
  70
32
  10
557019.500
  20
4559096.435
  30
1092.36
  0
VERTEX
  8
PNOA-H_AMS_1956-57_33k_ES_PAN_21mic_H50_0462_fot_000-11665_R_tif
  70
32
  10
557033.500
  20
4559094.000
  30
1082.845
  0
VERTEX
  8
PNOA-H_AMS_1956-57_33k_ES_PAN_21mic_H50_0462_fot_000-11665_R_tif
  70
32
  10
558337.636
  20
4558821.343
  30
1041.965
  0
VERTEX
  8
PNOA-H_AMS_1956-57_33k_ES_PAN_21mic_H50_0462_fot_000-11665_R_tif
  70
32
  10
558896.500
  20
4558704.500
  30
1024.447
  0
VERTEX
  8
PNOA-H_AMS_1956-57_33k_ES_PAN_21mic_H50_0462_fot_000-11665_R_tif
  70
32
  10
558904.428
  20
4557496.698
  30
1072.149
  0
VERTEX
  8
PNOA-H_AMS_1956-57_33k_ES_PAN_21mic_H50_0462_fot_000-11665_R_tif
  70
32
  10
557674.098
  20
4557486.685
  30
0
  0
SEQEND
  8
PNOA-H_AMS_1956-57_33k_ES_PAN_21mic_H50_0462_fot_000-11665_R_tif
  0
INSERT
  8
FeatureAttribs
  2
FEATURE
  41
1
  42
1
  43
1
  50
0
  10
560276.944
  20
4558298.599
 66
1
  0
ATTRIB
  8
FeatureAttribs
 70
0
  1
PNOA-H_AMS_1956-57_33k_ES_PAN_21mic_H50_0462_fot_000-11664_R.tif
  2
NAME
  10
560276.944
  20
4558298.599
 40
33.73032
  0
SEQEND
  0
POLYLINE
  8
PNOA-H_AMS_1956-57_33k_ES_PAN_21mic_H50_0462_fot_000-11664_R_tif
  70
9
  66
1
  0
VERTEX
  8
PNOA-H_AMS_1956-57_33k_ES_PAN_21mic_H50_0462_fot_000-11664_R_tif
  70
32
  10
561169.522
  20
4557515.132
  30
0
  0
VERTEX
  8
PNOA-H_AMS_1956-57_33k_ES_PAN_21mic_H50_0462_fot_000-11664_R_tif
  70
32
  10
558904.428
  20
4557496.698
  30
1072.149
  0
VERTEX
  8
PNOA-H_AMS_1956-57_33k_ES_PAN_21mic_H50_0462_fot_000-11664_R_tif
  70
32
  10
558896.500
  20
4558704.500
  30
1024.447
  0
VERTEX
  8
PNOA-H_AMS_1956-57_33k_ES_PAN_21mic_H50_0462_fot_000-11664_R_tif
  70
32
  10
558896.860
  20
4558704.633
  30
1024.429
  0
VERTEX
  8
PNOA-H_AMS_1956-57_33k_ES_PAN_21mic_H50_0462_fot_000-11664_R_tif
  70
32
  10
559562.000
  20
4558951.000
  30
991.18
  0
VERTEX
  8
PNOA-H_AMS_1956-57_33k_ES_PAN_21mic_H50_0462_fot_000-11664_R_tif
  70
32
  10
559563.500
  20
4558951.500
  30
991.054
  0
VERTEX
  8
PNOA-H_AMS_1956-57_33k_ES_PAN_21mic_H50_0462_fot_000-11664_R_tif
  70
32
  10
559966.000
  20
4559100.500
  30
1019.526
  0
VERTEX
  8
PNOA-H_AMS_1956-57_33k_ES_PAN_21mic_H50_0462_fot_000-11664_R_tif
  70
32
  10
559967.500
  20
4559100.500
  30
1019.444
  0
VERTEX
  8
PNOA-H_AMS_1956-57_33k_ES_PAN_21mic_H50_0462_fot_000-11664_R_tif
  70
32
  10
559969.000
  20
4559100.500
  30
1019.362
  0
VERTEX
  8
PNOA-H_AMS_1956-57_33k_ES_PAN_21mic_H50_0462_fot_000-11664_R_tif
  70
32
  10
561230.500
  20
4558796.000
  30
965.649
  0
VERTEX
  8
PNOA-H_AMS_1956-57_33k_ES_PAN_21mic_H50_0462_fot_000-11664_R_tif
  70
32
  10
561651.000
  20
4558694.500
  30
947.745
  0
VERTEX
  8
PNOA-H_AMS_1956-57_33k_ES_PAN_21mic_H50_0462_fot_000-11664_R_tif
  70
32
  10
561662.055
  20
4557519.376
  30
1013.157
  0
VERTEX
  8
PNOA-H_AMS_1956-57_33k_ES_PAN_21mic_H50_0462_fot_000-11664_R_tif
  70
32
  10
561169.522
  20
4557515.132
  30
0
  0
SEQEND
  8
PNOA-H_AMS_1956-57_33k_ES_PAN_21mic_H50_0462_fot_000-11664_R_tif
  0
INSERT
  8
FeatureAttribs
  2
FEATURE
  41
1
  42
1
  43
1
  50
0
  10
564703.262
  20
4570438.250
 66
1
  0
ATTRIB
  8
FeatureAttribs
 70
0
  1
PNOA-H_AMS_1956-57_33k_ES_PAN_21mic_H50_0435_fot_47B-27924_E.tif
  2
NAME
  10
564703.262
  20
4570438.250
 40
33.73032
  0
SEQEND
  0
POLYLINE
  8
PNOA-H_AMS_1956-57_33k_ES_PAN_21mic_H50_0435_fot_47B-27924_E_tif
  70
9
  66
1
  0
VERTEX
  8
PNOA-H_AMS_1956-57_33k_ES_PAN_21mic_H50_0435_fot_47B-27924_E_tif
  70
32
  10
565930.000
  20
4572695.500
  30
845.935
  0
VERTEX
  8
PNOA-H_AMS_1956-57_33k_ES_PAN_21mic_H50_0435_fot_47B-27924_E_tif
  70
32
  10
565934.495
  20
4572695.500
  30
844.15
  0
VERTEX
  8
PNOA-H_AMS_1956-57_33k_ES_PAN_21mic_H50_0435_fot_47B-27924_E_tif
  70
32
  10
565934.500
  20
4572695.500
  30
844.148
  0
VERTEX
  8
PNOA-H_AMS_1956-57_33k_ES_PAN_21mic_H50_0435_fot_47B-27924_E_tif
  70
32
  10
565938.000
  20
4572693.500
  30
843.202
  0
VERTEX
  8
PNOA-H_AMS_1956-57_33k_ES_PAN_21mic_H50_0435_fot_47B-27924_E_tif
  70
32
  10
566107.865
  20
4572585.404
  30
824.212
  0
VERTEX
  8
PNOA-H_AMS_1956-57_33k_ES_PAN_21mic_H50_0435_fot_47B-27924_E_tif
  70
32
  10
566108.500
  20
4572585.000
  30
824.141
  0
VERTEX
  8
PNOA-H_AMS_1956-57_33k_ES_PAN_21mic_H50_0435_fot_47B-27924_E_tif
  70
32
  10
566229.000
  20
4568283.500
  30
819.649
  0
VERTEX
  8
PNOA-H_AMS_1956-57_33k_ES_PAN_21mic_H50_0435_fot_47B-27924_E_tif
  70
32
  10
566229.000
  20
4568271.012
  30
818.669
  0
VERTEX
  8
PNOA-H_AMS_1956-57_33k_ES_PAN_21mic_H50_0435_fot_47B-27924_E_tif
  70
32
  10
566229.000
  20
4568271.000
  30
818.669
  0
VERTEX
  8
PNOA-H_AMS_1956-57_33k_ES_PAN_21mic_H50_0435_fot_47B-27924_E_tif
  70
32
  10
566220.000
  20
4568264.500
  30
819.047
  0
VERTEX
  8
PNOA-H_AMS_1956-57_33k_ES_PAN_21mic_H50_0435_fot_47B-27924_E_tif
  70
32
  10
566219.500
  20
4568264.485
  30
819.059
  0
VERTEX
  8
PNOA-H_AMS_1956-57_33k_ES_PAN_21mic_H50_0435_fot_47B-27924_E_tif
  70
32
  10
563392.902
  20
4568181.012
  30
891.214
  0
VERTEX
  8
PNOA-H_AMS_1956-57_33k_ES_PAN_21mic_H50_0435_fot_47B-27924_E_tif
  70
32
  10
563392.500
  20
4568181.000
  30
891.225
  0
VERTEX
  8
PNOA-H_AMS_1956-57_33k_ES_PAN_21mic_H50_0435_fot_47B-27924_E_tif
  70
32
  10
563392.293
  20
4568184.019
  30
891.18
  0
VERTEX
  8
PNOA-H_AMS_1956-57_33k_ES_PAN_21mic_H50_0435_fot_47B-27924_E_tif
  70
32
  10
563093.000
  20
4572553.500
  30
826.443
  0
VERTEX
  8
PNOA-H_AMS_1956-57_33k_ES_PAN_21mic_H50_0435_fot_47B-27924_E_tif
  70
32
  10
563462.907
  20
4572572.029
  30
835.447
  0
VERTEX
  8
PNOA-H_AMS_1956-57_33k_ES_PAN_21mic_H50_0435_fot_47B-27924_E_tif
  70
32
  10
563642.000
  20
4572581.000
  30
839.807
  0
VERTEX
  8
PNOA-H_AMS_1956-57_33k_ES_PAN_21mic_H50_0435_fot_47B-27924_E_tif
  70
32
  10
563652.000
  20
4572581.500
  30
839.894
  0
VERTEX
  8
PNOA-H_AMS_1956-57_33k_ES_PAN_21mic_H50_0435_fot_47B-27924_E_tif
  70
32
  10
565930.000
  20
4572695.500
  30
845.935
  0
SEQEND
  8
PNOA-H_AMS_1956-57_33k_ES_PAN_21mic_H50_0435_fot_47B-27924_E_tif
  0
INSERT
  8
FeatureAttribs
  2
FEATURE
  41
1
  42
1
  43
1
  50
0
  10
567103.270
  20
4570494.793
 66
1
  0
ATTRIB
  8
FeatureAttribs
 70
0
  1
PNOA-H_AMS_1956-57_33k_ES_PAN_21mic_H50_0436_fot_47B-27925_E.tif
  2
NAME
  10
567103.270
  20
4570494.793
 40
33.73032
  0
SEQEND
  0
POLYLINE
  8
PNOA-H_AMS_1956-57_33k_ES_PAN_21mic_H50_0436_fot_47B-27925_E_tif
  70
9
  66
1
  0
VERTEX
  8
PNOA-H_AMS_1956-57_33k_ES_PAN_21mic_H50_0436_fot_47B-27925_E_tif
  70
32
  10
568060.238
  20
4568294.514
  30
795.072
  0
VERTEX
  8
PNOA-H_AMS_1956-57_33k_ES_PAN_21mic_H50_0436_fot_47B-27925_E_tif
  70
32
  10
566229.000
  20
4568271.000
  30
818.669
  0
VERTEX
  8
PNOA-H_AMS_1956-57_33k_ES_PAN_21mic_H50_0436_fot_47B-27925_E_tif
  70
32
  10
566229.000
  20
4568271.012
  30
818.669
  0
VERTEX
  8
PNOA-H_AMS_1956-57_33k_ES_PAN_21mic_H50_0436_fot_47B-27925_E_tif
  70
32
  10
566108.500
  20
4572585.000
  30
824.141
  0
VERTEX
  8
PNOA-H_AMS_1956-57_33k_ES_PAN_21mic_H50_0436_fot_47B-27925_E_tif
  70
32
  10
566110.341
  20
4572585.129
  30
824.132
  0
VERTEX
  8
PNOA-H_AMS_1956-57_33k_ES_PAN_21mic_H50_0436_fot_47B-27925_E_tif
  70
32
  10
568018.843
  20
4572718.585
  30
814.7
  0
VERTEX
  8
PNOA-H_AMS_1956-57_33k_ES_PAN_21mic_H50_0436_fot_47B-27925_E_tif
  70
32
  10
568018.847
  20
4572718.172
  30
0
  0
VERTEX
  8
PNOA-H_AMS_1956-57_33k_ES_PAN_21mic_H50_0436_fot_47B-27925_E_tif
  70
32
  10
568030.680
  20
4571453.971
  30
0
  0
VERTEX
  8
PNOA-H_AMS_1956-57_33k_ES_PAN_21mic_H50_0436_fot_47B-27925_E_tif
  70
32
  10
568052.320
  20
4569141.130
  30
0
  0
VERTEX
  8
PNOA-H_AMS_1956-57_33k_ES_PAN_21mic_H50_0436_fot_47B-27925_E_tif
  70
32
  10
568060.235
  20
4568294.844
  30
0
  0
VERTEX
  8
PNOA-H_AMS_1956-57_33k_ES_PAN_21mic_H50_0436_fot_47B-27925_E_tif
  70
32
  10
568060.238
  20
4568294.514
  30
795.072
  0
SEQEND
  8
PNOA-H_AMS_1956-57_33k_ES_PAN_21mic_H50_0436_fot_47B-27925_E_tif
  0
INSERT
  8
FeatureAttribs
  2
FEATURE
  41
1
  42
1
  43
1
  50
0
  10
564811.760
  20
4565893.500
 66
1
  0
ATTRIB
  8
FeatureAttribs
 70
0
  1
PNOA-H_AMS_1956-57_33k_ES_PAN_21mic_H50_0435_fot_48D-18094_W.tif
  2
NAME
  10
564811.760
  20
4565893.500
 40
33.73032
  0
SEQEND
  0
POLYLINE
  8
PNOA-H_AMS_1956-57_33k_ES_PAN_21mic_H50_0435_fot_48D-18094_W_tif
  70
9
  66
1
  0
VERTEX
  8
PNOA-H_AMS_1956-57_33k_ES_PAN_21mic_H50_0435_fot_48D-18094_W_tif
  70
32
  10
566304.956
  20
4563677.974
  30
846.466
  0
VERTEX
  8
PNOA-H_AMS_1956-57_33k_ES_PAN_21mic_H50_0435_fot_48D-18094_W_tif
  70
32
  10
566047.000
  20
4563522.500
  30
830.466
  0
VERTEX
  8
PNOA-H_AMS_1956-57_33k_ES_PAN_21mic_H50_0435_fot_48D-18094_W_tif
  70
32
  10
566046.545
  20
4563522.527
  30
830.466
  0
VERTEX
  8
PNOA-H_AMS_1956-57_33k_ES_PAN_21mic_H50_0435_fot_48D-18094_W_tif
  70
32
  10
563366.000
  20
4563683.000
  30
830.565
  0
VERTEX
  8
PNOA-H_AMS_1956-57_33k_ES_PAN_21mic_H50_0435_fot_48D-18094_W_tif
  70
32
  10
563353.500
  20
4568154.488
  30
890.057
  0
VERTEX
  8
PNOA-H_AMS_1956-57_33k_ES_PAN_21mic_H50_0435_fot_48D-18094_W_tif
  70
32
  10
563353.500
  20
4568154.500
  30
890.057
  0
VERTEX
  8
PNOA-H_AMS_1956-57_33k_ES_PAN_21mic_H50_0435_fot_48D-18094_W_tif
  70
32
  10
563389.500
  20
4568179.500
  30
890.929
  0
VERTEX
  8
PNOA-H_AMS_1956-57_33k_ES_PAN_21mic_H50_0435_fot_48D-18094_W_tif
  70
32
  10
563392.010
  20
4568180.615
  30
891.136
  0
VERTEX
  8
PNOA-H_AMS_1956-57_33k_ES_PAN_21mic_H50_0435_fot_48D-18094_W_tif
  70
32
  10
563392.902
  20
4568181.012
  30
891.21
  0
VERTEX
  8
PNOA-H_AMS_1956-57_33k_ES_PAN_21mic_H50_0435_fot_48D-18094_W_tif
  70
32
  10
563394.000
  20
4568181.500
  30
891.301
  0
VERTEX
  8
PNOA-H_AMS_1956-57_33k_ES_PAN_21mic_H50_0435_fot_48D-18094_W_tif
  70
32
  10
563631.000
  20
4568188.500
  30
867.76
  0
VERTEX
  8
PNOA-H_AMS_1956-57_33k_ES_PAN_21mic_H50_0435_fot_48D-18094_W_tif
  70
32
  10
563648.000
  20
4568189.000
  30
867.256
  0
VERTEX
  8
PNOA-H_AMS_1956-57_33k_ES_PAN_21mic_H50_0435_fot_48D-18094_W_tif
  70
32
  10
566219.500
  20
4568264.500
  30
819.074
  0
VERTEX
  8
PNOA-H_AMS_1956-57_33k_ES_PAN_21mic_H50_0435_fot_48D-18094_W_tif
  70
32
  10
566219.500
  20
4568264.485
  30
819.074
  0
VERTEX
  8
PNOA-H_AMS_1956-57_33k_ES_PAN_21mic_H50_0435_fot_48D-18094_W_tif
  70
32
  10
566304.991
  20
4563678.486
  30
846.466
  0
VERTEX
  8
PNOA-H_AMS_1956-57_33k_ES_PAN_21mic_H50_0435_fot_48D-18094_W_tif
  70
32
  10
566305.000
  20
4563678.000
  30
846.469
  0
VERTEX
  8
PNOA-H_AMS_1956-57_33k_ES_PAN_21mic_H50_0435_fot_48D-18094_W_tif
  70
32
  10
566304.956
  20
4563677.974
  30
846.466
  0
SEQEND
  8
PNOA-H_AMS_1956-57_33k_ES_PAN_21mic_H50_0435_fot_48D-18094_W_tif
  0
INSERT
  8
FeatureAttribs
  2
FEATURE
  41
1
  42
1
  43
1
  50
0
  10
567172.078
  20
4565961.858
 66
1
  0
ATTRIB
  8
FeatureAttribs
 70
0
  1
PNOA-H_AMS_1956-57_33k_ES_PAN_21mic_H50_0436_fot_48D-18093_W.tif
  2
NAME
  10
567172.078
  20
4565961.858
 40
33.73032
  0
SEQEND
  0
POLYLINE
  8
PNOA-H_AMS_1956-57_33k_ES_PAN_21mic_H50_0436_fot_48D-18093_W_tif
  70
9
  66
1
  0
VERTEX
  8
PNOA-H_AMS_1956-57_33k_ES_PAN_21mic_H50_0436_fot_48D-18093_W_tif
  70
32
  10
568103.858
  20
4563628.897
  30
0
  0
VERTEX
  8
PNOA-H_AMS_1956-57_33k_ES_PAN_21mic_H50_0436_fot_48D-18093_W_tif
  70
32
  10
568103.858
  20
4563628.872
  30
854.579
  0
VERTEX
  8
PNOA-H_AMS_1956-57_33k_ES_PAN_21mic_H50_0436_fot_48D-18093_W_tif
  70
32
  10
567754.763
  20
4563638.500
  30
853.006
  0
VERTEX
  8
PNOA-H_AMS_1956-57_33k_ES_PAN_21mic_H50_0436_fot_48D-18093_W_tif
  70
32
  10
566304.991
  20
4563678.486
  30
846.474
  0
VERTEX
  8
PNOA-H_AMS_1956-57_33k_ES_PAN_21mic_H50_0436_fot_48D-18093_W_tif
  70
32
  10
566304.500
  20
4563678.500
  30
846.472
  0
VERTEX
  8
PNOA-H_AMS_1956-57_33k_ES_PAN_21mic_H50_0436_fot_48D-18093_W_tif
  70
32
  10
566219.500
  20
4568256.500
  30
818.354
  0
VERTEX
  8
PNOA-H_AMS_1956-57_33k_ES_PAN_21mic_H50_0436_fot_48D-18093_W_tif
  70
32
  10
566219.500
  20
4568264.485
  30
819.074
  0
VERTEX
  8
PNOA-H_AMS_1956-57_33k_ES_PAN_21mic_H50_0436_fot_48D-18093_W_tif
  70
32
  10
566219.500
  20
4568264.500
  30
819.074
  0
VERTEX
  8
PNOA-H_AMS_1956-57_33k_ES_PAN_21mic_H50_0436_fot_48D-18093_W_tif
  70
32
  10
566228.500
  20
4568271.000
  30
818.713
  0
VERTEX
  8
PNOA-H_AMS_1956-57_33k_ES_PAN_21mic_H50_0436_fot_48D-18093_W_tif
  70
32
  10
566229.000
  20
4568271.012
  30
818.687
  0
VERTEX
  8
PNOA-H_AMS_1956-57_33k_ES_PAN_21mic_H50_0436_fot_48D-18093_W_tif
  70
32
  10
566248.500
  20
4568271.500
  30
817.665
  0
VERTEX
  8
PNOA-H_AMS_1956-57_33k_ES_PAN_21mic_H50_0436_fot_48D-18093_W_tif
  70
32
  10
568060.235
  20
4568294.844
  30
783.263
  0
VERTEX
  8
PNOA-H_AMS_1956-57_33k_ES_PAN_21mic_H50_0436_fot_48D-18093_W_tif
  70
32
  10
568060.238
  20
4568294.514
  30
0
  0
VERTEX
  8
PNOA-H_AMS_1956-57_33k_ES_PAN_21mic_H50_0436_fot_48D-18093_W_tif
  70
32
  10
568073.951
  20
4566828.296
  30
0
  0
VERTEX
  8
PNOA-H_AMS_1956-57_33k_ES_PAN_21mic_H50_0436_fot_48D-18093_W_tif
  70
32
  10
568095.573
  20
4564515.471
  30
0
  0
VERTEX
  8
PNOA-H_AMS_1956-57_33k_ES_PAN_21mic_H50_0436_fot_48D-18093_W_tif
  70
32
  10
568103.858
  20
4563628.897
  30
0
  0
SEQEND
  8
PNOA-H_AMS_1956-57_33k_ES_PAN_21mic_H50_0436_fot_48D-18093_W_tif
  0
INSERT
  8
FeatureAttribs
  2
FEATURE
  41
1
  42
1
  43
1
  50
0
  10
567093.236
  20
4561234.750
 66
1
  0
ATTRIB
  8
FeatureAttribs
 70
0
  1
PNOA-H_AMS_1956-57_33k_ES_PAN_21mic_H50_0436_fot_49C-11602_E.tif
  2
NAME
  10
567093.236
  20
4561234.750
 40
33.73032
  0
SEQEND
  0
POLYLINE
  8
PNOA-H_AMS_1956-57_33k_ES_PAN_21mic_H50_0436_fot_49C-11602_E_tif
  70
9
  66
1
  0
VERTEX
  8
PNOA-H_AMS_1956-57_33k_ES_PAN_21mic_H50_0436_fot_49C-11602_E_tif
  70
32
  10
566304.956
  20
4563677.974
  30
846.288
  0
VERTEX
  8
PNOA-H_AMS_1956-57_33k_ES_PAN_21mic_H50_0436_fot_49C-11602_E_tif
  70
32
  10
567739.000
  20
4563638.500
  30
840.56
  0
VERTEX
  8
PNOA-H_AMS_1956-57_33k_ES_PAN_21mic_H50_0436_fot_49C-11602_E_tif
  70
32
  10
567754.763
  20
4563638.500
  30
840.376
  0
VERTEX
  8
PNOA-H_AMS_1956-57_33k_ES_PAN_21mic_H50_0436_fot_49C-11602_E_tif
  70
32
  10
567756.000
  20
4563638.500
  30
840.361
  0
VERTEX
  8
PNOA-H_AMS_1956-57_33k_ES_PAN_21mic_H50_0436_fot_49C-11602_E_tif
  70
32
  10
568103.858
  20
4563628.897
  30
845.303
  0
VERTEX
  8
PNOA-H_AMS_1956-57_33k_ES_PAN_21mic_H50_0436_fot_49C-11602_E_tif
  70
32
  10
568103.858
  20
4563628.872
  30
0
  0
VERTEX
  8
PNOA-H_AMS_1956-57_33k_ES_PAN_21mic_H50_0436_fot_49C-11602_E_tif
  70
32
  10
568117.186
  20
4562202.654
  30
0
  0
VERTEX
  8
PNOA-H_AMS_1956-57_33k_ES_PAN_21mic_H50_0436_fot_49C-11602_E_tif
  70
32
  10
568138.790
  20
4559889.846
  30
0
  0
VERTEX
  8
PNOA-H_AMS_1956-57_33k_ES_PAN_21mic_H50_0436_fot_49C-11602_E_tif
  70
32
  10
568147.042
  20
4559006.051
  30
0
  0
VERTEX
  8
PNOA-H_AMS_1956-57_33k_ES_PAN_21mic_H50_0436_fot_49C-11602_E_tif
  70
32
  10
568147.044
  20
4559005.819
  30
1016.803
  0
VERTEX
  8
PNOA-H_AMS_1956-57_33k_ES_PAN_21mic_H50_0436_fot_49C-11602_E_tif
  70
32
  10
567125.500
  20
4558791.500
  30
1019.454
  0
VERTEX
  8
PNOA-H_AMS_1956-57_33k_ES_PAN_21mic_H50_0436_fot_49C-11602_E_tif
  70
32
  10
567124.181
  20
4558791.747
  30
1019.139
  0
VERTEX
  8
PNOA-H_AMS_1956-57_33k_ES_PAN_21mic_H50_0436_fot_49C-11602_E_tif
  70
32
  10
567120.619
  20
4558792.415
  30
1018.29
  0
VERTEX
  8
PNOA-H_AMS_1956-57_33k_ES_PAN_21mic_H50_0436_fot_49C-11602_E_tif
  70
32
  10
567117.500
  20
4558793.000
  30
1017.546
  0
VERTEX
  8
PNOA-H_AMS_1956-57_33k_ES_PAN_21mic_H50_0436_fot_49C-11602_E_tif
  70
32
  10
566072.500
  20
4559195.000
  30
974.245
  0
VERTEX
  8
PNOA-H_AMS_1956-57_33k_ES_PAN_21mic_H50_0436_fot_49C-11602_E_tif
  70
32
  10
566072.498
  20
4559195.309
  30
974.234
  0
VERTEX
  8
PNOA-H_AMS_1956-57_33k_ES_PAN_21mic_H50_0436_fot_49C-11602_E_tif
  70
32
  10
566072.497
  20
4559195.499
  30
974.228
  0
VERTEX
  8
PNOA-H_AMS_1956-57_33k_ES_PAN_21mic_H50_0436_fot_49C-11602_E_tif
  70
32
  10
566046.500
  20
4563522.500
  30
830.419
  0
VERTEX
  8
PNOA-H_AMS_1956-57_33k_ES_PAN_21mic_H50_0436_fot_49C-11602_E_tif
  70
32
  10
566046.545
  20
4563522.527
  30
830.422
  0
VERTEX
  8
PNOA-H_AMS_1956-57_33k_ES_PAN_21mic_H50_0436_fot_49C-11602_E_tif
  70
32
  10
566304.000
  20
4563678.000
  30
846.292
  0
VERTEX
  8
PNOA-H_AMS_1956-57_33k_ES_PAN_21mic_H50_0436_fot_49C-11602_E_tif
  70
32
  10
566304.956
  20
4563677.974
  30
846.288
  0
SEQEND
  8
PNOA-H_AMS_1956-57_33k_ES_PAN_21mic_H50_0436_fot_49C-11602_E_tif
  0
INSERT
  8
FeatureAttribs
  2
FEATURE
  41
1
  42
1
  43
1
  50
0
  10
564533.137
  20
4561202.250
 66
1
  0
ATTRIB
  8
FeatureAttribs
 70
0
  1
PNOA-H_AMS_1956-57_33k_ES_PAN_21mic_H50_0435_fot_49C-11601_E.tif
  2
NAME
  10
564533.137
  20
4561202.250
 40
33.73032
  0
SEQEND
  0
POLYLINE
  8
PNOA-H_AMS_1956-57_33k_ES_PAN_21mic_H50_0435_fot_49C-11601_E_tif
  70
9
  66
1
  0
VERTEX
  8
PNOA-H_AMS_1956-57_33k_ES_PAN_21mic_H50_0435_fot_49C-11601_E_tif
  70
32
  10
566072.206
  20
4559195.421
  30
974.283
  0
VERTEX
  8
PNOA-H_AMS_1956-57_33k_ES_PAN_21mic_H50_0435_fot_49C-11601_E_tif
  70
32
  10
564310.500
  20
4558721.500
  30
961.53
  0
VERTEX
  8
PNOA-H_AMS_1956-57_33k_ES_PAN_21mic_H50_0435_fot_49C-11601_E_tif
  70
32
  10
564310.269
  20
4558721.572
  30
961.527
  0
VERTEX
  8
PNOA-H_AMS_1956-57_33k_ES_PAN_21mic_H50_0435_fot_49C-11601_E_tif
  70
32
  10
563007.500
  20
4559131.000
  30
944.345
  0
VERTEX
  8
PNOA-H_AMS_1956-57_33k_ES_PAN_21mic_H50_0435_fot_49C-11601_E_tif
  70
32
  10
563004.000
  20
4563478.500
  30
828.242
  0
VERTEX
  8
PNOA-H_AMS_1956-57_33k_ES_PAN_21mic_H50_0435_fot_49C-11601_E_tif
  70
32
  10
563004.141
  20
4563478.580
  30
828.242
  0
VERTEX
  8
PNOA-H_AMS_1956-57_33k_ES_PAN_21mic_H50_0435_fot_49C-11601_E_tif
  70
32
  10
563208.500
  20
4563593.779
  30
829.569
  0
VERTEX
  8
PNOA-H_AMS_1956-57_33k_ES_PAN_21mic_H50_0435_fot_49C-11601_E_tif
  70
32
  10
563365.000
  20
4563682.000
  30
830.585
  0
VERTEX
  8
PNOA-H_AMS_1956-57_33k_ES_PAN_21mic_H50_0435_fot_49C-11601_E_tif
  70
32
  10
563365.302
  20
4563682.605
  30
830.576
  0
VERTEX
  8
PNOA-H_AMS_1956-57_33k_ES_PAN_21mic_H50_0435_fot_49C-11601_E_tif
  70
32
  10
563365.500
  20
4563683.000
  30
830.57
  0
VERTEX
  8
PNOA-H_AMS_1956-57_33k_ES_PAN_21mic_H50_0435_fot_49C-11601_E_tif
  70
32
  10
563365.952
  20
4563682.973
  30
830.57
  0
VERTEX
  8
PNOA-H_AMS_1956-57_33k_ES_PAN_21mic_H50_0435_fot_49C-11601_E_tif
  70
32
  10
566046.500
  20
4563522.500
  30
830.419
  0
VERTEX
  8
PNOA-H_AMS_1956-57_33k_ES_PAN_21mic_H50_0435_fot_49C-11601_E_tif
  70
32
  10
566072.500
  20
4559195.500
  30
974.285
  0
VERTEX
  8
PNOA-H_AMS_1956-57_33k_ES_PAN_21mic_H50_0435_fot_49C-11601_E_tif
  70
32
  10
566072.497
  20
4559195.499
  30
974.285
  0
VERTEX
  8
PNOA-H_AMS_1956-57_33k_ES_PAN_21mic_H50_0435_fot_49C-11601_E_tif
  70
32
  10
566072.206
  20
4559195.421
  30
974.283
  0
SEQEND
  8
PNOA-H_AMS_1956-57_33k_ES_PAN_21mic_H50_0435_fot_49C-11601_E_tif
  0
INSERT
  8
FeatureAttribs
  2
FEATURE
  41
1
  42
1
  43
1
  50
0
  10
567644.183
  20
4558286.958
 66
1
  0
ATTRIB
  8
FeatureAttribs
 70
0
  1
PNOA-H_AMS_1956-57_33k_ES_PAN_21mic_H50_0435_fot_000-11661_R.tif
  2
NAME
  10
567644.183
  20
4558286.958
 40
33.73032
  0
SEQEND
  0
POLYLINE
  8
PNOA-H_AMS_1956-57_33k_ES_PAN_21mic_H50_0435_fot_000-11661_R_tif
  70
9
  66
1
  0
VERTEX
  8
PNOA-H_AMS_1956-57_33k_ES_PAN_21mic_H50_0435_fot_000-11661_R_tif
  70
32
  10
568160.385
  20
4557577.045
  30
0
  0
VERTEX
  8
PNOA-H_AMS_1956-57_33k_ES_PAN_21mic_H50_0435_fot_000-11661_R_tif
  70
32
  10
567151.156
  20
4557567.866
  30
1073.932
  0
VERTEX
  8
PNOA-H_AMS_1956-57_33k_ES_PAN_21mic_H50_0435_fot_000-11661_R_tif
  70
32
  10
567123.000
  20
4558791.500
  30
1018.867
  0
VERTEX
  8
PNOA-H_AMS_1956-57_33k_ES_PAN_21mic_H50_0435_fot_000-11661_R_tif
  70
32
  10
567124.181
  20
4558791.747
  30
1018.927
  0
VERTEX
  8
PNOA-H_AMS_1956-57_33k_ES_PAN_21mic_H50_0435_fot_000-11661_R_tif
  70
32
  10
567753.000
  20
4558923.500
  30
1051.356
  0
VERTEX
  8
PNOA-H_AMS_1956-57_33k_ES_PAN_21mic_H50_0435_fot_000-11661_R_tif
  70
32
  10
567755.500
  20
4558924.000
  30
1051.976
  0
VERTEX
  8
PNOA-H_AMS_1956-57_33k_ES_PAN_21mic_H50_0435_fot_000-11661_R_tif
  70
32
  10
568147.042
  20
4559006.051
  30
1041.126
  0
VERTEX
  8
PNOA-H_AMS_1956-57_33k_ES_PAN_21mic_H50_0435_fot_000-11661_R_tif
  70
32
  10
568147.044
  20
4559005.819
  30
0
  0
VERTEX
  8
PNOA-H_AMS_1956-57_33k_ES_PAN_21mic_H50_0435_fot_000-11661_R_tif
  70
32
  10
568160.385
  20
4557577.045
  30
0
  0
SEQEND
  8
PNOA-H_AMS_1956-57_33k_ES_PAN_21mic_H50_0435_fot_000-11661_R_tif
  0
INSERT
  8
FeatureAttribs
  2
FEATURE
  41
1
  42
1
  43
1
  50
0
  10
562990.862
  20
4558325.188
 66
1
  0
ATTRIB
  8
FeatureAttribs
 70
0
  1
PNOA-H_AMS_1956-57_33k_ES_PAN_21mic_H50_0462_fot_000-11663_R.tif
  2
NAME
  10
562990.862
  20
4558325.188
 40
33.73032
  0
SEQEND
  0
POLYLINE
  8
PNOA-H_AMS_1956-57_33k_ES_PAN_21mic_H50_0462_fot_000-11663_R_tif
  70
9
  66
1
  0
VERTEX
  8
PNOA-H_AMS_1956-57_33k_ES_PAN_21mic_H50_0462_fot_000-11663_R_tif
  70
32
  10
564361.309
  20
4557542.635
  30
1027.567
  0
VERTEX
  8
PNOA-H_AMS_1956-57_33k_ES_PAN_21mic_H50_0462_fot_000-11663_R_tif
  70
32
  10
561662.055
  20
4557519.376
  30
1013.157
  0
VERTEX
  8
PNOA-H_AMS_1956-57_33k_ES_PAN_21mic_H50_0462_fot_000-11663_R_tif
  70
32
  10
561651.000
  20
4558694.500
  30
947.745
  0
VERTEX
  8
PNOA-H_AMS_1956-57_33k_ES_PAN_21mic_H50_0462_fot_000-11663_R_tif
  70
32
  10
561651.214
  20
4558694.569
  30
947.744
  0
VERTEX
  8
PNOA-H_AMS_1956-57_33k_ES_PAN_21mic_H50_0462_fot_000-11663_R_tif
  70
32
  10
563005.000
  20
4559130.500
  30
944.814
  0
VERTEX
  8
PNOA-H_AMS_1956-57_33k_ES_PAN_21mic_H50_0462_fot_000-11663_R_tif
  70
32
  10
563006.500
  20
4559131.000
  30
944.515
  0
VERTEX
  8
PNOA-H_AMS_1956-57_33k_ES_PAN_21mic_H50_0462_fot_000-11663_R_tif
  70
32
  10
563007.006
  20
4559130.841
  30
944.522
  0
VERTEX
  8
PNOA-H_AMS_1956-57_33k_ES_PAN_21mic_H50_0462_fot_000-11663_R_tif
  70
32
  10
564310.000
  20
4558721.500
  30
961.504
  0
VERTEX
  8
PNOA-H_AMS_1956-57_33k_ES_PAN_21mic_H50_0462_fot_000-11663_R_tif
  70
32
  10
564361.309
  20
4557542.635
  30
1027.567
  0
SEQEND
  8
PNOA-H_AMS_1956-57_33k_ES_PAN_21mic_H50_0462_fot_000-11663_R_tif
  0
INSERT
  8
FeatureAttribs
  2
FEATURE
  41
1
  42
1
  43
1
  50
0
  10
565729.029
  20
4558369.068
 66
1
  0
ATTRIB
  8
FeatureAttribs
 70
0
  1
PNOA-H_AMS_1956-57_33k_ES_PAN_21mic_H50_0462_fot_000-11662_R.tif
  2
NAME
  10
565729.029
  20
4558369.068
 40
33.73032
  0
SEQEND
  0
POLYLINE
  8
PNOA-H_AMS_1956-57_33k_ES_PAN_21mic_H50_0462_fot_000-11662_R_tif
  70
9
  66
1
  0
VERTEX
  8
PNOA-H_AMS_1956-57_33k_ES_PAN_21mic_H50_0462_fot_000-11662_R_tif
  70
32
  10
564664.951
  20
4557545.252
  30
0
  0
VERTEX
  8
PNOA-H_AMS_1956-57_33k_ES_PAN_21mic_H50_0462_fot_000-11662_R_tif
  70
32
  10
564361.309
  20
4557542.635
  30
1027.567
  0
VERTEX
  8
PNOA-H_AMS_1956-57_33k_ES_PAN_21mic_H50_0462_fot_000-11662_R_tif
  70
32
  10
564310.000
  20
4558721.500
  30
961.504
  0
VERTEX
  8
PNOA-H_AMS_1956-57_33k_ES_PAN_21mic_H50_0462_fot_000-11662_R_tif
  70
32
  10
564310.269
  20
4558721.572
  30
961.506
  0
VERTEX
  8
PNOA-H_AMS_1956-57_33k_ES_PAN_21mic_H50_0462_fot_000-11662_R_tif
  70
32
  10
566072.000
  20
4559195.500
  30
974.226
  0
VERTEX
  8
PNOA-H_AMS_1956-57_33k_ES_PAN_21mic_H50_0462_fot_000-11662_R_tif
  70
32
  10
566072.206
  20
4559195.421
  30
974.235
  0
VERTEX
  8
PNOA-H_AMS_1956-57_33k_ES_PAN_21mic_H50_0462_fot_000-11662_R_tif
  70
32
  10
566072.498
  20
4559195.309
  30
974.247
  0
VERTEX
  8
PNOA-H_AMS_1956-57_33k_ES_PAN_21mic_H50_0462_fot_000-11662_R_tif
  70
32
  10
567120.619
  20
4558792.415
  30
1018.766
  0
VERTEX
  8
PNOA-H_AMS_1956-57_33k_ES_PAN_21mic_H50_0462_fot_000-11662_R_tif
  70
32
  10
567123.000
  20
4558791.500
  30
1018.867
  0
VERTEX
  8
PNOA-H_AMS_1956-57_33k_ES_PAN_21mic_H50_0462_fot_000-11662_R_tif
  70
32
  10
567151.153
  20
4557567.866
  30
1073.933
  0
VERTEX
  8
PNOA-H_AMS_1956-57_33k_ES_PAN_21mic_H50_0462_fot_000-11662_R_tif
  70
32
  10
564664.951
  20
4557545.252
  30
0
  0
SEQEND
  8
PNOA-H_AMS_1956-57_33k_ES_PAN_21mic_H50_0462_fot_000-11662_R_tif
  0
ENDSEC
  0
EOF
