  0
SECTION
  2
HEADER
  9
$ACADVER
  1
AC1009
  9
$LUNITS
  70
2
  9
$LIMMIN
  10
428344.176
  20
4557485.581
  9
$LIMMAX
  10
456418.462
  20
4576113.172
  9
$EXTMIN
  10
428344.176
  20
4557485.581
  9
$EXTMAX
  10
456418.462
  20
4576113.172
  999
Created by Global Mapper
  999
Projection: UTM
  999
Datum: ETRS89
  999
Ground Units: meters
  999
ZONE: 30
  0
ENDSEC
  0
SECTION
  2
TABLES
  0
ENDSEC
  0
SECTION
  2
BLOCKS
  0
BLOCK
  8
FeatureAttribs
  70
0
  2
FEATURE
  3
FEATURE
  10
0.00000000
  20
0.00000000
  0
ATTDEF
  8
FeatureAttribs
  70
0
  1
 
  2
NAME
  3
NAME
  10
0.00000000
  20
0.00000000
  40
1.00000000
  0
ENDBLK
  0
ENDSEC
  0
SECTION
  2
ENTITIES
  0
INSERT
  8
FeatureAttribs
  2
FEATURE
  41
1
  42
1
  43
1
  50
0
  10
429735.172
  20
4574398.586
 66
1
  0
ATTRIB
  8
FeatureAttribs
 70
0
  1
PNOA-H_AMS_1956-57_33k_ES_PAN_21mic_H50_0431_fot_46B-29812_E.tif
  2
NAME
  10
429735.172
  20
4574398.586
 40
33.69203
  0
SEQEND
  0
POLYLINE
  8
PNOA-H_AMS_1956-57_33k_ES_PAN_21mic_H50_0431_fot_46B-29812_E_tif
  70
9
  66
1
  0
VERTEX
  8
PNOA-H_AMS_1956-57_33k_ES_PAN_21mic_H50_0431_fot_46B-29812_E_tif
  70
32
  10
430639.590
  20
4572844.866
  30
1019.906
  0
VERTEX
  8
PNOA-H_AMS_1956-57_33k_ES_PAN_21mic_H50_0431_fot_46B-29812_E_tif
  70
32
  10
429880.000
  20
4572684.000
  30
1011.859
  0
VERTEX
  8
PNOA-H_AMS_1956-57_33k_ES_PAN_21mic_H50_0431_fot_46B-29812_E_tif
  70
32
  10
429879.308
  20
4572684.277
  30
1011.912
  0
VERTEX
  8
PNOA-H_AMS_1956-57_33k_ES_PAN_21mic_H50_0431_fot_46B-29812_E_tif
  70
32
  10
429878.408
  20
4572684.637
  30
1011.98
  0
VERTEX
  8
PNOA-H_AMS_1956-57_33k_ES_PAN_21mic_H50_0431_fot_46B-29812_E_tif
  70
32
  10
429877.500
  20
4572685.000
  30
1012.049
  0
VERTEX
  8
PNOA-H_AMS_1956-57_33k_ES_PAN_21mic_H50_0431_fot_46B-29812_E_tif
  70
32
  10
429862.617
  20
4572708.084
  30
1013.592
  0
VERTEX
  8
PNOA-H_AMS_1956-57_33k_ES_PAN_21mic_H50_0431_fot_46B-29812_E_tif
  70
32
  10
429862.000
  20
4572709.041
  30
1013.656
  0
VERTEX
  8
PNOA-H_AMS_1956-57_33k_ES_PAN_21mic_H50_0431_fot_46B-29812_E_tif
  70
32
  10
429853.000
  20
4572723.000
  30
1014.589
  0
VERTEX
  8
PNOA-H_AMS_1956-57_33k_ES_PAN_21mic_H50_0431_fot_46B-29812_E_tif
  70
32
  10
428513.237
  20
4574810.318
  30
1015.771
  0
VERTEX
  8
PNOA-H_AMS_1956-57_33k_ES_PAN_21mic_H50_0431_fot_46B-29812_E_tif
  70
32
  10
428513.246
  20
4574811.313
  30
0
  0
VERTEX
  8
PNOA-H_AMS_1956-57_33k_ES_PAN_21mic_H50_0431_fot_46B-29812_E_tif
  70
32
  10
428526.063
  20
4576113.172
  30
0
  0
VERTEX
  8
PNOA-H_AMS_1956-57_33k_ES_PAN_21mic_H50_0431_fot_46B-29812_E_tif
  70
32
  10
430709.089
  20
4576092.201
  30
1064.325
  0
VERTEX
  8
PNOA-H_AMS_1956-57_33k_ES_PAN_21mic_H50_0431_fot_46B-29812_E_tif
  70
32
  10
430678.000
  20
4572853.000
  30
1020.313
  0
VERTEX
  8
PNOA-H_AMS_1956-57_33k_ES_PAN_21mic_H50_0431_fot_46B-29812_E_tif
  70
32
  10
430639.590
  20
4572844.866
  30
1019.906
  0
SEQEND
  8
PNOA-H_AMS_1956-57_33k_ES_PAN_21mic_H50_0431_fot_46B-29812_E_tif
  0
INSERT
  8
FeatureAttribs
  2
FEATURE
  41
1
  42
1
  43
1
  50
0
  10
432068.642
  20
4574288.101
 66
1
  0
ATTRIB
  8
FeatureAttribs
 70
0
  1
PNOA-H_AMS_1956-57_33k_ES_PAN_21mic_H50_0431_fot_46B-29811_E.tif
  2
NAME
  10
432068.642
  20
4574288.101
 40
33.69203
  0
SEQEND
  0
POLYLINE
  8
PNOA-H_AMS_1956-57_33k_ES_PAN_21mic_H50_0431_fot_46B-29811_E_tif
  70
9
  66
1
  0
VERTEX
  8
PNOA-H_AMS_1956-57_33k_ES_PAN_21mic_H50_0431_fot_46B-29811_E_tif
  70
32
  10
433417.114
  20
4572833.814
  30
1043.821
  0
VERTEX
  8
PNOA-H_AMS_1956-57_33k_ES_PAN_21mic_H50_0431_fot_46B-29811_E_tif
  70
32
  10
431748.500
  20
4572484.000
  30
1018.881
  0
VERTEX
  8
PNOA-H_AMS_1956-57_33k_ES_PAN_21mic_H50_0431_fot_46B-29811_E_tif
  70
32
  10
430678.375
  20
4572852.871
  30
1020.312
  0
VERTEX
  8
PNOA-H_AMS_1956-57_33k_ES_PAN_21mic_H50_0431_fot_46B-29811_E_tif
  70
32
  10
430678.000
  20
4572853.000
  30
1020.313
  0
VERTEX
  8
PNOA-H_AMS_1956-57_33k_ES_PAN_21mic_H50_0431_fot_46B-29811_E_tif
  70
32
  10
430709.089
  20
4576092.201
  30
1064.325
  0
VERTEX
  8
PNOA-H_AMS_1956-57_33k_ES_PAN_21mic_H50_0431_fot_46B-29811_E_tif
  70
32
  10
432012.627
  20
4576079.679
  30
0
  0
VERTEX
  8
PNOA-H_AMS_1956-57_33k_ES_PAN_21mic_H50_0431_fot_46B-29811_E_tif
  70
32
  10
433479.154
  20
4576066.295
  30
1080.375
  0
VERTEX
  8
PNOA-H_AMS_1956-57_33k_ES_PAN_21mic_H50_0431_fot_46B-29811_E_tif
  70
32
  10
433418.000
  20
4572834.000
  30
1043.834
  0
VERTEX
  8
PNOA-H_AMS_1956-57_33k_ES_PAN_21mic_H50_0431_fot_46B-29811_E_tif
  70
32
  10
433417.114
  20
4572833.814
  30
1043.821
  0
SEQEND
  8
PNOA-H_AMS_1956-57_33k_ES_PAN_21mic_H50_0431_fot_46B-29811_E_tif
  0
INSERT
  8
FeatureAttribs
  2
FEATURE
  41
1
  42
1
  43
1
  50
0
  10
434822.469
  20
4574320.148
 66
1
  0
ATTRIB
  8
FeatureAttribs
 70
0
  1
PNOA-H_AMS_1956-57_33k_ES_PAN_21mic_H50_0431_fot_46B-29810_E.tif
  2
NAME
  10
434822.469
  20
4574320.148
 40
33.69203
  0
SEQEND
  0
POLYLINE
  8
PNOA-H_AMS_1956-57_33k_ES_PAN_21mic_H50_0431_fot_46B-29810_E_tif
  70
9
  66
1
  0
VERTEX
  8
PNOA-H_AMS_1956-57_33k_ES_PAN_21mic_H50_0431_fot_46B-29810_E_tif
  70
32
  10
436139.500
  20
4572604.500
  30
917.503
  0
VERTEX
  8
PNOA-H_AMS_1956-57_33k_ES_PAN_21mic_H50_0431_fot_46B-29810_E_tif
  70
32
  10
434922.500
  20
4572585.500
  30
981.565
  0
VERTEX
  8
PNOA-H_AMS_1956-57_33k_ES_PAN_21mic_H50_0431_fot_46B-29810_E_tif
  70
32
  10
434915.000
  20
4572585.500
  30
980.027
  0
VERTEX
  8
PNOA-H_AMS_1956-57_33k_ES_PAN_21mic_H50_0431_fot_46B-29810_E_tif
  70
32
  10
434919.500
  20
4572590.000
  30
985.503
  0
VERTEX
  8
PNOA-H_AMS_1956-57_33k_ES_PAN_21mic_H50_0431_fot_46B-29810_E_tif
  70
32
  10
434919.500
  20
4572600.000
  30
1001.514
  0
VERTEX
  8
PNOA-H_AMS_1956-57_33k_ES_PAN_21mic_H50_0431_fot_46B-29810_E_tif
  70
32
  10
434915.000
  20
4572604.500
  30
1007.213
  0
VERTEX
  8
PNOA-H_AMS_1956-57_33k_ES_PAN_21mic_H50_0431_fot_46B-29810_E_tif
  70
32
  10
434850.000
  20
4572604.500
  30
1008.101
  0
VERTEX
  8
PNOA-H_AMS_1956-57_33k_ES_PAN_21mic_H50_0431_fot_46B-29810_E_tif
  70
32
  10
434845.500
  20
4572600.000
  30
1001.584
  0
VERTEX
  8
PNOA-H_AMS_1956-57_33k_ES_PAN_21mic_H50_0431_fot_46B-29810_E_tif
  70
32
  10
434845.500
  20
4572590.000
  30
984.814
  0
VERTEX
  8
PNOA-H_AMS_1956-57_33k_ES_PAN_21mic_H50_0431_fot_46B-29810_E_tif
  70
32
  10
434850.000
  20
4572585.500
  30
979.32
  0
VERTEX
  8
PNOA-H_AMS_1956-57_33k_ES_PAN_21mic_H50_0431_fot_46B-29810_E_tif
  70
32
  10
434889.500
  20
4572585.000
  30
976.759
  0
VERTEX
  8
PNOA-H_AMS_1956-57_33k_ES_PAN_21mic_H50_0431_fot_46B-29810_E_tif
  70
32
  10
434152.480
  20
4572574.007
  30
989.277
  0
VERTEX
  8
PNOA-H_AMS_1956-57_33k_ES_PAN_21mic_H50_0431_fot_46B-29810_E_tif
  70
32
  10
434152.000
  20
4572574.000
  30
989.285
  0
VERTEX
  8
PNOA-H_AMS_1956-57_33k_ES_PAN_21mic_H50_0431_fot_46B-29810_E_tif
  70
32
  10
433419.777
  20
4572833.370
  30
1043.702
  0
VERTEX
  8
PNOA-H_AMS_1956-57_33k_ES_PAN_21mic_H50_0431_fot_46B-29810_E_tif
  70
32
  10
433418.000
  20
4572834.000
  30
1043.834
  0
VERTEX
  8
PNOA-H_AMS_1956-57_33k_ES_PAN_21mic_H50_0431_fot_46B-29810_E_tif
  70
32
  10
433479.154
  20
4576066.295
  30
1080.375
  0
VERTEX
  8
PNOA-H_AMS_1956-57_33k_ES_PAN_21mic_H50_0431_fot_46B-29810_E_tif
  70
32
  10
435499.187
  20
4576047.861
  30
0
  0
VERTEX
  8
PNOA-H_AMS_1956-57_33k_ES_PAN_21mic_H50_0431_fot_46B-29810_E_tif
  70
32
  10
436258.331
  20
4576041.297
  30
1071.646
  0
VERTEX
  8
PNOA-H_AMS_1956-57_33k_ES_PAN_21mic_H50_0431_fot_46B-29810_E_tif
  70
32
  10
436139.500
  20
4572604.500
  30
917.503
  0
SEQEND
  8
PNOA-H_AMS_1956-57_33k_ES_PAN_21mic_H50_0431_fot_46B-29810_E_tif
  0
INSERT
  8
FeatureAttribs
  2
FEATURE
  41
1
  42
1
  43
1
  50
0
  10
440225.286
  20
4574130.221
 66
1
  0
ATTRIB
  8
FeatureAttribs
 70
0
  1
PNOA-H_AMS_1956-57_33k_ES_PAN_21mic_H50_0431_fot_46B-29808_E.tif
  2
NAME
  10
440225.286
  20
4574130.221
 40
33.69203
  0
SEQEND
  0
POLYLINE
  8
PNOA-H_AMS_1956-57_33k_ES_PAN_21mic_H50_0431_fot_46B-29808_E_tif
  70
9
  66
1
  0
VERTEX
  8
PNOA-H_AMS_1956-57_33k_ES_PAN_21mic_H50_0431_fot_46B-29808_E_tif
  70
32
  10
439494.783
  20
4572242.603
  30
969.841
  0
VERTEX
  8
PNOA-H_AMS_1956-57_33k_ES_PAN_21mic_H50_0431_fot_46B-29808_E_tif
  70
32
  10
439494.000
  20
4572242.500
  30
969.846
  0
VERTEX
  8
PNOA-H_AMS_1956-57_33k_ES_PAN_21mic_H50_0431_fot_46B-29808_E_tif
  70
32
  10
438793.560
  20
4572574.471
  30
916.942
  0
VERTEX
  8
PNOA-H_AMS_1956-57_33k_ES_PAN_21mic_H50_0431_fot_46B-29808_E_tif
  70
32
  10
438793.500
  20
4572574.500
  30
916.938
  0
VERTEX
  8
PNOA-H_AMS_1956-57_33k_ES_PAN_21mic_H50_0431_fot_46B-29808_E_tif
  70
32
  10
438959.642
  20
4576017.943
  30
1024.208
  0
VERTEX
  8
PNOA-H_AMS_1956-57_33k_ES_PAN_21mic_H50_0431_fot_46B-29808_E_tif
  70
32
  10
438985.743
  20
4576017.717
  30
0
  0
VERTEX
  8
PNOA-H_AMS_1956-57_33k_ES_PAN_21mic_H50_0431_fot_46B-29808_E_tif
  70
32
  10
441644.519
  20
4575996.008
  30
0
  0
VERTEX
  8
PNOA-H_AMS_1956-57_33k_ES_PAN_21mic_H50_0431_fot_46B-29808_E_tif
  70
32
  10
441644.744
  20
4575996.006
  30
1002.382
  0
VERTEX
  8
PNOA-H_AMS_1956-57_33k_ES_PAN_21mic_H50_0431_fot_46B-29808_E_tif
  70
32
  10
441527.500
  20
4572509.000
  30
956.48
  0
VERTEX
  8
PNOA-H_AMS_1956-57_33k_ES_PAN_21mic_H50_0431_fot_46B-29808_E_tif
  70
32
  10
439511.729
  20
4572244.823
  30
969.73
  0
VERTEX
  8
PNOA-H_AMS_1956-57_33k_ES_PAN_21mic_H50_0431_fot_46B-29808_E_tif
  70
32
  10
439494.783
  20
4572242.603
  30
969.841
  0
SEQEND
  8
PNOA-H_AMS_1956-57_33k_ES_PAN_21mic_H50_0431_fot_46B-29808_E_tif
  0
INSERT
  8
FeatureAttribs
  2
FEATURE
  41
1
  42
1
  43
1
  50
0
  10
442981.541
  20
4574062.004
 66
1
  0
ATTRIB
  8
FeatureAttribs
 70
0
  1
PNOA-H_AMS_1956-57_33k_ES_PAN_21mic_H50_0431_fot_46B-29807_E.tif
  2
NAME
  10
442981.541
  20
4574062.004
 40
33.69203
  0
SEQEND
  0
POLYLINE
  8
PNOA-H_AMS_1956-57_33k_ES_PAN_21mic_H50_0431_fot_46B-29807_E_tif
  70
9
  66
1
  0
VERTEX
  8
PNOA-H_AMS_1956-57_33k_ES_PAN_21mic_H50_0431_fot_46B-29807_E_tif
  70
32
  10
442396.367
  20
4572128.058
  30
938.001
  0
VERTEX
  8
PNOA-H_AMS_1956-57_33k_ES_PAN_21mic_H50_0431_fot_46B-29807_E_tif
  70
32
  10
442396.000
  20
4572128.000
  30
937.999
  0
VERTEX
  8
PNOA-H_AMS_1956-57_33k_ES_PAN_21mic_H50_0431_fot_46B-29807_E_tif
  70
32
  10
441527.500
  20
4572509.000
  30
956.48
  0
VERTEX
  8
PNOA-H_AMS_1956-57_33k_ES_PAN_21mic_H50_0431_fot_46B-29807_E_tif
  70
32
  10
441644.519
  20
4575996.008
  30
1002.87
  0
VERTEX
  8
PNOA-H_AMS_1956-57_33k_ES_PAN_21mic_H50_0431_fot_46B-29807_E_tif
  70
32
  10
441644.744
  20
4575996.006
  30
1002.382
  0
VERTEX
  8
PNOA-H_AMS_1956-57_33k_ES_PAN_21mic_H50_0431_fot_46B-29807_E_tif
  70
32
  10
442472.294
  20
4575989.249
  30
0
  0
VERTEX
  8
PNOA-H_AMS_1956-57_33k_ES_PAN_21mic_H50_0431_fot_46B-29807_E_tif
  70
32
  10
444395.813
  20
4575974.466
  30
961.28
  0
VERTEX
  8
PNOA-H_AMS_1956-57_33k_ES_PAN_21mic_H50_0431_fot_46B-29807_E_tif
  70
32
  10
444373.000
  20
4572441.000
  30
950.635
  0
VERTEX
  8
PNOA-H_AMS_1956-57_33k_ES_PAN_21mic_H50_0431_fot_46B-29807_E_tif
  70
32
  10
442502.950
  20
4572144.932
  30
938.683
  0
VERTEX
  8
PNOA-H_AMS_1956-57_33k_ES_PAN_21mic_H50_0431_fot_46B-29807_E_tif
  70
32
  10
442396.367
  20
4572128.058
  30
938.001
  0
SEQEND
  8
PNOA-H_AMS_1956-57_33k_ES_PAN_21mic_H50_0431_fot_46B-29807_E_tif
  0
INSERT
  8
FeatureAttribs
  2
FEATURE
  41
1
  42
1
  43
1
  50
0
  10
437534.644
  20
4574232.399
 66
1
  0
ATTRIB
  8
FeatureAttribs
 70
0
  1
PNOA-H_AMS_1956-57_33k_ES_PAN_21mic_H50_0431_fot_46B-29809_E.tif
  2
NAME
  10
437534.644
  20
4574232.399
 40
33.69203
  0
SEQEND
  0
POLYLINE
  8
PNOA-H_AMS_1956-57_33k_ES_PAN_21mic_H50_0431_fot_46B-29809_E_tif
  70
9
  66
1
  0
VERTEX
  8
PNOA-H_AMS_1956-57_33k_ES_PAN_21mic_H50_0431_fot_46B-29809_E_tif
  70
32
  10
436470.000
  20
4572423.500
  30
1005.078
  0
VERTEX
  8
PNOA-H_AMS_1956-57_33k_ES_PAN_21mic_H50_0431_fot_46B-29809_E_tif
  70
32
  10
436469.000
  20
4572423.500
  30
1005.119
  0
VERTEX
  8
PNOA-H_AMS_1956-57_33k_ES_PAN_21mic_H50_0431_fot_46B-29809_E_tif
  70
32
  10
436139.500
  20
4572604.000
  30
917.447
  0
VERTEX
  8
PNOA-H_AMS_1956-57_33k_ES_PAN_21mic_H50_0431_fot_46B-29809_E_tif
  70
32
  10
436139.517
  20
4572604.491
  30
917.469
  0
VERTEX
  8
PNOA-H_AMS_1956-57_33k_ES_PAN_21mic_H50_0431_fot_46B-29809_E_tif
  70
32
  10
436258.334
  20
4576041.297
  30
1071.639
  0
VERTEX
  8
PNOA-H_AMS_1956-57_33k_ES_PAN_21mic_H50_0431_fot_46B-29809_E_tif
  70
32
  10
438959.642
  20
4576017.943
  30
1024.208
  0
VERTEX
  8
PNOA-H_AMS_1956-57_33k_ES_PAN_21mic_H50_0431_fot_46B-29809_E_tif
  70
32
  10
438793.500
  20
4572574.500
  30
916.938
  0
VERTEX
  8
PNOA-H_AMS_1956-57_33k_ES_PAN_21mic_H50_0431_fot_46B-29809_E_tif
  70
32
  10
438661.373
  20
4572565.895
  30
921.949
  0
VERTEX
  8
PNOA-H_AMS_1956-57_33k_ES_PAN_21mic_H50_0431_fot_46B-29809_E_tif
  70
32
  10
436475.000
  20
4572423.500
  30
1004.875
  0
VERTEX
  8
PNOA-H_AMS_1956-57_33k_ES_PAN_21mic_H50_0431_fot_46B-29809_E_tif
  70
32
  10
436470.000
  20
4572423.500
  30
1005.078
  0
SEQEND
  8
PNOA-H_AMS_1956-57_33k_ES_PAN_21mic_H50_0431_fot_46B-29809_E_tif
  0
INSERT
  8
FeatureAttribs
  2
FEATURE
  41
1
  42
1
  43
1
  50
0
  10
448613.368
  20
4574011.143
 66
1
  0
ATTRIB
  8
FeatureAttribs
 70
0
  1
PNOA-H_AMS_1956-57_33k_ES_PAN_21mic_H50_0431_fot_46B-29805_E.tif
  2
NAME
  10
448613.368
  20
4574011.143
 40
33.69203
  0
SEQEND
  0
POLYLINE
  8
PNOA-H_AMS_1956-57_33k_ES_PAN_21mic_H50_0431_fot_46B-29805_E_tif
  70
9
  66
1
  0
VERTEX
  8
PNOA-H_AMS_1956-57_33k_ES_PAN_21mic_H50_0431_fot_46B-29805_E_tif
  70
32
  10
448107.000
  20
4572069.000
  30
1039.51
  0
VERTEX
  8
PNOA-H_AMS_1956-57_33k_ES_PAN_21mic_H50_0431_fot_46B-29805_E_tif
  70
32
  10
448106.000
  20
4572069.000
  30
1039.55
  0
VERTEX
  8
PNOA-H_AMS_1956-57_33k_ES_PAN_21mic_H50_0431_fot_46B-29805_E_tif
  70
32
  10
448097.000
  20
4572072.500
  30
1039.604
  0
VERTEX
  8
PNOA-H_AMS_1956-57_33k_ES_PAN_21mic_H50_0431_fot_46B-29805_E_tif
  70
32
  10
447160.281
  20
4572443.915
  30
995.701
  0
VERTEX
  8
PNOA-H_AMS_1956-57_33k_ES_PAN_21mic_H50_0431_fot_46B-29805_E_tif
  70
32
  10
447152.500
  20
4572447.000
  30
995.336
  0
VERTEX
  8
PNOA-H_AMS_1956-57_33k_ES_PAN_21mic_H50_0431_fot_46B-29805_E_tif
  70
32
  10
447231.428
  20
4575953.286
  30
971.22
  0
VERTEX
  8
PNOA-H_AMS_1956-57_33k_ES_PAN_21mic_H50_0431_fot_46B-29805_E_tif
  70
32
  10
449445.385
  20
4575937.336
  30
0
  0
VERTEX
  8
PNOA-H_AMS_1956-57_33k_ES_PAN_21mic_H50_0431_fot_46B-29805_E_tif
  70
32
  10
450101.122
  20
4575932.926
  30
1041.234
  0
VERTEX
  8
PNOA-H_AMS_1956-57_33k_ES_PAN_21mic_H50_0431_fot_46B-29805_E_tif
  70
32
  10
449997.000
  20
4572710.500
  30
1066.147
  0
VERTEX
  8
PNOA-H_AMS_1956-57_33k_ES_PAN_21mic_H50_0431_fot_46B-29805_E_tif
  70
32
  10
449997.000
  20
4572709.000
  30
1066.191
  0
VERTEX
  8
PNOA-H_AMS_1956-57_33k_ES_PAN_21mic_H50_0431_fot_46B-29805_E_tif
  70
32
  10
449988.500
  20
4572438.000
  30
1069.795
  0
VERTEX
  8
PNOA-H_AMS_1956-57_33k_ES_PAN_21mic_H50_0431_fot_46B-29805_E_tif
  70
32
  10
448109.500
  20
4572069.000
  30
1039.41
  0
VERTEX
  8
PNOA-H_AMS_1956-57_33k_ES_PAN_21mic_H50_0431_fot_46B-29805_E_tif
  70
32
  10
448107.000
  20
4572069.000
  30
1039.51
  0
SEQEND
  8
PNOA-H_AMS_1956-57_33k_ES_PAN_21mic_H50_0431_fot_46B-29805_E_tif
  0
INSERT
  8
FeatureAttribs
  2
FEATURE
  41
1
  42
1
  43
1
  50
0
  10
445785.740
  20
4574032.983
 66
1
  0
ATTRIB
  8
FeatureAttribs
 70
0
  1
PNOA-H_AMS_1956-57_33k_ES_PAN_21mic_H50_0431_fot_46B-29806_E.tif
  2
NAME
  10
445785.740
  20
4574032.983
 40
33.69203
  0
SEQEND
  0
POLYLINE
  8
PNOA-H_AMS_1956-57_33k_ES_PAN_21mic_H50_0431_fot_46B-29806_E_tif
  70
9
  66
1
  0
VERTEX
  8
PNOA-H_AMS_1956-57_33k_ES_PAN_21mic_H50_0431_fot_46B-29806_E_tif
  70
32
  10
445238.842
  20
4572091.564
  30
957.463
  0
VERTEX
  8
PNOA-H_AMS_1956-57_33k_ES_PAN_21mic_H50_0431_fot_46B-29806_E_tif
  70
32
  10
445238.500
  20
4572091.500
  30
957.456
  0
VERTEX
  8
PNOA-H_AMS_1956-57_33k_ES_PAN_21mic_H50_0431_fot_46B-29806_E_tif
  70
32
  10
444373.000
  20
4572440.500
  30
950.635
  0
VERTEX
  8
PNOA-H_AMS_1956-57_33k_ES_PAN_21mic_H50_0431_fot_46B-29806_E_tif
  70
32
  10
444373.003
  20
4572440.999
  30
950.637
  0
VERTEX
  8
PNOA-H_AMS_1956-57_33k_ES_PAN_21mic_H50_0431_fot_46B-29806_E_tif
  70
32
  10
444395.813
  20
4575974.466
  30
961.28
  0
VERTEX
  8
PNOA-H_AMS_1956-57_33k_ES_PAN_21mic_H50_0431_fot_46B-29806_E_tif
  70
32
  10
445958.841
  20
4575962.455
  30
0
  0
VERTEX
  8
PNOA-H_AMS_1956-57_33k_ES_PAN_21mic_H50_0431_fot_46B-29806_E_tif
  70
32
  10
447231.428
  20
4575953.286
  30
971.22
  0
VERTEX
  8
PNOA-H_AMS_1956-57_33k_ES_PAN_21mic_H50_0431_fot_46B-29806_E_tif
  70
32
  10
447152.500
  20
4572447.000
  30
995.336
  0
VERTEX
  8
PNOA-H_AMS_1956-57_33k_ES_PAN_21mic_H50_0431_fot_46B-29806_E_tif
  70
32
  10
447151.846
  20
4572446.878
  30
995.324
  0
VERTEX
  8
PNOA-H_AMS_1956-57_33k_ES_PAN_21mic_H50_0431_fot_46B-29806_E_tif
  70
32
  10
445767.065
  20
4572189.674
  30
967.917
  0
VERTEX
  8
PNOA-H_AMS_1956-57_33k_ES_PAN_21mic_H50_0431_fot_46B-29806_E_tif
  70
32
  10
445238.842
  20
4572091.564
  30
957.463
  0
SEQEND
  8
PNOA-H_AMS_1956-57_33k_ES_PAN_21mic_H50_0431_fot_46B-29806_E_tif
  0
INSERT
  8
FeatureAttribs
  2
FEATURE
  41
1
  42
1
  43
1
  50
0
  10
451435.645
  20
4574003.713
 66
1
  0
ATTRIB
  8
FeatureAttribs
 70
0
  1
PNOA-H_AMS_1956-57_33k_ES_PAN_21mic_H50_0431_fot_46B-29804_E.tif
  2
NAME
  10
451435.645
  20
4574003.713
 40
33.69203
  0
SEQEND
  0
POLYLINE
  8
PNOA-H_AMS_1956-57_33k_ES_PAN_21mic_H50_0431_fot_46B-29804_E_tif
  70
9
  66
1
  0
VERTEX
  8
PNOA-H_AMS_1956-57_33k_ES_PAN_21mic_H50_0431_fot_46B-29804_E_tif
  70
32
  10
450892.707
  20
4572074.618
  30
1090.577
  0
VERTEX
  8
PNOA-H_AMS_1956-57_33k_ES_PAN_21mic_H50_0431_fot_46B-29804_E_tif
  70
32
  10
450892.000
  20
4572074.500
  30
1090.577
  0
VERTEX
  8
PNOA-H_AMS_1956-57_33k_ES_PAN_21mic_H50_0431_fot_46B-29804_E_tif
  70
32
  10
449988.500
  20
4572438.000
  30
1069.795
  0
VERTEX
  8
PNOA-H_AMS_1956-57_33k_ES_PAN_21mic_H50_0431_fot_46B-29804_E_tif
  70
32
  10
450101.172
  20
4575932.926
  30
1041.489
  0
VERTEX
  8
PNOA-H_AMS_1956-57_33k_ES_PAN_21mic_H50_0431_fot_46B-29804_E_tif
  70
32
  10
452867.671
  20
4575914.324
  30
0
  0
VERTEX
  8
PNOA-H_AMS_1956-57_33k_ES_PAN_21mic_H50_0431_fot_46B-29804_E_tif
  70
32
  10
452867.678
  20
4575914.324
  30
1038.432
  0
VERTEX
  8
PNOA-H_AMS_1956-57_33k_ES_PAN_21mic_H50_0431_fot_46B-29804_E_tif
  70
32
  10
452802.500
  20
4572393.000
  30
1090.856
  0
VERTEX
  8
PNOA-H_AMS_1956-57_33k_ES_PAN_21mic_H50_0431_fot_46B-29804_E_tif
  70
32
  10
450892.707
  20
4572074.618
  30
1090.577
  0
SEQEND
  8
PNOA-H_AMS_1956-57_33k_ES_PAN_21mic_H50_0431_fot_46B-29804_E_tif
  0
INSERT
  8
FeatureAttribs
  2
FEATURE
  41
1
  42
1
  43
1
  50
0
  10
454191.414
  20
4573989.912
 66
1
  0
ATTRIB
  8
FeatureAttribs
 70
0
  1
PNOA-H_AMS_1956-57_33k_ES_PAN_21mic_H50_0431_fot_46B-29803_E.tif
  2
NAME
  10
454191.414
  20
4573989.912
 40
33.69203
  0
SEQEND
  0
POLYLINE
  8
PNOA-H_AMS_1956-57_33k_ES_PAN_21mic_H50_0431_fot_46B-29803_E_tif
  70
9
  66
1
  0
VERTEX
  8
PNOA-H_AMS_1956-57_33k_ES_PAN_21mic_H50_0431_fot_46B-29803_E_tif
  70
32
  10
455539.500
  20
4572374.500
  30
1127.678
  0
VERTEX
  8
PNOA-H_AMS_1956-57_33k_ES_PAN_21mic_H50_0431_fot_46B-29803_E_tif
  70
32
  10
453597.500
  20
4572065.500
  30
1094.869
  0
VERTEX
  8
PNOA-H_AMS_1956-57_33k_ES_PAN_21mic_H50_0431_fot_46B-29803_E_tif
  70
32
  10
453597.060
  20
4572065.669
  30
1094.894
  0
VERTEX
  8
PNOA-H_AMS_1956-57_33k_ES_PAN_21mic_H50_0431_fot_46B-29803_E_tif
  70
32
  10
453576.779
  20
4572073.443
  30
1096.087
  0
VERTEX
  8
PNOA-H_AMS_1956-57_33k_ES_PAN_21mic_H50_0431_fot_46B-29803_E_tif
  70
32
  10
453567.500
  20
4572077.000
  30
1096.632
  0
VERTEX
  8
PNOA-H_AMS_1956-57_33k_ES_PAN_21mic_H50_0431_fot_46B-29803_E_tif
  70
32
  10
452802.787
  20
4572392.881
  30
1090.858
  0
VERTEX
  8
PNOA-H_AMS_1956-57_33k_ES_PAN_21mic_H50_0431_fot_46B-29803_E_tif
  70
32
  10
452802.500
  20
4572393.000
  30
1090.856
  0
VERTEX
  8
PNOA-H_AMS_1956-57_33k_ES_PAN_21mic_H50_0431_fot_46B-29803_E_tif
  70
32
  10
452867.671
  20
4575914.324
  30
1038.407
  0
VERTEX
  8
PNOA-H_AMS_1956-57_33k_ES_PAN_21mic_H50_0431_fot_46B-29803_E_tif
  70
32
  10
452867.678
  20
4575914.324
  30
0
  0
VERTEX
  8
PNOA-H_AMS_1956-57_33k_ES_PAN_21mic_H50_0431_fot_46B-29803_E_tif
  70
32
  10
452931.925
  20
4575913.892
  30
0
  0
VERTEX
  8
PNOA-H_AMS_1956-57_33k_ES_PAN_21mic_H50_0431_fot_46B-29803_E_tif
  70
32
  10
455564.347
  20
4575897.455
  30
1067.92
  0
VERTEX
  8
PNOA-H_AMS_1956-57_33k_ES_PAN_21mic_H50_0431_fot_46B-29803_E_tif
  70
32
  10
455542.000
  20
4572757.000
  30
1122.331
  0
VERTEX
  8
PNOA-H_AMS_1956-57_33k_ES_PAN_21mic_H50_0431_fot_46B-29803_E_tif
  70
32
  10
455542.000
  20
4572728.509
  30
1121.655
  0
VERTEX
  8
PNOA-H_AMS_1956-57_33k_ES_PAN_21mic_H50_0431_fot_46B-29803_E_tif
  70
32
  10
455542.000
  20
4572709.000
  30
1123.388
  0
VERTEX
  8
PNOA-H_AMS_1956-57_33k_ES_PAN_21mic_H50_0431_fot_46B-29803_E_tif
  70
32
  10
455539.500
  20
4572374.500
  30
1127.678
  0
SEQEND
  8
PNOA-H_AMS_1956-57_33k_ES_PAN_21mic_H50_0431_fot_46B-29803_E_tif
  0
INSERT
  8
FeatureAttribs
  2
FEATURE
  41
1
  42
1
  43
1
  50
0
  10
455978.869
  20
4573973.477
 66
1
  0
ATTRIB
  8
FeatureAttribs
 70
0
  1
PNOA-H_AMS_1956-57_33k_ES_PAN_21mic_H50_0432_fot_46B-29802_E.tif
  2
NAME
  10
455978.869
  20
4573973.477
 40
33.69203
  0
SEQEND
  0
POLYLINE
  8
PNOA-H_AMS_1956-57_33k_ES_PAN_21mic_H50_0432_fot_46B-29802_E_tif
  70
9
  66
1
  0
VERTEX
  8
PNOA-H_AMS_1956-57_33k_ES_PAN_21mic_H50_0432_fot_46B-29802_E_tif
  70
32
  10
456395.504
  20
4572066.612
  30
1138.604
  0
VERTEX
  8
PNOA-H_AMS_1956-57_33k_ES_PAN_21mic_H50_0432_fot_46B-29802_E_tif
  70
32
  10
456302.000
  20
4572049.500
  30
1137.92
  0
VERTEX
  8
PNOA-H_AMS_1956-57_33k_ES_PAN_21mic_H50_0432_fot_46B-29802_E_tif
  70
32
  10
456301.044
  20
4572049.691
  30
1137.903
  0
VERTEX
  8
PNOA-H_AMS_1956-57_33k_ES_PAN_21mic_H50_0432_fot_46B-29802_E_tif
  70
32
  10
456297.000
  20
4572050.500
  30
1137.834
  0
VERTEX
  8
PNOA-H_AMS_1956-57_33k_ES_PAN_21mic_H50_0432_fot_46B-29802_E_tif
  70
32
  10
455539.500
  20
4572374.500
  30
1127.678
  0
VERTEX
  8
PNOA-H_AMS_1956-57_33k_ES_PAN_21mic_H50_0432_fot_46B-29802_E_tif
  70
32
  10
455542.000
  20
4572728.509
  30
1121.655
  0
VERTEX
  8
PNOA-H_AMS_1956-57_33k_ES_PAN_21mic_H50_0432_fot_46B-29802_E_tif
  70
32
  10
455564.379
  20
4575897.455
  30
1067.738
  0
VERTEX
  8
PNOA-H_AMS_1956-57_33k_ES_PAN_21mic_H50_0432_fot_46B-29802_E_tif
  70
32
  10
456418.462
  20
4575892.122
  30
0
  0
VERTEX
  8
PNOA-H_AMS_1956-57_33k_ES_PAN_21mic_H50_0432_fot_46B-29802_E_tif
  70
32
  10
456404.580
  20
4573579.282
  30
0
  0
VERTEX
  8
PNOA-H_AMS_1956-57_33k_ES_PAN_21mic_H50_0432_fot_46B-29802_E_tif
  70
32
  10
456395.506
  20
4572066.988
  30
0
  0
VERTEX
  8
PNOA-H_AMS_1956-57_33k_ES_PAN_21mic_H50_0432_fot_46B-29802_E_tif
  70
32
  10
456395.504
  20
4572066.612
  30
1138.604
  0
SEQEND
  8
PNOA-H_AMS_1956-57_33k_ES_PAN_21mic_H50_0432_fot_46B-29802_E_tif
  0
INSERT
  8
FeatureAttribs
  2
FEATURE
  41
1
  42
1
  43
1
  50
0
  10
432888.019
  20
4570399.750
 66
1
  0
ATTRIB
  8
FeatureAttribs
 70
0
  1
PNOA-H_AMS_1956-57_33k_ES_PAN_21mic_H50_0431_fot_47A-06582_E.tif
  2
NAME
  10
432888.019
  20
4570399.750
 40
33.69203
  0
SEQEND
  0
POLYLINE
  8
PNOA-H_AMS_1956-57_33k_ES_PAN_21mic_H50_0431_fot_47A-06582_E_tif
  70
9
  66
1
  0
VERTEX
  8
PNOA-H_AMS_1956-57_33k_ES_PAN_21mic_H50_0431_fot_47A-06582_E_tif
  70
32
  10
433782.877
  20
4568113.992
  30
994.945
  0
VERTEX
  8
PNOA-H_AMS_1956-57_33k_ES_PAN_21mic_H50_0431_fot_47A-06582_E_tif
  70
32
  10
431963.500
  20
4567965.500
  30
936.07
  0
VERTEX
  8
PNOA-H_AMS_1956-57_33k_ES_PAN_21mic_H50_0431_fot_47A-06582_E_tif
  70
32
  10
431963.440
  20
4567965.536
  30
936.079
  0
VERTEX
  8
PNOA-H_AMS_1956-57_33k_ES_PAN_21mic_H50_0431_fot_47A-06582_E_tif
  70
32
  10
431963.003
  20
4567965.798
  30
936.145
  0
VERTEX
  8
PNOA-H_AMS_1956-57_33k_ES_PAN_21mic_H50_0431_fot_47A-06582_E_tif
  70
32
  10
431739.500
  20
4568100.000
  30
969.696
  0
VERTEX
  8
PNOA-H_AMS_1956-57_33k_ES_PAN_21mic_H50_0431_fot_47A-06582_E_tif
  70
32
  10
431748.500
  20
4572484.000
  30
1018.94
  0
VERTEX
  8
PNOA-H_AMS_1956-57_33k_ES_PAN_21mic_H50_0431_fot_47A-06582_E_tif
  70
32
  10
431748.500
  20
4572484.500
  30
1018.946
  0
VERTEX
  8
PNOA-H_AMS_1956-57_33k_ES_PAN_21mic_H50_0431_fot_47A-06582_E_tif
  70
32
  10
433413.500
  20
4572833.500
  30
1043.759
  0
VERTEX
  8
PNOA-H_AMS_1956-57_33k_ES_PAN_21mic_H50_0431_fot_47A-06582_E_tif
  70
32
  10
433416.000
  20
4572834.000
  30
1043.797
  0
VERTEX
  8
PNOA-H_AMS_1956-57_33k_ES_PAN_21mic_H50_0431_fot_47A-06582_E_tif
  70
32
  10
433417.114
  20
4572833.814
  30
1043.824
  0
VERTEX
  8
PNOA-H_AMS_1956-57_33k_ES_PAN_21mic_H50_0431_fot_47A-06582_E_tif
  70
32
  10
433419.777
  20
4572833.370
  30
1043.889
  0
VERTEX
  8
PNOA-H_AMS_1956-57_33k_ES_PAN_21mic_H50_0431_fot_47A-06582_E_tif
  70
32
  10
433422.000
  20
4572833.000
  30
1043.943
  0
VERTEX
  8
PNOA-H_AMS_1956-57_33k_ES_PAN_21mic_H50_0431_fot_47A-06582_E_tif
  70
32
  10
434152.480
  20
4572574.007
  30
989.501
  0
VERTEX
  8
PNOA-H_AMS_1956-57_33k_ES_PAN_21mic_H50_0431_fot_47A-06582_E_tif
  70
32
  10
434152.500
  20
4572574.000
  30
989.5
  0
VERTEX
  8
PNOA-H_AMS_1956-57_33k_ES_PAN_21mic_H50_0431_fot_47A-06582_E_tif
  70
32
  10
433905.500
  20
4568124.000
  30
998.913
  0
VERTEX
  8
PNOA-H_AMS_1956-57_33k_ES_PAN_21mic_H50_0431_fot_47A-06582_E_tif
  70
32
  10
433782.877
  20
4568113.992
  30
994.945
  0
SEQEND
  8
PNOA-H_AMS_1956-57_33k_ES_PAN_21mic_H50_0431_fot_47A-06582_E_tif
  0
INSERT
  8
FeatureAttribs
  2
FEATURE
  41
1
  42
1
  43
1
  50
0
  10
435223.253
  20
4570203.750
 66
1
  0
ATTRIB
  8
FeatureAttribs
 70
0
  1
PNOA-H_AMS_1956-57_33k_ES_PAN_21mic_H50_0431_fot_47B-27877_E.tif
  2
NAME
  10
435223.253
  20
4570203.750
 40
33.69203
  0
SEQEND
  0
POLYLINE
  8
PNOA-H_AMS_1956-57_33k_ES_PAN_21mic_H50_0431_fot_47B-27877_E_tif
  70
9
  66
1
  0
VERTEX
  8
PNOA-H_AMS_1956-57_33k_ES_PAN_21mic_H50_0431_fot_47B-27877_E_tif
  70
32
  10
436139.517
  20
4572604.491
  30
917.507
  0
VERTEX
  8
PNOA-H_AMS_1956-57_33k_ES_PAN_21mic_H50_0431_fot_47B-27877_E_tif
  70
32
  10
436470.000
  20
4572423.500
  30
1005.088
  0
VERTEX
  8
PNOA-H_AMS_1956-57_33k_ES_PAN_21mic_H50_0431_fot_47B-27877_E_tif
  70
32
  10
436387.500
  20
4568302.000
  30
996.711
  0
VERTEX
  8
PNOA-H_AMS_1956-57_33k_ES_PAN_21mic_H50_0431_fot_47B-27877_E_tif
  70
32
  10
436386.987
  20
4568301.838
  30
996.707
  0
VERTEX
  8
PNOA-H_AMS_1956-57_33k_ES_PAN_21mic_H50_0431_fot_47B-27877_E_tif
  70
32
  10
434812.500
  20
4567803.000
  30
982.353
  0
VERTEX
  8
PNOA-H_AMS_1956-57_33k_ES_PAN_21mic_H50_0431_fot_47B-27877_E_tif
  70
32
  10
434811.941
  20
4567803.140
  30
982.396
  0
VERTEX
  8
PNOA-H_AMS_1956-57_33k_ES_PAN_21mic_H50_0431_fot_47B-27877_E_tif
  70
32
  10
434809.108
  20
4567803.848
  30
982.616
  0
VERTEX
  8
PNOA-H_AMS_1956-57_33k_ES_PAN_21mic_H50_0431_fot_47B-27877_E_tif
  70
32
  10
434804.500
  20
4567805.000
  30
982.974
  0
VERTEX
  8
PNOA-H_AMS_1956-57_33k_ES_PAN_21mic_H50_0431_fot_47B-27877_E_tif
  70
32
  10
433905.593
  20
4568123.967
  30
998.912
  0
VERTEX
  8
PNOA-H_AMS_1956-57_33k_ES_PAN_21mic_H50_0431_fot_47B-27877_E_tif
  70
32
  10
433905.500
  20
4568124.000
  30
998.913
  0
VERTEX
  8
PNOA-H_AMS_1956-57_33k_ES_PAN_21mic_H50_0431_fot_47B-27877_E_tif
  70
32
  10
434152.500
  20
4572574.000
  30
989.5
  0
VERTEX
  8
PNOA-H_AMS_1956-57_33k_ES_PAN_21mic_H50_0431_fot_47B-27877_E_tif
  70
32
  10
434889.500
  20
4572585.000
  30
976.759
  0
VERTEX
  8
PNOA-H_AMS_1956-57_33k_ES_PAN_21mic_H50_0431_fot_47B-27877_E_tif
  70
32
  10
434850.000
  20
4572585.500
  30
979.32
  0
VERTEX
  8
PNOA-H_AMS_1956-57_33k_ES_PAN_21mic_H50_0431_fot_47B-27877_E_tif
  70
32
  10
434845.500
  20
4572590.000
  30
984.814
  0
VERTEX
  8
PNOA-H_AMS_1956-57_33k_ES_PAN_21mic_H50_0431_fot_47B-27877_E_tif
  70
32
  10
434845.500
  20
4572600.000
  30
1001.584
  0
VERTEX
  8
PNOA-H_AMS_1956-57_33k_ES_PAN_21mic_H50_0431_fot_47B-27877_E_tif
  70
32
  10
434849.500
  20
4572603.500
  30
1007.055
  0
VERTEX
  8
PNOA-H_AMS_1956-57_33k_ES_PAN_21mic_H50_0431_fot_47B-27877_E_tif
  70
32
  10
434850.000
  20
4572604.500
  30
1008.101
  0
VERTEX
  8
PNOA-H_AMS_1956-57_33k_ES_PAN_21mic_H50_0431_fot_47B-27877_E_tif
  70
32
  10
434915.000
  20
4572604.500
  30
1007.213
  0
VERTEX
  8
PNOA-H_AMS_1956-57_33k_ES_PAN_21mic_H50_0431_fot_47B-27877_E_tif
  70
32
  10
434919.500
  20
4572600.000
  30
1001.514
  0
VERTEX
  8
PNOA-H_AMS_1956-57_33k_ES_PAN_21mic_H50_0431_fot_47B-27877_E_tif
  70
32
  10
434919.500
  20
4572590.000
  30
985.503
  0
VERTEX
  8
PNOA-H_AMS_1956-57_33k_ES_PAN_21mic_H50_0431_fot_47B-27877_E_tif
  70
32
  10
434915.000
  20
4572585.500
  30
980.027
  0
VERTEX
  8
PNOA-H_AMS_1956-57_33k_ES_PAN_21mic_H50_0431_fot_47B-27877_E_tif
  70
32
  10
436139.500
  20
4572604.500
  30
917.503
  0
VERTEX
  8
PNOA-H_AMS_1956-57_33k_ES_PAN_21mic_H50_0431_fot_47B-27877_E_tif
  70
32
  10
436139.517
  20
4572604.491
  30
917.507
  0
SEQEND
  8
PNOA-H_AMS_1956-57_33k_ES_PAN_21mic_H50_0431_fot_47B-27877_E_tif
  0
INSERT
  8
FeatureAttribs
  2
FEATURE
  41
1
  42
1
  43
1
  50
0
  10
428730.442
  20
4570126.078
 66
1
  0
ATTRIB
  8
FeatureAttribs
 70
0
  1
PNOA-H_AMS_1956-57_33k_ES_PAN_21mic_H50_0430_fot_47A-06580_E.tif
  2
NAME
  10
428730.442
  20
4570126.078
 40
33.69203
  0
SEQEND
  0
POLYLINE
  8
PNOA-H_AMS_1956-57_33k_ES_PAN_21mic_H50_0430_fot_47A-06580_E_tif
  70
9
  66
1
  0
VERTEX
  8
PNOA-H_AMS_1956-57_33k_ES_PAN_21mic_H50_0430_fot_47A-06580_E_tif
  70
32
  10
428953.500
  20
4568072.000
  30
907.153
  0
VERTEX
  8
PNOA-H_AMS_1956-57_33k_ES_PAN_21mic_H50_0430_fot_47A-06580_E_tif
  70
32
  10
428446.859
  20
4568063.496
  30
912.887
  0
VERTEX
  8
PNOA-H_AMS_1956-57_33k_ES_PAN_21mic_H50_0430_fot_47A-06580_E_tif
  70
32
  10
428457.784
  20
4569174.613
  30
0
  0
VERTEX
  8
PNOA-H_AMS_1956-57_33k_ES_PAN_21mic_H50_0430_fot_47A-06580_E_tif
  70
32
  10
428480.534
  20
4571487.458
  30
0
  0
VERTEX
  8
PNOA-H_AMS_1956-57_33k_ES_PAN_21mic_H50_0430_fot_47A-06580_E_tif
  70
32
  10
428487.434
  20
4572188.628
  30
894.945
  0
VERTEX
  8
PNOA-H_AMS_1956-57_33k_ES_PAN_21mic_H50_0430_fot_47A-06580_E_tif
  70
32
  10
428487.434
  20
4572188.660
  30
894.944
  0
VERTEX
  8
PNOA-H_AMS_1956-57_33k_ES_PAN_21mic_H50_0430_fot_47A-06580_E_tif
  70
32
  10
428738.658
  20
4572173.335
  30
888.674
  0
VERTEX
  8
PNOA-H_AMS_1956-57_33k_ES_PAN_21mic_H50_0430_fot_47A-06580_E_tif
  70
32
  10
428842.500
  20
4572167.000
  30
886.082
  0
VERTEX
  8
PNOA-H_AMS_1956-57_33k_ES_PAN_21mic_H50_0430_fot_47A-06580_E_tif
  70
32
  10
428860.500
  20
4572166.000
  30
880.488
  0
VERTEX
  8
PNOA-H_AMS_1956-57_33k_ES_PAN_21mic_H50_0430_fot_47A-06580_E_tif
  70
32
  10
429033.490
  20
4572155.501
  30
878.841
  0
VERTEX
  8
PNOA-H_AMS_1956-57_33k_ES_PAN_21mic_H50_0430_fot_47A-06580_E_tif
  70
32
  10
429033.500
  20
4572155.500
  30
878.841
  0
VERTEX
  8
PNOA-H_AMS_1956-57_33k_ES_PAN_21mic_H50_0430_fot_47A-06580_E_tif
  70
32
  10
428953.500
  20
4568072.000
  30
907.153
  0
SEQEND
  8
PNOA-H_AMS_1956-57_33k_ES_PAN_21mic_H50_0430_fot_47A-06580_E_tif
  0
INSERT
  8
FeatureAttribs
  2
FEATURE
  41
1
  42
1
  43
1
  50
0
  10
430371.946
  20
4570426.250
 66
1
  0
ATTRIB
  8
FeatureAttribs
 70
0
  1
PNOA-H_AMS_1956-57_33k_ES_PAN_21mic_H50_0431_fot_47A-06581_E.tif
  2
NAME
  10
430371.946
  20
4570426.250
 40
33.69203
  0
SEQEND
  0
POLYLINE
  8
PNOA-H_AMS_1956-57_33k_ES_PAN_21mic_H50_0431_fot_47A-06581_E_tif
  70
9
  66
1
  0
VERTEX
  8
PNOA-H_AMS_1956-57_33k_ES_PAN_21mic_H50_0431_fot_47A-06581_E_tif
  70
32
  10
431739.500
  20
4568100.000
  30
969.696
  0
VERTEX
  8
PNOA-H_AMS_1956-57_33k_ES_PAN_21mic_H50_0431_fot_47A-06581_E_tif
  70
32
  10
429073.500
  20
4567999.500
  30
920.031
  0
VERTEX
  8
PNOA-H_AMS_1956-57_33k_ES_PAN_21mic_H50_0431_fot_47A-06581_E_tif
  70
32
  10
429071.010
  20
4567999.500
  30
920.28
  0
VERTEX
  8
PNOA-H_AMS_1956-57_33k_ES_PAN_21mic_H50_0431_fot_47A-06581_E_tif
  70
32
  10
429071.000
  20
4567999.500
  30
920.281
  0
VERTEX
  8
PNOA-H_AMS_1956-57_33k_ES_PAN_21mic_H50_0431_fot_47A-06581_E_tif
  70
32
  10
429065.000
  20
4568003.000
  30
920.683
  0
VERTEX
  8
PNOA-H_AMS_1956-57_33k_ES_PAN_21mic_H50_0431_fot_47A-06581_E_tif
  70
32
  10
428953.526
  20
4568071.984
  30
907.156
  0
VERTEX
  8
PNOA-H_AMS_1956-57_33k_ES_PAN_21mic_H50_0431_fot_47A-06581_E_tif
  70
32
  10
428953.500
  20
4568072.000
  30
907.153
  0
VERTEX
  8
PNOA-H_AMS_1956-57_33k_ES_PAN_21mic_H50_0431_fot_47A-06581_E_tif
  70
32
  10
429033.490
  20
4572155.501
  30
878.861
  0
VERTEX
  8
PNOA-H_AMS_1956-57_33k_ES_PAN_21mic_H50_0431_fot_47A-06581_E_tif
  70
32
  10
429033.500
  20
4572156.000
  30
878.857
  0
VERTEX
  8
PNOA-H_AMS_1956-57_33k_ES_PAN_21mic_H50_0431_fot_47A-06581_E_tif
  70
32
  10
429878.000
  20
4572684.000
  30
1011.942
  0
VERTEX
  8
PNOA-H_AMS_1956-57_33k_ES_PAN_21mic_H50_0431_fot_47A-06581_E_tif
  70
32
  10
429878.194
  20
4572684.041
  30
1011.94
  0
VERTEX
  8
PNOA-H_AMS_1956-57_33k_ES_PAN_21mic_H50_0431_fot_47A-06581_E_tif
  70
32
  10
429879.308
  20
4572684.277
  30
1011.931
  0
VERTEX
  8
PNOA-H_AMS_1956-57_33k_ES_PAN_21mic_H50_0431_fot_47A-06581_E_tif
  70
32
  10
430536.500
  20
4572823.500
  30
1006.498
  0
VERTEX
  8
PNOA-H_AMS_1956-57_33k_ES_PAN_21mic_H50_0431_fot_47A-06581_E_tif
  70
32
  10
430538.500
  20
4572824.000
  30
1006.571
  0
VERTEX
  8
PNOA-H_AMS_1956-57_33k_ES_PAN_21mic_H50_0431_fot_47A-06581_E_tif
  70
32
  10
430639.590
  20
4572844.866
  30
1016.517
  0
VERTEX
  8
PNOA-H_AMS_1956-57_33k_ES_PAN_21mic_H50_0431_fot_47A-06581_E_tif
  70
32
  10
430678.375
  20
4572852.871
  30
1020.333
  0
VERTEX
  8
PNOA-H_AMS_1956-57_33k_ES_PAN_21mic_H50_0431_fot_47A-06581_E_tif
  70
32
  10
430679.000
  20
4572853.000
  30
1020.395
  0
VERTEX
  8
PNOA-H_AMS_1956-57_33k_ES_PAN_21mic_H50_0431_fot_47A-06581_E_tif
  70
32
  10
431748.500
  20
4572484.000
  30
1018.881
  0
VERTEX
  8
PNOA-H_AMS_1956-57_33k_ES_PAN_21mic_H50_0431_fot_47A-06581_E_tif
  70
32
  10
431739.500
  20
4568100.000
  30
969.696
  0
SEQEND
  8
PNOA-H_AMS_1956-57_33k_ES_PAN_21mic_H50_0431_fot_47A-06581_E_tif
  0
INSERT
  8
FeatureAttribs
  2
FEATURE
  41
1
  42
1
  43
1
  50
0
  10
428932.877
  20
4573483.407
 66
1
  0
ATTRIB
  8
FeatureAttribs
 70
0
  1
PNOA-H_AMS_1956-57_33k_ES_PAN_21mic_H50_0430_fot_46A-10378_E.tif
  2
NAME
  10
428932.877
  20
4573483.407
 40
33.69203
  0
SEQEND
  0
POLYLINE
  8
PNOA-H_AMS_1956-57_33k_ES_PAN_21mic_H50_0430_fot_46A-10378_E_tif
  70
9
  66
1
  0
VERTEX
  8
PNOA-H_AMS_1956-57_33k_ES_PAN_21mic_H50_0430_fot_46A-10378_E_tif
  70
32
  10
429877.500
  20
4572683.000
  30
1011.876
  0
VERTEX
  8
PNOA-H_AMS_1956-57_33k_ES_PAN_21mic_H50_0430_fot_46A-10378_E_tif
  70
32
  10
429033.500
  20
4572155.500
  30
878.841
  0
VERTEX
  8
PNOA-H_AMS_1956-57_33k_ES_PAN_21mic_H50_0430_fot_46A-10378_E_tif
  70
32
  10
429033.490
  20
4572155.501
  30
878.841
  0
VERTEX
  8
PNOA-H_AMS_1956-57_33k_ES_PAN_21mic_H50_0430_fot_46A-10378_E_tif
  70
32
  10
428860.500
  20
4572166.000
  30
880.488
  0
VERTEX
  8
PNOA-H_AMS_1956-57_33k_ES_PAN_21mic_H50_0430_fot_46A-10378_E_tif
  70
32
  10
428834.500
  20
4572167.500
  30
890.822
  0
VERTEX
  8
PNOA-H_AMS_1956-57_33k_ES_PAN_21mic_H50_0430_fot_46A-10378_E_tif
  70
32
  10
428738.658
  20
4572173.335
  30
893.02
  0
VERTEX
  8
PNOA-H_AMS_1956-57_33k_ES_PAN_21mic_H50_0430_fot_46A-10378_E_tif
  70
32
  10
428487.434
  20
4572188.628
  30
898.783
  0
VERTEX
  8
PNOA-H_AMS_1956-57_33k_ES_PAN_21mic_H50_0430_fot_46A-10378_E_tif
  70
32
  10
428487.434
  20
4572188.660
  30
0
  0
VERTEX
  8
PNOA-H_AMS_1956-57_33k_ES_PAN_21mic_H50_0430_fot_46A-10378_E_tif
  70
32
  10
428503.294
  20
4573800.311
  30
0
  0
VERTEX
  8
PNOA-H_AMS_1956-57_33k_ES_PAN_21mic_H50_0430_fot_46A-10378_E_tif
  70
32
  10
428513.237
  20
4574810.318
  30
0
  0
VERTEX
  8
PNOA-H_AMS_1956-57_33k_ES_PAN_21mic_H50_0430_fot_46A-10378_E_tif
  70
32
  10
428513.246
  20
4574811.313
  30
1015.554
  0
VERTEX
  8
PNOA-H_AMS_1956-57_33k_ES_PAN_21mic_H50_0430_fot_46A-10378_E_tif
  70
32
  10
429862.000
  20
4572710.000
  30
1014.125
  0
VERTEX
  8
PNOA-H_AMS_1956-57_33k_ES_PAN_21mic_H50_0430_fot_46A-10378_E_tif
  70
32
  10
429862.000
  20
4572709.041
  30
1014.066
  0
VERTEX
  8
PNOA-H_AMS_1956-57_33k_ES_PAN_21mic_H50_0430_fot_46A-10378_E_tif
  70
32
  10
429862.000
  20
4572709.000
  30
1014.064
  0
VERTEX
  8
PNOA-H_AMS_1956-57_33k_ES_PAN_21mic_H50_0430_fot_46A-10378_E_tif
  70
32
  10
429862.617
  20
4572708.084
  30
1013.985
  0
VERTEX
  8
PNOA-H_AMS_1956-57_33k_ES_PAN_21mic_H50_0430_fot_46A-10378_E_tif
  70
32
  10
429878.408
  20
4572684.637
  30
1011.976
  0
VERTEX
  8
PNOA-H_AMS_1956-57_33k_ES_PAN_21mic_H50_0430_fot_46A-10378_E_tif
  70
32
  10
429878.500
  20
4572684.500
  30
1011.965
  0
VERTEX
  8
PNOA-H_AMS_1956-57_33k_ES_PAN_21mic_H50_0430_fot_46A-10378_E_tif
  70
32
  10
429878.194
  20
4572684.041
  30
1011.938
  0
VERTEX
  8
PNOA-H_AMS_1956-57_33k_ES_PAN_21mic_H50_0430_fot_46A-10378_E_tif
  70
32
  10
429877.500
  20
4572683.000
  30
1011.876
  0
SEQEND
  8
PNOA-H_AMS_1956-57_33k_ES_PAN_21mic_H50_0430_fot_46A-10378_E_tif
  0
INSERT
  8
FeatureAttribs
  2
FEATURE
  41
1
  42
1
  43
1
  50
0
  10
436225.877
  20
4565744.000
 66
1
  0
ATTRIB
  8
FeatureAttribs
 70
0
  1
PNOA-H_AMS_1956-57_33k_ES_PAN_21mic_H50_0431_fot_48C-22149_W.tif
  2
NAME
  10
436225.877
  20
4565744.000
 40
33.69203
  0
SEQEND
  0
POLYLINE
  8
PNOA-H_AMS_1956-57_33k_ES_PAN_21mic_H50_0431_fot_48C-22149_W_tif
  70
9
  66
1
  0
VERTEX
  8
PNOA-H_AMS_1956-57_33k_ES_PAN_21mic_H50_0431_fot_48C-22149_W_tif
  70
32
  10
436892.800
  20
4563186.200
  30
1040.353
  0
VERTEX
  8
PNOA-H_AMS_1956-57_33k_ES_PAN_21mic_H50_0431_fot_48C-22149_W_tif
  70
32
  10
436892.000
  20
4563186.000
  30
1040.314
  0
VERTEX
  8
PNOA-H_AMS_1956-57_33k_ES_PAN_21mic_H50_0431_fot_48C-22149_W_tif
  70
32
  10
434873.500
  20
4563522.500
  30
1001.515
  0
VERTEX
  8
PNOA-H_AMS_1956-57_33k_ES_PAN_21mic_H50_0431_fot_48C-22149_W_tif
  70
32
  10
434873.461
  20
4563522.986
  30
1001.48
  0
VERTEX
  8
PNOA-H_AMS_1956-57_33k_ES_PAN_21mic_H50_0431_fot_48C-22149_W_tif
  70
32
  10
434872.899
  20
4563530.009
  30
1000.978
  0
VERTEX
  8
PNOA-H_AMS_1956-57_33k_ES_PAN_21mic_H50_0431_fot_48C-22149_W_tif
  70
32
  10
434872.500
  20
4563535.000
  30
1000.622
  0
VERTEX
  8
PNOA-H_AMS_1956-57_33k_ES_PAN_21mic_H50_0431_fot_48C-22149_W_tif
  70
32
  10
434811.500
  20
4567803.000
  30
982.425
  0
VERTEX
  8
PNOA-H_AMS_1956-57_33k_ES_PAN_21mic_H50_0431_fot_48C-22149_W_tif
  70
32
  10
434811.941
  20
4567803.140
  30
982.43
  0
VERTEX
  8
PNOA-H_AMS_1956-57_33k_ES_PAN_21mic_H50_0431_fot_48C-22149_W_tif
  70
32
  10
436386.500
  20
4568302.000
  30
996.793
  0
VERTEX
  8
PNOA-H_AMS_1956-57_33k_ES_PAN_21mic_H50_0431_fot_48C-22149_W_tif
  70
32
  10
436386.987
  20
4568301.838
  30
996.743
  0
VERTEX
  8
PNOA-H_AMS_1956-57_33k_ES_PAN_21mic_H50_0431_fot_48C-22149_W_tif
  70
32
  10
436391.205
  20
4568300.432
  30
996.308
  0
VERTEX
  8
PNOA-H_AMS_1956-57_33k_ES_PAN_21mic_H50_0431_fot_48C-22149_W_tif
  70
32
  10
436397.000
  20
4568298.500
  30
995.711
  0
VERTEX
  8
PNOA-H_AMS_1956-57_33k_ES_PAN_21mic_H50_0431_fot_48C-22149_W_tif
  70
32
  10
436627.027
  20
4568200.608
  30
984.631
  0
VERTEX
  8
PNOA-H_AMS_1956-57_33k_ES_PAN_21mic_H50_0431_fot_48C-22149_W_tif
  70
32
  10
436682.500
  20
4568177.000
  30
981.959
  0
VERTEX
  8
PNOA-H_AMS_1956-57_33k_ES_PAN_21mic_H50_0431_fot_48C-22149_W_tif
  70
32
  10
436683.898
  20
4568176.534
  30
981.905
  0
VERTEX
  8
PNOA-H_AMS_1956-57_33k_ES_PAN_21mic_H50_0431_fot_48C-22149_W_tif
  70
32
  10
436684.000
  20
4568176.500
  30
981.901
  0
VERTEX
  8
PNOA-H_AMS_1956-57_33k_ES_PAN_21mic_H50_0431_fot_48C-22149_W_tif
  70
32
  10
437582.653
  20
4567796.569
  30
974.592
  0
VERTEX
  8
PNOA-H_AMS_1956-57_33k_ES_PAN_21mic_H50_0431_fot_48C-22149_W_tif
  70
32
  10
437584.000
  20
4567796.000
  30
974.581
  0
VERTEX
  8
PNOA-H_AMS_1956-57_33k_ES_PAN_21mic_H50_0431_fot_48C-22149_W_tif
  70
32
  10
437640.500
  20
4563474.000
  30
1040.554
  0
VERTEX
  8
PNOA-H_AMS_1956-57_33k_ES_PAN_21mic_H50_0431_fot_48C-22149_W_tif
  70
32
  10
437640.117
  20
4563473.852
  30
1040.554
  0
VERTEX
  8
PNOA-H_AMS_1956-57_33k_ES_PAN_21mic_H50_0431_fot_48C-22149_W_tif
  70
32
  10
436900.000
  20
4563188.000
  30
1040.697
  0
VERTEX
  8
PNOA-H_AMS_1956-57_33k_ES_PAN_21mic_H50_0431_fot_48C-22149_W_tif
  70
32
  10
436895.418
  20
4563186.855
  30
1040.478
  0
VERTEX
  8
PNOA-H_AMS_1956-57_33k_ES_PAN_21mic_H50_0431_fot_48C-22149_W_tif
  70
32
  10
436892.800
  20
4563186.200
  30
1040.353
  0
SEQEND
  8
PNOA-H_AMS_1956-57_33k_ES_PAN_21mic_H50_0431_fot_48C-22149_W_tif
  0
INSERT
  8
FeatureAttribs
  2
FEATURE
  41
1
  42
1
  43
1
  50
0
  10
428770.581
  20
4565673.565
 66
1
  0
ATTRIB
  8
FeatureAttribs
 70
0
  1
PNOA-H_AMS_1956-57_33k_ES_PAN_21mic_H50_0431_fot_48C-22152_W.tif
  2
NAME
  10
428770.581
  20
4565673.565
 40
33.69203
  0
SEQEND
  0
POLYLINE
  8
PNOA-H_AMS_1956-57_33k_ES_PAN_21mic_H50_0431_fot_48C-22152_W_tif
  70
9
  66
1
  0
VERTEX
  8
PNOA-H_AMS_1956-57_33k_ES_PAN_21mic_H50_0431_fot_48C-22152_W_tif
  70
32
  10
428798.261
  20
4563432.570
  30
997.769
  0
VERTEX
  8
PNOA-H_AMS_1956-57_33k_ES_PAN_21mic_H50_0431_fot_48C-22152_W_tif
  70
32
  10
428399.798
  20
4563275.130
  30
1010.744
  0
VERTEX
  8
PNOA-H_AMS_1956-57_33k_ES_PAN_21mic_H50_0431_fot_48C-22152_W_tif
  70
32
  10
428399.803
  20
4563275.593
  30
0
  0
VERTEX
  8
PNOA-H_AMS_1956-57_33k_ES_PAN_21mic_H50_0431_fot_48C-22152_W_tif
  70
32
  10
428412.312
  20
4564548.948
  30
0
  0
VERTEX
  8
PNOA-H_AMS_1956-57_33k_ES_PAN_21mic_H50_0431_fot_48C-22152_W_tif
  70
32
  10
428435.043
  20
4566861.777
  30
0
  0
VERTEX
  8
PNOA-H_AMS_1956-57_33k_ES_PAN_21mic_H50_0431_fot_48C-22152_W_tif
  70
32
  10
428446.859
  20
4568063.488
  30
912.834
  0
VERTEX
  8
PNOA-H_AMS_1956-57_33k_ES_PAN_21mic_H50_0431_fot_48C-22152_W_tif
  70
32
  10
428953.526
  20
4568071.984
  30
907.114
  0
VERTEX
  8
PNOA-H_AMS_1956-57_33k_ES_PAN_21mic_H50_0431_fot_48C-22152_W_tif
  70
32
  10
428954.500
  20
4568072.000
  30
907.103
  0
VERTEX
  8
PNOA-H_AMS_1956-57_33k_ES_PAN_21mic_H50_0431_fot_48C-22152_W_tif
  70
32
  10
429071.000
  20
4568000.000
  30
920.266
  0
VERTEX
  8
PNOA-H_AMS_1956-57_33k_ES_PAN_21mic_H50_0431_fot_48C-22152_W_tif
  70
32
  10
429071.010
  20
4567999.500
  30
920.273
  0
VERTEX
  8
PNOA-H_AMS_1956-57_33k_ES_PAN_21mic_H50_0431_fot_48C-22152_W_tif
  70
32
  10
429160.000
  20
4563575.500
  30
985.99
  0
VERTEX
  8
PNOA-H_AMS_1956-57_33k_ES_PAN_21mic_H50_0431_fot_48C-22152_W_tif
  70
32
  10
428798.261
  20
4563432.570
  30
997.769
  0
SEQEND
  8
PNOA-H_AMS_1956-57_33k_ES_PAN_21mic_H50_0431_fot_48C-22152_W_tif
  0
INSERT
  8
FeatureAttribs
  2
FEATURE
  41
1
  42
1
  43
1
  50
0
  10
430559.670
  20
4565660.750
 66
1
  0
ATTRIB
  8
FeatureAttribs
 70
0
  1
PNOA-H_AMS_1956-57_33k_ES_PAN_21mic_H50_0431_fot_48C-22151_W.tif
  2
NAME
  10
430559.670
  20
4565660.750
 40
33.69203
  0
SEQEND
  0
POLYLINE
  8
PNOA-H_AMS_1956-57_33k_ES_PAN_21mic_H50_0431_fot_48C-22151_W_tif
  70
9
  66
1
  0
VERTEX
  8
PNOA-H_AMS_1956-57_33k_ES_PAN_21mic_H50_0431_fot_48C-22151_W_tif
  70
32
  10
432035.680
  20
4563570.875
  30
993.928
  0
VERTEX
  8
PNOA-H_AMS_1956-57_33k_ES_PAN_21mic_H50_0431_fot_48C-22151_W_tif
  70
32
  10
431140.500
  20
4563221.500
  30
983.279
  0
VERTEX
  8
PNOA-H_AMS_1956-57_33k_ES_PAN_21mic_H50_0431_fot_48C-22151_W_tif
  70
32
  10
431140.157
  20
4563221.561
  30
983.279
  0
VERTEX
  8
PNOA-H_AMS_1956-57_33k_ES_PAN_21mic_H50_0431_fot_48C-22151_W_tif
  70
32
  10
430480.333
  20
4563339.500
  30
984.183
  0
VERTEX
  8
PNOA-H_AMS_1956-57_33k_ES_PAN_21mic_H50_0431_fot_48C-22151_W_tif
  70
32
  10
429160.688
  20
4563575.377
  30
985.99
  0
VERTEX
  8
PNOA-H_AMS_1956-57_33k_ES_PAN_21mic_H50_0431_fot_48C-22151_W_tif
  70
32
  10
429160.000
  20
4563575.500
  30
985.99
  0
VERTEX
  8
PNOA-H_AMS_1956-57_33k_ES_PAN_21mic_H50_0431_fot_48C-22151_W_tif
  70
32
  10
429071.000
  20
4567999.500
  30
920.281
  0
VERTEX
  8
PNOA-H_AMS_1956-57_33k_ES_PAN_21mic_H50_0431_fot_48C-22151_W_tif
  70
32
  10
429071.010
  20
4567999.500
  30
920.281
  0
VERTEX
  8
PNOA-H_AMS_1956-57_33k_ES_PAN_21mic_H50_0431_fot_48C-22151_W_tif
  70
32
  10
431714.000
  20
4568099.500
  30
971.027
  0
VERTEX
  8
PNOA-H_AMS_1956-57_33k_ES_PAN_21mic_H50_0431_fot_48C-22151_W_tif
  70
32
  10
431727.500
  20
4568100.000
  30
970.369
  0
VERTEX
  8
PNOA-H_AMS_1956-57_33k_ES_PAN_21mic_H50_0431_fot_48C-22151_W_tif
  70
32
  10
431739.500
  20
4568100.000
  30
969.689
  0
VERTEX
  8
PNOA-H_AMS_1956-57_33k_ES_PAN_21mic_H50_0431_fot_48C-22151_W_tif
  70
32
  10
431740.000
  20
4568100.000
  30
969.661
  0
VERTEX
  8
PNOA-H_AMS_1956-57_33k_ES_PAN_21mic_H50_0431_fot_48C-22151_W_tif
  70
32
  10
431742.000
  20
4568099.000
  30
969.628
  0
VERTEX
  8
PNOA-H_AMS_1956-57_33k_ES_PAN_21mic_H50_0431_fot_48C-22151_W_tif
  70
32
  10
431963.000
  20
4567966.000
  30
936.549
  0
VERTEX
  8
PNOA-H_AMS_1956-57_33k_ES_PAN_21mic_H50_0431_fot_48C-22151_W_tif
  70
32
  10
431963.003
  20
4567965.798
  30
936.551
  0
VERTEX
  8
PNOA-H_AMS_1956-57_33k_ES_PAN_21mic_H50_0431_fot_48C-22151_W_tif
  70
32
  10
431963.008
  20
4567965.501
  30
936.555
  0
VERTEX
  8
PNOA-H_AMS_1956-57_33k_ES_PAN_21mic_H50_0431_fot_48C-22151_W_tif
  70
32
  10
432036.000
  20
4563571.000
  30
993.932
  0
VERTEX
  8
PNOA-H_AMS_1956-57_33k_ES_PAN_21mic_H50_0431_fot_48C-22151_W_tif
  70
32
  10
432035.680
  20
4563570.875
  30
993.928
  0
SEQEND
  8
PNOA-H_AMS_1956-57_33k_ES_PAN_21mic_H50_0431_fot_48C-22151_W_tif
  0
INSERT
  8
FeatureAttribs
  2
FEATURE
  41
1
  42
1
  43
1
  50
0
  10
433421.695
  20
4565666.500
 66
1
  0
ATTRIB
  8
FeatureAttribs
 70
0
  1
PNOA-H_AMS_1956-57_33k_ES_PAN_21mic_H50_0431_fot_48C-22150_W.tif
  2
NAME
  10
433421.695
  20
4565666.500
 40
33.69203
  0
SEQEND
  0
POLYLINE
  8
PNOA-H_AMS_1956-57_33k_ES_PAN_21mic_H50_0431_fot_48C-22150_W_tif
  70
9
  66
1
  0
VERTEX
  8
PNOA-H_AMS_1956-57_33k_ES_PAN_21mic_H50_0431_fot_48C-22150_W_tif
  70
32
  10
434741.653
  20
4563475.458
  30
1003.78
  0
VERTEX
  8
PNOA-H_AMS_1956-57_33k_ES_PAN_21mic_H50_0431_fot_48C-22150_W_tif
  70
32
  10
434005.500
  20
4563209.000
  30
1017.542
  0
VERTEX
  8
PNOA-H_AMS_1956-57_33k_ES_PAN_21mic_H50_0431_fot_48C-22150_W_tif
  70
32
  10
434004.837
  20
4563209.122
  30
1017.534
  0
VERTEX
  8
PNOA-H_AMS_1956-57_33k_ES_PAN_21mic_H50_0431_fot_48C-22150_W_tif
  70
32
  10
432036.000
  20
4563571.000
  30
993.932
  0
VERTEX
  8
PNOA-H_AMS_1956-57_33k_ES_PAN_21mic_H50_0431_fot_48C-22150_W_tif
  70
32
  10
431963.000
  20
4567965.500
  30
936.079
  0
VERTEX
  8
PNOA-H_AMS_1956-57_33k_ES_PAN_21mic_H50_0431_fot_48C-22150_W_tif
  70
32
  10
431963.008
  20
4567965.501
  30
936.079
  0
VERTEX
  8
PNOA-H_AMS_1956-57_33k_ES_PAN_21mic_H50_0431_fot_48C-22150_W_tif
  70
32
  10
431963.440
  20
4567965.536
  30
936.115
  0
VERTEX
  8
PNOA-H_AMS_1956-57_33k_ES_PAN_21mic_H50_0431_fot_48C-22150_W_tif
  70
32
  10
432577.500
  20
4568016.000
  30
987.613
  0
VERTEX
  8
PNOA-H_AMS_1956-57_33k_ES_PAN_21mic_H50_0431_fot_48C-22150_W_tif
  70
32
  10
432583.500
  20
4568016.500
  30
987.872
  0
VERTEX
  8
PNOA-H_AMS_1956-57_33k_ES_PAN_21mic_H50_0431_fot_48C-22150_W_tif
  70
32
  10
433782.877
  20
4568113.992
  30
997.892
  0
VERTEX
  8
PNOA-H_AMS_1956-57_33k_ES_PAN_21mic_H50_0431_fot_48C-22150_W_tif
  70
32
  10
433905.593
  20
4568123.967
  30
998.917
  0
VERTEX
  8
PNOA-H_AMS_1956-57_33k_ES_PAN_21mic_H50_0431_fot_48C-22150_W_tif
  70
32
  10
433906.000
  20
4568124.000
  30
998.921
  0
VERTEX
  8
PNOA-H_AMS_1956-57_33k_ES_PAN_21mic_H50_0431_fot_48C-22150_W_tif
  70
32
  10
434809.108
  20
4567803.848
  30
982.469
  0
VERTEX
  8
PNOA-H_AMS_1956-57_33k_ES_PAN_21mic_H50_0431_fot_48C-22150_W_tif
  70
32
  10
434811.500
  20
4567803.000
  30
982.425
  0
VERTEX
  8
PNOA-H_AMS_1956-57_33k_ES_PAN_21mic_H50_0431_fot_48C-22150_W_tif
  70
32
  10
434872.899
  20
4563530.009
  30
1001.293
  0
VERTEX
  8
PNOA-H_AMS_1956-57_33k_ES_PAN_21mic_H50_0431_fot_48C-22150_W_tif
  70
32
  10
434873.000
  20
4563523.000
  30
1001.324
  0
VERTEX
  8
PNOA-H_AMS_1956-57_33k_ES_PAN_21mic_H50_0431_fot_48C-22150_W_tif
  70
32
  10
434741.653
  20
4563475.458
  30
1003.78
  0
SEQEND
  8
PNOA-H_AMS_1956-57_33k_ES_PAN_21mic_H50_0431_fot_48C-22150_W_tif
  0
INSERT
  8
FeatureAttribs
  2
FEATURE
  41
1
  42
1
  43
1
  50
0
  10
429731.694
  20
4561108.954
 66
1
  0
ATTRIB
  8
FeatureAttribs
 70
0
  1
PNOA-H_AMS_1956-57_33k_ES_PAN_21mic_H50_0431_fot_49C-11552_E.tif
  2
NAME
  10
429731.694
  20
4561108.954
 40
33.69203
  0
SEQEND
  0
POLYLINE
  8
PNOA-H_AMS_1956-57_33k_ES_PAN_21mic_H50_0431_fot_49C-11552_E_tif
  70
9
  66
1
  0
VERTEX
  8
PNOA-H_AMS_1956-57_33k_ES_PAN_21mic_H50_0431_fot_49C-11552_E_tif
  70
32
  10
430983.155
  20
4558680.445
  30
1072.452
  0
VERTEX
  8
PNOA-H_AMS_1956-57_33k_ES_PAN_21mic_H50_0431_fot_49C-11552_E_tif
  70
32
  10
428354.306
  20
4558642.408
  30
961.825
  0
VERTEX
  8
PNOA-H_AMS_1956-57_33k_ES_PAN_21mic_H50_0431_fot_49C-11552_E_tif
  70
32
  10
428354.309
  20
4558642.717
  30
0
  0
VERTEX
  8
PNOA-H_AMS_1956-57_33k_ES_PAN_21mic_H50_0431_fot_49C-11552_E_tif
  70
32
  10
428366.879
  20
4559923.316
  30
0
  0
VERTEX
  8
PNOA-H_AMS_1956-57_33k_ES_PAN_21mic_H50_0431_fot_49C-11552_E_tif
  70
32
  10
428389.591
  20
4562236.128
  30
0
  0
VERTEX
  8
PNOA-H_AMS_1956-57_33k_ES_PAN_21mic_H50_0431_fot_49C-11552_E_tif
  70
32
  10
428399.798
  20
4563275.130
  30
0
  0
VERTEX
  8
PNOA-H_AMS_1956-57_33k_ES_PAN_21mic_H50_0431_fot_49C-11552_E_tif
  70
32
  10
428399.803
  20
4563275.593
  30
1005.891
  0
VERTEX
  8
PNOA-H_AMS_1956-57_33k_ES_PAN_21mic_H50_0431_fot_49C-11552_E_tif
  70
32
  10
428489.500
  20
4563311.000
  30
998.651
  0
VERTEX
  8
PNOA-H_AMS_1956-57_33k_ES_PAN_21mic_H50_0431_fot_49C-11552_E_tif
  70
32
  10
428491.000
  20
4563311.500
  30
998.645
  0
VERTEX
  8
PNOA-H_AMS_1956-57_33k_ES_PAN_21mic_H50_0431_fot_49C-11552_E_tif
  70
32
  10
428798.261
  20
4563432.570
  30
992.811
  0
VERTEX
  8
PNOA-H_AMS_1956-57_33k_ES_PAN_21mic_H50_0431_fot_49C-11552_E_tif
  70
32
  10
429160.688
  20
4563575.377
  30
985.929
  0
VERTEX
  8
PNOA-H_AMS_1956-57_33k_ES_PAN_21mic_H50_0431_fot_49C-11552_E_tif
  70
32
  10
429161.000
  20
4563575.500
  30
985.924
  0
VERTEX
  8
PNOA-H_AMS_1956-57_33k_ES_PAN_21mic_H50_0431_fot_49C-11552_E_tif
  70
32
  10
430480.333
  20
4563339.500
  30
984.16
  0
VERTEX
  8
PNOA-H_AMS_1956-57_33k_ES_PAN_21mic_H50_0431_fot_49C-11552_E_tif
  70
32
  10
431140.000
  20
4563221.500
  30
983.279
  0
VERTEX
  8
PNOA-H_AMS_1956-57_33k_ES_PAN_21mic_H50_0431_fot_49C-11552_E_tif
  70
32
  10
431021.500
  20
4558681.000
  30
1074.066
  0
VERTEX
  8
PNOA-H_AMS_1956-57_33k_ES_PAN_21mic_H50_0431_fot_49C-11552_E_tif
  70
32
  10
430983.155
  20
4558680.445
  30
1072.452
  0
SEQEND
  8
PNOA-H_AMS_1956-57_33k_ES_PAN_21mic_H50_0431_fot_49C-11552_E_tif
  0
INSERT
  8
FeatureAttribs
  2
FEATURE
  41
1
  42
1
  43
1
  50
0
  10
432510.214
  20
4561058.750
 66
1
  0
ATTRIB
  8
FeatureAttribs
 70
0
  1
PNOA-H_AMS_1956-57_33k_ES_PAN_21mic_H50_0431_fot_49C-11553_E.tif
  2
NAME
  10
432510.214
  20
4561058.750
 40
33.69203
  0
SEQEND
  0
POLYLINE
  8
PNOA-H_AMS_1956-57_33k_ES_PAN_21mic_H50_0431_fot_49C-11553_E_tif
  70
9
  66
1
  0
VERTEX
  8
PNOA-H_AMS_1956-57_33k_ES_PAN_21mic_H50_0431_fot_49C-11553_E_tif
  70
32
  10
433801.134
  20
4558628.602
  30
1100.506
  0
VERTEX
  8
PNOA-H_AMS_1956-57_33k_ES_PAN_21mic_H50_0431_fot_49C-11553_E_tif
  70
32
  10
431233.000
  20
4558546.500
  30
1082.829
  0
VERTEX
  8
PNOA-H_AMS_1956-57_33k_ES_PAN_21mic_H50_0431_fot_49C-11553_E_tif
  70
32
  10
431232.989
  20
4558546.507
  30
1082.829
  0
VERTEX
  8
PNOA-H_AMS_1956-57_33k_ES_PAN_21mic_H50_0431_fot_49C-11553_E_tif
  70
32
  10
431021.511
  20
4558680.993
  30
1074.067
  0
VERTEX
  8
PNOA-H_AMS_1956-57_33k_ES_PAN_21mic_H50_0431_fot_49C-11553_E_tif
  70
32
  10
431021.500
  20
4558681.000
  30
1074.066
  0
VERTEX
  8
PNOA-H_AMS_1956-57_33k_ES_PAN_21mic_H50_0431_fot_49C-11553_E_tif
  70
32
  10
431140.000
  20
4563221.500
  30
983.279
  0
VERTEX
  8
PNOA-H_AMS_1956-57_33k_ES_PAN_21mic_H50_0431_fot_49C-11553_E_tif
  70
32
  10
431140.157
  20
4563221.561
  30
983.281
  0
VERTEX
  8
PNOA-H_AMS_1956-57_33k_ES_PAN_21mic_H50_0431_fot_49C-11553_E_tif
  70
32
  10
432035.000
  20
4563571.000
  30
993.938
  0
VERTEX
  8
PNOA-H_AMS_1956-57_33k_ES_PAN_21mic_H50_0431_fot_49C-11553_E_tif
  70
32
  10
432035.680
  20
4563570.875
  30
993.941
  0
VERTEX
  8
PNOA-H_AMS_1956-57_33k_ES_PAN_21mic_H50_0431_fot_49C-11553_E_tif
  70
32
  10
432585.000
  20
4563470.000
  30
996.399
  0
VERTEX
  8
PNOA-H_AMS_1956-57_33k_ES_PAN_21mic_H50_0431_fot_49C-11553_E_tif
  70
32
  10
432588.000
  20
4563469.500
  30
996.415
  0
VERTEX
  8
PNOA-H_AMS_1956-57_33k_ES_PAN_21mic_H50_0431_fot_49C-11553_E_tif
  70
32
  10
434004.500
  20
4563209.000
  30
1017.496
  0
VERTEX
  8
PNOA-H_AMS_1956-57_33k_ES_PAN_21mic_H50_0431_fot_49C-11553_E_tif
  70
32
  10
433860.500
  20
4558630.500
  30
1100.915
  0
VERTEX
  8
PNOA-H_AMS_1956-57_33k_ES_PAN_21mic_H50_0431_fot_49C-11553_E_tif
  70
32
  10
433801.134
  20
4558628.602
  30
1100.506
  0
SEQEND
  8
PNOA-H_AMS_1956-57_33k_ES_PAN_21mic_H50_0431_fot_49C-11553_E_tif
  0
INSERT
  8
FeatureAttribs
  2
FEATURE
  41
1
  42
1
  43
1
  50
0
  10
435377.167
  20
4560955.250
 66
1
  0
ATTRIB
  8
FeatureAttribs
 70
0
  1
PNOA-H_AMS_1956-57_33k_ES_PAN_21mic_H50_0431_fot_49C-11554_E.tif
  2
NAME
  10
435377.167
  20
4560955.250
 40
33.69203
  0
SEQEND
  0
POLYLINE
  8
PNOA-H_AMS_1956-57_33k_ES_PAN_21mic_H50_0431_fot_49C-11554_E_tif
  70
9
  66
1
  0
VERTEX
  8
PNOA-H_AMS_1956-57_33k_ES_PAN_21mic_H50_0431_fot_49C-11554_E_tif
  70
32
  10
436744.000
  20
4558620.000
  30
1117.759
  0
VERTEX
  8
PNOA-H_AMS_1956-57_33k_ES_PAN_21mic_H50_0431_fot_49C-11554_E_tif
  70
32
  10
434259.000
  20
4558387.500
  30
1121.428
  0
VERTEX
  8
PNOA-H_AMS_1956-57_33k_ES_PAN_21mic_H50_0431_fot_49C-11554_E_tif
  70
32
  10
434258.988
  20
4558387.507
  30
1121.428
  0
VERTEX
  8
PNOA-H_AMS_1956-57_33k_ES_PAN_21mic_H50_0431_fot_49C-11554_E_tif
  70
32
  10
433860.525
  20
4558630.485
  30
1100.916
  0
VERTEX
  8
PNOA-H_AMS_1956-57_33k_ES_PAN_21mic_H50_0431_fot_49C-11554_E_tif
  70
32
  10
433860.500
  20
4558630.500
  30
1100.915
  0
VERTEX
  8
PNOA-H_AMS_1956-57_33k_ES_PAN_21mic_H50_0431_fot_49C-11554_E_tif
  70
32
  10
434004.500
  20
4563209.000
  30
1017.496
  0
VERTEX
  8
PNOA-H_AMS_1956-57_33k_ES_PAN_21mic_H50_0431_fot_49C-11554_E_tif
  70
32
  10
434004.837
  20
4563209.122
  30
1017.487
  0
VERTEX
  8
PNOA-H_AMS_1956-57_33k_ES_PAN_21mic_H50_0431_fot_49C-11554_E_tif
  70
32
  10
434633.500
  20
4563436.500
  30
999.29
  0
VERTEX
  8
PNOA-H_AMS_1956-57_33k_ES_PAN_21mic_H50_0431_fot_49C-11554_E_tif
  70
32
  10
434635.000
  20
4563437.000
  30
999.07
  0
VERTEX
  8
PNOA-H_AMS_1956-57_33k_ES_PAN_21mic_H50_0431_fot_49C-11554_E_tif
  70
32
  10
434741.653
  20
4563475.458
  30
1000.161
  0
VERTEX
  8
PNOA-H_AMS_1956-57_33k_ES_PAN_21mic_H50_0431_fot_49C-11554_E_tif
  70
32
  10
434873.461
  20
4563522.986
  30
1001.508
  0
VERTEX
  8
PNOA-H_AMS_1956-57_33k_ES_PAN_21mic_H50_0431_fot_49C-11554_E_tif
  70
32
  10
434873.500
  20
4563523.000
  30
1001.508
  0
VERTEX
  8
PNOA-H_AMS_1956-57_33k_ES_PAN_21mic_H50_0431_fot_49C-11554_E_tif
  70
32
  10
436892.800
  20
4563186.200
  30
1040.384
  0
VERTEX
  8
PNOA-H_AMS_1956-57_33k_ES_PAN_21mic_H50_0431_fot_49C-11554_E_tif
  70
32
  10
436894.000
  20
4563186.000
  30
1040.407
  0
VERTEX
  8
PNOA-H_AMS_1956-57_33k_ES_PAN_21mic_H50_0431_fot_49C-11554_E_tif
  70
32
  10
436893.672
  20
4563176.009
  30
1040.576
  0
VERTEX
  8
PNOA-H_AMS_1956-57_33k_ES_PAN_21mic_H50_0431_fot_49C-11554_E_tif
  70
32
  10
436744.000
  20
4558620.000
  30
1117.759
  0
SEQEND
  8
PNOA-H_AMS_1956-57_33k_ES_PAN_21mic_H50_0431_fot_49C-11554_E_tif
  0
INSERT
  8
FeatureAttribs
  2
FEATURE
  41
1
  42
1
  43
1
  50
0
  10
432737.237
  20
4558092.859
 66
1
  0
ATTRIB
  8
FeatureAttribs
 70
0
  1
PNOA-H_AMS_1956-57_33k_ES_PAN_21mic_H50_0458_fot_50D-22090_E.tif
  2
NAME
  10
432737.237
  20
4558092.859
 40
33.69203
  0
SEQEND
  0
POLYLINE
  8
PNOA-H_AMS_1956-57_33k_ES_PAN_21mic_H50_0458_fot_50D-22090_E_tif
  70
9
  66
1
  0
VERTEX
  8
PNOA-H_AMS_1956-57_33k_ES_PAN_21mic_H50_0458_fot_50D-22090_E_tif
  70
32
  10
434256.424
  20
4558279.122
  30
1121.619
  0
VERTEX
  8
PNOA-H_AMS_1956-57_33k_ES_PAN_21mic_H50_0458_fot_50D-22090_E_tif
  70
32
  10
434239.300
  20
4557555.218
  30
1122.652
  0
VERTEX
  8
PNOA-H_AMS_1956-57_33k_ES_PAN_21mic_H50_0458_fot_50D-22090_E_tif
  70
32
  10
434239.221
  20
4557555.219
  30
1122.665
  0
VERTEX
  8
PNOA-H_AMS_1956-57_33k_ES_PAN_21mic_H50_0458_fot_50D-22090_E_tif
  70
32
  10
431839.615
  20
4557577.045
  30
0
  0
VERTEX
  8
PNOA-H_AMS_1956-57_33k_ES_PAN_21mic_H50_0458_fot_50D-22090_E_tif
  70
32
  10
431210.674
  20
4557583.067
  30
0
  0
VERTEX
  8
PNOA-H_AMS_1956-57_33k_ES_PAN_21mic_H50_0458_fot_50D-22090_E_tif
  70
32
  10
431210.605
  20
4557583.068
  30
1059.876
  0
VERTEX
  8
PNOA-H_AMS_1956-57_33k_ES_PAN_21mic_H50_0458_fot_50D-22090_E_tif
  70
32
  10
431229.786
  20
4558408.212
  30
1079.535
  0
VERTEX
  8
PNOA-H_AMS_1956-57_33k_ES_PAN_21mic_H50_0458_fot_50D-22090_E_tif
  70
32
  10
431233.000
  20
4558546.500
  30
1082.829
  0
VERTEX
  8
PNOA-H_AMS_1956-57_33k_ES_PAN_21mic_H50_0458_fot_50D-22090_E_tif
  70
32
  10
432567.500
  20
4558589.500
  30
1072.414
  0
VERTEX
  8
PNOA-H_AMS_1956-57_33k_ES_PAN_21mic_H50_0458_fot_50D-22090_E_tif
  70
32
  10
432583.500
  20
4558590.000
  30
1072.741
  0
VERTEX
  8
PNOA-H_AMS_1956-57_33k_ES_PAN_21mic_H50_0458_fot_50D-22090_E_tif
  70
32
  10
433801.134
  20
4558628.602
  30
1099.602
  0
VERTEX
  8
PNOA-H_AMS_1956-57_33k_ES_PAN_21mic_H50_0458_fot_50D-22090_E_tif
  70
32
  10
433860.525
  20
4558630.485
  30
1100.912
  0
VERTEX
  8
PNOA-H_AMS_1956-57_33k_ES_PAN_21mic_H50_0458_fot_50D-22090_E_tif
  70
32
  10
433861.000
  20
4558630.500
  30
1100.923
  0
VERTEX
  8
PNOA-H_AMS_1956-57_33k_ES_PAN_21mic_H50_0458_fot_50D-22090_E_tif
  70
32
  10
434259.000
  20
4558388.000
  30
1121.464
  0
VERTEX
  8
PNOA-H_AMS_1956-57_33k_ES_PAN_21mic_H50_0458_fot_50D-22090_E_tif
  70
32
  10
434258.988
  20
4558387.507
  30
1121.465
  0
VERTEX
  8
PNOA-H_AMS_1956-57_33k_ES_PAN_21mic_H50_0458_fot_50D-22090_E_tif
  70
32
  10
434256.424
  20
4558279.122
  30
1121.619
  0
SEQEND
  8
PNOA-H_AMS_1956-57_33k_ES_PAN_21mic_H50_0458_fot_50D-22090_E_tif
  0
INSERT
  8
FeatureAttribs
  2
FEATURE
  41
1
  42
1
  43
1
  50
0
  10
429786.342
  20
4558132.034
 66
1
  0
ATTRIB
  8
FeatureAttribs
 70
0
  1
PNOA-H_AMS_1956-57_33k_ES_PAN_21mic_H50_0458_fot_50D-22089_E.tif
  2
NAME
  10
429786.342
  20
4558132.034
 40
33.69203
  0
SEQEND
  0
POLYLINE
  8
PNOA-H_AMS_1956-57_33k_ES_PAN_21mic_H50_0458_fot_50D-22089_E_tif
  70
9
  66
1
  0
VERTEX
  8
PNOA-H_AMS_1956-57_33k_ES_PAN_21mic_H50_0458_fot_50D-22089_E_tif
  70
32
  10
431229.786
  20
4558408.212
  30
1079.46
  0
VERTEX
  8
PNOA-H_AMS_1956-57_33k_ES_PAN_21mic_H50_0458_fot_50D-22089_E_tif
  70
32
  10
431210.674
  20
4557583.067
  30
1059.426
  0
VERTEX
  8
PNOA-H_AMS_1956-57_33k_ES_PAN_21mic_H50_0458_fot_50D-22089_E_tif
  70
32
  10
431210.605
  20
4557583.068
  30
0
  0
VERTEX
  8
PNOA-H_AMS_1956-57_33k_ES_PAN_21mic_H50_0458_fot_50D-22089_E_tif
  70
32
  10
428344.176
  20
4557610.513
  30
0
  0
VERTEX
  8
PNOA-H_AMS_1956-57_33k_ES_PAN_21mic_H50_0458_fot_50D-22089_E_tif
  70
32
  10
428354.306
  20
4558642.408
  30
0
  0
VERTEX
  8
PNOA-H_AMS_1956-57_33k_ES_PAN_21mic_H50_0458_fot_50D-22089_E_tif
  70
32
  10
428354.309
  20
4558642.717
  30
974.843
  0
VERTEX
  8
PNOA-H_AMS_1956-57_33k_ES_PAN_21mic_H50_0458_fot_50D-22089_E_tif
  70
32
  10
428431.500
  20
4558644.000
  30
990.118
  0
VERTEX
  8
PNOA-H_AMS_1956-57_33k_ES_PAN_21mic_H50_0458_fot_50D-22089_E_tif
  70
32
  10
428466.500
  20
4558644.500
  30
994.887
  0
VERTEX
  8
PNOA-H_AMS_1956-57_33k_ES_PAN_21mic_H50_0458_fot_50D-22089_E_tif
  70
32
  10
430983.155
  20
4558680.445
  30
1072.873
  0
VERTEX
  8
PNOA-H_AMS_1956-57_33k_ES_PAN_21mic_H50_0458_fot_50D-22089_E_tif
  70
32
  10
431021.511
  20
4558680.993
  30
1074.061
  0
VERTEX
  8
PNOA-H_AMS_1956-57_33k_ES_PAN_21mic_H50_0458_fot_50D-22089_E_tif
  70
32
  10
431022.000
  20
4558681.000
  30
1074.076
  0
VERTEX
  8
PNOA-H_AMS_1956-57_33k_ES_PAN_21mic_H50_0458_fot_50D-22089_E_tif
  70
32
  10
431233.000
  20
4558547.000
  30
1082.83
  0
VERTEX
  8
PNOA-H_AMS_1956-57_33k_ES_PAN_21mic_H50_0458_fot_50D-22089_E_tif
  70
32
  10
431232.989
  20
4558546.507
  30
1082.818
  0
VERTEX
  8
PNOA-H_AMS_1956-57_33k_ES_PAN_21mic_H50_0458_fot_50D-22089_E_tif
  70
32
  10
431229.786
  20
4558408.212
  30
1079.46
  0
SEQEND
  8
PNOA-H_AMS_1956-57_33k_ES_PAN_21mic_H50_0458_fot_50D-22089_E_tif
  0
INSERT
  8
FeatureAttribs
  2
FEATURE
  41
1
  42
1
  43
1
  50
0
  10
435787.882
  20
4558074.161
 66
1
  0
ATTRIB
  8
FeatureAttribs
 70
0
  1
PNOA-H_AMS_1956-57_33k_ES_PAN_21mic_H50_0458_fot_50D-22091_E.tif
  2
NAME
  10
435787.882
  20
4558074.161
 40
33.69203
  0
SEQEND
  0
POLYLINE
  8
PNOA-H_AMS_1956-57_33k_ES_PAN_21mic_H50_0458_fot_50D-22091_E_tif
  70
9
  66
1
  0
VERTEX
  8
PNOA-H_AMS_1956-57_33k_ES_PAN_21mic_H50_0458_fot_50D-22091_E_tif
  70
32
  10
437333.500
  20
4558281.000
  30
1124.304
  0
VERTEX
  8
PNOA-H_AMS_1956-57_33k_ES_PAN_21mic_H50_0458_fot_50D-22091_E_tif
  70
32
  10
437299.696
  20
4557528.322
  30
1137.128
  0
VERTEX
  8
PNOA-H_AMS_1956-57_33k_ES_PAN_21mic_H50_0458_fot_50D-22091_E_tif
  70
32
  10
437299.632
  20
4557528.323
  30
1137.125
  0
VERTEX
  8
PNOA-H_AMS_1956-57_33k_ES_PAN_21mic_H50_0458_fot_50D-22091_E_tif
  70
32
  10
435335.049
  20
4557545.252
  30
0
  0
VERTEX
  8
PNOA-H_AMS_1956-57_33k_ES_PAN_21mic_H50_0458_fot_50D-22091_E_tif
  70
32
  10
434239.300
  20
4557555.218
  30
0
  0
VERTEX
  8
PNOA-H_AMS_1956-57_33k_ES_PAN_21mic_H50_0458_fot_50D-22091_E_tif
  70
32
  10
434239.221
  20
4557555.219
  30
1122.637
  0
VERTEX
  8
PNOA-H_AMS_1956-57_33k_ES_PAN_21mic_H50_0458_fot_50D-22091_E_tif
  70
32
  10
434256.424
  20
4558279.122
  30
1121.586
  0
VERTEX
  8
PNOA-H_AMS_1956-57_33k_ES_PAN_21mic_H50_0458_fot_50D-22091_E_tif
  70
32
  10
434259.000
  20
4558387.500
  30
1121.428
  0
VERTEX
  8
PNOA-H_AMS_1956-57_33k_ES_PAN_21mic_H50_0458_fot_50D-22091_E_tif
  70
32
  10
436735.500
  20
4558619.500
  30
1117.964
  0
VERTEX
  8
PNOA-H_AMS_1956-57_33k_ES_PAN_21mic_H50_0458_fot_50D-22091_E_tif
  70
32
  10
436741.000
  20
4558620.000
  30
1117.817
  0
VERTEX
  8
PNOA-H_AMS_1956-57_33k_ES_PAN_21mic_H50_0458_fot_50D-22091_E_tif
  70
32
  10
436744.000
  20
4558620.000
  30
1117.76
  0
VERTEX
  8
PNOA-H_AMS_1956-57_33k_ES_PAN_21mic_H50_0458_fot_50D-22091_E_tif
  70
32
  10
436744.500
  20
4558620.000
  30
1117.751
  0
VERTEX
  8
PNOA-H_AMS_1956-57_33k_ES_PAN_21mic_H50_0458_fot_50D-22091_E_tif
  70
32
  10
436747.500
  20
4558618.500
  30
1117.744
  0
VERTEX
  8
PNOA-H_AMS_1956-57_33k_ES_PAN_21mic_H50_0458_fot_50D-22091_E_tif
  70
32
  10
437333.356
  20
4558281.083
  30
1124.302
  0
VERTEX
  8
PNOA-H_AMS_1956-57_33k_ES_PAN_21mic_H50_0458_fot_50D-22091_E_tif
  70
32
  10
437333.500
  20
4558281.000
  30
1124.304
  0
SEQEND
  8
PNOA-H_AMS_1956-57_33k_ES_PAN_21mic_H50_0458_fot_50D-22091_E_tif
  0
INSERT
  8
FeatureAttribs
  2
FEATURE
  41
1
  42
1
  43
1
  50
0
  10
440866.364
  20
4570125.250
 66
1
  0
ATTRIB
  8
FeatureAttribs
 70
0
  1
PNOA-H_AMS_1956-57_33k_ES_PAN_21mic_H50_0431_fot_47B-27879_E.tif
  2
NAME
  10
440866.364
  20
4570125.250
 40
33.69203
  0
SEQEND
  0
POLYLINE
  8
PNOA-H_AMS_1956-57_33k_ES_PAN_21mic_H50_0431_fot_47B-27879_E_tif
  70
9
  66
1
  0
VERTEX
  8
PNOA-H_AMS_1956-57_33k_ES_PAN_21mic_H50_0431_fot_47B-27879_E_tif
  70
32
  10
440394.125
  20
4567741.500
  30
967.672
  0
VERTEX
  8
PNOA-H_AMS_1956-57_33k_ES_PAN_21mic_H50_0431_fot_47B-27879_E_tif
  70
32
  10
440394.000
  20
4567741.500
  30
967.674
  0
VERTEX
  8
PNOA-H_AMS_1956-57_33k_ES_PAN_21mic_H50_0431_fot_47B-27879_E_tif
  70
32
  10
440381.500
  20
4567747.500
  30
967.649
  0
VERTEX
  8
PNOA-H_AMS_1956-57_33k_ES_PAN_21mic_H50_0431_fot_47B-27879_E_tif
  70
32
  10
439318.000
  20
4568261.000
  30
970.781
  0
VERTEX
  8
PNOA-H_AMS_1956-57_33k_ES_PAN_21mic_H50_0431_fot_47B-27879_E_tif
  70
32
  10
439318.001
  20
4568261.017
  30
970.781
  0
VERTEX
  8
PNOA-H_AMS_1956-57_33k_ES_PAN_21mic_H50_0431_fot_47B-27879_E_tif
  70
32
  10
439327.055
  20
4568465.166
  30
970.753
  0
VERTEX
  8
PNOA-H_AMS_1956-57_33k_ES_PAN_21mic_H50_0431_fot_47B-27879_E_tif
  70
32
  10
439494.500
  20
4572240.500
  30
970.235
  0
VERTEX
  8
PNOA-H_AMS_1956-57_33k_ES_PAN_21mic_H50_0431_fot_47B-27879_E_tif
  70
32
  10
439495.000
  20
4572242.500
  30
969.753
  0
VERTEX
  8
PNOA-H_AMS_1956-57_33k_ES_PAN_21mic_H50_0431_fot_47B-27879_E_tif
  70
32
  10
439511.729
  20
4572244.823
  30
967.2
  0
VERTEX
  8
PNOA-H_AMS_1956-57_33k_ES_PAN_21mic_H50_0431_fot_47B-27879_E_tif
  70
32
  10
439513.000
  20
4572245.000
  30
967.005
  0
VERTEX
  8
PNOA-H_AMS_1956-57_33k_ES_PAN_21mic_H50_0431_fot_47B-27879_E_tif
  70
32
  10
441520.500
  20
4572508.500
  30
956.916
  0
VERTEX
  8
PNOA-H_AMS_1956-57_33k_ES_PAN_21mic_H50_0431_fot_47B-27879_E_tif
  70
32
  10
441524.500
  20
4572509.000
  30
956.694
  0
VERTEX
  8
PNOA-H_AMS_1956-57_33k_ES_PAN_21mic_H50_0431_fot_47B-27879_E_tif
  70
32
  10
441527.500
  20
4572509.000
  30
956.471
  0
VERTEX
  8
PNOA-H_AMS_1956-57_33k_ES_PAN_21mic_H50_0431_fot_47B-27879_E_tif
  70
32
  10
441528.500
  20
4572509.000
  30
956.396
  0
VERTEX
  8
PNOA-H_AMS_1956-57_33k_ES_PAN_21mic_H50_0431_fot_47B-27879_E_tif
  70
32
  10
441534.500
  20
4572506.500
  30
955.598
  0
VERTEX
  8
PNOA-H_AMS_1956-57_33k_ES_PAN_21mic_H50_0431_fot_47B-27879_E_tif
  70
32
  10
442396.367
  20
4572128.058
  30
937.981
  0
VERTEX
  8
PNOA-H_AMS_1956-57_33k_ES_PAN_21mic_H50_0431_fot_47B-27879_E_tif
  70
32
  10
442396.500
  20
4572128.000
  30
937.978
  0
VERTEX
  8
PNOA-H_AMS_1956-57_33k_ES_PAN_21mic_H50_0431_fot_47B-27879_E_tif
  70
32
  10
442270.500
  20
4568213.000
  30
993.293
  0
VERTEX
  8
PNOA-H_AMS_1956-57_33k_ES_PAN_21mic_H50_0431_fot_47B-27879_E_tif
  70
32
  10
442257.680
  20
4568209.775
  30
993.118
  0
VERTEX
  8
PNOA-H_AMS_1956-57_33k_ES_PAN_21mic_H50_0431_fot_47B-27879_E_tif
  70
32
  10
440396.000
  20
4567741.500
  30
967.648
  0
VERTEX
  8
PNOA-H_AMS_1956-57_33k_ES_PAN_21mic_H50_0431_fot_47B-27879_E_tif
  70
32
  10
440394.500
  20
4567741.500
  30
967.667
  0
VERTEX
  8
PNOA-H_AMS_1956-57_33k_ES_PAN_21mic_H50_0431_fot_47B-27879_E_tif
  70
32
  10
440394.125
  20
4567741.500
  30
967.672
  0
SEQEND
  8
PNOA-H_AMS_1956-57_33k_ES_PAN_21mic_H50_0431_fot_47B-27879_E_tif
  0
INSERT
  8
FeatureAttribs
  2
FEATURE
  41
1
  42
1
  43
1
  50
0
  10
443784.661
  20
4570048.000
 66
1
  0
ATTRIB
  8
FeatureAttribs
 70
0
  1
PNOA-H_AMS_1956-57_33k_ES_PAN_21mic_H50_0431_fot_47B-27880_E.tif
  2
NAME
  10
443784.661
  20
4570048.000
 40
33.69203
  0
SEQEND
  0
POLYLINE
  8
PNOA-H_AMS_1956-57_33k_ES_PAN_21mic_H50_0431_fot_47B-27880_E_tif
  70
9
  66
1
  0
VERTEX
  8
PNOA-H_AMS_1956-57_33k_ES_PAN_21mic_H50_0431_fot_47B-27880_E_tif
  70
32
  10
445239.799
  20
4568078.344
  30
966.723
  0
VERTEX
  8
PNOA-H_AMS_1956-57_33k_ES_PAN_21mic_H50_0431_fot_47B-27880_E_tif
  70
32
  10
443340.000
  20
4567655.000
  30
1010.461
  0
VERTEX
  8
PNOA-H_AMS_1956-57_33k_ES_PAN_21mic_H50_0431_fot_47B-27880_E_tif
  70
32
  10
443339.361
  20
4567655.192
  30
1010.438
  0
VERTEX
  8
PNOA-H_AMS_1956-57_33k_ES_PAN_21mic_H50_0431_fot_47B-27880_E_tif
  70
32
  10
443336.482
  20
4567656.055
  30
1010.336
  0
VERTEX
  8
PNOA-H_AMS_1956-57_33k_ES_PAN_21mic_H50_0431_fot_47B-27880_E_tif
  70
32
  10
443335.000
  20
4567656.500
  30
1010.284
  0
VERTEX
  8
PNOA-H_AMS_1956-57_33k_ES_PAN_21mic_H50_0431_fot_47B-27880_E_tif
  70
32
  10
442270.809
  20
4568212.839
  30
993.298
  0
VERTEX
  8
PNOA-H_AMS_1956-57_33k_ES_PAN_21mic_H50_0431_fot_47B-27880_E_tif
  70
32
  10
442270.500
  20
4568213.000
  30
993.293
  0
VERTEX
  8
PNOA-H_AMS_1956-57_33k_ES_PAN_21mic_H50_0431_fot_47B-27880_E_tif
  70
32
  10
442396.500
  20
4572128.000
  30
937.978
  0
VERTEX
  8
PNOA-H_AMS_1956-57_33k_ES_PAN_21mic_H50_0431_fot_47B-27880_E_tif
  70
32
  10
442502.950
  20
4572144.932
  30
938.435
  0
VERTEX
  8
PNOA-H_AMS_1956-57_33k_ES_PAN_21mic_H50_0431_fot_47B-27880_E_tif
  70
32
  10
442824.000
  20
4572196.000
  30
939.811
  0
VERTEX
  8
PNOA-H_AMS_1956-57_33k_ES_PAN_21mic_H50_0431_fot_47B-27880_E_tif
  70
32
  10
442827.500
  20
4572196.500
  30
939.876
  0
VERTEX
  8
PNOA-H_AMS_1956-57_33k_ES_PAN_21mic_H50_0431_fot_47B-27880_E_tif
  70
32
  10
444373.000
  20
4572441.000
  30
950.635
  0
VERTEX
  8
PNOA-H_AMS_1956-57_33k_ES_PAN_21mic_H50_0431_fot_47B-27880_E_tif
  70
32
  10
444373.003
  20
4572440.999
  30
950.635
  0
VERTEX
  8
PNOA-H_AMS_1956-57_33k_ES_PAN_21mic_H50_0431_fot_47B-27880_E_tif
  70
32
  10
445238.842
  20
4572091.564
  30
957.467
  0
VERTEX
  8
PNOA-H_AMS_1956-57_33k_ES_PAN_21mic_H50_0431_fot_47B-27880_E_tif
  70
32
  10
445239.000
  20
4572091.500
  30
957.468
  0
VERTEX
  8
PNOA-H_AMS_1956-57_33k_ES_PAN_21mic_H50_0431_fot_47B-27880_E_tif
  70
32
  10
445240.500
  20
4568078.500
  30
966.707
  0
VERTEX
  8
PNOA-H_AMS_1956-57_33k_ES_PAN_21mic_H50_0431_fot_47B-27880_E_tif
  70
32
  10
445239.799
  20
4568078.344
  30
966.723
  0
SEQEND
  8
PNOA-H_AMS_1956-57_33k_ES_PAN_21mic_H50_0431_fot_47B-27880_E_tif
  0
INSERT
  8
FeatureAttribs
  2
FEATURE
  41
1
  42
1
  43
1
  50
0
  10
437914.269
  20
4570185.250
 66
1
  0
ATTRIB
  8
FeatureAttribs
 70
0
  1
PNOA-H_AMS_1956-57_33k_ES_PAN_21mic_H50_0431_fot_47B-27878_E.tif
  2
NAME
  10
437914.269
  20
4570185.250
 40
33.69203
  0
SEQEND
  0
POLYLINE
  8
PNOA-H_AMS_1956-57_33k_ES_PAN_21mic_H50_0431_fot_47B-27878_E_tif
  70
9
  66
1
  0
VERTEX
  8
PNOA-H_AMS_1956-57_33k_ES_PAN_21mic_H50_0431_fot_47B-27878_E_tif
  70
32
  10
439317.358
  20
4568261.327
  30
970.754
  0
VERTEX
  8
PNOA-H_AMS_1956-57_33k_ES_PAN_21mic_H50_0431_fot_47B-27878_E_tif
  70
32
  10
437585.500
  20
4567796.000
  30
974.581
  0
VERTEX
  8
PNOA-H_AMS_1956-57_33k_ES_PAN_21mic_H50_0431_fot_47B-27878_E_tif
  70
32
  10
437584.640
  20
4567796.172
  30
974.574
  0
VERTEX
  8
PNOA-H_AMS_1956-57_33k_ES_PAN_21mic_H50_0431_fot_47B-27878_E_tif
  70
32
  10
437582.653
  20
4567796.569
  30
974.557
  0
VERTEX
  8
PNOA-H_AMS_1956-57_33k_ES_PAN_21mic_H50_0431_fot_47B-27878_E_tif
  70
32
  10
437580.500
  20
4567797.000
  30
974.539
  0
VERTEX
  8
PNOA-H_AMS_1956-57_33k_ES_PAN_21mic_H50_0431_fot_47B-27878_E_tif
  70
32
  10
436683.898
  20
4568176.534
  30
991.203
  0
VERTEX
  8
PNOA-H_AMS_1956-57_33k_ES_PAN_21mic_H50_0431_fot_47B-27878_E_tif
  70
32
  10
436627.027
  20
4568200.608
  30
992.26
  0
VERTEX
  8
PNOA-H_AMS_1956-57_33k_ES_PAN_21mic_H50_0431_fot_47B-27878_E_tif
  70
32
  10
436391.205
  20
4568300.432
  30
996.643
  0
VERTEX
  8
PNOA-H_AMS_1956-57_33k_ES_PAN_21mic_H50_0431_fot_47B-27878_E_tif
  70
32
  10
436387.500
  20
4568302.000
  30
996.711
  0
VERTEX
  8
PNOA-H_AMS_1956-57_33k_ES_PAN_21mic_H50_0431_fot_47B-27878_E_tif
  70
32
  10
436469.500
  20
4572419.500
  30
1005.647
  0
VERTEX
  8
PNOA-H_AMS_1956-57_33k_ES_PAN_21mic_H50_0431_fot_47B-27878_E_tif
  70
32
  10
436470.000
  20
4572423.500
  30
1005.088
  0
VERTEX
  8
PNOA-H_AMS_1956-57_33k_ES_PAN_21mic_H50_0431_fot_47B-27878_E_tif
  70
32
  10
436475.000
  20
4572424.000
  30
1004.764
  0
VERTEX
  8
PNOA-H_AMS_1956-57_33k_ES_PAN_21mic_H50_0431_fot_47B-27878_E_tif
  70
32
  10
436675.000
  20
4572437.000
  30
984.75
  0
VERTEX
  8
PNOA-H_AMS_1956-57_33k_ES_PAN_21mic_H50_0431_fot_47B-27878_E_tif
  70
32
  10
436682.500
  20
4572437.500
  30
983.135
  0
VERTEX
  8
PNOA-H_AMS_1956-57_33k_ES_PAN_21mic_H50_0431_fot_47B-27878_E_tif
  70
32
  10
438661.373
  20
4572565.895
  30
921.094
  0
VERTEX
  8
PNOA-H_AMS_1956-57_33k_ES_PAN_21mic_H50_0431_fot_47B-27878_E_tif
  70
32
  10
438793.560
  20
4572574.471
  30
916.95
  0
VERTEX
  8
PNOA-H_AMS_1956-57_33k_ES_PAN_21mic_H50_0431_fot_47B-27878_E_tif
  70
32
  10
438794.000
  20
4572574.500
  30
916.936
  0
VERTEX
  8
PNOA-H_AMS_1956-57_33k_ES_PAN_21mic_H50_0431_fot_47B-27878_E_tif
  70
32
  10
439494.783
  20
4572242.603
  30
969.737
  0
VERTEX
  8
PNOA-H_AMS_1956-57_33k_ES_PAN_21mic_H50_0431_fot_47B-27878_E_tif
  70
32
  10
439495.000
  20
4572242.500
  30
969.753
  0
VERTEX
  8
PNOA-H_AMS_1956-57_33k_ES_PAN_21mic_H50_0431_fot_47B-27878_E_tif
  70
32
  10
439327.055
  20
4568465.166
  30
970.702
  0
VERTEX
  8
PNOA-H_AMS_1956-57_33k_ES_PAN_21mic_H50_0431_fot_47B-27878_E_tif
  70
32
  10
439318.000
  20
4568261.500
  30
970.753
  0
VERTEX
  8
PNOA-H_AMS_1956-57_33k_ES_PAN_21mic_H50_0431_fot_47B-27878_E_tif
  70
32
  10
439317.358
  20
4568261.327
  30
970.754
  0
SEQEND
  8
PNOA-H_AMS_1956-57_33k_ES_PAN_21mic_H50_0431_fot_47B-27878_E_tif
  0
INSERT
  8
FeatureAttribs
  2
FEATURE
  41
1
  42
1
  43
1
  50
0
  10
439013.506
  20
4565728.000
 66
1
  0
ATTRIB
  8
FeatureAttribs
 70
0
  1
PNOA-H_AMS_1956-57_33k_ES_PAN_21mic_H50_0431_fot_48C-22148_W.tif
  2
NAME
  10
439013.506
  20
4565728.000
 40
33.69203
  0
SEQEND
  0
POLYLINE
  8
PNOA-H_AMS_1956-57_33k_ES_PAN_21mic_H50_0431_fot_48C-22148_W_tif
  70
9
  66
1
  0
VERTEX
  8
PNOA-H_AMS_1956-57_33k_ES_PAN_21mic_H50_0431_fot_48C-22148_W_tif
  70
32
  10
440439.156
  20
4563473.861
  30
1055.262
  0
VERTEX
  8
PNOA-H_AMS_1956-57_33k_ES_PAN_21mic_H50_0431_fot_48C-22148_W_tif
  70
32
  10
439746.500
  20
4563194.500
  30
1062.252
  0
VERTEX
  8
PNOA-H_AMS_1956-57_33k_ES_PAN_21mic_H50_0431_fot_48C-22148_W_tif
  70
32
  10
439746.124
  20
4563194.550
  30
1062.248
  0
VERTEX
  8
PNOA-H_AMS_1956-57_33k_ES_PAN_21mic_H50_0431_fot_48C-22148_W_tif
  70
32
  10
439745.503
  20
4563194.632
  30
1062.241
  0
VERTEX
  8
PNOA-H_AMS_1956-57_33k_ES_PAN_21mic_H50_0431_fot_48C-22148_W_tif
  70
32
  10
438379.432
  20
4563375.932
  30
1048.167
  0
VERTEX
  8
PNOA-H_AMS_1956-57_33k_ES_PAN_21mic_H50_0431_fot_48C-22148_W_tif
  70
32
  10
437640.500
  20
4563474.000
  30
1040.554
  0
VERTEX
  8
PNOA-H_AMS_1956-57_33k_ES_PAN_21mic_H50_0431_fot_48C-22148_W_tif
  70
32
  10
437584.000
  20
4567796.000
  30
974.581
  0
VERTEX
  8
PNOA-H_AMS_1956-57_33k_ES_PAN_21mic_H50_0431_fot_48C-22148_W_tif
  70
32
  10
437584.640
  20
4567796.172
  30
974.58
  0
VERTEX
  8
PNOA-H_AMS_1956-57_33k_ES_PAN_21mic_H50_0431_fot_48C-22148_W_tif
  70
32
  10
439315.000
  20
4568261.000
  30
970.831
  0
VERTEX
  8
PNOA-H_AMS_1956-57_33k_ES_PAN_21mic_H50_0431_fot_48C-22148_W_tif
  70
32
  10
439317.000
  20
4568261.500
  30
970.767
  0
VERTEX
  8
PNOA-H_AMS_1956-57_33k_ES_PAN_21mic_H50_0431_fot_48C-22148_W_tif
  70
32
  10
439317.358
  20
4568261.327
  30
970.766
  0
VERTEX
  8
PNOA-H_AMS_1956-57_33k_ES_PAN_21mic_H50_0431_fot_48C-22148_W_tif
  70
32
  10
439318.001
  20
4568261.017
  30
970.764
  0
VERTEX
  8
PNOA-H_AMS_1956-57_33k_ES_PAN_21mic_H50_0431_fot_48C-22148_W_tif
  70
32
  10
440383.000
  20
4567747.500
  30
967.63
  0
VERTEX
  8
PNOA-H_AMS_1956-57_33k_ES_PAN_21mic_H50_0431_fot_48C-22148_W_tif
  70
32
  10
440394.000
  20
4567742.000
  30
967.661
  0
VERTEX
  8
PNOA-H_AMS_1956-57_33k_ES_PAN_21mic_H50_0431_fot_48C-22148_W_tif
  70
32
  10
440394.125
  20
4567741.500
  30
967.672
  0
VERTEX
  8
PNOA-H_AMS_1956-57_33k_ES_PAN_21mic_H50_0431_fot_48C-22148_W_tif
  70
32
  10
440394.517
  20
4567739.934
  30
967.706
  0
VERTEX
  8
PNOA-H_AMS_1956-57_33k_ES_PAN_21mic_H50_0431_fot_48C-22148_W_tif
  70
32
  10
440395.000
  20
4567738.000
  30
967.747
  0
VERTEX
  8
PNOA-H_AMS_1956-57_33k_ES_PAN_21mic_H50_0431_fot_48C-22148_W_tif
  70
32
  10
440439.500
  20
4563474.000
  30
1055.259
  0
VERTEX
  8
PNOA-H_AMS_1956-57_33k_ES_PAN_21mic_H50_0431_fot_48C-22148_W_tif
  70
32
  10
440439.156
  20
4563473.861
  30
1055.262
  0
SEQEND
  8
PNOA-H_AMS_1956-57_33k_ES_PAN_21mic_H50_0431_fot_48C-22148_W_tif
  0
INSERT
  8
FeatureAttribs
  2
FEATURE
  41
1
  42
1
  43
1
  50
0
  10
441457.908
  20
4565720.049
 66
1
  0
ATTRIB
  8
FeatureAttribs
 70
0
  1
PNOA-H_AMS_1956-57_33k_ES_PAN_21mic_H50_0431_fot_48C-22147_W.tif
  2
NAME
  10
441457.908
  20
4565720.049
 40
33.69203
  0
SEQEND
  0
POLYLINE
  8
PNOA-H_AMS_1956-57_33k_ES_PAN_21mic_H50_0431_fot_48C-22147_W_tif
  70
9
  66
1
  0
VERTEX
  8
PNOA-H_AMS_1956-57_33k_ES_PAN_21mic_H50_0431_fot_48C-22147_W_tif
  70
32
  10
442500.000
  20
4566580.000
  30
993.79
  0
VERTEX
  8
PNOA-H_AMS_1956-57_33k_ES_PAN_21mic_H50_0431_fot_48C-22147_W_tif
  70
32
  10
442500.000
  20
4563227.098
  30
1023.606
  0
VERTEX
  8
PNOA-H_AMS_1956-57_33k_ES_PAN_21mic_H50_0431_fot_48C-22147_W_tif
  70
32
  10
440439.500
  20
4563474.000
  30
1055.259
  0
VERTEX
  8
PNOA-H_AMS_1956-57_33k_ES_PAN_21mic_H50_0431_fot_48C-22147_W_tif
  70
32
  10
440394.517
  20
4567739.934
  30
967.7
  0
VERTEX
  8
PNOA-H_AMS_1956-57_33k_ES_PAN_21mic_H50_0431_fot_48C-22147_W_tif
  70
32
  10
440394.500
  20
4567741.500
  30
967.667
  0
VERTEX
  8
PNOA-H_AMS_1956-57_33k_ES_PAN_21mic_H50_0431_fot_48C-22147_W_tif
  70
32
  10
440777.500
  20
4567838.000
  30
954.857
  0
VERTEX
  8
PNOA-H_AMS_1956-57_33k_ES_PAN_21mic_H50_0431_fot_48C-22147_W_tif
  70
32
  10
440779.500
  20
4567838.500
  30
954.885
  0
VERTEX
  8
PNOA-H_AMS_1956-57_33k_ES_PAN_21mic_H50_0431_fot_48C-22147_W_tif
  70
32
  10
442226.500
  20
4568202.500
  30
993.063
  0
VERTEX
  8
PNOA-H_AMS_1956-57_33k_ES_PAN_21mic_H50_0431_fot_48C-22147_W_tif
  70
32
  10
442257.680
  20
4568209.775
  30
993.242
  0
VERTEX
  8
PNOA-H_AMS_1956-57_33k_ES_PAN_21mic_H50_0431_fot_48C-22147_W_tif
  70
32
  10
442270.809
  20
4568212.839
  30
993.318
  0
VERTEX
  8
PNOA-H_AMS_1956-57_33k_ES_PAN_21mic_H50_0431_fot_48C-22147_W_tif
  70
32
  10
442271.500
  20
4568213.000
  30
993.322
  0
VERTEX
  8
PNOA-H_AMS_1956-57_33k_ES_PAN_21mic_H50_0431_fot_48C-22147_W_tif
  70
32
  10
443336.482
  20
4567656.055
  30
1010.393
  0
VERTEX
  8
PNOA-H_AMS_1956-57_33k_ES_PAN_21mic_H50_0431_fot_48C-22147_W_tif
  70
32
  10
443338.500
  20
4567655.000
  30
1010.425
  0
VERTEX
  8
PNOA-H_AMS_1956-57_33k_ES_PAN_21mic_H50_0431_fot_48C-22147_W_tif
  70
32
  10
443275.584
  20
4566580.000
  30
1006.021
  0
VERTEX
  8
PNOA-H_AMS_1956-57_33k_ES_PAN_21mic_H50_0431_fot_48C-22147_W_tif
  70
32
  10
442500.000
  20
4566580.000
  30
993.79
  0
SEQEND
  8
PNOA-H_AMS_1956-57_33k_ES_PAN_21mic_H50_0431_fot_48C-22147_W_tif
  0
INSERT
  8
FeatureAttribs
  2
FEATURE
  41
1
  42
1
  43
1
  50
0
  10
441100.352
  20
4560883.500
 66
1
  0
ATTRIB
  8
FeatureAttribs
 70
0
  1
PNOA-H_AMS_1956-57_33k_ES_PAN_21mic_H50_0431_fot_49C-11556_E.tif
  2
NAME
  10
441100.352
  20
4560883.500
 40
33.69203
  0
SEQEND
  0
POLYLINE
  8
PNOA-H_AMS_1956-57_33k_ES_PAN_21mic_H50_0431_fot_49C-11556_E_tif
  70
9
  66
1
  0
VERTEX
  8
PNOA-H_AMS_1956-57_33k_ES_PAN_21mic_H50_0431_fot_49C-11556_E_tif
  70
32
  10
440114.391
  20
4558293.060
  30
1128.034
  0
VERTEX
  8
PNOA-H_AMS_1956-57_33k_ES_PAN_21mic_H50_0431_fot_49C-11556_E_tif
  70
32
  10
440113.500
  20
4558293.000
  30
1128.034
  0
VERTEX
  8
PNOA-H_AMS_1956-57_33k_ES_PAN_21mic_H50_0431_fot_49C-11556_E_tif
  70
32
  10
439715.000
  20
4558511.000
  30
1143.829
  0
VERTEX
  8
PNOA-H_AMS_1956-57_33k_ES_PAN_21mic_H50_0431_fot_49C-11556_E_tif
  70
32
  10
439715.003
  20
4558511.498
  30
1143.821
  0
VERTEX
  8
PNOA-H_AMS_1956-57_33k_ES_PAN_21mic_H50_0431_fot_49C-11556_E_tif
  70
32
  10
439736.400
  20
4561744.158
  30
1087.512
  0
VERTEX
  8
PNOA-H_AMS_1956-57_33k_ES_PAN_21mic_H50_0431_fot_49C-11556_E_tif
  70
32
  10
439745.790
  20
4563162.794
  30
1062.801
  0
VERTEX
  8
PNOA-H_AMS_1956-57_33k_ES_PAN_21mic_H50_0431_fot_49C-11556_E_tif
  70
32
  10
439746.000
  20
4563194.500
  30
1062.249
  0
VERTEX
  8
PNOA-H_AMS_1956-57_33k_ES_PAN_21mic_H50_0431_fot_49C-11556_E_tif
  70
32
  10
439746.124
  20
4563194.550
  30
1062.248
  0
VERTEX
  8
PNOA-H_AMS_1956-57_33k_ES_PAN_21mic_H50_0431_fot_49C-11556_E_tif
  70
32
  10
440437.000
  20
4563473.500
  30
1055.356
  0
VERTEX
  8
PNOA-H_AMS_1956-57_33k_ES_PAN_21mic_H50_0431_fot_49C-11556_E_tif
  70
32
  10
440438.000
  20
4563474.000
  30
1055.331
  0
VERTEX
  8
PNOA-H_AMS_1956-57_33k_ES_PAN_21mic_H50_0431_fot_49C-11556_E_tif
  70
32
  10
440439.156
  20
4563473.861
  30
1055.313
  0
VERTEX
  8
PNOA-H_AMS_1956-57_33k_ES_PAN_21mic_H50_0431_fot_49C-11556_E_tif
  70
32
  10
442500.000
  20
4563226.975
  30
1023.724
  0
VERTEX
  8
PNOA-H_AMS_1956-57_33k_ES_PAN_21mic_H50_0431_fot_49C-11556_E_tif
  70
32
  10
442500.000
  20
4562010.000
  30
1084.985
  0
VERTEX
  8
PNOA-H_AMS_1956-57_33k_ES_PAN_21mic_H50_0431_fot_49C-11556_E_tif
  70
32
  10
442470.000
  20
4562010.000
  30
1084.985
  0
VERTEX
  8
PNOA-H_AMS_1956-57_33k_ES_PAN_21mic_H50_0431_fot_49C-11556_E_tif
  70
32
  10
442470.000
  20
4558450.491
  30
1128.281
  0
VERTEX
  8
PNOA-H_AMS_1956-57_33k_ES_PAN_21mic_H50_0431_fot_49C-11556_E_tif
  70
32
  10
440121.000
  20
4558293.501
  30
1128.034
  0
VERTEX
  8
PNOA-H_AMS_1956-57_33k_ES_PAN_21mic_H50_0431_fot_49C-11556_E_tif
  70
32
  10
440114.391
  20
4558293.060
  30
1128.034
  0
SEQEND
  8
PNOA-H_AMS_1956-57_33k_ES_PAN_21mic_H50_0431_fot_49C-11556_E_tif
  0
INSERT
  8
FeatureAttribs
  2
FEATURE
  41
1
  42
1
  43
1
  50
0
  10
438274.203
  20
4560877.500
 66
1
  0
ATTRIB
  8
FeatureAttribs
 70
0
  1
PNOA-H_AMS_1956-57_33k_ES_PAN_21mic_H50_0431_fot_49C-11555_E.tif
  2
NAME
  10
438274.203
  20
4560877.500
 40
33.69203
  0
SEQEND
  0
POLYLINE
  8
PNOA-H_AMS_1956-57_33k_ES_PAN_21mic_H50_0431_fot_49C-11555_E_tif
  70
9
  66
1
  0
VERTEX
  8
PNOA-H_AMS_1956-57_33k_ES_PAN_21mic_H50_0431_fot_49C-11555_E_tif
  70
32
  10
437333.356
  20
4558281.083
  30
1124.194
  0
VERTEX
  8
PNOA-H_AMS_1956-57_33k_ES_PAN_21mic_H50_0431_fot_49C-11555_E_tif
  70
32
  10
437332.500
  20
4558281.000
  30
1124.187
  0
VERTEX
  8
PNOA-H_AMS_1956-57_33k_ES_PAN_21mic_H50_0431_fot_49C-11555_E_tif
  70
32
  10
436744.000
  20
4558620.000
  30
1117.759
  0
VERTEX
  8
PNOA-H_AMS_1956-57_33k_ES_PAN_21mic_H50_0431_fot_49C-11555_E_tif
  70
32
  10
436893.000
  20
4563167.500
  30
1039.594
  0
VERTEX
  8
PNOA-H_AMS_1956-57_33k_ES_PAN_21mic_H50_0431_fot_49C-11555_E_tif
  70
32
  10
436893.672
  20
4563176.009
  30
1039.978
  0
VERTEX
  8
PNOA-H_AMS_1956-57_33k_ES_PAN_21mic_H50_0431_fot_49C-11555_E_tif
  70
32
  10
436894.500
  20
4563186.500
  30
1040.451
  0
VERTEX
  8
PNOA-H_AMS_1956-57_33k_ES_PAN_21mic_H50_0431_fot_49C-11555_E_tif
  70
32
  10
436895.418
  20
4563186.855
  30
1040.451
  0
VERTEX
  8
PNOA-H_AMS_1956-57_33k_ES_PAN_21mic_H50_0431_fot_49C-11555_E_tif
  70
32
  10
437639.000
  20
4563474.000
  30
1040.54
  0
VERTEX
  8
PNOA-H_AMS_1956-57_33k_ES_PAN_21mic_H50_0431_fot_49C-11555_E_tif
  70
32
  10
437640.117
  20
4563473.852
  30
1040.552
  0
VERTEX
  8
PNOA-H_AMS_1956-57_33k_ES_PAN_21mic_H50_0431_fot_49C-11555_E_tif
  70
32
  10
438379.432
  20
4563375.932
  30
1048.185
  0
VERTEX
  8
PNOA-H_AMS_1956-57_33k_ES_PAN_21mic_H50_0431_fot_49C-11555_E_tif
  70
32
  10
439745.500
  20
4563195.000
  30
1062.288
  0
VERTEX
  8
PNOA-H_AMS_1956-57_33k_ES_PAN_21mic_H50_0431_fot_49C-11555_E_tif
  70
32
  10
439745.503
  20
4563194.632
  30
1062.252
  0
VERTEX
  8
PNOA-H_AMS_1956-57_33k_ES_PAN_21mic_H50_0431_fot_49C-11555_E_tif
  70
32
  10
439745.790
  20
4563162.794
  30
1059.126
  0
VERTEX
  8
PNOA-H_AMS_1956-57_33k_ES_PAN_21mic_H50_0431_fot_49C-11555_E_tif
  70
32
  10
439746.000
  20
4563139.500
  30
1056.838
  0
VERTEX
  8
PNOA-H_AMS_1956-57_33k_ES_PAN_21mic_H50_0431_fot_49C-11555_E_tif
  70
32
  10
439736.400
  20
4561744.158
  30
1061.393
  0
VERTEX
  8
PNOA-H_AMS_1956-57_33k_ES_PAN_21mic_H50_0431_fot_49C-11555_E_tif
  70
32
  10
439727.500
  20
4560450.500
  30
1065.616
  0
VERTEX
  8
PNOA-H_AMS_1956-57_33k_ES_PAN_21mic_H50_0431_fot_49C-11555_E_tif
  70
32
  10
439727.500
  20
4560421.000
  30
1053.451
  0
VERTEX
  8
PNOA-H_AMS_1956-57_33k_ES_PAN_21mic_H50_0431_fot_49C-11555_E_tif
  70
32
  10
439715.000
  20
4558511.500
  30
1143.883
  0
VERTEX
  8
PNOA-H_AMS_1956-57_33k_ES_PAN_21mic_H50_0431_fot_49C-11555_E_tif
  70
32
  10
438139.669
  20
4558359.091
  30
1130.86
  0
VERTEX
  8
PNOA-H_AMS_1956-57_33k_ES_PAN_21mic_H50_0431_fot_49C-11555_E_tif
  70
32
  10
437333.356
  20
4558281.083
  30
1124.194
  0
SEQEND
  8
PNOA-H_AMS_1956-57_33k_ES_PAN_21mic_H50_0431_fot_49C-11555_E_tif
  0
INSERT
  8
FeatureAttribs
  2
FEATURE
  41
1
  42
1
  43
1
  50
0
  10
438716.814
  20
4558008.115
 66
1
  0
ATTRIB
  8
FeatureAttribs
 70
0
  1
PNOA-H_AMS_1956-57_33k_ES_PAN_21mic_H50_0458_fot_50D-22092_E.tif
  2
NAME
  10
438716.814
  20
4558008.115
 40
33.69203
  0
SEQEND
  0
POLYLINE
  8
PNOA-H_AMS_1956-57_33k_ES_PAN_21mic_H50_0458_fot_50D-22092_E_tif
  70
9
  66
1
  0
VERTEX
  8
PNOA-H_AMS_1956-57_33k_ES_PAN_21mic_H50_0458_fot_50D-22092_E_tif
  70
32
  10
440114.500
  20
4558293.000
  30
1128
  0
VERTEX
  8
PNOA-H_AMS_1956-57_33k_ES_PAN_21mic_H50_0458_fot_50D-22092_E_tif
  70
32
  10
440108.707
  20
4557504.729
  30
1134.238
  0
VERTEX
  8
PNOA-H_AMS_1956-57_33k_ES_PAN_21mic_H50_0458_fot_50D-22092_E_tif
  70
32
  10
440108.535
  20
4557504.731
  30
0
  0
VERTEX
  8
PNOA-H_AMS_1956-57_33k_ES_PAN_21mic_H50_0458_fot_50D-22092_E_tif
  70
32
  10
438830.478
  20
4557515.132
  30
0
  0
VERTEX
  8
PNOA-H_AMS_1956-57_33k_ES_PAN_21mic_H50_0458_fot_50D-22092_E_tif
  70
32
  10
437299.696
  20
4557528.322
  30
0
  0
VERTEX
  8
PNOA-H_AMS_1956-57_33k_ES_PAN_21mic_H50_0458_fot_50D-22092_E_tif
  70
32
  10
437299.632
  20
4557528.323
  30
1137.125
  0
VERTEX
  8
PNOA-H_AMS_1956-57_33k_ES_PAN_21mic_H50_0458_fot_50D-22092_E_tif
  70
32
  10
437333.500
  20
4558281.000
  30
1124.304
  0
VERTEX
  8
PNOA-H_AMS_1956-57_33k_ES_PAN_21mic_H50_0458_fot_50D-22092_E_tif
  70
32
  10
438139.669
  20
4558359.091
  30
1116.229
  0
VERTEX
  8
PNOA-H_AMS_1956-57_33k_ES_PAN_21mic_H50_0458_fot_50D-22092_E_tif
  70
32
  10
438722.000
  20
4558415.500
  30
1110.396
  0
VERTEX
  8
PNOA-H_AMS_1956-57_33k_ES_PAN_21mic_H50_0458_fot_50D-22092_E_tif
  70
32
  10
438727.000
  20
4558416.000
  30
1110.61
  0
VERTEX
  8
PNOA-H_AMS_1956-57_33k_ES_PAN_21mic_H50_0458_fot_50D-22092_E_tif
  70
32
  10
439715.000
  20
4558511.500
  30
1143.883
  0
VERTEX
  8
PNOA-H_AMS_1956-57_33k_ES_PAN_21mic_H50_0458_fot_50D-22092_E_tif
  70
32
  10
439715.003
  20
4558511.498
  30
1143.883
  0
VERTEX
  8
PNOA-H_AMS_1956-57_33k_ES_PAN_21mic_H50_0458_fot_50D-22092_E_tif
  70
32
  10
440114.391
  20
4558293.060
  30
1128.004
  0
VERTEX
  8
PNOA-H_AMS_1956-57_33k_ES_PAN_21mic_H50_0458_fot_50D-22092_E_tif
  70
32
  10
440114.500
  20
4558293.000
  30
1128
  0
SEQEND
  8
PNOA-H_AMS_1956-57_33k_ES_PAN_21mic_H50_0458_fot_50D-22092_E_tif
  0
INSERT
  8
FeatureAttribs
  2
FEATURE
  41
1
  42
1
  43
1
  50
0
  10
441290.958
  20
4557968.020
 66
1
  0
ATTRIB
  8
FeatureAttribs
 70
0
  1
PNOA-H_AMS_1956-57_33k_ES_PAN_21mic_H50_0458_fot_50D-22093_E.tif
  2
NAME
  10
441290.958
  20
4557968.020
 40
33.69203
  0
SEQEND
  0
POLYLINE
  8
PNOA-H_AMS_1956-57_33k_ES_PAN_21mic_H50_0458_fot_50D-22093_E_tif
  70
9
  66
1
  0
VERTEX
  8
PNOA-H_AMS_1956-57_33k_ES_PAN_21mic_H50_0458_fot_50D-22093_E_tif
  70
32
  10
442470.000
  20
4558450.459
  30
1128.358
  0
VERTEX
  8
PNOA-H_AMS_1956-57_33k_ES_PAN_21mic_H50_0458_fot_50D-22093_E_tif
  70
32
  10
442470.000
  20
4557485.581
  30
1134
  0
VERTEX
  8
PNOA-H_AMS_1956-57_33k_ES_PAN_21mic_H50_0458_fot_50D-22093_E_tif
  70
32
  10
442325.903
  20
4557486.685
  30
0
  0
VERTEX
  8
PNOA-H_AMS_1956-57_33k_ES_PAN_21mic_H50_0458_fot_50D-22093_E_tif
  70
32
  10
440108.707
  20
4557504.729
  30
1134.238
  0
VERTEX
  8
PNOA-H_AMS_1956-57_33k_ES_PAN_21mic_H50_0458_fot_50D-22093_E_tif
  70
32
  10
440108.535
  20
4557504.731
  30
1134.811
  0
VERTEX
  8
PNOA-H_AMS_1956-57_33k_ES_PAN_21mic_H50_0458_fot_50D-22093_E_tif
  70
32
  10
440114.000
  20
4558253.500
  30
1129.013
  0
VERTEX
  8
PNOA-H_AMS_1956-57_33k_ES_PAN_21mic_H50_0458_fot_50D-22093_E_tif
  70
32
  10
440114.500
  20
4558293.000
  30
1128
  0
VERTEX
  8
PNOA-H_AMS_1956-57_33k_ES_PAN_21mic_H50_0458_fot_50D-22093_E_tif
  70
32
  10
440121.000
  20
4558293.501
  30
1127.795
  0
VERTEX
  8
PNOA-H_AMS_1956-57_33k_ES_PAN_21mic_H50_0458_fot_50D-22093_E_tif
  70
32
  10
442470.000
  20
4558450.459
  30
1128.358
  0
SEQEND
  8
PNOA-H_AMS_1956-57_33k_ES_PAN_21mic_H50_0458_fot_50D-22093_E_tif
  0
INSERT
  8
FeatureAttribs
  2
FEATURE
  41
1
  42
1
  43
1
  50
0
  10
446687.570
  20
4570026.000
 66
1
  0
ATTRIB
  8
FeatureAttribs
 70
0
  1
PNOA-H_AMS_1956-57_33k_ES_PAN_21mic_H50_0431_fot_47B-27881_E.tif
  2
NAME
  10
446687.570
  20
4570026.000
 40
33.69203
  0
SEQEND
  0
POLYLINE
  8
PNOA-H_AMS_1956-57_33k_ES_PAN_21mic_H50_0431_fot_47B-27881_E_tif
  70
9
  66
1
  0
VERTEX
  8
PNOA-H_AMS_1956-57_33k_ES_PAN_21mic_H50_0431_fot_47B-27881_E_tif
  70
32
  10
446146.269
  20
4567605.121
  30
956.839
  0
VERTEX
  8
PNOA-H_AMS_1956-57_33k_ES_PAN_21mic_H50_0431_fot_47B-27881_E_tif
  70
32
  10
446145.500
  20
4567605.000
  30
956.812
  0
VERTEX
  8
PNOA-H_AMS_1956-57_33k_ES_PAN_21mic_H50_0431_fot_47B-27881_E_tif
  70
32
  10
445693.000
  20
4567841.750
  30
961.76
  0
VERTEX
  8
PNOA-H_AMS_1956-57_33k_ES_PAN_21mic_H50_0431_fot_47B-27881_E_tif
  70
32
  10
445240.500
  20
4568078.500
  30
966.707
  0
VERTEX
  8
PNOA-H_AMS_1956-57_33k_ES_PAN_21mic_H50_0431_fot_47B-27881_E_tif
  70
32
  10
445239.000
  20
4572091.500
  30
957.468
  0
VERTEX
  8
PNOA-H_AMS_1956-57_33k_ES_PAN_21mic_H50_0431_fot_47B-27881_E_tif
  70
32
  10
445767.065
  20
4572189.674
  30
967.875
  0
VERTEX
  8
PNOA-H_AMS_1956-57_33k_ES_PAN_21mic_H50_0431_fot_47B-27881_E_tif
  70
32
  10
447148.500
  20
4572446.500
  30
995.099
  0
VERTEX
  8
PNOA-H_AMS_1956-57_33k_ES_PAN_21mic_H50_0431_fot_47B-27881_E_tif
  70
32
  10
447151.500
  20
4572447.000
  30
995.243
  0
VERTEX
  8
PNOA-H_AMS_1956-57_33k_ES_PAN_21mic_H50_0431_fot_47B-27881_E_tif
  70
32
  10
447151.846
  20
4572446.878
  30
995.314
  0
VERTEX
  8
PNOA-H_AMS_1956-57_33k_ES_PAN_21mic_H50_0431_fot_47B-27881_E_tif
  70
32
  10
447160.281
  20
4572443.915
  30
997.043
  0
VERTEX
  8
PNOA-H_AMS_1956-57_33k_ES_PAN_21mic_H50_0431_fot_47B-27881_E_tif
  70
32
  10
447170.000
  20
4572440.500
  30
999.034
  0
VERTEX
  8
PNOA-H_AMS_1956-57_33k_ES_PAN_21mic_H50_0431_fot_47B-27881_E_tif
  70
32
  10
448107.000
  20
4572069.000
  30
1039.511
  0
VERTEX
  8
PNOA-H_AMS_1956-57_33k_ES_PAN_21mic_H50_0431_fot_47B-27881_E_tif
  70
32
  10
448164.500
  20
4567928.000
  30
1025.98
  0
VERTEX
  8
PNOA-H_AMS_1956-57_33k_ES_PAN_21mic_H50_0431_fot_47B-27881_E_tif
  70
32
  10
448164.500
  20
4567922.000
  30
1026.085
  0
VERTEX
  8
PNOA-H_AMS_1956-57_33k_ES_PAN_21mic_H50_0431_fot_47B-27881_E_tif
  70
32
  10
448163.559
  20
4567921.765
  30
1026.05
  0
VERTEX
  8
PNOA-H_AMS_1956-57_33k_ES_PAN_21mic_H50_0431_fot_47B-27881_E_tif
  70
32
  10
448162.500
  20
4567921.500
  30
1026.01
  0
VERTEX
  8
PNOA-H_AMS_1956-57_33k_ES_PAN_21mic_H50_0431_fot_47B-27881_E_tif
  70
32
  10
446593.722
  20
4567675.333
  30
972.19
  0
VERTEX
  8
PNOA-H_AMS_1956-57_33k_ES_PAN_21mic_H50_0431_fot_47B-27881_E_tif
  70
32
  10
446146.269
  20
4567605.121
  30
956.839
  0
SEQEND
  8
PNOA-H_AMS_1956-57_33k_ES_PAN_21mic_H50_0431_fot_47B-27881_E_tif
  0
INSERT
  8
FeatureAttribs
  2
FEATURE
  41
1
  42
1
  43
1
  50
0
  10
449530.449
  20
4570001.500
 66
1
  0
ATTRIB
  8
FeatureAttribs
 70
0
  1
PNOA-H_AMS_1956-57_33k_ES_PAN_21mic_H50_0431_fot_47B-27882_E.tif
  2
NAME
  10
449530.449
  20
4570001.500
 40
33.69203
  0
SEQEND
  0
POLYLINE
  8
PNOA-H_AMS_1956-57_33k_ES_PAN_21mic_H50_0431_fot_47B-27882_E_tif
  70
9
  66
1
  0
VERTEX
  8
PNOA-H_AMS_1956-57_33k_ES_PAN_21mic_H50_0431_fot_47B-27882_E_tif
  70
32
  10
449986.000
  20
4572438.000
  30
1069.643
  0
VERTEX
  8
PNOA-H_AMS_1956-57_33k_ES_PAN_21mic_H50_0431_fot_47B-27882_E_tif
  70
32
  10
449988.500
  20
4572438.000
  30
1069.802
  0
VERTEX
  8
PNOA-H_AMS_1956-57_33k_ES_PAN_21mic_H50_0431_fot_47B-27882_E_tif
  70
32
  10
449989.500
  20
4572438.000
  30
1069.865
  0
VERTEX
  8
PNOA-H_AMS_1956-57_33k_ES_PAN_21mic_H50_0431_fot_47B-27882_E_tif
  70
32
  10
450006.000
  20
4572431.500
  30
1070.564
  0
VERTEX
  8
PNOA-H_AMS_1956-57_33k_ES_PAN_21mic_H50_0431_fot_47B-27882_E_tif
  70
32
  10
450892.707
  20
4572074.618
  30
1090.506
  0
VERTEX
  8
PNOA-H_AMS_1956-57_33k_ES_PAN_21mic_H50_0431_fot_47B-27882_E_tif
  70
32
  10
450893.000
  20
4572074.500
  30
1090.513
  0
VERTEX
  8
PNOA-H_AMS_1956-57_33k_ES_PAN_21mic_H50_0431_fot_47B-27882_E_tif
  70
32
  10
450959.500
  20
4567797.500
  30
1068.342
  0
VERTEX
  8
PNOA-H_AMS_1956-57_33k_ES_PAN_21mic_H50_0431_fot_47B-27882_E_tif
  70
32
  10
450296.833
  20
4567725.167
  30
1061.986
  0
VERTEX
  8
PNOA-H_AMS_1956-57_33k_ES_PAN_21mic_H50_0431_fot_47B-27882_E_tif
  70
32
  10
448830.949
  20
4567565.158
  30
1047.926
  0
VERTEX
  8
PNOA-H_AMS_1956-57_33k_ES_PAN_21mic_H50_0431_fot_47B-27882_E_tif
  70
32
  10
448829.923
  20
4567565.046
  30
1047.916
  0
VERTEX
  8
PNOA-H_AMS_1956-57_33k_ES_PAN_21mic_H50_0431_fot_47B-27882_E_tif
  70
32
  10
448829.500
  20
4567565.000
  30
1047.912
  0
VERTEX
  8
PNOA-H_AMS_1956-57_33k_ES_PAN_21mic_H50_0431_fot_47B-27882_E_tif
  70
32
  10
448165.913
  20
4567921.242
  30
1026.132
  0
VERTEX
  8
PNOA-H_AMS_1956-57_33k_ES_PAN_21mic_H50_0431_fot_47B-27882_E_tif
  70
32
  10
448164.500
  20
4567922.000
  30
1026.085
  0
VERTEX
  8
PNOA-H_AMS_1956-57_33k_ES_PAN_21mic_H50_0431_fot_47B-27882_E_tif
  70
32
  10
448107.000
  20
4572069.000
  30
1039.511
  0
VERTEX
  8
PNOA-H_AMS_1956-57_33k_ES_PAN_21mic_H50_0431_fot_47B-27882_E_tif
  70
32
  10
449983.500
  20
4572437.500
  30
1069.512
  0
VERTEX
  8
PNOA-H_AMS_1956-57_33k_ES_PAN_21mic_H50_0431_fot_47B-27882_E_tif
  70
32
  10
449986.000
  20
4572438.000
  30
1069.643
  0
SEQEND
  8
PNOA-H_AMS_1956-57_33k_ES_PAN_21mic_H50_0431_fot_47B-27882_E_tif
  0
INSERT
  8
FeatureAttribs
  2
FEATURE
  41
1
  42
1
  43
1
  50
0
  10
447463.707
  20
4567251.000
 66
1
  0
ATTRIB
  8
FeatureAttribs
 70
0
  1
PNOA-H_AMS_1956-57_33k_ES_PAN_21mic_H50_0431_fot_48C-22145_W.tif
  2
NAME
  10
447463.707
  20
4567251.000
 40
33.69203
  0
SEQEND
  0
POLYLINE
  8
PNOA-H_AMS_1956-57_33k_ES_PAN_21mic_H50_0431_fot_48C-22145_W_tif
  70
9
  66
1
  0
VERTEX
  8
PNOA-H_AMS_1956-57_33k_ES_PAN_21mic_H50_0431_fot_48C-22145_W_tif
  70
32
  10
446063.479
  20
4566580.000
  30
978.208
  0
VERTEX
  8
PNOA-H_AMS_1956-57_33k_ES_PAN_21mic_H50_0431_fot_48C-22145_W_tif
  70
32
  10
446063.360
  20
4566580.000
  30
978.205
  0
VERTEX
  8
PNOA-H_AMS_1956-57_33k_ES_PAN_21mic_H50_0431_fot_48C-22145_W_tif
  70
32
  10
446146.500
  20
4567605.000
  30
956.813
  0
VERTEX
  8
PNOA-H_AMS_1956-57_33k_ES_PAN_21mic_H50_0431_fot_48C-22145_W_tif
  70
32
  10
446593.722
  20
4567675.333
  30
972.157
  0
VERTEX
  8
PNOA-H_AMS_1956-57_33k_ES_PAN_21mic_H50_0431_fot_48C-22145_W_tif
  70
32
  10
448159.000
  20
4567921.500
  30
1025.863
  0
VERTEX
  8
PNOA-H_AMS_1956-57_33k_ES_PAN_21mic_H50_0431_fot_48C-22145_W_tif
  70
32
  10
448162.500
  20
4567922.000
  30
1026
  0
VERTEX
  8
PNOA-H_AMS_1956-57_33k_ES_PAN_21mic_H50_0431_fot_48C-22145_W_tif
  70
32
  10
448163.559
  20
4567921.765
  30
1026.05
  0
VERTEX
  8
PNOA-H_AMS_1956-57_33k_ES_PAN_21mic_H50_0431_fot_48C-22145_W_tif
  70
32
  10
448165.913
  20
4567921.242
  30
1026.161
  0
VERTEX
  8
PNOA-H_AMS_1956-57_33k_ES_PAN_21mic_H50_0431_fot_48C-22145_W_tif
  70
32
  10
448167.000
  20
4567921.000
  30
1026.213
  0
VERTEX
  8
PNOA-H_AMS_1956-57_33k_ES_PAN_21mic_H50_0431_fot_48C-22145_W_tif
  70
32
  10
448825.000
  20
4567568.000
  30
1047.838
  0
VERTEX
  8
PNOA-H_AMS_1956-57_33k_ES_PAN_21mic_H50_0431_fot_48C-22145_W_tif
  70
32
  10
448829.923
  20
4567565.046
  30
1047.912
  0
VERTEX
  8
PNOA-H_AMS_1956-57_33k_ES_PAN_21mic_H50_0431_fot_48C-22145_W_tif
  70
32
  10
448830.000
  20
4567565.000
  30
1047.913
  0
VERTEX
  8
PNOA-H_AMS_1956-57_33k_ES_PAN_21mic_H50_0431_fot_48C-22145_W_tif
  70
32
  10
448830.000
  20
4567560.000
  30
1048.013
  0
VERTEX
  8
PNOA-H_AMS_1956-57_33k_ES_PAN_21mic_H50_0431_fot_48C-22145_W_tif
  70
32
  10
448765.390
  20
4566580.000
  30
1042.856
  0
VERTEX
  8
PNOA-H_AMS_1956-57_33k_ES_PAN_21mic_H50_0431_fot_48C-22145_W_tif
  70
32
  10
448765.003
  20
4566580.000
  30
1042.847
  0
VERTEX
  8
PNOA-H_AMS_1956-57_33k_ES_PAN_21mic_H50_0431_fot_48C-22145_W_tif
  70
32
  10
446063.479
  20
4566580.000
  30
978.208
  0
SEQEND
  8
PNOA-H_AMS_1956-57_33k_ES_PAN_21mic_H50_0431_fot_48C-22145_W_tif
  0
INSERT
  8
FeatureAttribs
  2
FEATURE
  41
1
  42
1
  43
1
  50
0
  10
444721.800
  20
4567329.250
 66
1
  0
ATTRIB
  8
FeatureAttribs
 70
0
  1
PNOA-H_AMS_1956-57_33k_ES_PAN_21mic_H50_0431_fot_48C-22146_W.tif
  2
NAME
  10
444721.800
  20
4567329.250
 40
33.69203
  0
SEQEND
  0
POLYLINE
  8
PNOA-H_AMS_1956-57_33k_ES_PAN_21mic_H50_0431_fot_48C-22146_W_tif
  70
9
  66
1
  0
VERTEX
  8
PNOA-H_AMS_1956-57_33k_ES_PAN_21mic_H50_0431_fot_48C-22146_W_tif
  70
32
  10
446063.360
  20
4566580.000
  30
978.207
  0
VERTEX
  8
PNOA-H_AMS_1956-57_33k_ES_PAN_21mic_H50_0431_fot_48C-22146_W_tif
  70
32
  10
443275.584
  20
4566580.000
  30
1006.021
  0
VERTEX
  8
PNOA-H_AMS_1956-57_33k_ES_PAN_21mic_H50_0431_fot_48C-22146_W_tif
  70
32
  10
443338.500
  20
4567655.000
  30
1010.425
  0
VERTEX
  8
PNOA-H_AMS_1956-57_33k_ES_PAN_21mic_H50_0431_fot_48C-22146_W_tif
  70
32
  10
443339.361
  20
4567655.192
  30
1010.405
  0
VERTEX
  8
PNOA-H_AMS_1956-57_33k_ES_PAN_21mic_H50_0431_fot_48C-22146_W_tif
  70
32
  10
445237.000
  20
4568078.000
  30
966.83
  0
VERTEX
  8
PNOA-H_AMS_1956-57_33k_ES_PAN_21mic_H50_0431_fot_48C-22146_W_tif
  70
32
  10
445239.500
  20
4568078.500
  30
966.737
  0
VERTEX
  8
PNOA-H_AMS_1956-57_33k_ES_PAN_21mic_H50_0431_fot_48C-22146_W_tif
  70
32
  10
445239.799
  20
4568078.344
  30
966.734
  0
VERTEX
  8
PNOA-H_AMS_1956-57_33k_ES_PAN_21mic_H50_0431_fot_48C-22146_W_tif
  70
32
  10
445693.000
  20
4567841.750
  30
961.775
  0
VERTEX
  8
PNOA-H_AMS_1956-57_33k_ES_PAN_21mic_H50_0431_fot_48C-22146_W_tif
  70
32
  10
446146.269
  20
4567605.121
  30
956.815
  0
VERTEX
  8
PNOA-H_AMS_1956-57_33k_ES_PAN_21mic_H50_0431_fot_48C-22146_W_tif
  70
32
  10
446146.500
  20
4567605.000
  30
956.813
  0
VERTEX
  8
PNOA-H_AMS_1956-57_33k_ES_PAN_21mic_H50_0431_fot_48C-22146_W_tif
  70
32
  10
446063.479
  20
4566580.000
  30
978.206
  0
VERTEX
  8
PNOA-H_AMS_1956-57_33k_ES_PAN_21mic_H50_0431_fot_48C-22146_W_tif
  70
32
  10
446063.360
  20
4566580.000
  30
978.207
  0
SEQEND
  8
PNOA-H_AMS_1956-57_33k_ES_PAN_21mic_H50_0431_fot_48C-22146_W_tif
  0
INSERT
  8
FeatureAttribs
  2
FEATURE
  41
1
  42
1
  43
1
  50
0
  10
450134.189
  20
4567168.750
 66
1
  0
ATTRIB
  8
FeatureAttribs
 70
0
  1
PNOA-H_AMS_1956-57_33k_ES_PAN_21mic_H50_0431_fot_48C-22144_W.tif
  2
NAME
  10
450134.189
  20
4567168.750
 40
33.69203
  0
SEQEND
  0
POLYLINE
  8
PNOA-H_AMS_1956-57_33k_ES_PAN_21mic_H50_0431_fot_48C-22144_W_tif
  70
9
  66
1
  0
VERTEX
  8
PNOA-H_AMS_1956-57_33k_ES_PAN_21mic_H50_0431_fot_48C-22144_W_tif
  70
32
  10
451472.989
  20
4567537.506
  30
1093.676
  0
VERTEX
  8
PNOA-H_AMS_1956-57_33k_ES_PAN_21mic_H50_0431_fot_48C-22144_W_tif
  70
32
  10
451450.370
  20
4566540.000
  30
1086.664
  0
VERTEX
  8
PNOA-H_AMS_1956-57_33k_ES_PAN_21mic_H50_0431_fot_48C-22144_W_tif
  70
32
  10
449280.000
  20
4566540.000
  30
1054.479
  0
VERTEX
  8
PNOA-H_AMS_1956-57_33k_ES_PAN_21mic_H50_0431_fot_48C-22144_W_tif
  70
32
  10
449280.000
  20
4566580.000
  30
1054.479
  0
VERTEX
  8
PNOA-H_AMS_1956-57_33k_ES_PAN_21mic_H50_0431_fot_48C-22144_W_tif
  70
32
  10
448765.390
  20
4566580.000
  30
1042.863
  0
VERTEX
  8
PNOA-H_AMS_1956-57_33k_ES_PAN_21mic_H50_0431_fot_48C-22144_W_tif
  70
32
  10
448765.003
  20
4566580.000
  30
1042.854
  0
VERTEX
  8
PNOA-H_AMS_1956-57_33k_ES_PAN_21mic_H50_0431_fot_48C-22144_W_tif
  70
32
  10
448829.500
  20
4567560.000
  30
1048.011
  0
VERTEX
  8
PNOA-H_AMS_1956-57_33k_ES_PAN_21mic_H50_0431_fot_48C-22144_W_tif
  70
32
  10
448830.000
  20
4567565.000
  30
1047.913
  0
VERTEX
  8
PNOA-H_AMS_1956-57_33k_ES_PAN_21mic_H50_0431_fot_48C-22144_W_tif
  70
32
  10
448830.949
  20
4567565.158
  30
1047.912
  0
VERTEX
  8
PNOA-H_AMS_1956-57_33k_ES_PAN_21mic_H50_0431_fot_48C-22144_W_tif
  70
32
  10
448833.000
  20
4567565.500
  30
1047.909
  0
VERTEX
  8
PNOA-H_AMS_1956-57_33k_ES_PAN_21mic_H50_0431_fot_48C-22144_W_tif
  70
32
  10
448966.000
  20
4567580.000
  30
1049.612
  0
VERTEX
  8
PNOA-H_AMS_1956-57_33k_ES_PAN_21mic_H50_0431_fot_48C-22144_W_tif
  70
32
  10
448970.500
  20
4567580.500
  30
1049.731
  0
VERTEX
  8
PNOA-H_AMS_1956-57_33k_ES_PAN_21mic_H50_0431_fot_48C-22144_W_tif
  70
32
  10
450296.833
  20
4567725.167
  30
1062.165
  0
VERTEX
  8
PNOA-H_AMS_1956-57_33k_ES_PAN_21mic_H50_0431_fot_48C-22144_W_tif
  70
32
  10
450959.589
  20
4567797.455
  30
1068.378
  0
VERTEX
  8
PNOA-H_AMS_1956-57_33k_ES_PAN_21mic_H50_0431_fot_48C-22144_W_tif
  70
32
  10
450960.000
  20
4567797.500
  30
1068.382
  0
VERTEX
  8
PNOA-H_AMS_1956-57_33k_ES_PAN_21mic_H50_0431_fot_48C-22144_W_tif
  70
32
  10
451473.000
  20
4567538.000
  30
1093.68
  0
VERTEX
  8
PNOA-H_AMS_1956-57_33k_ES_PAN_21mic_H50_0431_fot_48C-22144_W_tif
  70
32
  10
451472.989
  20
4567537.506
  30
1093.676
  0
SEQEND
  8
PNOA-H_AMS_1956-57_33k_ES_PAN_21mic_H50_0431_fot_48C-22144_W_tif
  0
INSERT
  8
FeatureAttribs
  2
FEATURE
  41
1
  42
1
  43
1
  50
0
  10
454973.714
  20
4569920.750
 66
1
  0
ATTRIB
  8
FeatureAttribs
 70
0
  1
PNOA-H_AMS_1956-57_33k_ES_PAN_21mic_H50_0431_fot_47B-27884_E.tif
  2
NAME
  10
454973.714
  20
4569920.750
 40
33.69203
  0
SEQEND
  0
POLYLINE
  8
PNOA-H_AMS_1956-57_33k_ES_PAN_21mic_H50_0431_fot_47B-27884_E_tif
  70
9
  66
1
  0
VERTEX
  8
PNOA-H_AMS_1956-57_33k_ES_PAN_21mic_H50_0431_fot_47B-27884_E_tif
  70
32
  10
454286.000
  20
4567467.000
  30
1099.315
  0
VERTEX
  8
PNOA-H_AMS_1956-57_33k_ES_PAN_21mic_H50_0431_fot_47B-27884_E_tif
  70
32
  10
454285.000
  20
4567467.000
  30
1099.364
  0
VERTEX
  8
PNOA-H_AMS_1956-57_33k_ES_PAN_21mic_H50_0431_fot_47B-27884_E_tif
  70
32
  10
453613.500
  20
4567789.000
  30
1088.384
  0
VERTEX
  8
PNOA-H_AMS_1956-57_33k_ES_PAN_21mic_H50_0431_fot_47B-27884_E_tif
  70
32
  10
453613.499
  20
4567789.261
  30
1088.385
  0
VERTEX
  8
PNOA-H_AMS_1956-57_33k_ES_PAN_21mic_H50_0431_fot_47B-27884_E_tif
  70
32
  10
453596.000
  20
4572065.500
  30
1094.979
  0
VERTEX
  8
PNOA-H_AMS_1956-57_33k_ES_PAN_21mic_H50_0431_fot_47B-27884_E_tif
  70
32
  10
453597.060
  20
4572065.669
  30
1094.997
  0
VERTEX
  8
PNOA-H_AMS_1956-57_33k_ES_PAN_21mic_H50_0431_fot_47B-27884_E_tif
  70
32
  10
455533.500
  20
4572374.000
  30
1127.666
  0
VERTEX
  8
PNOA-H_AMS_1956-57_33k_ES_PAN_21mic_H50_0431_fot_47B-27884_E_tif
  70
32
  10
455536.500
  20
4572374.500
  30
1127.662
  0
VERTEX
  8
PNOA-H_AMS_1956-57_33k_ES_PAN_21mic_H50_0431_fot_47B-27884_E_tif
  70
32
  10
455539.500
  20
4572374.500
  30
1127.678
  0
VERTEX
  8
PNOA-H_AMS_1956-57_33k_ES_PAN_21mic_H50_0431_fot_47B-27884_E_tif
  70
32
  10
455540.500
  20
4572374.500
  30
1127.684
  0
VERTEX
  8
PNOA-H_AMS_1956-57_33k_ES_PAN_21mic_H50_0431_fot_47B-27884_E_tif
  70
32
  10
455551.500
  20
4572370.000
  30
1128.068
  0
VERTEX
  8
PNOA-H_AMS_1956-57_33k_ES_PAN_21mic_H50_0431_fot_47B-27884_E_tif
  70
32
  10
456297.000
  20
4572050.500
  30
1137.876
  0
VERTEX
  8
PNOA-H_AMS_1956-57_33k_ES_PAN_21mic_H50_0431_fot_47B-27884_E_tif
  70
32
  10
456300.006
  20
4572049.212
  30
1137.916
  0
VERTEX
  8
PNOA-H_AMS_1956-57_33k_ES_PAN_21mic_H50_0431_fot_47B-27884_E_tif
  70
32
  10
456300.500
  20
4572049.000
  30
1137.922
  0
VERTEX
  8
PNOA-H_AMS_1956-57_33k_ES_PAN_21mic_H50_0431_fot_47B-27884_E_tif
  70
32
  10
456373.340
  20
4568371.234
  30
1154.423
  0
VERTEX
  8
PNOA-H_AMS_1956-57_33k_ES_PAN_21mic_H50_0431_fot_47B-27884_E_tif
  70
32
  10
456373.245
  20
4568355.415
  30
0
  0
VERTEX
  8
PNOA-H_AMS_1956-57_33k_ES_PAN_21mic_H50_0431_fot_47B-27884_E_tif
  70
32
  10
456369.981
  20
4567810.929
  30
0
  0
VERTEX
  8
PNOA-H_AMS_1956-57_33k_ES_PAN_21mic_H50_0431_fot_47B-27884_E_tif
  70
32
  10
456369.978
  20
4567810.434
  30
1148.741
  0
VERTEX
  8
PNOA-H_AMS_1956-57_33k_ES_PAN_21mic_H50_0431_fot_47B-27884_E_tif
  70
32
  10
454288.500
  20
4567467.000
  30
1099.194
  0
VERTEX
  8
PNOA-H_AMS_1956-57_33k_ES_PAN_21mic_H50_0431_fot_47B-27884_E_tif
  70
32
  10
454286.000
  20
4567467.000
  30
1099.315
  0
SEQEND
  8
PNOA-H_AMS_1956-57_33k_ES_PAN_21mic_H50_0431_fot_47B-27884_E_tif
  0
INSERT
  8
FeatureAttribs
  2
FEATURE
  41
1
  42
1
  43
1
  50
0
  10
456360.412
  20
4570211.201
 66
1
  0
ATTRIB
  8
FeatureAttribs
 70
0
  1
PNOA-H_AMS_1956-57_33k_ES_PAN_21mic_H50_0432_fot_47B-27885_E.tif
  2
NAME
  10
456360.412
  20
4570211.201
 40
33.69203
  0
SEQEND
  0
POLYLINE
  8
PNOA-H_AMS_1956-57_33k_ES_PAN_21mic_H50_0432_fot_47B-27885_E_tif
  70
9
  66
1
  0
VERTEX
  8
PNOA-H_AMS_1956-57_33k_ES_PAN_21mic_H50_0432_fot_47B-27885_E_tif
  70
32
  10
456373.340
  20
4568371.234
  30
0
  0
VERTEX
  8
PNOA-H_AMS_1956-57_33k_ES_PAN_21mic_H50_0432_fot_47B-27885_E_tif
  70
32
  10
456373.245
  20
4568355.415
  30
1147.944
  0
VERTEX
  8
PNOA-H_AMS_1956-57_33k_ES_PAN_21mic_H50_0432_fot_47B-27885_E_tif
  70
32
  10
456300.006
  20
4572049.212
  30
1137.899
  0
VERTEX
  8
PNOA-H_AMS_1956-57_33k_ES_PAN_21mic_H50_0432_fot_47B-27885_E_tif
  70
32
  10
456300.000
  20
4572049.500
  30
1137.898
  0
VERTEX
  8
PNOA-H_AMS_1956-57_33k_ES_PAN_21mic_H50_0432_fot_47B-27885_E_tif
  70
32
  10
456301.044
  20
4572049.691
  30
1137.906
  0
VERTEX
  8
PNOA-H_AMS_1956-57_33k_ES_PAN_21mic_H50_0432_fot_47B-27885_E_tif
  70
32
  10
456395.506
  20
4572066.988
  30
1138.597
  0
VERTEX
  8
PNOA-H_AMS_1956-57_33k_ES_PAN_21mic_H50_0432_fot_47B-27885_E_tif
  70
32
  10
456395.504
  20
4572066.612
  30
0
  0
VERTEX
  8
PNOA-H_AMS_1956-57_33k_ES_PAN_21mic_H50_0432_fot_47B-27885_E_tif
  70
32
  10
456390.703
  20
4571266.450
  30
0
  0
VERTEX
  8
PNOA-H_AMS_1956-57_33k_ES_PAN_21mic_H50_0432_fot_47B-27885_E_tif
  70
32
  10
456376.831
  20
4568953.627
  30
0
  0
VERTEX
  8
PNOA-H_AMS_1956-57_33k_ES_PAN_21mic_H50_0432_fot_47B-27885_E_tif
  70
32
  10
456373.340
  20
4568371.234
  30
0
  0
SEQEND
  8
PNOA-H_AMS_1956-57_33k_ES_PAN_21mic_H50_0432_fot_47B-27885_E_tif
  0
INSERT
  8
FeatureAttribs
  2
FEATURE
  41
1
  42
1
  43
1
  50
0
  10
452265.072
  20
4569965.250
 66
1
  0
ATTRIB
  8
FeatureAttribs
 70
0
  1
PNOA-H_AMS_1956-57_33k_ES_PAN_21mic_H50_0431_fot_47B-27883_E.tif
  2
NAME
  10
452265.072
  20
4569965.250
 40
33.69203
  0
SEQEND
  0
POLYLINE
  8
PNOA-H_AMS_1956-57_33k_ES_PAN_21mic_H50_0431_fot_47B-27883_E_tif
  70
9
  66
1
  0
VERTEX
  8
PNOA-H_AMS_1956-57_33k_ES_PAN_21mic_H50_0431_fot_47B-27883_E_tif
  70
32
  10
453613.000
  20
4567789.000
  30
1088.519
  0
VERTEX
  8
PNOA-H_AMS_1956-57_33k_ES_PAN_21mic_H50_0431_fot_47B-27883_E_tif
  70
32
  10
451473.000
  20
4567537.500
  30
1093.667
  0
VERTEX
  8
PNOA-H_AMS_1956-57_33k_ES_PAN_21mic_H50_0431_fot_47B-27883_E_tif
  70
32
  10
451472.989
  20
4567537.506
  30
1093.667
  0
VERTEX
  8
PNOA-H_AMS_1956-57_33k_ES_PAN_21mic_H50_0431_fot_47B-27883_E_tif
  70
32
  10
450959.589
  20
4567797.455
  30
1068.347
  0
VERTEX
  8
PNOA-H_AMS_1956-57_33k_ES_PAN_21mic_H50_0431_fot_47B-27883_E_tif
  70
32
  10
450959.500
  20
4567797.500
  30
1068.342
  0
VERTEX
  8
PNOA-H_AMS_1956-57_33k_ES_PAN_21mic_H50_0431_fot_47B-27883_E_tif
  70
32
  10
450893.000
  20
4572074.500
  30
1090.513
  0
VERTEX
  8
PNOA-H_AMS_1956-57_33k_ES_PAN_21mic_H50_0431_fot_47B-27883_E_tif
  70
32
  10
451015.000
  20
4572095.000
  30
1083.159
  0
VERTEX
  8
PNOA-H_AMS_1956-57_33k_ES_PAN_21mic_H50_0431_fot_47B-27883_E_tif
  70
32
  10
451018.000
  20
4572095.500
  30
1083.016
  0
VERTEX
  8
PNOA-H_AMS_1956-57_33k_ES_PAN_21mic_H50_0431_fot_47B-27883_E_tif
  70
32
  10
452802.787
  20
4572392.881
  30
1091.052
  0
VERTEX
  8
PNOA-H_AMS_1956-57_33k_ES_PAN_21mic_H50_0431_fot_47B-27883_E_tif
  70
32
  10
452803.500
  20
4572393.000
  30
1091.055
  0
VERTEX
  8
PNOA-H_AMS_1956-57_33k_ES_PAN_21mic_H50_0431_fot_47B-27883_E_tif
  70
32
  10
453576.779
  20
4572073.443
  30
1094.884
  0
VERTEX
  8
PNOA-H_AMS_1956-57_33k_ES_PAN_21mic_H50_0431_fot_47B-27883_E_tif
  70
32
  10
453596.000
  20
4572065.500
  30
1094.979
  0
VERTEX
  8
PNOA-H_AMS_1956-57_33k_ES_PAN_21mic_H50_0431_fot_47B-27883_E_tif
  70
32
  10
453612.999
  20
4567789.500
  30
1088.52
  0
VERTEX
  8
PNOA-H_AMS_1956-57_33k_ES_PAN_21mic_H50_0431_fot_47B-27883_E_tif
  70
32
  10
453613.000
  20
4567789.000
  30
1088.519
  0
SEQEND
  8
PNOA-H_AMS_1956-57_33k_ES_PAN_21mic_H50_0431_fot_47B-27883_E_tif
  0
INSERT
  8
FeatureAttribs
  2
FEATURE
  41
1
  42
1
  43
1
  50
0
  10
455322.794
  20
4567175.465
 66
1
  0
ATTRIB
  8
FeatureAttribs
 70
0
  1
PNOA-H_AMS_1956-57_33k_ES_PAN_21mic_H50_0431_fot_48C-22142_W.tif
  2
NAME
  10
455322.794
  20
4567175.465
 40
33.69203
  0
SEQEND
  0
POLYLINE
  8
PNOA-H_AMS_1956-57_33k_ES_PAN_21mic_H50_0431_fot_48C-22142_W_tif
  70
9
  66
1
  0
VERTEX
  8
PNOA-H_AMS_1956-57_33k_ES_PAN_21mic_H50_0431_fot_48C-22142_W_tif
  70
32
  10
454265.160
  20
4566540.000
  30
1114.031
  0
VERTEX
  8
PNOA-H_AMS_1956-57_33k_ES_PAN_21mic_H50_0431_fot_48C-22142_W_tif
  70
32
  10
454265.064
  20
4566540.000
  30
1114.029
  0
VERTEX
  8
PNOA-H_AMS_1956-57_33k_ES_PAN_21mic_H50_0431_fot_48C-22142_W_tif
  70
32
  10
454286.000
  20
4567467.000
  30
1099.315
  0
VERTEX
  8
PNOA-H_AMS_1956-57_33k_ES_PAN_21mic_H50_0431_fot_48C-22142_W_tif
  70
32
  10
456369.981
  20
4567810.929
  30
1148.368
  0
VERTEX
  8
PNOA-H_AMS_1956-57_33k_ES_PAN_21mic_H50_0431_fot_48C-22142_W_tif
  70
32
  10
456369.978
  20
4567810.434
  30
0
  0
VERTEX
  8
PNOA-H_AMS_1956-57_33k_ES_PAN_21mic_H50_0431_fot_48C-22142_W_tif
  70
32
  10
456362.966
  20
4566640.811
  30
0
  0
VERTEX
  8
PNOA-H_AMS_1956-57_33k_ES_PAN_21mic_H50_0431_fot_48C-22142_W_tif
  70
32
  10
456362.362
  20
4566540.000
  30
1162.194
  0
VERTEX
  8
PNOA-H_AMS_1956-57_33k_ES_PAN_21mic_H50_0431_fot_48C-22142_W_tif
  70
32
  10
454265.160
  20
4566540.000
  30
1114.031
  0
SEQEND
  8
PNOA-H_AMS_1956-57_33k_ES_PAN_21mic_H50_0431_fot_48C-22142_W_tif
  0
INSERT
  8
FeatureAttribs
  2
FEATURE
  41
1
  42
1
  43
1
  50
0
  10
452871.876
  20
4567164.750
 66
1
  0
ATTRIB
  8
FeatureAttribs
 70
0
  1
PNOA-H_AMS_1956-57_33k_ES_PAN_21mic_H50_0431_fot_48C-22143_W.tif
  2
NAME
  10
452871.876
  20
4567164.750
 40
33.69203
  0
SEQEND
  0
POLYLINE
  8
PNOA-H_AMS_1956-57_33k_ES_PAN_21mic_H50_0431_fot_48C-22143_W_tif
  70
9
  66
1
  0
VERTEX
  8
PNOA-H_AMS_1956-57_33k_ES_PAN_21mic_H50_0431_fot_48C-22143_W_tif
  70
32
  10
454265.064
  20
4566540.000
  30
1114.028
  0
VERTEX
  8
PNOA-H_AMS_1956-57_33k_ES_PAN_21mic_H50_0431_fot_48C-22143_W_tif
  70
32
  10
451450.379
  20
4566540.000
  30
1086.657
  0
VERTEX
  8
PNOA-H_AMS_1956-57_33k_ES_PAN_21mic_H50_0431_fot_48C-22143_W_tif
  70
32
  10
451473.000
  20
4567537.500
  30
1093.667
  0
VERTEX
  8
PNOA-H_AMS_1956-57_33k_ES_PAN_21mic_H50_0431_fot_48C-22143_W_tif
  70
32
  10
453608.500
  20
4567789.000
  30
1089.981
  0
VERTEX
  8
PNOA-H_AMS_1956-57_33k_ES_PAN_21mic_H50_0431_fot_48C-22143_W_tif
  70
32
  10
453612.999
  20
4567789.500
  30
1088.608
  0
VERTEX
  8
PNOA-H_AMS_1956-57_33k_ES_PAN_21mic_H50_0431_fot_48C-22143_W_tif
  70
32
  10
453613.499
  20
4567789.261
  30
1088.615
  0
VERTEX
  8
PNOA-H_AMS_1956-57_33k_ES_PAN_21mic_H50_0431_fot_48C-22143_W_tif
  70
32
  10
454286.000
  20
4567467.000
  30
1099.315
  0
VERTEX
  8
PNOA-H_AMS_1956-57_33k_ES_PAN_21mic_H50_0431_fot_48C-22143_W_tif
  70
32
  10
454265.160
  20
4566540.000
  30
1114.029
  0
VERTEX
  8
PNOA-H_AMS_1956-57_33k_ES_PAN_21mic_H50_0431_fot_48C-22143_W_tif
  70
32
  10
454265.064
  20
4566540.000
  30
1114.028
  0
SEQEND
  8
PNOA-H_AMS_1956-57_33k_ES_PAN_21mic_H50_0431_fot_48C-22143_W_tif
  0
ENDSEC
  0
EOF
