  0
SECTION
  2
HEADER
  9
$ACADVER
  1
AC1009
  9
$LUNITS
  70
2
  9
$LIMMIN
  10
567813.783
  20
4576079.679
  9
$LIMMAX
  10
581880.000
  20
4594728.768
  9
$EXTMIN
  10
567813.783
  20
4576079.679
  9
$EXTMAX
  10
581880.000
  20
4594728.768
  999
Created by Global Mapper
  999
Projection: UTM
  999
Datum: ETRS89
  999
Ground Units: meters
  999
ZONE: 30
  0
ENDSEC
  0
SECTION
  2
TABLES
  0
ENDSEC
  0
SECTION
  2
BLOCKS
  0
BLOCK
  8
FeatureAttribs
  70
0
  2
FEATURE
  3
FEATURE
  10
0.00000000
  20
0.00000000
  0
ATTDEF
  8
FeatureAttribs
  70
0
  1
 
  2
NAME
  3
NAME
  10
0.00000000
  20
0.00000000
  40
1.00000000
  0
ENDBLK
  0
ENDSEC
  0
SECTION
  2
ENTITIES
  0
INSERT
  8
FeatureAttribs
  2
FEATURE
  41
1
  42
1
  43
1
  50
0
  10
568756.832
  20
4594428.567
 66
1
  0
ATTRIB
  8
FeatureAttribs
 70
0
  1
PNOA-H_AMS_1956-57_33k_ES_PAN_21mic_H50_0380_fot_41B-37376_W.tif
  2
NAME
  10
568756.832
  20
4594428.567
 40
23.35909
  0
SEQEND
  0
POLYLINE
  8
PNOA-H_AMS_1956-57_33k_ES_PAN_21mic_H50_0380_fot_41B-37376_W_tif
  70
9
  66
1
  0
VERTEX
  8
PNOA-H_AMS_1956-57_33k_ES_PAN_21mic_H50_0380_fot_41B-37376_W_tif
  70
32
  10
569763.000
  20
4594434.500
  30
939.372
  0
VERTEX
  8
PNOA-H_AMS_1956-57_33k_ES_PAN_21mic_H50_0380_fot_41B-37376_W_tif
  70
32
  10
567816.856
  20
4594255.667
  30
923.248
  0
VERTEX
  8
PNOA-H_AMS_1956-57_33k_ES_PAN_21mic_H50_0380_fot_41B-37376_W_tif
  70
32
  10
567816.852
  20
4594256.133
  30
0
  0
VERTEX
  8
PNOA-H_AMS_1956-57_33k_ES_PAN_21mic_H50_0380_fot_41B-37376_W_tif
  70
32
  10
567813.783
  20
4594582.839
  30
0
  0
VERTEX
  8
PNOA-H_AMS_1956-57_33k_ES_PAN_21mic_H50_0380_fot_41B-37376_W_tif
  70
32
  10
569746.447
  20
4594601.466
  30
0
  0
VERTEX
  8
PNOA-H_AMS_1956-57_33k_ES_PAN_21mic_H50_0380_fot_41B-37376_W_tif
  70
32
  10
569746.465
  20
4594601.466
  30
944.311
  0
VERTEX
  8
PNOA-H_AMS_1956-57_33k_ES_PAN_21mic_H50_0380_fot_41B-37376_W_tif
  70
32
  10
569763.000
  20
4594434.500
  30
939.372
  0
SEQEND
  8
PNOA-H_AMS_1956-57_33k_ES_PAN_21mic_H50_0380_fot_41B-37376_W_tif
  0
INSERT
  8
FeatureAttribs
  2
FEATURE
  41
1
  42
1
  43
1
  50
0
  10
573274.652
  20
4594514.801
 66
1
  0
ATTRIB
  8
FeatureAttribs
 70
0
  1
PNOA-H_AMS_1956-57_33k_ES_PAN_21mic_H50_0380_fot_41B-37374_W.tif
  2
NAME
  10
573274.652
  20
4594514.801
 40
23.35909
  0
SEQEND
  0
POLYLINE
  8
PNOA-H_AMS_1956-57_33k_ES_PAN_21mic_H50_0380_fot_41B-37374_W_tif
  70
9
  66
1
  0
VERTEX
  8
PNOA-H_AMS_1956-57_33k_ES_PAN_21mic_H50_0380_fot_41B-37374_W_tif
  70
32
  10
574329.410
  20
4594647.102
  30
1029.001
  0
VERTEX
  8
PNOA-H_AMS_1956-57_33k_ES_PAN_21mic_H50_0380_fot_41B-37374_W_tif
  70
32
  10
573158.000
  20
4594382.500
  30
1088.741
  0
VERTEX
  8
PNOA-H_AMS_1956-57_33k_ES_PAN_21mic_H50_0380_fot_41B-37374_W_tif
  70
32
  10
573157.812
  20
4594382.571
  30
1088.739
  0
VERTEX
  8
PNOA-H_AMS_1956-57_33k_ES_PAN_21mic_H50_0380_fot_41B-37374_W_tif
  70
32
  10
573157.509
  20
4594382.684
  30
1088.734
  0
VERTEX
  8
PNOA-H_AMS_1956-57_33k_ES_PAN_21mic_H50_0380_fot_41B-37374_W_tif
  70
32
  10
572502.446
  20
4594628.613
  30
1078.876
  0
VERTEX
  8
PNOA-H_AMS_1956-57_33k_ES_PAN_21mic_H50_0380_fot_41B-37374_W_tif
  70
32
  10
572503.978
  20
4594628.628
  30
0
  0
VERTEX
  8
PNOA-H_AMS_1956-57_33k_ES_PAN_21mic_H50_0380_fot_41B-37374_W_tif
  70
32
  10
574328.462
  20
4594647.092
  30
0
  0
VERTEX
  8
PNOA-H_AMS_1956-57_33k_ES_PAN_21mic_H50_0380_fot_41B-37374_W_tif
  70
32
  10
574329.410
  20
4594647.102
  30
1029.001
  0
SEQEND
  8
PNOA-H_AMS_1956-57_33k_ES_PAN_21mic_H50_0380_fot_41B-37374_W_tif
  0
INSERT
  8
FeatureAttribs
  2
FEATURE
  41
1
  42
1
  43
1
  50
0
  10
576211.996
  20
4594576.278
 66
1
  0
ATTRIB
  8
FeatureAttribs
 70
0
  1
PNOA-H_AMS_1956-57_33k_ES_PAN_21mic_H50_0380_fot_41B-37373_W.tif
  2
NAME
  10
576211.996
  20
4594576.278
 40
23.35909
  0
SEQEND
  0
POLYLINE
  8
PNOA-H_AMS_1956-57_33k_ES_PAN_21mic_H50_0380_fot_41B-37373_W_tif
  70
9
  66
1
  0
VERTEX
  8
PNOA-H_AMS_1956-57_33k_ES_PAN_21mic_H50_0380_fot_41B-37373_W_tif
  70
32
  10
576891.764
  20
4594674.056
  30
936.076
  0
VERTEX
  8
PNOA-H_AMS_1956-57_33k_ES_PAN_21mic_H50_0380_fot_41B-37373_W_tif
  70
32
  10
576214.000
  20
4594478.500
  30
955.966
  0
VERTEX
  8
PNOA-H_AMS_1956-57_33k_ES_PAN_21mic_H50_0380_fot_41B-37373_W_tif
  70
32
  10
576213.209
  20
4594478.705
  30
956.016
  0
VERTEX
  8
PNOA-H_AMS_1956-57_33k_ES_PAN_21mic_H50_0380_fot_41B-37373_W_tif
  70
32
  10
576199.070
  20
4594482.361
  30
956.901
  0
VERTEX
  8
PNOA-H_AMS_1956-57_33k_ES_PAN_21mic_H50_0380_fot_41B-37373_W_tif
  70
32
  10
576185.000
  20
4594486.000
  30
957.782
  0
VERTEX
  8
PNOA-H_AMS_1956-57_33k_ES_PAN_21mic_H50_0380_fot_41B-37373_W_tif
  70
32
  10
575579.517
  20
4594660.143
  30
976.115
  0
VERTEX
  8
PNOA-H_AMS_1956-57_33k_ES_PAN_21mic_H50_0380_fot_41B-37373_W_tif
  70
32
  10
575580.666
  20
4594660.156
  30
0
  0
VERTEX
  8
PNOA-H_AMS_1956-57_33k_ES_PAN_21mic_H50_0380_fot_41B-37373_W_tif
  70
32
  10
576889.923
  20
4594674.036
  30
0
  0
VERTEX
  8
PNOA-H_AMS_1956-57_33k_ES_PAN_21mic_H50_0380_fot_41B-37373_W_tif
  70
32
  10
576891.764
  20
4594674.056
  30
936.076
  0
SEQEND
  8
PNOA-H_AMS_1956-57_33k_ES_PAN_21mic_H50_0380_fot_41B-37373_W_tif
  0
INSERT
  8
FeatureAttribs
  2
FEATURE
  41
1
  42
1
  43
1
  50
0
  10
570467.020
  20
4594449.655
 66
1
  0
ATTRIB
  8
FeatureAttribs
 70
0
  1
PNOA-H_AMS_1956-57_33k_ES_PAN_21mic_H50_0380_fot_41B-37375_W.tif
  2
NAME
  10
570467.020
  20
4594449.655
 40
23.35909
  0
SEQEND
  0
POLYLINE
  8
PNOA-H_AMS_1956-57_33k_ES_PAN_21mic_H50_0380_fot_41B-37375_W_tif
  70
9
  66
1
  0
VERTEX
  8
PNOA-H_AMS_1956-57_33k_ES_PAN_21mic_H50_0380_fot_41B-37375_W_tif
  70
32
  10
570119.500
  20
4594273.500
  30
971.505
  0
VERTEX
  8
PNOA-H_AMS_1956-57_33k_ES_PAN_21mic_H50_0380_fot_41B-37375_W_tif
  70
32
  10
570116.500
  20
4594273.500
  30
971.839
  0
VERTEX
  8
PNOA-H_AMS_1956-57_33k_ES_PAN_21mic_H50_0380_fot_41B-37375_W_tif
  70
32
  10
570115.500
  20
4594273.500
  30
971.95
  0
VERTEX
  8
PNOA-H_AMS_1956-57_33k_ES_PAN_21mic_H50_0380_fot_41B-37375_W_tif
  70
32
  10
570111.000
  20
4594275.500
  30
971.855
  0
VERTEX
  8
PNOA-H_AMS_1956-57_33k_ES_PAN_21mic_H50_0380_fot_41B-37375_W_tif
  70
32
  10
569763.000
  20
4594434.500
  30
939.372
  0
VERTEX
  8
PNOA-H_AMS_1956-57_33k_ES_PAN_21mic_H50_0380_fot_41B-37375_W_tif
  70
32
  10
569746.447
  20
4594601.466
  30
944.31
  0
VERTEX
  8
PNOA-H_AMS_1956-57_33k_ES_PAN_21mic_H50_0380_fot_41B-37375_W_tif
  70
32
  10
569746.465
  20
4594601.466
  30
0
  0
VERTEX
  8
PNOA-H_AMS_1956-57_33k_ES_PAN_21mic_H50_0380_fot_41B-37375_W_tif
  70
32
  10
571291.444
  20
4594616.357
  30
0
  0
VERTEX
  8
PNOA-H_AMS_1956-57_33k_ES_PAN_21mic_H50_0380_fot_41B-37375_W_tif
  70
32
  10
572222.393
  20
4594625.778
  30
0
  0
VERTEX
  8
PNOA-H_AMS_1956-57_33k_ES_PAN_21mic_H50_0380_fot_41B-37375_W_tif
  70
32
  10
572225.586
  20
4594625.811
  30
1069.28
  0
VERTEX
  8
PNOA-H_AMS_1956-57_33k_ES_PAN_21mic_H50_0380_fot_41B-37375_W_tif
  70
32
  10
570119.500
  20
4594273.500
  30
971.505
  0
SEQEND
  8
PNOA-H_AMS_1956-57_33k_ES_PAN_21mic_H50_0380_fot_41B-37375_W_tif
  0
INSERT
  8
FeatureAttribs
  2
FEATURE
  41
1
  42
1
  43
1
  50
0
  10
571684.659
  20
4592239.314
 66
1
  0
ATTRIB
  8
FeatureAttribs
 70
0
  1
PNOA-H_AMS_1956-57_33k_ES_PAN_21mic_H50_0408_fot_000-36341_R.tif
  2
NAME
  10
571684.659
  20
4592239.314
 40
23.35909
  0
SEQEND
  0
POLYLINE
  8
PNOA-H_AMS_1956-57_33k_ES_PAN_21mic_H50_0408_fot_000-36341_R_tif
  70
9
  66
1
  0
VERTEX
  8
PNOA-H_AMS_1956-57_33k_ES_PAN_21mic_H50_0408_fot_000-36341_R_tif
  70
32
  10
572512.433
  20
4589850.000
  30
905.563
  0
VERTEX
  8
PNOA-H_AMS_1956-57_33k_ES_PAN_21mic_H50_0408_fot_000-36341_R_tif
  70
32
  10
571343.402
  20
4589850.000
  30
888.136
  0
VERTEX
  8
PNOA-H_AMS_1956-57_33k_ES_PAN_21mic_H50_0408_fot_000-36341_R_tif
  70
32
  10
571135.250
  20
4589901.750
  30
887.076
  0
VERTEX
  8
PNOA-H_AMS_1956-57_33k_ES_PAN_21mic_H50_0408_fot_000-36341_R_tif
  70
32
  10
570187.000
  20
4590137.500
  30
882.248
  0
VERTEX
  8
PNOA-H_AMS_1956-57_33k_ES_PAN_21mic_H50_0408_fot_000-36341_R_tif
  70
32
  10
570116.500
  20
4594273.500
  30
971.843
  0
VERTEX
  8
PNOA-H_AMS_1956-57_33k_ES_PAN_21mic_H50_0408_fot_000-36341_R_tif
  70
32
  10
572222.393
  20
4594625.778
  30
1069.582
  0
VERTEX
  8
PNOA-H_AMS_1956-57_33k_ES_PAN_21mic_H50_0408_fot_000-36341_R_tif
  70
32
  10
572225.586
  20
4594625.811
  30
0
  0
VERTEX
  8
PNOA-H_AMS_1956-57_33k_ES_PAN_21mic_H50_0408_fot_000-36341_R_tif
  70
32
  10
572502.446
  20
4594628.613
  30
0
  0
VERTEX
  8
PNOA-H_AMS_1956-57_33k_ES_PAN_21mic_H50_0408_fot_000-36341_R_tif
  70
32
  10
572503.978
  20
4594628.628
  30
1079.137
  0
VERTEX
  8
PNOA-H_AMS_1956-57_33k_ES_PAN_21mic_H50_0408_fot_000-36341_R_tif
  70
32
  10
573157.500
  20
4594383.000
  30
1088.797
  0
VERTEX
  8
PNOA-H_AMS_1956-57_33k_ES_PAN_21mic_H50_0408_fot_000-36341_R_tif
  70
32
  10
573157.509
  20
4594382.684
  30
1088.785
  0
VERTEX
  8
PNOA-H_AMS_1956-57_33k_ES_PAN_21mic_H50_0408_fot_000-36341_R_tif
  70
32
  10
573157.514
  20
4594382.503
  30
1088.778
  0
VERTEX
  8
PNOA-H_AMS_1956-57_33k_ES_PAN_21mic_H50_0408_fot_000-36341_R_tif
  70
32
  10
573217.000
  20
4592279.750
  30
1009.32
  0
VERTEX
  8
PNOA-H_AMS_1956-57_33k_ES_PAN_21mic_H50_0408_fot_000-36341_R_tif
  70
32
  10
573276.486
  20
4590176.994
  30
929.863
  0
VERTEX
  8
PNOA-H_AMS_1956-57_33k_ES_PAN_21mic_H50_0408_fot_000-36341_R_tif
  70
32
  10
573276.500
  20
4590176.500
  30
929.844
  0
VERTEX
  8
PNOA-H_AMS_1956-57_33k_ES_PAN_21mic_H50_0408_fot_000-36341_R_tif
  70
32
  10
572513.494
  20
4589850.000
  30
905.579
  0
VERTEX
  8
PNOA-H_AMS_1956-57_33k_ES_PAN_21mic_H50_0408_fot_000-36341_R_tif
  70
32
  10
572512.433
  20
4589850.000
  30
905.563
  0
SEQEND
  8
PNOA-H_AMS_1956-57_33k_ES_PAN_21mic_H50_0408_fot_000-36341_R_tif
  0
INSERT
  8
FeatureAttribs
  2
FEATURE
  41
1
  42
1
  43
1
  50
0
  10
574725.367
  20
4592255.078
 66
1
  0
ATTRIB
  8
FeatureAttribs
 70
0
  1
PNOA-H_AMS_1956-57_33k_ES_PAN_21mic_H50_0408_fot_000-36342_R.tif
  2
NAME
  10
574725.367
  20
4592255.078
 40
23.35909
  0
SEQEND
  0
POLYLINE
  8
PNOA-H_AMS_1956-57_33k_ES_PAN_21mic_H50_0408_fot_000-36342_R_tif
  70
9
  66
1
  0
VERTEX
  8
PNOA-H_AMS_1956-57_33k_ES_PAN_21mic_H50_0408_fot_000-36342_R_tif
  70
32
  10
574425.217
  20
4589850.000
  30
940.361
  0
VERTEX
  8
PNOA-H_AMS_1956-57_33k_ES_PAN_21mic_H50_0408_fot_000-36342_R_tif
  70
32
  10
574423.941
  20
4589850.000
  30
940.213
  0
VERTEX
  8
PNOA-H_AMS_1956-57_33k_ES_PAN_21mic_H50_0408_fot_000-36342_R_tif
  70
32
  10
573899.347
  20
4589999.500
  30
935.49
  0
VERTEX
  8
PNOA-H_AMS_1956-57_33k_ES_PAN_21mic_H50_0408_fot_000-36342_R_tif
  70
32
  10
573276.500
  20
4590177.000
  30
929.883
  0
VERTEX
  8
PNOA-H_AMS_1956-57_33k_ES_PAN_21mic_H50_0408_fot_000-36342_R_tif
  70
32
  10
573217.000
  20
4592279.750
  30
1009.339
  0
VERTEX
  8
PNOA-H_AMS_1956-57_33k_ES_PAN_21mic_H50_0408_fot_000-36342_R_tif
  70
32
  10
573157.500
  20
4594382.500
  30
1088.795
  0
VERTEX
  8
PNOA-H_AMS_1956-57_33k_ES_PAN_21mic_H50_0408_fot_000-36342_R_tif
  70
32
  10
573157.514
  20
4594382.503
  30
1088.795
  0
VERTEX
  8
PNOA-H_AMS_1956-57_33k_ES_PAN_21mic_H50_0408_fot_000-36342_R_tif
  70
32
  10
573157.812
  20
4594382.571
  30
1088.78
  0
VERTEX
  8
PNOA-H_AMS_1956-57_33k_ES_PAN_21mic_H50_0408_fot_000-36342_R_tif
  70
32
  10
573895.500
  20
4594549.500
  30
1052.666
  0
VERTEX
  8
PNOA-H_AMS_1956-57_33k_ES_PAN_21mic_H50_0408_fot_000-36342_R_tif
  70
32
  10
573897.500
  20
4594550.000
  30
1052.56
  0
VERTEX
  8
PNOA-H_AMS_1956-57_33k_ES_PAN_21mic_H50_0408_fot_000-36342_R_tif
  70
32
  10
574328.462
  20
4594647.092
  30
1029.893
  0
VERTEX
  8
PNOA-H_AMS_1956-57_33k_ES_PAN_21mic_H50_0408_fot_000-36342_R_tif
  70
32
  10
574329.410
  20
4594647.102
  30
0
  0
VERTEX
  8
PNOA-H_AMS_1956-57_33k_ES_PAN_21mic_H50_0408_fot_000-36342_R_tif
  70
32
  10
574769.109
  20
4594651.551
  30
0
  0
VERTEX
  8
PNOA-H_AMS_1956-57_33k_ES_PAN_21mic_H50_0408_fot_000-36342_R_tif
  70
32
  10
575579.517
  20
4594660.143
  30
0
  0
VERTEX
  8
PNOA-H_AMS_1956-57_33k_ES_PAN_21mic_H50_0408_fot_000-36342_R_tif
  70
32
  10
575580.666
  20
4594660.156
  30
975.473
  0
VERTEX
  8
PNOA-H_AMS_1956-57_33k_ES_PAN_21mic_H50_0408_fot_000-36342_R_tif
  70
32
  10
576199.070
  20
4594482.361
  30
956.431
  0
VERTEX
  8
PNOA-H_AMS_1956-57_33k_ES_PAN_21mic_H50_0408_fot_000-36342_R_tif
  70
32
  10
576212.500
  20
4594478.500
  30
956.017
  0
VERTEX
  8
PNOA-H_AMS_1956-57_33k_ES_PAN_21mic_H50_0408_fot_000-36342_R_tif
  70
32
  10
576252.000
  20
4590202.000
  30
1018.544
  0
VERTEX
  8
PNOA-H_AMS_1956-57_33k_ES_PAN_21mic_H50_0408_fot_000-36342_R_tif
  70
32
  10
576251.780
  20
4590201.913
  30
1018.532
  0
VERTEX
  8
PNOA-H_AMS_1956-57_33k_ES_PAN_21mic_H50_0408_fot_000-36342_R_tif
  70
32
  10
575537.674
  20
4589920.000
  30
977.418
  0
VERTEX
  8
PNOA-H_AMS_1956-57_33k_ES_PAN_21mic_H50_0408_fot_000-36342_R_tif
  70
32
  10
575536.571
  20
4589920.000
  30
977.454
  0
VERTEX
  8
PNOA-H_AMS_1956-57_33k_ES_PAN_21mic_H50_0408_fot_000-36342_R_tif
  70
32
  10
574920.000
  20
4589920.000
  30
997.731
  0
VERTEX
  8
PNOA-H_AMS_1956-57_33k_ES_PAN_21mic_H50_0408_fot_000-36342_R_tif
  70
32
  10
574920.000
  20
4589850.000
  30
997.731
  0
VERTEX
  8
PNOA-H_AMS_1956-57_33k_ES_PAN_21mic_H50_0408_fot_000-36342_R_tif
  70
32
  10
574425.217
  20
4589850.000
  30
940.361
  0
SEQEND
  8
PNOA-H_AMS_1956-57_33k_ES_PAN_21mic_H50_0408_fot_000-36342_R_tif
  0
INSERT
  8
FeatureAttribs
  2
FEATURE
  41
1
  42
1
  43
1
  50
0
  10
581618.476
  20
4594624.634
 66
1
  0
ATTRIB
  8
FeatureAttribs
 70
0
  1
PNOA-H_AMS_1956-57_33k_ES_PAN_21mic_H50_0380_fot_41B-37371_W.tif
  2
NAME
  10
581618.476
  20
4594624.634
 40
23.35909
  0
SEQEND
  0
POLYLINE
  8
PNOA-H_AMS_1956-57_33k_ES_PAN_21mic_H50_0380_fot_41B-37371_W_tif
  70
9
  66
1
  0
VERTEX
  8
PNOA-H_AMS_1956-57_33k_ES_PAN_21mic_H50_0380_fot_41B-37371_W_tif
  70
32
  10
581880.000
  20
4594529.617
  30
1018.939
  0
VERTEX
  8
PNOA-H_AMS_1956-57_33k_ES_PAN_21mic_H50_0380_fot_41B-37371_W_tif
  70
32
  10
581855.500
  20
4594520.500
  30
1019.682
  0
VERTEX
  8
PNOA-H_AMS_1956-57_33k_ES_PAN_21mic_H50_0380_fot_41B-37371_W_tif
  70
32
  10
581854.402
  20
4594520.650
  30
1019.734
  0
VERTEX
  8
PNOA-H_AMS_1956-57_33k_ES_PAN_21mic_H50_0380_fot_41B-37371_W_tif
  70
32
  10
581851.227
  20
4594521.083
  30
1019.887
  0
VERTEX
  8
PNOA-H_AMS_1956-57_33k_ES_PAN_21mic_H50_0380_fot_41B-37371_W_tif
  70
32
  10
581844.500
  20
4594522.000
  30
1020.21
  0
VERTEX
  8
PNOA-H_AMS_1956-57_33k_ES_PAN_21mic_H50_0380_fot_41B-37371_W_tif
  70
32
  10
580913.524
  20
4594717.980
  30
1074.106
  0
VERTEX
  8
PNOA-H_AMS_1956-57_33k_ES_PAN_21mic_H50_0380_fot_41B-37371_W_tif
  70
32
  10
580914.192
  20
4594717.988
  30
1074.087
  0
VERTEX
  8
PNOA-H_AMS_1956-57_33k_ES_PAN_21mic_H50_0380_fot_41B-37371_W_tif
  70
32
  10
581724.456
  20
4594726.969
  30
0
  0
VERTEX
  8
PNOA-H_AMS_1956-57_33k_ES_PAN_21mic_H50_0380_fot_41B-37371_W_tif
  70
32
  10
581880.000
  20
4594728.768
  30
1046.778
  0
VERTEX
  8
PNOA-H_AMS_1956-57_33k_ES_PAN_21mic_H50_0380_fot_41B-37371_W_tif
  70
32
  10
581880.000
  20
4594530.181
  30
1019.018
  0
VERTEX
  8
PNOA-H_AMS_1956-57_33k_ES_PAN_21mic_H50_0380_fot_41B-37371_W_tif
  70
32
  10
581880.000
  20
4594529.617
  30
1018.939
  0
SEQEND
  8
PNOA-H_AMS_1956-57_33k_ES_PAN_21mic_H50_0380_fot_41B-37371_W_tif
  0
INSERT
  8
FeatureAttribs
  2
FEATURE
  41
1
  42
1
  43
1
  50
0
  10
578961.709
  20
4594602.284
 66
1
  0
ATTRIB
  8
FeatureAttribs
 70
0
  1
PNOA-H_AMS_1956-57_33k_ES_PAN_21mic_H50_0380_fot_41B-37372_W.tif
  2
NAME
  10
578961.709
  20
4594602.284
 40
23.35909
  0
SEQEND
  0
POLYLINE
  8
PNOA-H_AMS_1956-57_33k_ES_PAN_21mic_H50_0380_fot_41B-37372_W_tif
  70
9
  66
1
  0
VERTEX
  8
PNOA-H_AMS_1956-57_33k_ES_PAN_21mic_H50_0380_fot_41B-37372_W_tif
  70
32
  10
579658.445
  20
4594704.069
  30
1108.795
  0
VERTEX
  8
PNOA-H_AMS_1956-57_33k_ES_PAN_21mic_H50_0380_fot_41B-37372_W_tif
  70
32
  10
579051.000
  20
4594500.500
  30
1097.831
  0
VERTEX
  8
PNOA-H_AMS_1956-57_33k_ES_PAN_21mic_H50_0380_fot_41B-37372_W_tif
  70
32
  10
579050.693
  20
4594500.565
  30
1097.796
  0
VERTEX
  8
PNOA-H_AMS_1956-57_33k_ES_PAN_21mic_H50_0380_fot_41B-37372_W_tif
  70
32
  10
579050.508
  20
4594500.604
  30
1097.776
  0
VERTEX
  8
PNOA-H_AMS_1956-57_33k_ES_PAN_21mic_H50_0380_fot_41B-37372_W_tif
  70
32
  10
578164.660
  20
4594687.551
  30
998.703
  0
VERTEX
  8
PNOA-H_AMS_1956-57_33k_ES_PAN_21mic_H50_0380_fot_41B-37372_W_tif
  70
32
  10
578166.291
  20
4594687.569
  30
0
  0
VERTEX
  8
PNOA-H_AMS_1956-57_33k_ES_PAN_21mic_H50_0380_fot_41B-37372_W_tif
  70
32
  10
578246.780
  20
4594688.422
  30
0
  0
VERTEX
  8
PNOA-H_AMS_1956-57_33k_ES_PAN_21mic_H50_0380_fot_41B-37372_W_tif
  70
32
  10
579657.361
  20
4594704.057
  30
0
  0
VERTEX
  8
PNOA-H_AMS_1956-57_33k_ES_PAN_21mic_H50_0380_fot_41B-37372_W_tif
  70
32
  10
579658.445
  20
4594704.069
  30
1108.795
  0
SEQEND
  8
PNOA-H_AMS_1956-57_33k_ES_PAN_21mic_H50_0380_fot_41B-37372_W_tif
  0
INSERT
  8
FeatureAttribs
  2
FEATURE
  41
1
  42
1
  43
1
  50
0
  10
577662.668
  20
4592303.784
 66
1
  0
ATTRIB
  8
FeatureAttribs
 70
0
  1
PNOA-H_AMS_1956-57_33k_ES_PAN_21mic_H50_0408_fot_000-36343_R.tif
  2
NAME
  10
577662.668
  20
4592303.784
 40
23.35909
  0
SEQEND
  0
POLYLINE
  8
PNOA-H_AMS_1956-57_33k_ES_PAN_21mic_H50_0408_fot_000-36343_R_tif
  70
9
  66
1
  0
VERTEX
  8
PNOA-H_AMS_1956-57_33k_ES_PAN_21mic_H50_0408_fot_000-36343_R_tif
  70
32
  10
577221.496
  20
4589920.000
  30
1035.009
  0
VERTEX
  8
PNOA-H_AMS_1956-57_33k_ES_PAN_21mic_H50_0408_fot_000-36343_R_tif
  70
32
  10
577221.375
  20
4589920.000
  30
1035.01
  0
VERTEX
  8
PNOA-H_AMS_1956-57_33k_ES_PAN_21mic_H50_0408_fot_000-36343_R_tif
  70
32
  10
576252.618
  20
4590201.820
  30
1018.555
  0
VERTEX
  8
PNOA-H_AMS_1956-57_33k_ES_PAN_21mic_H50_0408_fot_000-36343_R_tif
  70
32
  10
576252.000
  20
4590202.000
  30
1018.544
  0
VERTEX
  8
PNOA-H_AMS_1956-57_33k_ES_PAN_21mic_H50_0408_fot_000-36343_R_tif
  70
32
  10
576212.500
  20
4594478.500
  30
956.017
  0
VERTEX
  8
PNOA-H_AMS_1956-57_33k_ES_PAN_21mic_H50_0408_fot_000-36343_R_tif
  70
32
  10
576213.209
  20
4594478.705
  30
955.997
  0
VERTEX
  8
PNOA-H_AMS_1956-57_33k_ES_PAN_21mic_H50_0408_fot_000-36343_R_tif
  70
32
  10
576889.923
  20
4594674.036
  30
936.317
  0
VERTEX
  8
PNOA-H_AMS_1956-57_33k_ES_PAN_21mic_H50_0408_fot_000-36343_R_tif
  70
32
  10
576891.764
  20
4594674.056
  30
0
  0
VERTEX
  8
PNOA-H_AMS_1956-57_33k_ES_PAN_21mic_H50_0408_fot_000-36343_R_tif
  70
32
  10
578164.660
  20
4594687.551
  30
0
  0
VERTEX
  8
PNOA-H_AMS_1956-57_33k_ES_PAN_21mic_H50_0408_fot_000-36343_R_tif
  70
32
  10
578166.291
  20
4594687.569
  30
961.685
  0
VERTEX
  8
PNOA-H_AMS_1956-57_33k_ES_PAN_21mic_H50_0408_fot_000-36343_R_tif
  70
32
  10
579050.500
  20
4594501.000
  30
1097.845
  0
VERTEX
  8
PNOA-H_AMS_1956-57_33k_ES_PAN_21mic_H50_0408_fot_000-36343_R_tif
  70
32
  10
579050.508
  20
4594500.604
  30
1097.835
  0
VERTEX
  8
PNOA-H_AMS_1956-57_33k_ES_PAN_21mic_H50_0408_fot_000-36343_R_tif
  70
32
  10
579050.510
  20
4594500.503
  30
1097.833
  0
VERTEX
  8
PNOA-H_AMS_1956-57_33k_ES_PAN_21mic_H50_0408_fot_000-36343_R_tif
  70
32
  10
579133.000
  20
4590210.500
  30
990.718
  0
VERTEX
  8
PNOA-H_AMS_1956-57_33k_ES_PAN_21mic_H50_0408_fot_000-36343_R_tif
  70
32
  10
579132.799
  20
4590210.423
  30
990.727
  0
VERTEX
  8
PNOA-H_AMS_1956-57_33k_ES_PAN_21mic_H50_0408_fot_000-36343_R_tif
  70
32
  10
578372.138
  20
4589920.000
  30
1024.203
  0
VERTEX
  8
PNOA-H_AMS_1956-57_33k_ES_PAN_21mic_H50_0408_fot_000-36343_R_tif
  70
32
  10
578371.109
  20
4589920.000
  30
1024.212
  0
VERTEX
  8
PNOA-H_AMS_1956-57_33k_ES_PAN_21mic_H50_0408_fot_000-36343_R_tif
  70
32
  10
577221.496
  20
4589920.000
  30
1035.009
  0
SEQEND
  8
PNOA-H_AMS_1956-57_33k_ES_PAN_21mic_H50_0408_fot_000-36343_R_tif
  0
INSERT
  8
FeatureAttribs
  2
FEATURE
  41
1
  42
1
  43
1
  50
0
  10
580486.226
  20
4592318.994
 66
1
  0
ATTRIB
  8
FeatureAttribs
 70
0
  1
PNOA-H_AMS_1956-57_33k_ES_PAN_21mic_H50_0408_fot_000-36344_R.tif
  2
NAME
  10
580486.226
  20
4592318.994
 40
23.35909
  0
SEQEND
  0
POLYLINE
  8
PNOA-H_AMS_1956-57_33k_ES_PAN_21mic_H50_0408_fot_000-36344_R_tif
  70
9
  66
1
  0
VERTEX
  8
PNOA-H_AMS_1956-57_33k_ES_PAN_21mic_H50_0408_fot_000-36344_R_tif
  70
32
  10
581083.290
  20
4589920.000
  30
918.104
  0
VERTEX
  8
PNOA-H_AMS_1956-57_33k_ES_PAN_21mic_H50_0408_fot_000-36344_R_tif
  70
32
  10
580263.986
  20
4589920.000
  30
947.599
  0
VERTEX
  8
PNOA-H_AMS_1956-57_33k_ES_PAN_21mic_H50_0408_fot_000-36344_R_tif
  70
32
  10
579133.000
  20
4590210.500
  30
990.718
  0
VERTEX
  8
PNOA-H_AMS_1956-57_33k_ES_PAN_21mic_H50_0408_fot_000-36344_R_tif
  70
32
  10
579050.500
  20
4594500.500
  30
1097.704
  0
VERTEX
  8
PNOA-H_AMS_1956-57_33k_ES_PAN_21mic_H50_0408_fot_000-36344_R_tif
  70
32
  10
579050.510
  20
4594500.503
  30
1097.704
  0
VERTEX
  8
PNOA-H_AMS_1956-57_33k_ES_PAN_21mic_H50_0408_fot_000-36344_R_tif
  70
32
  10
579050.693
  20
4594500.565
  30
1097.708
  0
VERTEX
  8
PNOA-H_AMS_1956-57_33k_ES_PAN_21mic_H50_0408_fot_000-36344_R_tif
  70
32
  10
579657.361
  20
4594704.057
  30
1109.749
  0
VERTEX
  8
PNOA-H_AMS_1956-57_33k_ES_PAN_21mic_H50_0408_fot_000-36344_R_tif
  70
32
  10
579658.445
  20
4594704.069
  30
0
  0
VERTEX
  8
PNOA-H_AMS_1956-57_33k_ES_PAN_21mic_H50_0408_fot_000-36344_R_tif
  70
32
  10
580913.524
  20
4594717.980
  30
0
  0
VERTEX
  8
PNOA-H_AMS_1956-57_33k_ES_PAN_21mic_H50_0408_fot_000-36344_R_tif
  70
32
  10
580914.192
  20
4594717.988
  30
1074.99
  0
VERTEX
  8
PNOA-H_AMS_1956-57_33k_ES_PAN_21mic_H50_0408_fot_000-36344_R_tif
  70
32
  10
581851.227
  20
4594521.083
  30
1019.932
  0
VERTEX
  8
PNOA-H_AMS_1956-57_33k_ES_PAN_21mic_H50_0408_fot_000-36344_R_tif
  70
32
  10
581854.000
  20
4594520.500
  30
1019.769
  0
VERTEX
  8
PNOA-H_AMS_1956-57_33k_ES_PAN_21mic_H50_0408_fot_000-36344_R_tif
  70
32
  10
581880.000
  20
4593659.645
  30
993.083
  0
VERTEX
  8
PNOA-H_AMS_1956-57_33k_ES_PAN_21mic_H50_0408_fot_000-36344_R_tif
  70
32
  10
581880.000
  20
4590256.359
  30
892.212
  0
VERTEX
  8
PNOA-H_AMS_1956-57_33k_ES_PAN_21mic_H50_0408_fot_000-36344_R_tif
  70
32
  10
581880.000
  20
4590256.130
  30
892.205
  0
VERTEX
  8
PNOA-H_AMS_1956-57_33k_ES_PAN_21mic_H50_0408_fot_000-36344_R_tif
  70
32
  10
581084.162
  20
4589920.000
  30
918.073
  0
VERTEX
  8
PNOA-H_AMS_1956-57_33k_ES_PAN_21mic_H50_0408_fot_000-36344_R_tif
  70
32
  10
581083.290
  20
4589920.000
  30
918.104
  0
SEQEND
  8
PNOA-H_AMS_1956-57_33k_ES_PAN_21mic_H50_0408_fot_000-36344_R_tif
  0
INSERT
  8
FeatureAttribs
  2
FEATURE
  41
1
  42
1
  43
1
  50
0
  10
568994.770
  20
4592142.250
 66
1
  0
ATTRIB
  8
FeatureAttribs
 70
0
  1
PNOA-H_AMS_1956-57_33k_ES_PAN_21mic_H50_0407_fot_42B-36340_E.tif
  2
NAME
  10
568994.770
  20
4592142.250
 40
23.35909
  0
SEQEND
  0
POLYLINE
  8
PNOA-H_AMS_1956-57_33k_ES_PAN_21mic_H50_0407_fot_42B-36340_E_tif
  70
9
  66
1
  0
VERTEX
  8
PNOA-H_AMS_1956-57_33k_ES_PAN_21mic_H50_0407_fot_42B-36340_E_tif
  70
32
  10
569590.750
  20
4589850.000
  30
884.858
  0
VERTEX
  8
PNOA-H_AMS_1956-57_33k_ES_PAN_21mic_H50_0407_fot_42B-36340_E_tif
  70
32
  10
568172.850
  20
4589850.000
  30
913.598
  0
VERTEX
  8
PNOA-H_AMS_1956-57_33k_ES_PAN_21mic_H50_0407_fot_42B-36340_E_tif
  70
32
  10
568047.808
  20
4589876.231
  30
916.997
  0
VERTEX
  8
PNOA-H_AMS_1956-57_33k_ES_PAN_21mic_H50_0407_fot_42B-36340_E_tif
  70
32
  10
567857.618
  20
4589916.128
  30
922.167
  0
VERTEX
  8
PNOA-H_AMS_1956-57_33k_ES_PAN_21mic_H50_0407_fot_42B-36340_E_tif
  70
32
  10
567857.618
  20
4589916.164
  30
0
  0
VERTEX
  8
PNOA-H_AMS_1956-57_33k_ES_PAN_21mic_H50_0407_fot_42B-36340_E_tif
  70
32
  10
567857.234
  20
4589957.000
  30
0
  0
VERTEX
  8
PNOA-H_AMS_1956-57_33k_ES_PAN_21mic_H50_0407_fot_42B-36340_E_tif
  70
32
  10
567835.513
  20
4592269.915
  30
0
  0
VERTEX
  8
PNOA-H_AMS_1956-57_33k_ES_PAN_21mic_H50_0407_fot_42B-36340_E_tif
  70
32
  10
567816.856
  20
4594255.667
  30
0
  0
VERTEX
  8
PNOA-H_AMS_1956-57_33k_ES_PAN_21mic_H50_0407_fot_42B-36340_E_tif
  70
32
  10
567816.852
  20
4594256.133
  30
949.198
  0
VERTEX
  8
PNOA-H_AMS_1956-57_33k_ES_PAN_21mic_H50_0407_fot_42B-36340_E_tif
  70
32
  10
569759.500
  20
4594434.500
  30
939.712
  0
VERTEX
  8
PNOA-H_AMS_1956-57_33k_ES_PAN_21mic_H50_0407_fot_42B-36340_E_tif
  70
32
  10
569763.000
  20
4594434.500
  30
939.367
  0
VERTEX
  8
PNOA-H_AMS_1956-57_33k_ES_PAN_21mic_H50_0407_fot_42B-36340_E_tif
  70
32
  10
569763.500
  20
4594434.500
  30
939.317
  0
VERTEX
  8
PNOA-H_AMS_1956-57_33k_ES_PAN_21mic_H50_0407_fot_42B-36340_E_tif
  70
32
  10
569767.000
  20
4594433.000
  30
938.783
  0
VERTEX
  8
PNOA-H_AMS_1956-57_33k_ES_PAN_21mic_H50_0407_fot_42B-36340_E_tif
  70
32
  10
570116.500
  20
4594273.500
  30
971.843
  0
VERTEX
  8
PNOA-H_AMS_1956-57_33k_ES_PAN_21mic_H50_0407_fot_42B-36340_E_tif
  70
32
  10
570187.000
  20
4590137.500
  30
882.248
  0
VERTEX
  8
PNOA-H_AMS_1956-57_33k_ES_PAN_21mic_H50_0407_fot_42B-36340_E_tif
  70
32
  10
569591.672
  20
4589850.000
  30
884.839
  0
VERTEX
  8
PNOA-H_AMS_1956-57_33k_ES_PAN_21mic_H50_0407_fot_42B-36340_E_tif
  70
32
  10
569590.750
  20
4589850.000
  30
884.858
  0
SEQEND
  8
PNOA-H_AMS_1956-57_33k_ES_PAN_21mic_H50_0407_fot_42B-36340_E_tif
  0
INSERT
  8
FeatureAttribs
  2
FEATURE
  41
1
  42
1
  43
1
  50
0
  10
567944.096
  20
4587724.408
 66
1
  0
ATTRIB
  8
FeatureAttribs
 70
0
  1
PNOA-H_AMS_1956-57_33k_ES_PAN_21mic_H50_0408_fot_000-29672_R.tif
  2
NAME
  10
567944.096
  20
4587724.408
 40
23.35909
  0
SEQEND
  0
POLYLINE
  8
PNOA-H_AMS_1956-57_33k_ES_PAN_21mic_H50_0408_fot_000-29672_R_tif
  70
9
  66
1
  0
VERTEX
  8
PNOA-H_AMS_1956-57_33k_ES_PAN_21mic_H50_0408_fot_000-29672_R_tif
  70
32
  10
568010.000
  20
4589850.000
  30
898.997
  0
VERTEX
  8
PNOA-H_AMS_1956-57_33k_ES_PAN_21mic_H50_0408_fot_000-29672_R_tif
  70
32
  10
568010.000
  20
4585532.651
  30
868.128
  0
VERTEX
  8
PNOA-H_AMS_1956-57_33k_ES_PAN_21mic_H50_0408_fot_000-29672_R_tif
  70
32
  10
567898.601
  20
4585549.568
  30
870.006
  0
VERTEX
  8
PNOA-H_AMS_1956-57_33k_ES_PAN_21mic_H50_0408_fot_000-29672_R_tif
  70
32
  10
567878.947
  20
4587644.092
  30
0
  0
VERTEX
  8
PNOA-H_AMS_1956-57_33k_ES_PAN_21mic_H50_0408_fot_000-29672_R_tif
  70
32
  10
567857.618
  20
4589916.128
  30
0
  0
VERTEX
  8
PNOA-H_AMS_1956-57_33k_ES_PAN_21mic_H50_0408_fot_000-29672_R_tif
  70
32
  10
567857.618
  20
4589916.164
  30
912.62
  0
VERTEX
  8
PNOA-H_AMS_1956-57_33k_ES_PAN_21mic_H50_0408_fot_000-29672_R_tif
  70
32
  10
568047.808
  20
4589876.231
  30
908.873
  0
VERTEX
  8
PNOA-H_AMS_1956-57_33k_ES_PAN_21mic_H50_0408_fot_000-29672_R_tif
  70
32
  10
568172.737
  20
4589850.000
  30
906.412
  0
VERTEX
  8
PNOA-H_AMS_1956-57_33k_ES_PAN_21mic_H50_0408_fot_000-29672_R_tif
  70
32
  10
568010.000
  20
4589850.000
  30
898.997
  0
SEQEND
  8
PNOA-H_AMS_1956-57_33k_ES_PAN_21mic_H50_0408_fot_000-29672_R_tif
  0
INSERT
  8
FeatureAttribs
  2
FEATURE
  41
1
  42
1
  43
1
  50
0
  10
567984.345
  20
4583407.906
 66
1
  0
ATTRIB
  8
FeatureAttribs
 70
0
  1
PNOA-H_AMS_1956-57_33k_ES_PAN_21mic_H50_0407_fot_44B-36243_W.tif
  2
NAME
  10
567984.345
  20
4583407.906
 40
23.35909
  0
SEQEND
  0
POLYLINE
  8
PNOA-H_AMS_1956-57_33k_ES_PAN_21mic_H50_0407_fot_44B-36243_W_tif
  70
9
  66
1
  0
VERTEX
  8
PNOA-H_AMS_1956-57_33k_ES_PAN_21mic_H50_0407_fot_44B-36243_W_tif
  70
32
  10
568050.000
  20
4581266.289
  30
808.567
  0
VERTEX
  8
PNOA-H_AMS_1956-57_33k_ES_PAN_21mic_H50_0407_fot_44B-36243_W_tif
  70
32
  10
567938.724
  20
4581271.306
  30
810.896
  0
VERTEX
  8
PNOA-H_AMS_1956-57_33k_ES_PAN_21mic_H50_0407_fot_44B-36243_W_tif
  70
32
  10
567922.344
  20
4583018.302
  30
0
  0
VERTEX
  8
PNOA-H_AMS_1956-57_33k_ES_PAN_21mic_H50_0407_fot_44B-36243_W_tif
  70
32
  10
567900.650
  20
4585331.193
  30
0
  0
VERTEX
  8
PNOA-H_AMS_1956-57_33k_ES_PAN_21mic_H50_0407_fot_44B-36243_W_tif
  70
32
  10
567898.601
  20
4585549.524
  30
869.993
  0
VERTEX
  8
PNOA-H_AMS_1956-57_33k_ES_PAN_21mic_H50_0407_fot_44B-36243_W_tif
  70
32
  10
568010.000
  20
4585532.615
  30
868.118
  0
VERTEX
  8
PNOA-H_AMS_1956-57_33k_ES_PAN_21mic_H50_0407_fot_44B-36243_W_tif
  70
32
  10
568010.000
  20
4585440.000
  30
863.544
  0
VERTEX
  8
PNOA-H_AMS_1956-57_33k_ES_PAN_21mic_H50_0407_fot_44B-36243_W_tif
  70
32
  10
568050.000
  20
4585440.000
  30
863.544
  0
VERTEX
  8
PNOA-H_AMS_1956-57_33k_ES_PAN_21mic_H50_0407_fot_44B-36243_W_tif
  70
32
  10
568050.000
  20
4581266.289
  30
808.567
  0
SEQEND
  8
PNOA-H_AMS_1956-57_33k_ES_PAN_21mic_H50_0407_fot_44B-36243_W_tif
  0
INSERT
  8
FeatureAttribs
  2
FEATURE
  41
1
  42
1
  43
1
  50
0
  10
568018.721
  20
4580341.228
 66
1
  0
ATTRIB
  8
FeatureAttribs
 70
0
  1
PNOA-H_AMS_1956-57_33k_ES_PAN_21mic_H50_0407_fot_45C-37452_E.tif
  2
NAME
  10
568018.721
  20
4580341.228
 40
23.35909
  0
SEQEND
  0
POLYLINE
  8
PNOA-H_AMS_1956-57_33k_ES_PAN_21mic_H50_0407_fot_45C-37452_E_tif
  70
9
  66
1
  0
VERTEX
  8
PNOA-H_AMS_1956-57_33k_ES_PAN_21mic_H50_0407_fot_45C-37452_E_tif
  70
32
  10
568050.000
  20
4581266.289
  30
808.567
  0
VERTEX
  8
PNOA-H_AMS_1956-57_33k_ES_PAN_21mic_H50_0407_fot_45C-37452_E_tif
  70
32
  10
568050.000
  20
4580810.000
  30
843.906
  0
VERTEX
  8
PNOA-H_AMS_1956-57_33k_ES_PAN_21mic_H50_0407_fot_45C-37452_E_tif
  70
32
  10
568090.000
  20
4580810.000
  30
843.906
  0
VERTEX
  8
PNOA-H_AMS_1956-57_33k_ES_PAN_21mic_H50_0407_fot_45C-37452_E_tif
  70
32
  10
568090.000
  20
4579465.893
  30
835.6
  0
VERTEX
  8
PNOA-H_AMS_1956-57_33k_ES_PAN_21mic_H50_0407_fot_45C-37452_E_tif
  70
32
  10
568090.000
  20
4579465.513
  30
835.597
  0
VERTEX
  8
PNOA-H_AMS_1956-57_33k_ES_PAN_21mic_H50_0407_fot_45C-37452_E_tif
  70
32
  10
567956.159
  20
4579411.150
  30
835.709
  0
VERTEX
  8
PNOA-H_AMS_1956-57_33k_ES_PAN_21mic_H50_0407_fot_45C-37452_E_tif
  70
32
  10
567956.156
  20
4579411.509
  30
0
  0
VERTEX
  8
PNOA-H_AMS_1956-57_33k_ES_PAN_21mic_H50_0407_fot_45C-37452_E_tif
  70
32
  10
567944.029
  20
4580705.420
  30
0
  0
VERTEX
  8
PNOA-H_AMS_1956-57_33k_ES_PAN_21mic_H50_0407_fot_45C-37452_E_tif
  70
32
  10
567938.724
  20
4581271.306
  30
810.896
  0
VERTEX
  8
PNOA-H_AMS_1956-57_33k_ES_PAN_21mic_H50_0407_fot_45C-37452_E_tif
  70
32
  10
568050.000
  20
4581266.289
  30
808.567
  0
SEQEND
  8
PNOA-H_AMS_1956-57_33k_ES_PAN_21mic_H50_0407_fot_45C-37452_E_tif
  0
INSERT
  8
FeatureAttribs
  2
FEATURE
  41
1
  42
1
  43
1
  50
0
  10
568028.845
  20
4578180.800
 66
1
  0
ATTRIB
  8
FeatureAttribs
 70
0
  1
PNOA-H_AMS_1956-57_33k_ES_PAN_21mic_H50_0407_fot_000-36192_R.tif
  2
NAME
  10
568028.845
  20
4578180.800
 40
23.35909
  0
SEQEND
  0
POLYLINE
  8
PNOA-H_AMS_1956-57_33k_ES_PAN_21mic_H50_0407_fot_000-36192_R_tif
  70
9
  66
1
  0
VERTEX
  8
PNOA-H_AMS_1956-57_33k_ES_PAN_21mic_H50_0407_fot_000-36192_R_tif
  70
32
  10
568090.000
  20
4576905.984
  30
842.265
  0
VERTEX
  8
PNOA-H_AMS_1956-57_33k_ES_PAN_21mic_H50_0407_fot_000-36192_R_tif
  70
32
  10
567979.728
  20
4576895.707
  30
842.267
  0
VERTEX
  8
PNOA-H_AMS_1956-57_33k_ES_PAN_21mic_H50_0407_fot_000-36192_R_tif
  70
32
  10
567979.725
  20
4576896.032
  30
0
  0
VERTEX
  8
PNOA-H_AMS_1956-57_33k_ES_PAN_21mic_H50_0407_fot_000-36192_R_tif
  70
32
  10
567965.706
  20
4578392.545
  30
0
  0
VERTEX
  8
PNOA-H_AMS_1956-57_33k_ES_PAN_21mic_H50_0407_fot_000-36192_R_tif
  70
32
  10
567956.159
  20
4579411.150
  30
835.797
  0
VERTEX
  8
PNOA-H_AMS_1956-57_33k_ES_PAN_21mic_H50_0407_fot_000-36192_R_tif
  70
32
  10
567956.156
  20
4579411.509
  30
835.796
  0
VERTEX
  8
PNOA-H_AMS_1956-57_33k_ES_PAN_21mic_H50_0407_fot_000-36192_R_tif
  70
32
  10
568090.000
  20
4579465.893
  30
835.689
  0
VERTEX
  8
PNOA-H_AMS_1956-57_33k_ES_PAN_21mic_H50_0407_fot_000-36192_R_tif
  70
32
  10
568090.000
  20
4579465.513
  30
835.69
  0
VERTEX
  8
PNOA-H_AMS_1956-57_33k_ES_PAN_21mic_H50_0407_fot_000-36192_R_tif
  70
32
  10
568090.000
  20
4576906.239
  30
842.264
  0
VERTEX
  8
PNOA-H_AMS_1956-57_33k_ES_PAN_21mic_H50_0407_fot_000-36192_R_tif
  70
32
  10
568090.000
  20
4576905.984
  30
842.265
  0
SEQEND
  8
PNOA-H_AMS_1956-57_33k_ES_PAN_21mic_H50_0407_fot_000-36192_R_tif
  0
INSERT
  8
FeatureAttribs
  2
FEATURE
  41
1
  42
1
  43
1
  50
0
  10
568036.751
  20
4576492.959
 66
1
  0
ATTRIB
  8
FeatureAttribs
 70
0
  1
PNOA-H_AMS_1956-57_33k_ES_PAN_21mic_H50_0435_fot_46B-29761_E.tif
  2
NAME
  10
568036.751
  20
4576492.959
 40
23.35909
  0
SEQEND
  0
POLYLINE
  8
PNOA-H_AMS_1956-57_33k_ES_PAN_21mic_H50_0435_fot_46B-29761_E_tif
  70
9
  66
1
  0
VERTEX
  8
PNOA-H_AMS_1956-57_33k_ES_PAN_21mic_H50_0435_fot_46B-29761_E_tif
  70
32
  10
568090.000
  20
4576905.984
  30
848.64
  0
VERTEX
  8
PNOA-H_AMS_1956-57_33k_ES_PAN_21mic_H50_0435_fot_46B-29761_E_tif
  70
32
  10
568090.000
  20
4576180.000
  30
832.235
  0
VERTEX
  8
PNOA-H_AMS_1956-57_33k_ES_PAN_21mic_H50_0435_fot_46B-29761_E_tif
  70
32
  10
568140.000
  20
4576180.000
  30
832.235
  0
VERTEX
  8
PNOA-H_AMS_1956-57_33k_ES_PAN_21mic_H50_0435_fot_46B-29761_E_tif
  70
32
  10
568140.000
  20
4576081.145
  30
831.726
  0
VERTEX
  8
PNOA-H_AMS_1956-57_33k_ES_PAN_21mic_H50_0435_fot_46B-29761_E_tif
  70
32
  10
567987.373
  20
4576079.679
  30
0
  0
VERTEX
  8
PNOA-H_AMS_1956-57_33k_ES_PAN_21mic_H50_0435_fot_46B-29761_E_tif
  70
32
  10
567979.728
  20
4576895.707
  30
0
  0
VERTEX
  8
PNOA-H_AMS_1956-57_33k_ES_PAN_21mic_H50_0435_fot_46B-29761_E_tif
  70
32
  10
567979.725
  20
4576896.032
  30
849.953
  0
VERTEX
  8
PNOA-H_AMS_1956-57_33k_ES_PAN_21mic_H50_0435_fot_46B-29761_E_tif
  70
32
  10
568090.000
  20
4576906.239
  30
848.646
  0
VERTEX
  8
PNOA-H_AMS_1956-57_33k_ES_PAN_21mic_H50_0435_fot_46B-29761_E_tif
  70
32
  10
568090.000
  20
4576905.984
  30
848.64
  0
SEQEND
  8
PNOA-H_AMS_1956-57_33k_ES_PAN_21mic_H50_0435_fot_46B-29761_E_tif
  0
INSERT
  8
FeatureAttribs
  2
FEATURE
  41
1
  42
1
  43
1
  50
0
  10
573371.954
  20
4590013.500
 66
1
  0
ATTRIB
  8
FeatureAttribs
 70
0
  1
PNOA-H_AMS_1956-57_33k_ES_PAN_21mic_H50_0408_fot_000-29674_R.tif
  2
NAME
  10
573371.954
  20
4590013.500
 40
23.35909
  0
SEQEND
  0
POLYLINE
  8
PNOA-H_AMS_1956-57_33k_ES_PAN_21mic_H50_0408_fot_000-29674_R_tif
  70
9
  66
1
  0
VERTEX
  8
PNOA-H_AMS_1956-57_33k_ES_PAN_21mic_H50_0408_fot_000-29674_R_tif
  70
32
  10
573276.500
  20
4590177.000
  30
929.883
  0
VERTEX
  8
PNOA-H_AMS_1956-57_33k_ES_PAN_21mic_H50_0408_fot_000-29674_R_tif
  70
32
  10
573898.500
  20
4589999.500
  30
938.152
  0
VERTEX
  8
PNOA-H_AMS_1956-57_33k_ES_PAN_21mic_H50_0408_fot_000-29674_R_tif
  70
32
  10
573899.347
  20
4589999.500
  30
936.097
  0
VERTEX
  8
PNOA-H_AMS_1956-57_33k_ES_PAN_21mic_H50_0408_fot_000-29674_R_tif
  70
32
  10
573900.000
  20
4589999.500
  30
938.169
  0
VERTEX
  8
PNOA-H_AMS_1956-57_33k_ES_PAN_21mic_H50_0408_fot_000-29674_R_tif
  70
32
  10
574425.217
  20
4589850.000
  30
941.356
  0
VERTEX
  8
PNOA-H_AMS_1956-57_33k_ES_PAN_21mic_H50_0408_fot_000-29674_R_tif
  70
32
  10
574423.941
  20
4589850.000
  30
941.332
  0
VERTEX
  8
PNOA-H_AMS_1956-57_33k_ES_PAN_21mic_H50_0408_fot_000-29674_R_tif
  70
32
  10
572513.494
  20
4589850.000
  30
905.572
  0
VERTEX
  8
PNOA-H_AMS_1956-57_33k_ES_PAN_21mic_H50_0408_fot_000-29674_R_tif
  70
32
  10
572512.433
  20
4589850.000
  30
905.552
  0
VERTEX
  8
PNOA-H_AMS_1956-57_33k_ES_PAN_21mic_H50_0408_fot_000-29674_R_tif
  70
32
  10
573276.486
  20
4590176.994
  30
929.882
  0
VERTEX
  8
PNOA-H_AMS_1956-57_33k_ES_PAN_21mic_H50_0408_fot_000-29674_R_tif
  70
32
  10
573276.500
  20
4590177.000
  30
929.883
  0
SEQEND
  8
PNOA-H_AMS_1956-57_33k_ES_PAN_21mic_H50_0408_fot_000-29674_R_tif
  0
INSERT
  8
FeatureAttribs
  2
FEATURE
  41
1
  42
1
  43
1
  50
0
  10
570326.986
  20
4589993.750
 66
1
  0
ATTRIB
  8
FeatureAttribs
 70
0
  1
PNOA-H_AMS_1956-57_33k_ES_PAN_21mic_H50_0408_fot_000-29673_R.tif
  2
NAME
  10
570326.986
  20
4589993.750
 40
23.35909
  0
SEQEND
  0
POLYLINE
  8
PNOA-H_AMS_1956-57_33k_ES_PAN_21mic_H50_0408_fot_000-29673_R_tif
  70
9
  66
1
  0
VERTEX
  8
PNOA-H_AMS_1956-57_33k_ES_PAN_21mic_H50_0408_fot_000-29673_R_tif
  70
32
  10
569591.672
  20
4589850.000
  30
873.017
  0
VERTEX
  8
PNOA-H_AMS_1956-57_33k_ES_PAN_21mic_H50_0408_fot_000-29673_R_tif
  70
32
  10
569590.750
  20
4589850.000
  30
873.009
  0
VERTEX
  8
PNOA-H_AMS_1956-57_33k_ES_PAN_21mic_H50_0408_fot_000-29673_R_tif
  70
32
  10
569802.000
  20
4589952.000
  30
866.159
  0
VERTEX
  8
PNOA-H_AMS_1956-57_33k_ES_PAN_21mic_H50_0408_fot_000-29673_R_tif
  70
32
  10
569803.000
  20
4589952.500
  30
866.158
  0
VERTEX
  8
PNOA-H_AMS_1956-57_33k_ES_PAN_21mic_H50_0408_fot_000-29673_R_tif
  70
32
  10
570173.500
  20
4590131.500
  30
881.908
  0
VERTEX
  8
PNOA-H_AMS_1956-57_33k_ES_PAN_21mic_H50_0408_fot_000-29673_R_tif
  70
32
  10
570186.000
  20
4590137.500
  30
882.238
  0
VERTEX
  8
PNOA-H_AMS_1956-57_33k_ES_PAN_21mic_H50_0408_fot_000-29673_R_tif
  70
32
  10
570187.000
  20
4590137.500
  30
882.253
  0
VERTEX
  8
PNOA-H_AMS_1956-57_33k_ES_PAN_21mic_H50_0408_fot_000-29673_R_tif
  70
32
  10
570188.000
  20
4590137.500
  30
882.267
  0
VERTEX
  8
PNOA-H_AMS_1956-57_33k_ES_PAN_21mic_H50_0408_fot_000-29673_R_tif
  70
32
  10
571135.250
  20
4589901.750
  30
887.064
  0
VERTEX
  8
PNOA-H_AMS_1956-57_33k_ES_PAN_21mic_H50_0408_fot_000-29673_R_tif
  70
32
  10
571343.183
  20
4589850.000
  30
888.117
  0
VERTEX
  8
PNOA-H_AMS_1956-57_33k_ES_PAN_21mic_H50_0408_fot_000-29673_R_tif
  70
32
  10
569591.672
  20
4589850.000
  30
873.017
  0
SEQEND
  8
PNOA-H_AMS_1956-57_33k_ES_PAN_21mic_H50_0408_fot_000-29673_R_tif
  0
INSERT
  8
FeatureAttribs
  2
FEATURE
  41
1
  42
1
  43
1
  50
0
  10
581873.427
  20
4594094.913
 66
1
  0
ATTRIB
  8
FeatureAttribs
 70
0
  1
PNOA-H_AMS_1956-57_33k_ES_PAN_21mic_H50_0408_fot_000-36345_R.tif
  2
NAME
  10
581873.427
  20
4594094.913
 40
23.35909
  0
SEQEND
  0
POLYLINE
  8
PNOA-H_AMS_1956-57_33k_ES_PAN_21mic_H50_0408_fot_000-36345_R_tif
  70
9
  66
1
  0
VERTEX
  8
PNOA-H_AMS_1956-57_33k_ES_PAN_21mic_H50_0408_fot_000-36345_R_tif
  70
32
  10
581880.000
  20
4594529.617
  30
1018.01
  0
VERTEX
  8
PNOA-H_AMS_1956-57_33k_ES_PAN_21mic_H50_0408_fot_000-36345_R_tif
  70
32
  10
581880.000
  20
4593659.645
  30
993.083
  0
VERTEX
  8
PNOA-H_AMS_1956-57_33k_ES_PAN_21mic_H50_0408_fot_000-36345_R_tif
  70
32
  10
581854.000
  20
4594520.500
  30
1019.769
  0
VERTEX
  8
PNOA-H_AMS_1956-57_33k_ES_PAN_21mic_H50_0408_fot_000-36345_R_tif
  70
32
  10
581854.402
  20
4594520.650
  30
1019.742
  0
VERTEX
  8
PNOA-H_AMS_1956-57_33k_ES_PAN_21mic_H50_0408_fot_000-36345_R_tif
  70
32
  10
581880.000
  20
4594530.181
  30
1018.026
  0
VERTEX
  8
PNOA-H_AMS_1956-57_33k_ES_PAN_21mic_H50_0408_fot_000-36345_R_tif
  70
32
  10
581880.000
  20
4594529.617
  30
1018.01
  0
SEQEND
  8
PNOA-H_AMS_1956-57_33k_ES_PAN_21mic_H50_0408_fot_000-36345_R_tif
  0
INSERT
  8
FeatureAttribs
  2
FEATURE
  41
1
  42
1
  43
1
  50
0
  10
576315.654
  20
4590061.000
 66
1
  0
ATTRIB
  8
FeatureAttribs
 70
0
  1
PNOA-H_AMS_1956-57_33k_ES_PAN_21mic_H50_0408_fot_000-29675_R.tif
  2
NAME
  10
576315.654
  20
4590061.000
 40
23.35909
  0
SEQEND
  0
POLYLINE
  8
PNOA-H_AMS_1956-57_33k_ES_PAN_21mic_H50_0408_fot_000-29675_R_tif
  70
9
  66
1
  0
VERTEX
  8
PNOA-H_AMS_1956-57_33k_ES_PAN_21mic_H50_0408_fot_000-29675_R_tif
  70
32
  10
575537.674
  20
4589920.000
  30
977.218
  0
VERTEX
  8
PNOA-H_AMS_1956-57_33k_ES_PAN_21mic_H50_0408_fot_000-29675_R_tif
  70
32
  10
575536.571
  20
4589920.000
  30
977.18
  0
VERTEX
  8
PNOA-H_AMS_1956-57_33k_ES_PAN_21mic_H50_0408_fot_000-29675_R_tif
  70
32
  10
576249.500
  20
4590201.500
  30
1017.969
  0
VERTEX
  8
PNOA-H_AMS_1956-57_33k_ES_PAN_21mic_H50_0408_fot_000-29675_R_tif
  70
32
  10
576251.000
  20
4590202.000
  30
1018.378
  0
VERTEX
  8
PNOA-H_AMS_1956-57_33k_ES_PAN_21mic_H50_0408_fot_000-29675_R_tif
  70
32
  10
576251.780
  20
4590201.913
  30
1018.48
  0
VERTEX
  8
PNOA-H_AMS_1956-57_33k_ES_PAN_21mic_H50_0408_fot_000-29675_R_tif
  70
32
  10
576252.618
  20
4590201.820
  30
1018.588
  0
VERTEX
  8
PNOA-H_AMS_1956-57_33k_ES_PAN_21mic_H50_0408_fot_000-29675_R_tif
  70
32
  10
576255.500
  20
4590201.500
  30
1018.963
  0
VERTEX
  8
PNOA-H_AMS_1956-57_33k_ES_PAN_21mic_H50_0408_fot_000-29675_R_tif
  70
32
  10
577221.496
  20
4589920.000
  30
1035.281
  0
VERTEX
  8
PNOA-H_AMS_1956-57_33k_ES_PAN_21mic_H50_0408_fot_000-29675_R_tif
  70
32
  10
577221.375
  20
4589920.000
  30
1035.277
  0
VERTEX
  8
PNOA-H_AMS_1956-57_33k_ES_PAN_21mic_H50_0408_fot_000-29675_R_tif
  70
32
  10
575537.674
  20
4589920.000
  30
977.218
  0
SEQEND
  8
PNOA-H_AMS_1956-57_33k_ES_PAN_21mic_H50_0408_fot_000-29675_R_tif
  0
INSERT
  8
FeatureAttribs
  2
FEATURE
  41
1
  42
1
  43
1
  50
0
  10
581680.823
  20
4590088.180
 66
1
  0
ATTRIB
  8
FeatureAttribs
 70
0
  1
PNOA-H_AMS_1956-57_33k_ES_PAN_21mic_H50_0408_fot_000-29677_R.tif
  2
NAME
  10
581680.823
  20
4590088.180
 40
23.35909
  0
SEQEND
  0
POLYLINE
  8
PNOA-H_AMS_1956-57_33k_ES_PAN_21mic_H50_0408_fot_000-29677_R_tif
  70
9
  66
1
  0
VERTEX
  8
PNOA-H_AMS_1956-57_33k_ES_PAN_21mic_H50_0408_fot_000-29677_R_tif
  70
32
  10
581084.162
  20
4589920.000
  30
918.097
  0
VERTEX
  8
PNOA-H_AMS_1956-57_33k_ES_PAN_21mic_H50_0408_fot_000-29677_R_tif
  70
32
  10
581083.290
  20
4589920.000
  30
918.113
  0
VERTEX
  8
PNOA-H_AMS_1956-57_33k_ES_PAN_21mic_H50_0408_fot_000-29677_R_tif
  70
32
  10
581880.000
  20
4590256.359
  30
892.11
  0
VERTEX
  8
PNOA-H_AMS_1956-57_33k_ES_PAN_21mic_H50_0408_fot_000-29677_R_tif
  70
32
  10
581880.000
  20
4590256.130
  30
892.117
  0
VERTEX
  8
PNOA-H_AMS_1956-57_33k_ES_PAN_21mic_H50_0408_fot_000-29677_R_tif
  70
32
  10
581880.000
  20
4589920.000
  30
902.964
  0
VERTEX
  8
PNOA-H_AMS_1956-57_33k_ES_PAN_21mic_H50_0408_fot_000-29677_R_tif
  70
32
  10
581084.162
  20
4589920.000
  30
918.097
  0
SEQEND
  8
PNOA-H_AMS_1956-57_33k_ES_PAN_21mic_H50_0408_fot_000-29677_R_tif
  0
INSERT
  8
FeatureAttribs
  2
FEATURE
  41
1
  42
1
  43
1
  50
0
  10
579224.813
  20
4590065.250
 66
1
  0
ATTRIB
  8
FeatureAttribs
 70
0
  1
PNOA-H_AMS_1956-57_33k_ES_PAN_21mic_H50_0408_fot_000-29676_R.tif
  2
NAME
  10
579224.813
  20
4590065.250
 40
23.35909
  0
SEQEND
  0
POLYLINE
  8
PNOA-H_AMS_1956-57_33k_ES_PAN_21mic_H50_0408_fot_000-29676_R_tif
  70
9
  66
1
  0
VERTEX
  8
PNOA-H_AMS_1956-57_33k_ES_PAN_21mic_H50_0408_fot_000-29676_R_tif
  70
32
  10
578372.138
  20
4589920.000
  30
1019.397
  0
VERTEX
  8
PNOA-H_AMS_1956-57_33k_ES_PAN_21mic_H50_0408_fot_000-29676_R_tif
  70
32
  10
578371.109
  20
4589920.000
  30
1019.436
  0
VERTEX
  8
PNOA-H_AMS_1956-57_33k_ES_PAN_21mic_H50_0408_fot_000-29676_R_tif
  70
32
  10
579132.500
  20
4590210.500
  30
990.727
  0
VERTEX
  8
PNOA-H_AMS_1956-57_33k_ES_PAN_21mic_H50_0408_fot_000-29676_R_tif
  70
32
  10
579132.799
  20
4590210.423
  30
990.715
  0
VERTEX
  8
PNOA-H_AMS_1956-57_33k_ES_PAN_21mic_H50_0408_fot_000-29676_R_tif
  70
32
  10
580263.141
  20
4589920.000
  30
947.661
  0
VERTEX
  8
PNOA-H_AMS_1956-57_33k_ES_PAN_21mic_H50_0408_fot_000-29676_R_tif
  70
32
  10
578372.138
  20
4589920.000
  30
1019.397
  0
SEQEND
  8
PNOA-H_AMS_1956-57_33k_ES_PAN_21mic_H50_0408_fot_000-29676_R_tif
  0
ENDSEC
  0
EOF
