  0
SECTION
  2
HEADER
  9
$ACADVER
  1
AC1009
  9
$LUNITS
  70
2
  9
$LIMMIN
  10
539992.635
  20
4575872.027
  9
$LIMMAX
  10
567987.373
  20
4594582.839
  9
$EXTMIN
  10
539992.635
  20
4575872.027
  9
$EXTMAX
  10
567987.373
  20
4594582.839
  999
Created by Global Mapper
  999
Projection: UTM
  999
Datum: ETRS89
  999
Ground Units: meters
  999
ZONE: 30
  0
ENDSEC
  0
SECTION
  2
TABLES
  0
ENDSEC
  0
SECTION
  2
BLOCKS
  0
BLOCK
  8
FeatureAttribs
  70
0
  2
FEATURE
  3
FEATURE
  10
0.00000000
  20
0.00000000
  0
ATTDEF
  8
FeatureAttribs
  70
0
  1
 
  2
NAME
  3
NAME
  10
0.00000000
  20
0.00000000
  40
1.00000000
  0
ENDBLK
  0
ENDSEC
  0
SECTION
  2
ENTITIES
  0
INSERT
  8
FeatureAttribs
  2
FEATURE
  41
1
  42
1
  43
1
  50
0
  10
540281.855
  20
4594282.951
 66
1
  0
ATTRIB
  8
FeatureAttribs
 70
0
  1
PNOA-H_AMS_1956-57_33k_ES_PAN_21mic_H50_0378_fot_41B-37387_W.tif
  2
NAME
  10
540281.855
  20
4594282.951
 40
33.67194
  0
SEQEND
  0
POLYLINE
  8
PNOA-H_AMS_1956-57_33k_ES_PAN_21mic_H50_0378_fot_41B-37387_W_tif
  70
9
  66
1
  0
VERTEX
  8
PNOA-H_AMS_1956-57_33k_ES_PAN_21mic_H50_0378_fot_41B-37387_W_tif
  70
32
  10
540566.000
  20
4594187.505
  30
937.24
  0
VERTEX
  8
PNOA-H_AMS_1956-57_33k_ES_PAN_21mic_H50_0378_fot_41B-37387_W_tif
  70
32
  10
540566.000
  20
4594187.500
  30
937.24
  0
VERTEX
  8
PNOA-H_AMS_1956-57_33k_ES_PAN_21mic_H50_0378_fot_41B-37387_W_tif
  70
32
  10
540380.732
  20
4594189.254
  30
939.114
  0
VERTEX
  8
PNOA-H_AMS_1956-57_33k_ES_PAN_21mic_H50_0378_fot_41B-37387_W_tif
  70
32
  10
539993.644
  20
4594192.920
  30
943.028
  0
VERTEX
  8
PNOA-H_AMS_1956-57_33k_ES_PAN_21mic_H50_0378_fot_41B-37387_W_tif
  70
32
  10
539992.635
  20
4594375.033
  30
0
  0
VERTEX
  8
PNOA-H_AMS_1956-57_33k_ES_PAN_21mic_H50_0378_fot_41B-37387_W_tif
  70
32
  10
540575.128
  20
4594378.402
  30
940.167
  0
VERTEX
  8
PNOA-H_AMS_1956-57_33k_ES_PAN_21mic_H50_0378_fot_41B-37387_W_tif
  70
32
  10
540566.000
  20
4594187.505
  30
937.24
  0
SEQEND
  8
PNOA-H_AMS_1956-57_33k_ES_PAN_21mic_H50_0378_fot_41B-37387_W_tif
  0
INSERT
  8
FeatureAttribs
  2
FEATURE
  41
1
  42
1
  43
1
  50
0
  10
545563.282
  20
4591885.250
 66
1
  0
ATTRIB
  8
FeatureAttribs
 70
0
  1
PNOA-H_AMS_1956-57_33k_ES_PAN_21mic_H50_0407_fot_42B-36332_E.tif
  2
NAME
  10
545563.282
  20
4591885.250
 40
33.67194
  0
SEQEND
  0
POLYLINE
  8
PNOA-H_AMS_1956-57_33k_ES_PAN_21mic_H50_0407_fot_42B-36332_E_tif
  70
9
  66
1
  0
VERTEX
  8
PNOA-H_AMS_1956-57_33k_ES_PAN_21mic_H50_0407_fot_42B-36332_E_tif
  70
32
  10
547145.727
  20
4589831.369
  30
1014.218
  0
VERTEX
  8
PNOA-H_AMS_1956-57_33k_ES_PAN_21mic_H50_0407_fot_42B-36332_E_tif
  70
32
  10
546334.000
  20
4589440.500
  30
1011.189
  0
VERTEX
  8
PNOA-H_AMS_1956-57_33k_ES_PAN_21mic_H50_0407_fot_42B-36332_E_tif
  70
32
  10
546333.636
  20
4589440.565
  30
1011.187
  0
VERTEX
  8
PNOA-H_AMS_1956-57_33k_ES_PAN_21mic_H50_0407_fot_42B-36332_E_tif
  70
32
  10
545999.923
  20
4589500.396
  30
1009.575
  0
VERTEX
  8
PNOA-H_AMS_1956-57_33k_ES_PAN_21mic_H50_0407_fot_42B-36332_E_tif
  70
32
  10
545226.843
  20
4589639.000
  30
1005.841
  0
VERTEX
  8
PNOA-H_AMS_1956-57_33k_ES_PAN_21mic_H50_0407_fot_42B-36332_E_tif
  70
32
  10
544016.500
  20
4589856.000
  30
999.995
  0
VERTEX
  8
PNOA-H_AMS_1956-57_33k_ES_PAN_21mic_H50_0407_fot_42B-36332_E_tif
  70
32
  10
544011.500
  20
4593918.000
  30
965.711
  0
VERTEX
  8
PNOA-H_AMS_1956-57_33k_ES_PAN_21mic_H50_0407_fot_42B-36332_E_tif
  70
32
  10
544011.858
  20
4593918.071
  30
965.724
  0
VERTEX
  8
PNOA-H_AMS_1956-57_33k_ES_PAN_21mic_H50_0407_fot_42B-36332_E_tif
  70
32
  10
546075.500
  20
4594329.500
  30
1039.643
  0
VERTEX
  8
PNOA-H_AMS_1956-57_33k_ES_PAN_21mic_H50_0407_fot_42B-36332_E_tif
  70
32
  10
546078.000
  20
4594330.000
  30
1039.812
  0
VERTEX
  8
PNOA-H_AMS_1956-57_33k_ES_PAN_21mic_H50_0407_fot_42B-36332_E_tif
  70
32
  10
546078.573
  20
4594329.815
  30
1039.816
  0
VERTEX
  8
PNOA-H_AMS_1956-57_33k_ES_PAN_21mic_H50_0407_fot_42B-36332_E_tif
  70
32
  10
547078.000
  20
4594008.000
  30
1045.93
  0
VERTEX
  8
PNOA-H_AMS_1956-57_33k_ES_PAN_21mic_H50_0407_fot_42B-36332_E_tif
  70
32
  10
547146.000
  20
4589831.500
  30
1014.219
  0
VERTEX
  8
PNOA-H_AMS_1956-57_33k_ES_PAN_21mic_H50_0407_fot_42B-36332_E_tif
  70
32
  10
547145.727
  20
4589831.369
  30
1014.218
  0
SEQEND
  8
PNOA-H_AMS_1956-57_33k_ES_PAN_21mic_H50_0407_fot_42B-36332_E_tif
  0
INSERT
  8
FeatureAttribs
  2
FEATURE
  41
1
  42
1
  43
1
  50
0
  10
547164.756
  20
4594218.258
 66
1
  0
ATTRIB
  8
FeatureAttribs
 70
0
  1
PNOA-H_AMS_1956-57_33k_ES_PAN_21mic_H50_0379_fot_41B-37384_W.tif
  2
NAME
  10
547164.756
  20
4594218.258
 40
33.67194
  0
SEQEND
  0
POLYLINE
  8
PNOA-H_AMS_1956-57_33k_ES_PAN_21mic_H50_0379_fot_41B-37384_W_tif
  70
9
  66
1
  0
VERTEX
  8
PNOA-H_AMS_1956-57_33k_ES_PAN_21mic_H50_0379_fot_41B-37384_W_tif
  70
32
  10
548665.474
  20
4594412.366
  30
1101.566
  0
VERTEX
  8
PNOA-H_AMS_1956-57_33k_ES_PAN_21mic_H50_0379_fot_41B-37384_W_tif
  70
32
  10
547079.000
  20
4594008.000
  30
1046.057
  0
VERTEX
  8
PNOA-H_AMS_1956-57_33k_ES_PAN_21mic_H50_0379_fot_41B-37384_W_tif
  70
32
  10
547078.557
  20
4594008.142
  30
1046.055
  0
VERTEX
  8
PNOA-H_AMS_1956-57_33k_ES_PAN_21mic_H50_0379_fot_41B-37384_W_tif
  70
32
  10
546083.000
  20
4594328.500
  30
1040.168
  0
VERTEX
  8
PNOA-H_AMS_1956-57_33k_ES_PAN_21mic_H50_0379_fot_41B-37384_W_tif
  70
32
  10
546080.000
  20
4594329.500
  30
1039.972
  0
VERTEX
  8
PNOA-H_AMS_1956-57_33k_ES_PAN_21mic_H50_0379_fot_41B-37384_W_tif
  70
32
  10
546079.477
  20
4594330.806
  30
1039.911
  0
VERTEX
  8
PNOA-H_AMS_1956-57_33k_ES_PAN_21mic_H50_0379_fot_41B-37384_W_tif
  70
32
  10
546079.000
  20
4594332.000
  30
1039.855
  0
VERTEX
  8
PNOA-H_AMS_1956-57_33k_ES_PAN_21mic_H50_0379_fot_41B-37384_W_tif
  70
32
  10
546076.786
  20
4594411.472
  30
1039.441
  0
VERTEX
  8
PNOA-H_AMS_1956-57_33k_ES_PAN_21mic_H50_0379_fot_41B-37384_W_tif
  70
32
  10
546077.222
  20
4594411.475
  30
1039.49
  0
VERTEX
  8
PNOA-H_AMS_1956-57_33k_ES_PAN_21mic_H50_0379_fot_41B-37384_W_tif
  70
32
  10
546947.902
  20
4594416.929
  30
0
  0
VERTEX
  8
PNOA-H_AMS_1956-57_33k_ES_PAN_21mic_H50_0379_fot_41B-37384_W_tif
  70
32
  10
548665.549
  20
4594428.517
  30
1101.218
  0
VERTEX
  8
PNOA-H_AMS_1956-57_33k_ES_PAN_21mic_H50_0379_fot_41B-37384_W_tif
  70
32
  10
548666.000
  20
4594412.500
  30
1101.585
  0
VERTEX
  8
PNOA-H_AMS_1956-57_33k_ES_PAN_21mic_H50_0379_fot_41B-37384_W_tif
  70
32
  10
548665.474
  20
4594412.366
  30
1101.566
  0
SEQEND
  8
PNOA-H_AMS_1956-57_33k_ES_PAN_21mic_H50_0379_fot_41B-37384_W_tif
  0
INSERT
  8
FeatureAttribs
  2
FEATURE
  41
1
  42
1
  43
1
  50
0
  10
544384.743
  20
4594164.737
 66
1
  0
ATTRIB
  8
FeatureAttribs
 70
0
  1
PNOA-H_AMS_1956-57_33k_ES_PAN_21mic_H50_0379_fot_41B-37385_W.tif
  2
NAME
  10
544384.743
  20
4594164.737
 40
33.67194
  0
SEQEND
  0
POLYLINE
  8
PNOA-H_AMS_1956-57_33k_ES_PAN_21mic_H50_0379_fot_41B-37385_W_tif
  70
9
  66
1
  0
VERTEX
  8
PNOA-H_AMS_1956-57_33k_ES_PAN_21mic_H50_0379_fot_41B-37385_W_tif
  70
32
  10
546078.573
  20
4594329.815
  30
1039.896
  0
VERTEX
  8
PNOA-H_AMS_1956-57_33k_ES_PAN_21mic_H50_0379_fot_41B-37385_W_tif
  70
32
  10
544012.000
  20
4593918.000
  30
965.715
  0
VERTEX
  8
PNOA-H_AMS_1956-57_33k_ES_PAN_21mic_H50_0379_fot_41B-37385_W_tif
  70
32
  10
544011.858
  20
4593918.071
  30
965.714
  0
VERTEX
  8
PNOA-H_AMS_1956-57_33k_ES_PAN_21mic_H50_0379_fot_41B-37385_W_tif
  70
32
  10
543802.333
  20
4594023.000
  30
963.704
  0
VERTEX
  8
PNOA-H_AMS_1956-57_33k_ES_PAN_21mic_H50_0379_fot_41B-37385_W_tif
  70
32
  10
543383.109
  20
4594232.946
  30
959.683
  0
VERTEX
  8
PNOA-H_AMS_1956-57_33k_ES_PAN_21mic_H50_0379_fot_41B-37385_W_tif
  70
32
  10
543383.000
  20
4594233.000
  30
959.682
  0
VERTEX
  8
PNOA-H_AMS_1956-57_33k_ES_PAN_21mic_H50_0379_fot_41B-37385_W_tif
  70
32
  10
543383.148
  20
4594394.639
  30
961.717
  0
VERTEX
  8
PNOA-H_AMS_1956-57_33k_ES_PAN_21mic_H50_0379_fot_41B-37385_W_tif
  70
32
  10
543470.267
  20
4594395.143
  30
0
  0
VERTEX
  8
PNOA-H_AMS_1956-57_33k_ES_PAN_21mic_H50_0379_fot_41B-37385_W_tif
  70
32
  10
546076.786
  20
4594411.472
  30
0
  0
VERTEX
  8
PNOA-H_AMS_1956-57_33k_ES_PAN_21mic_H50_0379_fot_41B-37385_W_tif
  70
32
  10
546077.222
  20
4594411.475
  30
1039.503
  0
VERTEX
  8
PNOA-H_AMS_1956-57_33k_ES_PAN_21mic_H50_0379_fot_41B-37385_W_tif
  70
32
  10
546079.477
  20
4594330.806
  30
1039.925
  0
VERTEX
  8
PNOA-H_AMS_1956-57_33k_ES_PAN_21mic_H50_0379_fot_41B-37385_W_tif
  70
32
  10
546079.500
  20
4594330.000
  30
1039.929
  0
VERTEX
  8
PNOA-H_AMS_1956-57_33k_ES_PAN_21mic_H50_0379_fot_41B-37385_W_tif
  70
32
  10
546078.573
  20
4594329.815
  30
1039.896
  0
SEQEND
  8
PNOA-H_AMS_1956-57_33k_ES_PAN_21mic_H50_0379_fot_41B-37385_W_tif
  0
INSERT
  8
FeatureAttribs
  2
FEATURE
  41
1
  42
1
  43
1
  50
0
  10
541975.608
  20
4594233.820
 66
1
  0
ATTRIB
  8
FeatureAttribs
 70
0
  1
PNOA-H_AMS_1956-57_33k_ES_PAN_21mic_H50_0379_fot_41B-37386_W.tif
  2
NAME
  10
541975.608
  20
4594233.820
 40
33.67194
  0
SEQEND
  0
POLYLINE
  8
PNOA-H_AMS_1956-57_33k_ES_PAN_21mic_H50_0379_fot_41B-37386_W_tif
  70
9
  66
1
  0
VERTEX
  8
PNOA-H_AMS_1956-57_33k_ES_PAN_21mic_H50_0379_fot_41B-37386_W_tif
  70
32
  10
543141.960
  20
4594218.235
  30
957.476
  0
VERTEX
  8
PNOA-H_AMS_1956-57_33k_ES_PAN_21mic_H50_0379_fot_41B-37386_W_tif
  70
32
  10
540771.000
  20
4594073.000
  30
935.776
  0
VERTEX
  8
PNOA-H_AMS_1956-57_33k_ES_PAN_21mic_H50_0379_fot_41B-37386_W_tif
  70
32
  10
540770.950
  20
4594073.028
  30
935.776
  0
VERTEX
  8
PNOA-H_AMS_1956-57_33k_ES_PAN_21mic_H50_0379_fot_41B-37386_W_tif
  70
32
  10
540770.504
  20
4594073.277
  30
935.779
  0
VERTEX
  8
PNOA-H_AMS_1956-57_33k_ES_PAN_21mic_H50_0379_fot_41B-37386_W_tif
  70
32
  10
540566.000
  20
4594187.500
  30
937.24
  0
VERTEX
  8
PNOA-H_AMS_1956-57_33k_ES_PAN_21mic_H50_0379_fot_41B-37386_W_tif
  70
32
  10
540566.000
  20
4594187.505
  30
937.24
  0
VERTEX
  8
PNOA-H_AMS_1956-57_33k_ES_PAN_21mic_H50_0379_fot_41B-37386_W_tif
  70
32
  10
540575.128
  20
4594378.402
  30
940.167
  0
VERTEX
  8
PNOA-H_AMS_1956-57_33k_ES_PAN_21mic_H50_0379_fot_41B-37386_W_tif
  70
32
  10
543383.148
  20
4594394.639
  30
961.716
  0
VERTEX
  8
PNOA-H_AMS_1956-57_33k_ES_PAN_21mic_H50_0379_fot_41B-37386_W_tif
  70
32
  10
543383.000
  20
4594233.000
  30
959.682
  0
VERTEX
  8
PNOA-H_AMS_1956-57_33k_ES_PAN_21mic_H50_0379_fot_41B-37386_W_tif
  70
32
  10
543141.960
  20
4594218.235
  30
957.476
  0
SEQEND
  8
PNOA-H_AMS_1956-57_33k_ES_PAN_21mic_H50_0379_fot_41B-37386_W_tif
  0
INSERT
  8
FeatureAttribs
  2
FEATURE
  41
1
  42
1
  43
1
  50
0
  10
551307.673
  20
4591958.250
 66
1
  0
ATTRIB
  8
FeatureAttribs
 70
0
  1
PNOA-H_AMS_1956-57_33k_ES_PAN_21mic_H50_0407_fot_42B-36334_E.tif
  2
NAME
  10
551307.673
  20
4591958.250
 40
33.67194
  0
SEQEND
  0
POLYLINE
  8
PNOA-H_AMS_1956-57_33k_ES_PAN_21mic_H50_0407_fot_42B-36334_E_tif
  70
9
  66
1
  0
VERTEX
  8
PNOA-H_AMS_1956-57_33k_ES_PAN_21mic_H50_0407_fot_42B-36334_E_tif
  70
32
  10
551175.513
  20
4594432.862
  30
1143.066
  0
VERTEX
  8
PNOA-H_AMS_1956-57_33k_ES_PAN_21mic_H50_0407_fot_42B-36334_E_tif
  70
32
  10
551370.500
  20
4594380.500
  30
1136.967
  0
VERTEX
  8
PNOA-H_AMS_1956-57_33k_ES_PAN_21mic_H50_0407_fot_42B-36334_E_tif
  70
32
  10
551372.000
  20
4594380.500
  30
1136.993
  0
VERTEX
  8
PNOA-H_AMS_1956-57_33k_ES_PAN_21mic_H50_0407_fot_42B-36334_E_tif
  70
32
  10
552682.729
  20
4594030.072
  30
1116.757
  0
VERTEX
  8
PNOA-H_AMS_1956-57_33k_ES_PAN_21mic_H50_0407_fot_42B-36334_E_tif
  70
32
  10
552683.000
  20
4594030.000
  30
1116.753
  0
VERTEX
  8
PNOA-H_AMS_1956-57_33k_ES_PAN_21mic_H50_0407_fot_42B-36334_E_tif
  70
32
  10
552723.000
  20
4589857.500
  30
1100.898
  0
VERTEX
  8
PNOA-H_AMS_1956-57_33k_ES_PAN_21mic_H50_0407_fot_42B-36334_E_tif
  70
32
  10
552722.749
  20
4589857.378
  30
1100.883
  0
VERTEX
  8
PNOA-H_AMS_1956-57_33k_ES_PAN_21mic_H50_0407_fot_42B-36334_E_tif
  70
32
  10
551954.002
  20
4589483.501
  30
1055.954
  0
VERTEX
  8
PNOA-H_AMS_1956-57_33k_ES_PAN_21mic_H50_0407_fot_42B-36334_E_tif
  70
32
  10
551954.000
  20
4589483.500
  30
1055.954
  0
VERTEX
  8
PNOA-H_AMS_1956-57_33k_ES_PAN_21mic_H50_0407_fot_42B-36334_E_tif
  70
32
  10
549939.722
  20
4589846.870
  30
1045.431
  0
VERTEX
  8
PNOA-H_AMS_1956-57_33k_ES_PAN_21mic_H50_0407_fot_42B-36334_E_tif
  70
32
  10
549939.000
  20
4589847.000
  30
1045.427
  0
VERTEX
  8
PNOA-H_AMS_1956-57_33k_ES_PAN_21mic_H50_0407_fot_42B-36334_E_tif
  70
32
  10
549886.000
  20
4594067.000
  30
1106.446
  0
VERTEX
  8
PNOA-H_AMS_1956-57_33k_ES_PAN_21mic_H50_0407_fot_42B-36334_E_tif
  70
32
  10
549886.843
  20
4594067.239
  30
1106.47
  0
VERTEX
  8
PNOA-H_AMS_1956-57_33k_ES_PAN_21mic_H50_0407_fot_42B-36334_E_tif
  70
32
  10
551175.000
  20
4594433.000
  30
1143.082
  0
VERTEX
  8
PNOA-H_AMS_1956-57_33k_ES_PAN_21mic_H50_0407_fot_42B-36334_E_tif
  70
32
  10
551175.257
  20
4594432.931
  30
1143.074
  0
VERTEX
  8
PNOA-H_AMS_1956-57_33k_ES_PAN_21mic_H50_0407_fot_42B-36334_E_tif
  70
32
  10
551175.513
  20
4594432.862
  30
1143.066
  0
SEQEND
  8
PNOA-H_AMS_1956-57_33k_ES_PAN_21mic_H50_0407_fot_42B-36334_E_tif
  0
INSERT
  8
FeatureAttribs
  2
FEATURE
  41
1
  42
1
  43
1
  50
0
  10
548512.170
  20
4591941.500
 66
1
  0
ATTRIB
  8
FeatureAttribs
 70
0
  1
PNOA-H_AMS_1956-57_33k_ES_PAN_21mic_H50_0407_fot_42B-36333_E.tif
  2
NAME
  10
548512.170
  20
4591941.500
 40
33.67194
  0
SEQEND
  0
POLYLINE
  8
PNOA-H_AMS_1956-57_33k_ES_PAN_21mic_H50_0407_fot_42B-36333_E_tif
  70
9
  66
1
  0
VERTEX
  8
PNOA-H_AMS_1956-57_33k_ES_PAN_21mic_H50_0407_fot_42B-36333_E_tif
  70
32
  10
549624.308
  20
4589699.268
  30
1039.419
  0
VERTEX
  8
PNOA-H_AMS_1956-57_33k_ES_PAN_21mic_H50_0407_fot_42B-36333_E_tif
  70
32
  10
549137.000
  20
4589470.500
  30
1030.116
  0
VERTEX
  8
PNOA-H_AMS_1956-57_33k_ES_PAN_21mic_H50_0407_fot_42B-36333_E_tif
  70
32
  10
549136.639
  20
4589470.565
  30
1030.113
  0
VERTEX
  8
PNOA-H_AMS_1956-57_33k_ES_PAN_21mic_H50_0407_fot_42B-36333_E_tif
  70
32
  10
548093.580
  20
4589659.689
  30
1021.785
  0
VERTEX
  8
PNOA-H_AMS_1956-57_33k_ES_PAN_21mic_H50_0407_fot_42B-36333_E_tif
  70
32
  10
547275.608
  20
4589808.000
  30
1015.254
  0
VERTEX
  8
PNOA-H_AMS_1956-57_33k_ES_PAN_21mic_H50_0407_fot_42B-36333_E_tif
  70
32
  10
547146.000
  20
4589831.500
  30
1014.219
  0
VERTEX
  8
PNOA-H_AMS_1956-57_33k_ES_PAN_21mic_H50_0407_fot_42B-36333_E_tif
  70
32
  10
547078.000
  20
4594008.000
  30
1045.93
  0
VERTEX
  8
PNOA-H_AMS_1956-57_33k_ES_PAN_21mic_H50_0407_fot_42B-36333_E_tif
  70
32
  10
547078.557
  20
4594008.142
  30
1045.927
  0
VERTEX
  8
PNOA-H_AMS_1956-57_33k_ES_PAN_21mic_H50_0407_fot_42B-36333_E_tif
  70
32
  10
547273.500
  20
4594058.000
  30
1044.856
  0
VERTEX
  8
PNOA-H_AMS_1956-57_33k_ES_PAN_21mic_H50_0407_fot_42B-36333_E_tif
  70
32
  10
547275.000
  20
4594058.500
  30
1044.717
  0
VERTEX
  8
PNOA-H_AMS_1956-57_33k_ES_PAN_21mic_H50_0407_fot_42B-36333_E_tif
  70
32
  10
548665.000
  20
4594412.500
  30
1101.483
  0
VERTEX
  8
PNOA-H_AMS_1956-57_33k_ES_PAN_21mic_H50_0407_fot_42B-36333_E_tif
  70
32
  10
548665.474
  20
4594412.366
  30
1101.485
  0
VERTEX
  8
PNOA-H_AMS_1956-57_33k_ES_PAN_21mic_H50_0407_fot_42B-36333_E_tif
  70
32
  10
549082.670
  20
4594294.314
  30
1103.181
  0
VERTEX
  8
PNOA-H_AMS_1956-57_33k_ES_PAN_21mic_H50_0407_fot_42B-36333_E_tif
  70
32
  10
549880.560
  20
4594068.539
  30
1106.423
  0
VERTEX
  8
PNOA-H_AMS_1956-57_33k_ES_PAN_21mic_H50_0407_fot_42B-36333_E_tif
  70
32
  10
549886.000
  20
4594067.000
  30
1106.446
  0
VERTEX
  8
PNOA-H_AMS_1956-57_33k_ES_PAN_21mic_H50_0407_fot_42B-36333_E_tif
  70
32
  10
549939.000
  20
4589847.000
  30
1045.427
  0
VERTEX
  8
PNOA-H_AMS_1956-57_33k_ES_PAN_21mic_H50_0407_fot_42B-36333_E_tif
  70
32
  10
549624.308
  20
4589699.268
  30
1039.419
  0
SEQEND
  8
PNOA-H_AMS_1956-57_33k_ES_PAN_21mic_H50_0407_fot_42B-36333_E_tif
  0
INSERT
  8
FeatureAttribs
  2
FEATURE
  41
1
  42
1
  43
1
  50
0
  10
554119.810
  20
4591963.250
 66
1
  0
ATTRIB
  8
FeatureAttribs
 70
0
  1
PNOA-H_AMS_1956-57_33k_ES_PAN_21mic_H50_0407_fot_42B-36335_E.tif
  2
NAME
  10
554119.810
  20
4591963.250
 40
33.67194
  0
SEQEND
  0
POLYLINE
  8
PNOA-H_AMS_1956-57_33k_ES_PAN_21mic_H50_0407_fot_42B-36335_E_tif
  70
9
  66
1
  0
VERTEX
  8
PNOA-H_AMS_1956-57_33k_ES_PAN_21mic_H50_0407_fot_42B-36335_E_tif
  70
32
  10
555506.000
  20
4589860.000
  30
1090.714
  0
VERTEX
  8
PNOA-H_AMS_1956-57_33k_ES_PAN_21mic_H50_0407_fot_42B-36335_E_tif
  70
32
  10
554811.000
  20
4589518.500
  30
1101.146
  0
VERTEX
  8
PNOA-H_AMS_1956-57_33k_ES_PAN_21mic_H50_0407_fot_42B-36335_E_tif
  70
32
  10
554810.248
  20
4589518.622
  30
1101.146
  0
VERTEX
  8
PNOA-H_AMS_1956-57_33k_ES_PAN_21mic_H50_0407_fot_42B-36335_E_tif
  70
32
  10
554115.000
  20
4589631.500
  30
1101.063
  0
VERTEX
  8
PNOA-H_AMS_1956-57_33k_ES_PAN_21mic_H50_0407_fot_42B-36335_E_tif
  70
32
  10
553419.000
  20
4589744.500
  30
1100.981
  0
VERTEX
  8
PNOA-H_AMS_1956-57_33k_ES_PAN_21mic_H50_0407_fot_42B-36335_E_tif
  70
32
  10
552723.000
  20
4589857.500
  30
1100.898
  0
VERTEX
  8
PNOA-H_AMS_1956-57_33k_ES_PAN_21mic_H50_0407_fot_42B-36335_E_tif
  70
32
  10
552683.000
  20
4594030.000
  30
1116.753
  0
VERTEX
  8
PNOA-H_AMS_1956-57_33k_ES_PAN_21mic_H50_0407_fot_42B-36335_E_tif
  70
32
  10
552901.983
  20
4594099.514
  30
1119.844
  0
VERTEX
  8
PNOA-H_AMS_1956-57_33k_ES_PAN_21mic_H50_0407_fot_42B-36335_E_tif
  70
32
  10
553417.000
  20
4594263.000
  30
1127.113
  0
VERTEX
  8
PNOA-H_AMS_1956-57_33k_ES_PAN_21mic_H50_0407_fot_42B-36335_E_tif
  70
32
  10
553418.500
  20
4594263.500
  30
1127.295
  0
VERTEX
  8
PNOA-H_AMS_1956-57_33k_ES_PAN_21mic_H50_0407_fot_42B-36335_E_tif
  70
32
  10
553868.000
  20
4594406.000
  30
1127.551
  0
VERTEX
  8
PNOA-H_AMS_1956-57_33k_ES_PAN_21mic_H50_0407_fot_42B-36335_E_tif
  70
32
  10
553873.026
  20
4594407.058
  30
1128.054
  0
VERTEX
  8
PNOA-H_AMS_1956-57_33k_ES_PAN_21mic_H50_0407_fot_42B-36335_E_tif
  70
32
  10
553876.682
  20
4594407.828
  30
1128.421
  0
VERTEX
  8
PNOA-H_AMS_1956-57_33k_ES_PAN_21mic_H50_0407_fot_42B-36335_E_tif
  70
32
  10
553877.500
  20
4594408.000
  30
1128.502
  0
VERTEX
  8
PNOA-H_AMS_1956-57_33k_ES_PAN_21mic_H50_0407_fot_42B-36335_E_tif
  70
32
  10
555523.829
  20
4593992.210
  30
1156.92
  0
VERTEX
  8
PNOA-H_AMS_1956-57_33k_ES_PAN_21mic_H50_0407_fot_42B-36335_E_tif
  70
32
  10
555540.500
  20
4593988.000
  30
1157.208
  0
VERTEX
  8
PNOA-H_AMS_1956-57_33k_ES_PAN_21mic_H50_0407_fot_42B-36335_E_tif
  70
32
  10
555533.000
  20
4589875.000
  30
1088.563
  0
VERTEX
  8
PNOA-H_AMS_1956-57_33k_ES_PAN_21mic_H50_0407_fot_42B-36335_E_tif
  70
32
  10
555532.501
  20
4589874.002
  30
1088.583
  0
VERTEX
  8
PNOA-H_AMS_1956-57_33k_ES_PAN_21mic_H50_0407_fot_42B-36335_E_tif
  70
32
  10
555532.250
  20
4589873.500
  30
1088.593
  0
VERTEX
  8
PNOA-H_AMS_1956-57_33k_ES_PAN_21mic_H50_0407_fot_42B-36335_E_tif
  70
32
  10
555532.000
  20
4589873.000
  30
1088.603
  0
VERTEX
  8
PNOA-H_AMS_1956-57_33k_ES_PAN_21mic_H50_0407_fot_42B-36335_E_tif
  70
32
  10
555506.000
  20
4589860.000
  30
1090.714
  0
SEQEND
  8
PNOA-H_AMS_1956-57_33k_ES_PAN_21mic_H50_0407_fot_42B-36335_E_tif
  0
INSERT
  8
FeatureAttribs
  2
FEATURE
  41
1
  42
1
  43
1
  50
0
  10
555394.641
  20
4594236.200
 66
1
  0
ATTRIB
  8
FeatureAttribs
 70
0
  1
PNOA-H_AMS_1956-57_33k_ES_PAN_21mic_H50_0379_fot_41B-37381_W.tif
  2
NAME
  10
555394.641
  20
4594236.200
 40
33.67194
  0
SEQEND
  0
POLYLINE
  8
PNOA-H_AMS_1956-57_33k_ES_PAN_21mic_H50_0379_fot_41B-37381_W_tif
  70
9
  66
1
  0
VERTEX
  8
PNOA-H_AMS_1956-57_33k_ES_PAN_21mic_H50_0379_fot_41B-37381_W_tif
  70
32
  10
556331.334
  20
4594271.441
  30
1151.159
  0
VERTEX
  8
PNOA-H_AMS_1956-57_33k_ES_PAN_21mic_H50_0379_fot_41B-37381_W_tif
  70
32
  10
555542.000
  20
4593988.000
  30
1157.189
  0
VERTEX
  8
PNOA-H_AMS_1956-57_33k_ES_PAN_21mic_H50_0379_fot_41B-37381_W_tif
  70
32
  10
555541.089
  20
4593988.211
  30
1157.164
  0
VERTEX
  8
PNOA-H_AMS_1956-57_33k_ES_PAN_21mic_H50_0379_fot_41B-37381_W_tif
  70
32
  10
555523.829
  20
4593992.210
  30
1156.704
  0
VERTEX
  8
PNOA-H_AMS_1956-57_33k_ES_PAN_21mic_H50_0379_fot_41B-37381_W_tif
  70
32
  10
555501.000
  20
4593997.500
  30
1156.094
  0
VERTEX
  8
PNOA-H_AMS_1956-57_33k_ES_PAN_21mic_H50_0379_fot_41B-37381_W_tif
  70
32
  10
553876.682
  20
4594407.828
  30
1128.324
  0
VERTEX
  8
PNOA-H_AMS_1956-57_33k_ES_PAN_21mic_H50_0379_fot_41B-37381_W_tif
  70
32
  10
553876.000
  20
4594408.000
  30
1128.313
  0
VERTEX
  8
PNOA-H_AMS_1956-57_33k_ES_PAN_21mic_H50_0379_fot_41B-37381_W_tif
  70
32
  10
553877.623
  20
4594465.343
  30
1127.202
  0
VERTEX
  8
PNOA-H_AMS_1956-57_33k_ES_PAN_21mic_H50_0379_fot_41B-37381_W_tif
  70
32
  10
553903.181
  20
4594465.528
  30
0
  0
VERTEX
  8
PNOA-H_AMS_1956-57_33k_ES_PAN_21mic_H50_0379_fot_41B-37381_W_tif
  70
32
  10
556350.708
  20
4594484.399
  30
1147.042
  0
VERTEX
  8
PNOA-H_AMS_1956-57_33k_ES_PAN_21mic_H50_0379_fot_41B-37381_W_tif
  70
32
  10
556331.500
  20
4594271.500
  30
1151.158
  0
VERTEX
  8
PNOA-H_AMS_1956-57_33k_ES_PAN_21mic_H50_0379_fot_41B-37381_W_tif
  70
32
  10
556331.334
  20
4594271.441
  30
1151.159
  0
SEQEND
  8
PNOA-H_AMS_1956-57_33k_ES_PAN_21mic_H50_0379_fot_41B-37381_W_tif
  0
INSERT
  8
FeatureAttribs
  2
FEATURE
  41
1
  42
1
  43
1
  50
0
  10
549885.301
  20
4594256.407
 66
1
  0
ATTRIB
  8
FeatureAttribs
 70
0
  1
PNOA-H_AMS_1956-57_33k_ES_PAN_21mic_H50_0379_fot_41B-37383_W.tif
  2
NAME
  10
549885.301
  20
4594256.407
 40
33.67194
  0
SEQEND
  0
POLYLINE
  8
PNOA-H_AMS_1956-57_33k_ES_PAN_21mic_H50_0379_fot_41B-37383_W_tif
  70
9
  66
1
  0
VERTEX
  8
PNOA-H_AMS_1956-57_33k_ES_PAN_21mic_H50_0379_fot_41B-37383_W_tif
  70
32
  10
551175.257
  20
4594432.931
  30
1143.021
  0
VERTEX
  8
PNOA-H_AMS_1956-57_33k_ES_PAN_21mic_H50_0379_fot_41B-37383_W_tif
  70
32
  10
549888.000
  20
4594067.000
  30
1106.383
  0
VERTEX
  8
PNOA-H_AMS_1956-57_33k_ES_PAN_21mic_H50_0379_fot_41B-37383_W_tif
  70
32
  10
549886.843
  20
4594067.239
  30
1106.39
  0
VERTEX
  8
PNOA-H_AMS_1956-57_33k_ES_PAN_21mic_H50_0379_fot_41B-37383_W_tif
  70
32
  10
549880.560
  20
4594068.539
  30
1106.429
  0
VERTEX
  8
PNOA-H_AMS_1956-57_33k_ES_PAN_21mic_H50_0379_fot_41B-37383_W_tif
  70
32
  10
549873.500
  20
4594070.000
  30
1106.473
  0
VERTEX
  8
PNOA-H_AMS_1956-57_33k_ES_PAN_21mic_H50_0379_fot_41B-37383_W_tif
  70
32
  10
549082.670
  20
4594294.314
  30
1103.271
  0
VERTEX
  8
PNOA-H_AMS_1956-57_33k_ES_PAN_21mic_H50_0379_fot_41B-37383_W_tif
  70
32
  10
548666.000
  20
4594412.500
  30
1101.585
  0
VERTEX
  8
PNOA-H_AMS_1956-57_33k_ES_PAN_21mic_H50_0379_fot_41B-37383_W_tif
  70
32
  10
548665.549
  20
4594428.517
  30
1101.218
  0
VERTEX
  8
PNOA-H_AMS_1956-57_33k_ES_PAN_21mic_H50_0379_fot_41B-37383_W_tif
  70
32
  10
550425.539
  20
4594440.391
  30
0
  0
VERTEX
  8
PNOA-H_AMS_1956-57_33k_ES_PAN_21mic_H50_0379_fot_41B-37383_W_tif
  70
32
  10
551175.946
  20
4594445.815
  30
1142.684
  0
VERTEX
  8
PNOA-H_AMS_1956-57_33k_ES_PAN_21mic_H50_0379_fot_41B-37383_W_tif
  70
32
  10
551175.500
  20
4594433.000
  30
1143.028
  0
VERTEX
  8
PNOA-H_AMS_1956-57_33k_ES_PAN_21mic_H50_0379_fot_41B-37383_W_tif
  70
32
  10
551175.257
  20
4594432.931
  30
1143.021
  0
SEQEND
  8
PNOA-H_AMS_1956-57_33k_ES_PAN_21mic_H50_0379_fot_41B-37383_W_tif
  0
INSERT
  8
FeatureAttribs
  2
FEATURE
  41
1
  42
1
  43
1
  50
0
  10
552618.647
  20
4594247.672
 66
1
  0
ATTRIB
  8
FeatureAttribs
 70
0
  1
PNOA-H_AMS_1956-57_33k_ES_PAN_21mic_H50_0379_fot_41B-37382_W.tif
  2
NAME
  10
552618.647
  20
4594247.672
 40
33.67194
  0
SEQEND
  0
POLYLINE
  8
PNOA-H_AMS_1956-57_33k_ES_PAN_21mic_H50_0379_fot_41B-37382_W_tif
  70
9
  66
1
  0
VERTEX
  8
PNOA-H_AMS_1956-57_33k_ES_PAN_21mic_H50_0379_fot_41B-37382_W_tif
  70
32
  10
552682.729
  20
4594030.072
  30
1116.742
  0
VERTEX
  8
PNOA-H_AMS_1956-57_33k_ES_PAN_21mic_H50_0379_fot_41B-37382_W_tif
  70
32
  10
552682.500
  20
4594030.000
  30
1116.739
  0
VERTEX
  8
PNOA-H_AMS_1956-57_33k_ES_PAN_21mic_H50_0379_fot_41B-37382_W_tif
  70
32
  10
551175.500
  20
4594432.500
  30
1143.003
  0
VERTEX
  8
PNOA-H_AMS_1956-57_33k_ES_PAN_21mic_H50_0379_fot_41B-37382_W_tif
  70
32
  10
551175.513
  20
4594432.862
  30
1142.994
  0
VERTEX
  8
PNOA-H_AMS_1956-57_33k_ES_PAN_21mic_H50_0379_fot_41B-37382_W_tif
  70
32
  10
551175.962
  20
4594445.815
  30
1142.646
  0
VERTEX
  8
PNOA-H_AMS_1956-57_33k_ES_PAN_21mic_H50_0379_fot_41B-37382_W_tif
  70
32
  10
553877.623
  20
4594465.343
  30
1127.202
  0
VERTEX
  8
PNOA-H_AMS_1956-57_33k_ES_PAN_21mic_H50_0379_fot_41B-37382_W_tif
  70
32
  10
553876.000
  20
4594408.000
  30
1128.313
  0
VERTEX
  8
PNOA-H_AMS_1956-57_33k_ES_PAN_21mic_H50_0379_fot_41B-37382_W_tif
  70
32
  10
553873.026
  20
4594407.058
  30
1128.284
  0
VERTEX
  8
PNOA-H_AMS_1956-57_33k_ES_PAN_21mic_H50_0379_fot_41B-37382_W_tif
  70
32
  10
552901.983
  20
4594099.514
  30
1118.868
  0
VERTEX
  8
PNOA-H_AMS_1956-57_33k_ES_PAN_21mic_H50_0379_fot_41B-37382_W_tif
  70
32
  10
552682.729
  20
4594030.072
  30
1116.742
  0
SEQEND
  8
PNOA-H_AMS_1956-57_33k_ES_PAN_21mic_H50_0379_fot_41B-37382_W_tif
  0
INSERT
  8
FeatureAttribs
  2
FEATURE
  41
1
  42
1
  43
1
  50
0
  10
557860.708
  20
4594206.393
 66
1
  0
ATTRIB
  8
FeatureAttribs
 70
0
  1
PNOA-H_AMS_1956-57_33k_ES_PAN_21mic_H50_0379_fot_41B-37380_W.tif
  2
NAME
  10
557860.708
  20
4594206.393
 40
33.67194
  0
SEQEND
  0
POLYLINE
  8
PNOA-H_AMS_1956-57_33k_ES_PAN_21mic_H50_0379_fot_41B-37380_W_tif
  70
9
  66
1
  0
VERTEX
  8
PNOA-H_AMS_1956-57_33k_ES_PAN_21mic_H50_0379_fot_41B-37380_W_tif
  70
32
  10
559088.500
  20
4594237.000
  30
1117.821
  0
VERTEX
  8
PNOA-H_AMS_1956-57_33k_ES_PAN_21mic_H50_0379_fot_41B-37380_W_tif
  70
32
  10
558386.000
  20
4593906.500
  30
1117.035
  0
VERTEX
  8
PNOA-H_AMS_1956-57_33k_ES_PAN_21mic_H50_0379_fot_41B-37380_W_tif
  70
32
  10
558385.637
  20
4593906.564
  30
1117.041
  0
VERTEX
  8
PNOA-H_AMS_1956-57_33k_ES_PAN_21mic_H50_0379_fot_41B-37380_W_tif
  70
32
  10
558385.224
  20
4593906.638
  30
1117.048
  0
VERTEX
  8
PNOA-H_AMS_1956-57_33k_ES_PAN_21mic_H50_0379_fot_41B-37380_W_tif
  70
32
  10
557700.886
  20
4594028.217
  30
1128.414
  0
VERTEX
  8
PNOA-H_AMS_1956-57_33k_ES_PAN_21mic_H50_0379_fot_41B-37380_W_tif
  70
32
  10
556331.500
  20
4594271.500
  30
1151.158
  0
VERTEX
  8
PNOA-H_AMS_1956-57_33k_ES_PAN_21mic_H50_0379_fot_41B-37380_W_tif
  70
32
  10
556350.708
  20
4594484.399
  30
1147.042
  0
VERTEX
  8
PNOA-H_AMS_1956-57_33k_ES_PAN_21mic_H50_0379_fot_41B-37380_W_tif
  70
32
  10
557380.825
  20
4594492.342
  30
0
  0
VERTEX
  8
PNOA-H_AMS_1956-57_33k_ES_PAN_21mic_H50_0379_fot_41B-37380_W_tif
  70
32
  10
559082.861
  20
4594506.285
  30
1115.595
  0
VERTEX
  8
PNOA-H_AMS_1956-57_33k_ES_PAN_21mic_H50_0379_fot_41B-37380_W_tif
  70
32
  10
559088.490
  20
4594237.495
  30
1117.817
  0
VERTEX
  8
PNOA-H_AMS_1956-57_33k_ES_PAN_21mic_H50_0379_fot_41B-37380_W_tif
  70
32
  10
559088.500
  20
4594237.000
  30
1117.821
  0
SEQEND
  8
PNOA-H_AMS_1956-57_33k_ES_PAN_21mic_H50_0379_fot_41B-37380_W_tif
  0
INSERT
  8
FeatureAttribs
  2
FEATURE
  41
1
  42
1
  43
1
  50
0
  10
560377.833
  20
4594266.406
 66
1
  0
ATTRIB
  8
FeatureAttribs
 70
0
  1
PNOA-H_AMS_1956-57_33k_ES_PAN_21mic_H50_0379_fot_41B-37379_W.tif
  2
NAME
  10
560377.833
  20
4594266.406
 40
33.67194
  0
SEQEND
  0
POLYLINE
  8
PNOA-H_AMS_1956-57_33k_ES_PAN_21mic_H50_0379_fot_41B-37379_W_tif
  70
9
  66
1
  0
VERTEX
  8
PNOA-H_AMS_1956-57_33k_ES_PAN_21mic_H50_0379_fot_41B-37379_W_tif
  70
32
  10
561328.500
  20
4594005.000
  30
1044.627
  0
VERTEX
  8
PNOA-H_AMS_1956-57_33k_ES_PAN_21mic_H50_0379_fot_41B-37379_W_tif
  70
32
  10
561328.000
  20
4594005.000
  30
1044.492
  0
VERTEX
  8
PNOA-H_AMS_1956-57_33k_ES_PAN_21mic_H50_0379_fot_41B-37379_W_tif
  70
32
  10
561325.000
  20
4594005.000
  30
1043.678
  0
VERTEX
  8
PNOA-H_AMS_1956-57_33k_ES_PAN_21mic_H50_0379_fot_41B-37379_W_tif
  70
32
  10
559881.333
  20
4594155.079
  30
1091.559
  0
VERTEX
  8
PNOA-H_AMS_1956-57_33k_ES_PAN_21mic_H50_0379_fot_41B-37379_W_tif
  70
32
  10
559088.500
  20
4594237.500
  30
1117.854
  0
VERTEX
  8
PNOA-H_AMS_1956-57_33k_ES_PAN_21mic_H50_0379_fot_41B-37379_W_tif
  70
32
  10
559082.870
  20
4594506.285
  30
1115.63
  0
VERTEX
  8
PNOA-H_AMS_1956-57_33k_ES_PAN_21mic_H50_0379_fot_41B-37379_W_tif
  70
32
  10
560858.474
  20
4594520.831
  30
0
  0
VERTEX
  8
PNOA-H_AMS_1956-57_33k_ES_PAN_21mic_H50_0379_fot_41B-37379_W_tif
  70
32
  10
561663.191
  20
4594527.812
  30
0
  0
VERTEX
  8
PNOA-H_AMS_1956-57_33k_ES_PAN_21mic_H50_0379_fot_41B-37379_W_tif
  70
32
  10
561663.206
  20
4594527.812
  30
1025.312
  0
VERTEX
  8
PNOA-H_AMS_1956-57_33k_ES_PAN_21mic_H50_0379_fot_41B-37379_W_tif
  70
32
  10
561669.000
  20
4594196.000
  30
1020.28
  0
VERTEX
  8
PNOA-H_AMS_1956-57_33k_ES_PAN_21mic_H50_0379_fot_41B-37379_W_tif
  70
32
  10
561331.500
  20
4594006.500
  30
1045.067
  0
VERTEX
  8
PNOA-H_AMS_1956-57_33k_ES_PAN_21mic_H50_0379_fot_41B-37379_W_tif
  70
32
  10
561328.500
  20
4594005.000
  30
1044.627
  0
SEQEND
  8
PNOA-H_AMS_1956-57_33k_ES_PAN_21mic_H50_0379_fot_41B-37379_W_tif
  0
INSERT
  8
FeatureAttribs
  2
FEATURE
  41
1
  42
1
  43
1
  50
0
  10
565638.460
  20
4594368.251
 66
1
  0
ATTRIB
  8
FeatureAttribs
 70
0
  1
PNOA-H_AMS_1956-57_33k_ES_PAN_21mic_H50_0379_fot_41B-37377_W.tif
  2
NAME
  10
565638.460
  20
4594368.251
 40
33.67194
  0
SEQEND
  0
POLYLINE
  8
PNOA-H_AMS_1956-57_33k_ES_PAN_21mic_H50_0379_fot_41B-37377_W_tif
  70
9
  66
1
  0
VERTEX
  8
PNOA-H_AMS_1956-57_33k_ES_PAN_21mic_H50_0379_fot_41B-37377_W_tif
  70
32
  10
564320.500
  20
4594161.500
  30
1004.304
  0
VERTEX
  8
PNOA-H_AMS_1956-57_33k_ES_PAN_21mic_H50_0379_fot_41B-37377_W_tif
  70
32
  10
564316.000
  20
4594161.500
  30
1004.378
  0
VERTEX
  8
PNOA-H_AMS_1956-57_33k_ES_PAN_21mic_H50_0379_fot_41B-37377_W_tif
  70
32
  10
564315.998
  20
4594161.550
  30
1004.391
  0
VERTEX
  8
PNOA-H_AMS_1956-57_33k_ES_PAN_21mic_H50_0379_fot_41B-37377_W_tif
  70
32
  10
564315.500
  20
4594174.000
  30
1007.56
  0
VERTEX
  8
PNOA-H_AMS_1956-57_33k_ES_PAN_21mic_H50_0379_fot_41B-37377_W_tif
  70
32
  10
564301.853
  20
4594550.700
  30
1014.281
  0
VERTEX
  8
PNOA-H_AMS_1956-57_33k_ES_PAN_21mic_H50_0379_fot_41B-37377_W_tif
  70
32
  10
564301.887
  20
4594550.700
  30
0
  0
VERTEX
  8
PNOA-H_AMS_1956-57_33k_ES_PAN_21mic_H50_0379_fot_41B-37377_W_tif
  70
32
  10
564336.126
  20
4594550.997
  30
0
  0
VERTEX
  8
PNOA-H_AMS_1956-57_33k_ES_PAN_21mic_H50_0379_fot_41B-37377_W_tif
  70
32
  10
566957.848
  20
4594575.002
  30
920.629
  0
VERTEX
  8
PNOA-H_AMS_1956-57_33k_ES_PAN_21mic_H50_0379_fot_41B-37377_W_tif
  70
32
  10
566973.500
  20
4594270.000
  30
915.402
  0
VERTEX
  8
PNOA-H_AMS_1956-57_33k_ES_PAN_21mic_H50_0379_fot_41B-37377_W_tif
  70
32
  10
564320.500
  20
4594161.500
  30
1004.304
  0
SEQEND
  8
PNOA-H_AMS_1956-57_33k_ES_PAN_21mic_H50_0379_fot_41B-37377_W_tif
  0
INSERT
  8
FeatureAttribs
  2
FEATURE
  41
1
  42
1
  43
1
  50
0
  10
567391.546
  20
4594387.420
 66
1
  0
ATTRIB
  8
FeatureAttribs
 70
0
  1
PNOA-H_AMS_1956-57_33k_ES_PAN_21mic_H50_0380_fot_41B-37376_W.tif
  2
NAME
  10
567391.546
  20
4594387.420
 40
33.67194
  0
SEQEND
  0
POLYLINE
  8
PNOA-H_AMS_1956-57_33k_ES_PAN_21mic_H50_0380_fot_41B-37376_W_tif
  70
9
  66
1
  0
VERTEX
  8
PNOA-H_AMS_1956-57_33k_ES_PAN_21mic_H50_0380_fot_41B-37376_W_tif
  70
32
  10
567816.856
  20
4594255.667
  30
923.248
  0
VERTEX
  8
PNOA-H_AMS_1956-57_33k_ES_PAN_21mic_H50_0380_fot_41B-37376_W_tif
  70
32
  10
567124.000
  20
4594192.000
  30
917.507
  0
VERTEX
  8
PNOA-H_AMS_1956-57_33k_ES_PAN_21mic_H50_0380_fot_41B-37376_W_tif
  70
32
  10
567123.709
  20
4594192.112
  30
917.498
  0
VERTEX
  8
PNOA-H_AMS_1956-57_33k_ES_PAN_21mic_H50_0380_fot_41B-37376_W_tif
  70
32
  10
567122.022
  20
4594192.761
  30
917.448
  0
VERTEX
  8
PNOA-H_AMS_1956-57_33k_ES_PAN_21mic_H50_0380_fot_41B-37376_W_tif
  70
32
  10
567117.500
  20
4594194.500
  30
917.314
  0
VERTEX
  8
PNOA-H_AMS_1956-57_33k_ES_PAN_21mic_H50_0380_fot_41B-37376_W_tif
  70
32
  10
566973.500
  20
4594270.000
  30
915.402
  0
VERTEX
  8
PNOA-H_AMS_1956-57_33k_ES_PAN_21mic_H50_0380_fot_41B-37376_W_tif
  70
32
  10
566957.848
  20
4594575.002
  30
920.629
  0
VERTEX
  8
PNOA-H_AMS_1956-57_33k_ES_PAN_21mic_H50_0380_fot_41B-37376_W_tif
  70
32
  10
567813.783
  20
4594582.839
  30
0
  0
VERTEX
  8
PNOA-H_AMS_1956-57_33k_ES_PAN_21mic_H50_0380_fot_41B-37376_W_tif
  70
32
  10
567816.852
  20
4594256.133
  30
0
  0
VERTEX
  8
PNOA-H_AMS_1956-57_33k_ES_PAN_21mic_H50_0380_fot_41B-37376_W_tif
  70
32
  10
567816.856
  20
4594255.667
  30
923.248
  0
SEQEND
  8
PNOA-H_AMS_1956-57_33k_ES_PAN_21mic_H50_0380_fot_41B-37376_W_tif
  0
INSERT
  8
FeatureAttribs
  2
FEATURE
  41
1
  42
1
  43
1
  50
0
  10
562987.973
  20
4594341.100
 66
1
  0
ATTRIB
  8
FeatureAttribs
 70
0
  1
PNOA-H_AMS_1956-57_33k_ES_PAN_21mic_H50_0379_fot_41B-37378_W.tif
  2
NAME
  10
562987.973
  20
4594341.100
 40
33.67194
  0
SEQEND
  0
POLYLINE
  8
PNOA-H_AMS_1956-57_33k_ES_PAN_21mic_H50_0379_fot_41B-37378_W_tif
  70
9
  66
1
  0
VERTEX
  8
PNOA-H_AMS_1956-57_33k_ES_PAN_21mic_H50_0379_fot_41B-37378_W_tif
  70
32
  10
564316.000
  20
4594161.500
  30
1004.378
  0
VERTEX
  8
PNOA-H_AMS_1956-57_33k_ES_PAN_21mic_H50_0379_fot_41B-37378_W_tif
  70
32
  10
564267.500
  20
4594131.500
  30
1001.539
  0
VERTEX
  8
PNOA-H_AMS_1956-57_33k_ES_PAN_21mic_H50_0379_fot_41B-37378_W_tif
  70
32
  10
561669.000
  20
4594196.000
  30
1020.28
  0
VERTEX
  8
PNOA-H_AMS_1956-57_33k_ES_PAN_21mic_H50_0379_fot_41B-37378_W_tif
  70
32
  10
561663.191
  20
4594527.812
  30
1025.313
  0
VERTEX
  8
PNOA-H_AMS_1956-57_33k_ES_PAN_21mic_H50_0379_fot_41B-37378_W_tif
  70
32
  10
561663.206
  20
4594527.812
  30
1025.312
  0
VERTEX
  8
PNOA-H_AMS_1956-57_33k_ES_PAN_21mic_H50_0379_fot_41B-37378_W_tif
  70
32
  10
564301.853
  20
4594550.700
  30
0
  0
VERTEX
  8
PNOA-H_AMS_1956-57_33k_ES_PAN_21mic_H50_0379_fot_41B-37378_W_tif
  70
32
  10
564301.887
  20
4594550.700
  30
1009.391
  0
VERTEX
  8
PNOA-H_AMS_1956-57_33k_ES_PAN_21mic_H50_0379_fot_41B-37378_W_tif
  70
32
  10
564315.998
  20
4594161.550
  30
1004.379
  0
VERTEX
  8
PNOA-H_AMS_1956-57_33k_ES_PAN_21mic_H50_0379_fot_41B-37378_W_tif
  70
32
  10
564316.000
  20
4594161.500
  30
1004.378
  0
SEQEND
  8
PNOA-H_AMS_1956-57_33k_ES_PAN_21mic_H50_0379_fot_41B-37378_W_tif
  0
INSERT
  8
FeatureAttribs
  2
FEATURE
  41
1
  42
1
  43
1
  50
0
  10
540405.923
  20
4591871.961
 66
1
  0
ATTRIB
  8
FeatureAttribs
 70
0
  1
PNOA-H_AMS_1956-57_33k_ES_PAN_21mic_H50_0406_fot_42B-36330_E.tif
  2
NAME
  10
540405.923
  20
4591871.961
 40
33.67194
  0
SEQEND
  0
POLYLINE
  8
PNOA-H_AMS_1956-57_33k_ES_PAN_21mic_H50_0406_fot_42B-36330_E_tif
  70
9
  66
1
  0
VERTEX
  8
PNOA-H_AMS_1956-57_33k_ES_PAN_21mic_H50_0406_fot_42B-36330_E_tif
  70
32
  10
540696.000
  20
4589552.999
  30
944.195
  0
VERTEX
  8
PNOA-H_AMS_1956-57_33k_ES_PAN_21mic_H50_0406_fot_42B-36330_E_tif
  70
32
  10
540019.357
  20
4589551.012
  30
946.521
  0
VERTEX
  8
PNOA-H_AMS_1956-57_33k_ES_PAN_21mic_H50_0406_fot_42B-36330_E_tif
  70
32
  10
540019.355
  20
4589551.208
  30
0
  0
VERTEX
  8
PNOA-H_AMS_1956-57_33k_ES_PAN_21mic_H50_0406_fot_42B-36330_E_tif
  70
32
  10
540018.259
  20
4589749.232
  30
0
  0
VERTEX
  8
PNOA-H_AMS_1956-57_33k_ES_PAN_21mic_H50_0406_fot_42B-36330_E_tif
  70
32
  10
540005.450
  20
4592062.128
  30
0
  0
VERTEX
  8
PNOA-H_AMS_1956-57_33k_ES_PAN_21mic_H50_0406_fot_42B-36330_E_tif
  70
32
  10
539993.644
  20
4594192.910
  30
938.658
  0
VERTEX
  8
PNOA-H_AMS_1956-57_33k_ES_PAN_21mic_H50_0406_fot_42B-36330_E_tif
  70
32
  10
540380.732
  20
4594189.254
  30
937.7
  0
VERTEX
  8
PNOA-H_AMS_1956-57_33k_ES_PAN_21mic_H50_0406_fot_42B-36330_E_tif
  70
32
  10
540566.000
  20
4594187.505
  30
937.242
  0
VERTEX
  8
PNOA-H_AMS_1956-57_33k_ES_PAN_21mic_H50_0406_fot_42B-36330_E_tif
  70
32
  10
540566.500
  20
4594187.500
  30
937.24
  0
VERTEX
  8
PNOA-H_AMS_1956-57_33k_ES_PAN_21mic_H50_0406_fot_42B-36330_E_tif
  70
32
  10
540770.500
  20
4594073.500
  30
935.784
  0
VERTEX
  8
PNOA-H_AMS_1956-57_33k_ES_PAN_21mic_H50_0406_fot_42B-36330_E_tif
  70
32
  10
540770.504
  20
4594073.277
  30
935.785
  0
VERTEX
  8
PNOA-H_AMS_1956-57_33k_ES_PAN_21mic_H50_0406_fot_42B-36330_E_tif
  70
32
  10
540770.508
  20
4594073.000
  30
935.786
  0
VERTEX
  8
PNOA-H_AMS_1956-57_33k_ES_PAN_21mic_H50_0406_fot_42B-36330_E_tif
  70
32
  10
540840.500
  20
4589650.500
  30
946.948
  0
VERTEX
  8
PNOA-H_AMS_1956-57_33k_ES_PAN_21mic_H50_0406_fot_42B-36330_E_tif
  70
32
  10
540840.473
  20
4589650.482
  30
946.947
  0
VERTEX
  8
PNOA-H_AMS_1956-57_33k_ES_PAN_21mic_H50_0406_fot_42B-36330_E_tif
  70
32
  10
540839.744
  20
4589649.988
  30
946.933
  0
VERTEX
  8
PNOA-H_AMS_1956-57_33k_ES_PAN_21mic_H50_0406_fot_42B-36330_E_tif
  70
32
  10
540769.445
  20
4589602.390
  30
945.589
  0
VERTEX
  8
PNOA-H_AMS_1956-57_33k_ES_PAN_21mic_H50_0406_fot_42B-36330_E_tif
  70
32
  10
540696.500
  20
4589553.000
  30
944.194
  0
VERTEX
  8
PNOA-H_AMS_1956-57_33k_ES_PAN_21mic_H50_0406_fot_42B-36330_E_tif
  70
32
  10
540696.000
  20
4589552.999
  30
944.195
  0
SEQEND
  8
PNOA-H_AMS_1956-57_33k_ES_PAN_21mic_H50_0406_fot_42B-36330_E_tif
  0
INSERT
  8
FeatureAttribs
  2
FEATURE
  41
1
  42
1
  43
1
  50
0
  10
541459.676
  20
4583143.000
 66
1
  0
ATTRIB
  8
FeatureAttribs
 70
0
  1
PNOA-H_AMS_1956-57_33k_ES_PAN_21mic_H50_0407_fot_44B-36252_W.tif
  2
NAME
  10
541459.676
  20
4583143.000
 40
33.67194
  0
SEQEND
  0
POLYLINE
  8
PNOA-H_AMS_1956-57_33k_ES_PAN_21mic_H50_0407_fot_44B-36252_W_tif
  70
9
  66
1
  0
VERTEX
  8
PNOA-H_AMS_1956-57_33k_ES_PAN_21mic_H50_0407_fot_44B-36252_W_tif
  70
32
  10
540946.202
  20
4580687.123
  30
1065.903
  0
VERTEX
  8
PNOA-H_AMS_1956-57_33k_ES_PAN_21mic_H50_0407_fot_44B-36252_W_tif
  70
32
  10
540945.500
  20
4580687.000
  30
1065.911
  0
VERTEX
  8
PNOA-H_AMS_1956-57_33k_ES_PAN_21mic_H50_0407_fot_44B-36252_W_tif
  70
32
  10
540066.393
  20
4581049.464
  30
1055.162
  0
VERTEX
  8
PNOA-H_AMS_1956-57_33k_ES_PAN_21mic_H50_0407_fot_44B-36252_W_tif
  70
32
  10
540066.389
  20
4581050.076
  30
0
  0
VERTEX
  8
PNOA-H_AMS_1956-57_33k_ES_PAN_21mic_H50_0407_fot_44B-36252_W_tif
  70
32
  10
540056.655
  20
4582810.592
  30
0
  0
VERTEX
  8
PNOA-H_AMS_1956-57_33k_ES_PAN_21mic_H50_0407_fot_44B-36252_W_tif
  70
32
  10
540043.862
  20
4585123.464
  30
0
  0
VERTEX
  8
PNOA-H_AMS_1956-57_33k_ES_PAN_21mic_H50_0407_fot_44B-36252_W_tif
  70
32
  10
540043.311
  20
4585223.054
  30
0
  0
VERTEX
  8
PNOA-H_AMS_1956-57_33k_ES_PAN_21mic_H50_0407_fot_44B-36252_W_tif
  70
32
  10
540043.308
  20
4585223.579
  30
1019.954
  0
VERTEX
  8
PNOA-H_AMS_1956-57_33k_ES_PAN_21mic_H50_0407_fot_44B-36252_W_tif
  70
32
  10
540758.500
  20
4585598.500
  30
1002.876
  0
VERTEX
  8
PNOA-H_AMS_1956-57_33k_ES_PAN_21mic_H50_0407_fot_44B-36252_W_tif
  70
32
  10
540759.500
  20
4585599.000
  30
1002.701
  0
VERTEX
  8
PNOA-H_AMS_1956-57_33k_ES_PAN_21mic_H50_0407_fot_44B-36252_W_tif
  70
32
  10
540760.243
  20
4585598.865
  30
1002.688
  0
VERTEX
  8
PNOA-H_AMS_1956-57_33k_ES_PAN_21mic_H50_0407_fot_44B-36252_W_tif
  70
32
  10
542801.500
  20
4585229.500
  30
967.75
  0
VERTEX
  8
PNOA-H_AMS_1956-57_33k_ES_PAN_21mic_H50_0407_fot_44B-36252_W_tif
  70
32
  10
542926.500
  20
4581092.000
  30
1039.65
  0
VERTEX
  8
PNOA-H_AMS_1956-57_33k_ES_PAN_21mic_H50_0407_fot_44B-36252_W_tif
  70
32
  10
542926.845
  20
4581071.803
  30
1040.684
  0
VERTEX
  8
PNOA-H_AMS_1956-57_33k_ES_PAN_21mic_H50_0407_fot_44B-36252_W_tif
  70
32
  10
542927.491
  20
4581033.999
  30
1042.619
  0
VERTEX
  8
PNOA-H_AMS_1956-57_33k_ES_PAN_21mic_H50_0407_fot_44B-36252_W_tif
  70
32
  10
542927.500
  20
4581033.500
  30
1042.644
  0
VERTEX
  8
PNOA-H_AMS_1956-57_33k_ES_PAN_21mic_H50_0407_fot_44B-36252_W_tif
  70
32
  10
541459.709
  20
4580776.896
  30
1059.875
  0
VERTEX
  8
PNOA-H_AMS_1956-57_33k_ES_PAN_21mic_H50_0407_fot_44B-36252_W_tif
  70
32
  10
540946.202
  20
4580687.123
  30
1065.903
  0
SEQEND
  8
PNOA-H_AMS_1956-57_33k_ES_PAN_21mic_H50_0407_fot_44B-36252_W_tif
  0
INSERT
  8
FeatureAttribs
  2
FEATURE
  41
1
  42
1
  43
1
  50
0
  10
540381.323
  20
4587388.027
 66
1
  0
ATTRIB
  8
FeatureAttribs
 70
0
  1
PNOA-H_AMS_1956-57_33k_ES_PAN_21mic_H50_0406_fot_43B-29662_E.tif
  2
NAME
  10
540381.323
  20
4587388.027
 40
33.67194
  0
SEQEND
  0
POLYLINE
  8
PNOA-H_AMS_1956-57_33k_ES_PAN_21mic_H50_0406_fot_43B-29662_E_tif
  70
9
  66
1
  0
VERTEX
  8
PNOA-H_AMS_1956-57_33k_ES_PAN_21mic_H50_0406_fot_43B-29662_E_tif
  70
32
  10
540760.243
  20
4585598.865
  30
1002.555
  0
VERTEX
  8
PNOA-H_AMS_1956-57_33k_ES_PAN_21mic_H50_0406_fot_43B-29662_E_tif
  70
32
  10
540043.311
  20
4585223.054
  30
1019.857
  0
VERTEX
  8
PNOA-H_AMS_1956-57_33k_ES_PAN_21mic_H50_0406_fot_43B-29662_E_tif
  70
32
  10
540043.308
  20
4585223.579
  30
0
  0
VERTEX
  8
PNOA-H_AMS_1956-57_33k_ES_PAN_21mic_H50_0406_fot_43B-29662_E_tif
  70
32
  10
540031.063
  20
4587436.344
  30
0
  0
VERTEX
  8
PNOA-H_AMS_1956-57_33k_ES_PAN_21mic_H50_0406_fot_43B-29662_E_tif
  70
32
  10
540019.357
  20
4589551.012
  30
947.046
  0
VERTEX
  8
PNOA-H_AMS_1956-57_33k_ES_PAN_21mic_H50_0406_fot_43B-29662_E_tif
  70
32
  10
540019.355
  20
4589551.208
  30
948.269
  0
VERTEX
  8
PNOA-H_AMS_1956-57_33k_ES_PAN_21mic_H50_0406_fot_43B-29662_E_tif
  70
32
  10
540464.500
  20
4589552.500
  30
947.146
  0
VERTEX
  8
PNOA-H_AMS_1956-57_33k_ES_PAN_21mic_H50_0406_fot_43B-29662_E_tif
  70
32
  10
540643.000
  20
4589553.000
  30
944.597
  0
VERTEX
  8
PNOA-H_AMS_1956-57_33k_ES_PAN_21mic_H50_0406_fot_43B-29662_E_tif
  70
32
  10
540696.000
  20
4589552.999
  30
944.196
  0
VERTEX
  8
PNOA-H_AMS_1956-57_33k_ES_PAN_21mic_H50_0406_fot_43B-29662_E_tif
  70
32
  10
540760.500
  20
4585599.000
  30
1002.549
  0
VERTEX
  8
PNOA-H_AMS_1956-57_33k_ES_PAN_21mic_H50_0406_fot_43B-29662_E_tif
  70
32
  10
540760.243
  20
4585598.865
  30
1002.555
  0
SEQEND
  8
PNOA-H_AMS_1956-57_33k_ES_PAN_21mic_H50_0406_fot_43B-29662_E_tif
  0
INSERT
  8
FeatureAttribs
  2
FEATURE
  41
1
  42
1
  43
1
  50
0
  10
540467.535
  20
4578651.456
 66
1
  0
ATTRIB
  8
FeatureAttribs
 70
0
  1
PNOA-H_AMS_1956-57_33k_ES_PAN_21mic_H50_0406_fot_45C-37442_E.tif
  2
NAME
  10
540467.535
  20
4578651.456
 40
33.67194
  0
SEQEND
  0
POLYLINE
  8
PNOA-H_AMS_1956-57_33k_ES_PAN_21mic_H50_0406_fot_45C-37442_E_tif
  70
9
  66
1
  0
VERTEX
  8
PNOA-H_AMS_1956-57_33k_ES_PAN_21mic_H50_0406_fot_45C-37442_E_tif
  70
32
  10
540749.000
  20
4576273.000
  30
1069.735
  0
VERTEX
  8
PNOA-H_AMS_1956-57_33k_ES_PAN_21mic_H50_0406_fot_45C-37442_E_tif
  70
32
  10
540092.900
  20
4576252.836
  30
1063.715
  0
VERTEX
  8
PNOA-H_AMS_1956-57_33k_ES_PAN_21mic_H50_0406_fot_45C-37442_E_tif
  70
32
  10
540092.898
  20
4576253.129
  30
0
  0
VERTEX
  8
PNOA-H_AMS_1956-57_33k_ES_PAN_21mic_H50_0406_fot_45C-37442_E_tif
  70
32
  10
540082.226
  20
4578184.874
  30
0
  0
VERTEX
  8
PNOA-H_AMS_1956-57_33k_ES_PAN_21mic_H50_0406_fot_45C-37442_E_tif
  70
32
  10
540069.443
  20
4580497.729
  30
0
  0
VERTEX
  8
PNOA-H_AMS_1956-57_33k_ES_PAN_21mic_H50_0406_fot_45C-37442_E_tif
  70
32
  10
540066.393
  20
4581049.464
  30
0
  0
VERTEX
  8
PNOA-H_AMS_1956-57_33k_ES_PAN_21mic_H50_0406_fot_45C-37442_E_tif
  70
32
  10
540066.389
  20
4581050.076
  30
1054.844
  0
VERTEX
  8
PNOA-H_AMS_1956-57_33k_ES_PAN_21mic_H50_0406_fot_45C-37442_E_tif
  70
32
  10
540946.202
  20
4580687.123
  30
1066.32
  0
VERTEX
  8
PNOA-H_AMS_1956-57_33k_ES_PAN_21mic_H50_0406_fot_45C-37442_E_tif
  70
32
  10
540946.500
  20
4580687.000
  30
1066.324
  0
VERTEX
  8
PNOA-H_AMS_1956-57_33k_ES_PAN_21mic_H50_0406_fot_45C-37442_E_tif
  70
32
  10
540749.000
  20
4576273.000
  30
1069.735
  0
SEQEND
  8
PNOA-H_AMS_1956-57_33k_ES_PAN_21mic_H50_0406_fot_45C-37442_E_tif
  0
INSERT
  8
FeatureAttribs
  2
FEATURE
  41
1
  42
1
  43
1
  50
0
  10
540451.842
  20
4576072.514
 66
1
  0
ATTRIB
  8
FeatureAttribs
 70
0
  1
PNOA-H_AMS_1956-57_33k_ES_PAN_21mic_H50_0434_fot_46B-29771_E.tif
  2
NAME
  10
540451.842
  20
4576072.514
 40
33.67194
  0
SEQEND
  0
POLYLINE
  8
PNOA-H_AMS_1956-57_33k_ES_PAN_21mic_H50_0434_fot_46B-29771_E_tif
  70
9
  66
1
  0
VERTEX
  8
PNOA-H_AMS_1956-57_33k_ES_PAN_21mic_H50_0434_fot_46B-29771_E_tif
  70
32
  10
540814.626
  20
4575876.175
  30
0
  0
VERTEX
  8
PNOA-H_AMS_1956-57_33k_ES_PAN_21mic_H50_0434_fot_46B-29771_E_tif
  70
32
  10
540095.004
  20
4575872.027
  30
0
  0
VERTEX
  8
PNOA-H_AMS_1956-57_33k_ES_PAN_21mic_H50_0434_fot_46B-29771_E_tif
  70
32
  10
540092.900
  20
4576252.836
  30
0
  0
VERTEX
  8
PNOA-H_AMS_1956-57_33k_ES_PAN_21mic_H50_0434_fot_46B-29771_E_tif
  70
32
  10
540092.898
  20
4576253.129
  30
1064.638
  0
VERTEX
  8
PNOA-H_AMS_1956-57_33k_ES_PAN_21mic_H50_0434_fot_46B-29771_E_tif
  70
32
  10
540720.000
  20
4576272.500
  30
1070.608
  0
VERTEX
  8
PNOA-H_AMS_1956-57_33k_ES_PAN_21mic_H50_0434_fot_46B-29771_E_tif
  70
32
  10
540736.000
  20
4576273.000
  30
1070.066
  0
VERTEX
  8
PNOA-H_AMS_1956-57_33k_ES_PAN_21mic_H50_0434_fot_46B-29771_E_tif
  70
32
  10
540749.000
  20
4576273.000
  30
1069.741
  0
VERTEX
  8
PNOA-H_AMS_1956-57_33k_ES_PAN_21mic_H50_0434_fot_46B-29771_E_tif
  70
32
  10
540750.000
  20
4576273.000
  30
1069.716
  0
VERTEX
  8
PNOA-H_AMS_1956-57_33k_ES_PAN_21mic_H50_0434_fot_46B-29771_E_tif
  70
32
  10
540804.000
  20
4576238.000
  30
1070.852
  0
VERTEX
  8
PNOA-H_AMS_1956-57_33k_ES_PAN_21mic_H50_0434_fot_46B-29771_E_tif
  70
32
  10
540804.183
  20
4576237.205
  30
1070.92
  0
VERTEX
  8
PNOA-H_AMS_1956-57_33k_ES_PAN_21mic_H50_0434_fot_46B-29771_E_tif
  70
32
  10
540805.000
  20
4576233.667
  30
1071.219
  0
VERTEX
  8
PNOA-H_AMS_1956-57_33k_ES_PAN_21mic_H50_0434_fot_46B-29771_E_tif
  70
32
  10
540805.500
  20
4576231.500
  30
1071.403
  0
VERTEX
  8
PNOA-H_AMS_1956-57_33k_ES_PAN_21mic_H50_0434_fot_46B-29771_E_tif
  70
32
  10
540815.084
  20
4575876.177
  30
1075.675
  0
VERTEX
  8
PNOA-H_AMS_1956-57_33k_ES_PAN_21mic_H50_0434_fot_46B-29771_E_tif
  70
32
  10
540814.626
  20
4575876.175
  30
0
  0
SEQEND
  8
PNOA-H_AMS_1956-57_33k_ES_PAN_21mic_H50_0434_fot_46B-29771_E_tif
  0
INSERT
  8
FeatureAttribs
  2
FEATURE
  41
1
  42
1
  43
1
  50
0
  10
542409.527
  20
4591889.750
 66
1
  0
ATTRIB
  8
FeatureAttribs
 70
0
  1
PNOA-H_AMS_1956-57_33k_ES_PAN_21mic_H50_0407_fot_42B-36331_E.tif
  2
NAME
  10
542409.527
  20
4591889.750
 40
33.67194
  0
SEQEND
  0
POLYLINE
  8
PNOA-H_AMS_1956-57_33k_ES_PAN_21mic_H50_0407_fot_42B-36331_E_tif
  70
9
  66
1
  0
VERTEX
  8
PNOA-H_AMS_1956-57_33k_ES_PAN_21mic_H50_0407_fot_42B-36331_E_tif
  70
32
  10
544016.388
  20
4589855.930
  30
999.988
  0
VERTEX
  8
PNOA-H_AMS_1956-57_33k_ES_PAN_21mic_H50_0407_fot_42B-36331_E_tif
  70
32
  10
543516.000
  20
4589546.500
  30
968.601
  0
VERTEX
  8
PNOA-H_AMS_1956-57_33k_ES_PAN_21mic_H50_0407_fot_42B-36331_E_tif
  70
32
  10
543515.530
  20
4589546.518
  30
968.597
  0
VERTEX
  8
PNOA-H_AMS_1956-57_33k_ES_PAN_21mic_H50_0407_fot_42B-36331_E_tif
  70
32
  10
540840.500
  20
4589650.500
  30
946.948
  0
VERTEX
  8
PNOA-H_AMS_1956-57_33k_ES_PAN_21mic_H50_0407_fot_42B-36331_E_tif
  70
32
  10
540770.500
  20
4594073.000
  30
935.782
  0
VERTEX
  8
PNOA-H_AMS_1956-57_33k_ES_PAN_21mic_H50_0407_fot_42B-36331_E_tif
  70
32
  10
540770.508
  20
4594073.000
  30
935.782
  0
VERTEX
  8
PNOA-H_AMS_1956-57_33k_ES_PAN_21mic_H50_0407_fot_42B-36331_E_tif
  70
32
  10
540770.950
  20
4594073.028
  30
935.785
  0
VERTEX
  8
PNOA-H_AMS_1956-57_33k_ES_PAN_21mic_H50_0407_fot_42B-36331_E_tif
  70
32
  10
541122.000
  20
4594095.000
  30
938.261
  0
VERTEX
  8
PNOA-H_AMS_1956-57_33k_ES_PAN_21mic_H50_0407_fot_42B-36331_E_tif
  70
32
  10
541130.000
  20
4594095.500
  30
938.272
  0
VERTEX
  8
PNOA-H_AMS_1956-57_33k_ES_PAN_21mic_H50_0407_fot_42B-36331_E_tif
  70
32
  10
543141.960
  20
4594218.235
  30
957.408
  0
VERTEX
  8
PNOA-H_AMS_1956-57_33k_ES_PAN_21mic_H50_0407_fot_42B-36331_E_tif
  70
32
  10
543383.109
  20
4594232.946
  30
959.701
  0
VERTEX
  8
PNOA-H_AMS_1956-57_33k_ES_PAN_21mic_H50_0407_fot_42B-36331_E_tif
  70
32
  10
543384.000
  20
4594233.000
  30
959.71
  0
VERTEX
  8
PNOA-H_AMS_1956-57_33k_ES_PAN_21mic_H50_0407_fot_42B-36331_E_tif
  70
32
  10
543802.333
  20
4594023.000
  30
963.711
  0
VERTEX
  8
PNOA-H_AMS_1956-57_33k_ES_PAN_21mic_H50_0407_fot_42B-36331_E_tif
  70
32
  10
544011.500
  20
4593918.000
  30
965.711
  0
VERTEX
  8
PNOA-H_AMS_1956-57_33k_ES_PAN_21mic_H50_0407_fot_42B-36331_E_tif
  70
32
  10
544016.500
  20
4589856.000
  30
999.995
  0
VERTEX
  8
PNOA-H_AMS_1956-57_33k_ES_PAN_21mic_H50_0407_fot_42B-36331_E_tif
  70
32
  10
544016.388
  20
4589855.930
  30
999.988
  0
SEQEND
  8
PNOA-H_AMS_1956-57_33k_ES_PAN_21mic_H50_0407_fot_42B-36331_E_tif
  0
INSERT
  8
FeatureAttribs
  2
FEATURE
  41
1
  42
1
  43
1
  50
0
  10
544946.197
  20
4587582.750
 66
1
  0
ATTRIB
  8
FeatureAttribs
 70
0
  1
PNOA-H_AMS_1956-57_33k_ES_PAN_21mic_H50_0407_fot_43B-29664_E.tif
  2
NAME
  10
544946.197
  20
4587582.750
 40
33.67194
  0
SEQEND
  0
POLYLINE
  8
PNOA-H_AMS_1956-57_33k_ES_PAN_21mic_H50_0407_fot_43B-29664_E_tif
  70
9
  66
1
  0
VERTEX
  8
PNOA-H_AMS_1956-57_33k_ES_PAN_21mic_H50_0407_fot_43B-29664_E_tif
  70
32
  10
545225.500
  20
4589639.000
  30
995.874
  0
VERTEX
  8
PNOA-H_AMS_1956-57_33k_ES_PAN_21mic_H50_0407_fot_43B-29664_E_tif
  70
32
  10
545226.843
  20
4589639.000
  30
995.81
  0
VERTEX
  8
PNOA-H_AMS_1956-57_33k_ES_PAN_21mic_H50_0407_fot_43B-29664_E_tif
  70
32
  10
545228.000
  20
4589639.000
  30
995.754
  0
VERTEX
  8
PNOA-H_AMS_1956-57_33k_ES_PAN_21mic_H50_0407_fot_43B-29664_E_tif
  70
32
  10
545999.923
  20
4589500.396
  30
1006.521
  0
VERTEX
  8
PNOA-H_AMS_1956-57_33k_ES_PAN_21mic_H50_0407_fot_43B-29664_E_tif
  70
32
  10
546333.500
  20
4589440.500
  30
1011.174
  0
VERTEX
  8
PNOA-H_AMS_1956-57_33k_ES_PAN_21mic_H50_0407_fot_43B-29664_E_tif
  70
32
  10
546356.000
  20
4585694.000
  30
980.174
  0
VERTEX
  8
PNOA-H_AMS_1956-57_33k_ES_PAN_21mic_H50_0407_fot_43B-29664_E_tif
  70
32
  10
546355.898
  20
4585693.942
  30
980.173
  0
VERTEX
  8
PNOA-H_AMS_1956-57_33k_ES_PAN_21mic_H50_0407_fot_43B-29664_E_tif
  70
32
  10
545676.000
  20
4585309.500
  30
975.744
  0
VERTEX
  8
PNOA-H_AMS_1956-57_33k_ES_PAN_21mic_H50_0407_fot_43B-29664_E_tif
  70
32
  10
545675.611
  20
4585309.563
  30
975.744
  0
VERTEX
  8
PNOA-H_AMS_1956-57_33k_ES_PAN_21mic_H50_0407_fot_43B-29664_E_tif
  70
32
  10
543592.000
  20
4585645.000
  30
977.229
  0
VERTEX
  8
PNOA-H_AMS_1956-57_33k_ES_PAN_21mic_H50_0407_fot_43B-29664_E_tif
  70
32
  10
543580.000
  20
4585647.000
  30
976.622
  0
VERTEX
  8
PNOA-H_AMS_1956-57_33k_ES_PAN_21mic_H50_0407_fot_43B-29664_E_tif
  70
32
  10
543579.500
  20
4585648.000
  30
976.573
  0
VERTEX
  8
PNOA-H_AMS_1956-57_33k_ES_PAN_21mic_H50_0407_fot_43B-29664_E_tif
  70
32
  10
543515.500
  20
4589546.500
  30
968.591
  0
VERTEX
  8
PNOA-H_AMS_1956-57_33k_ES_PAN_21mic_H50_0407_fot_43B-29664_E_tif
  70
32
  10
543515.530
  20
4589546.518
  30
968.593
  0
VERTEX
  8
PNOA-H_AMS_1956-57_33k_ES_PAN_21mic_H50_0407_fot_43B-29664_E_tif
  70
32
  10
544016.000
  20
4589856.000
  30
999.976
  0
VERTEX
  8
PNOA-H_AMS_1956-57_33k_ES_PAN_21mic_H50_0407_fot_43B-29664_E_tif
  70
32
  10
544016.388
  20
4589855.930
  30
999.975
  0
VERTEX
  8
PNOA-H_AMS_1956-57_33k_ES_PAN_21mic_H50_0407_fot_43B-29664_E_tif
  70
32
  10
545225.500
  20
4589639.000
  30
995.874
  0
SEQEND
  8
PNOA-H_AMS_1956-57_33k_ES_PAN_21mic_H50_0407_fot_43B-29664_E_tif
  0
INSERT
  8
FeatureAttribs
  2
FEATURE
  41
1
  42
1
  43
1
  50
0
  10
547740.905
  20
4587597.500
 66
1
  0
ATTRIB
  8
FeatureAttribs
 70
0
  1
PNOA-H_AMS_1956-57_33k_ES_PAN_21mic_H50_0407_fot_43B-29665_E.tif
  2
NAME
  10
547740.905
  20
4587597.500
 40
33.67194
  0
SEQEND
  0
POLYLINE
  8
PNOA-H_AMS_1956-57_33k_ES_PAN_21mic_H50_0407_fot_43B-29665_E_tif
  70
9
  66
1
  0
VERTEX
  8
PNOA-H_AMS_1956-57_33k_ES_PAN_21mic_H50_0407_fot_43B-29665_E_tif
  70
32
  10
547145.727
  20
4589831.369
  30
1014.232
  0
VERTEX
  8
PNOA-H_AMS_1956-57_33k_ES_PAN_21mic_H50_0407_fot_43B-29665_E_tif
  70
32
  10
547275.000
  20
4589808.000
  30
1009.628
  0
VERTEX
  8
PNOA-H_AMS_1956-57_33k_ES_PAN_21mic_H50_0407_fot_43B-29665_E_tif
  70
32
  10
547275.608
  20
4589808.000
  30
1009.609
  0
VERTEX
  8
PNOA-H_AMS_1956-57_33k_ES_PAN_21mic_H50_0407_fot_43B-29665_E_tif
  70
32
  10
547276.000
  20
4589808.000
  30
1009.597
  0
VERTEX
  8
PNOA-H_AMS_1956-57_33k_ES_PAN_21mic_H50_0407_fot_43B-29665_E_tif
  70
32
  10
548093.580
  20
4589659.689
  30
1018.634
  0
VERTEX
  8
PNOA-H_AMS_1956-57_33k_ES_PAN_21mic_H50_0407_fot_43B-29665_E_tif
  70
32
  10
549136.500
  20
4589470.500
  30
1030.162
  0
VERTEX
  8
PNOA-H_AMS_1956-57_33k_ES_PAN_21mic_H50_0407_fot_43B-29665_E_tif
  70
32
  10
549138.000
  20
4585679.000
  30
988.582
  0
VERTEX
  8
PNOA-H_AMS_1956-57_33k_ES_PAN_21mic_H50_0407_fot_43B-29665_E_tif
  70
32
  10
549137.875
  20
4585678.922
  30
988.58
  0
VERTEX
  8
PNOA-H_AMS_1956-57_33k_ES_PAN_21mic_H50_0407_fot_43B-29665_E_tif
  70
32
  10
548634.512
  20
4585363.507
  30
978.327
  0
VERTEX
  8
PNOA-H_AMS_1956-57_33k_ES_PAN_21mic_H50_0407_fot_43B-29665_E_tif
  70
32
  10
548634.500
  20
4585363.500
  30
978.326
  0
VERTEX
  8
PNOA-H_AMS_1956-57_33k_ES_PAN_21mic_H50_0407_fot_43B-29665_E_tif
  70
32
  10
546356.000
  20
4585694.000
  30
980.174
  0
VERTEX
  8
PNOA-H_AMS_1956-57_33k_ES_PAN_21mic_H50_0407_fot_43B-29665_E_tif
  70
32
  10
546333.500
  20
4589440.500
  30
1011.174
  0
VERTEX
  8
PNOA-H_AMS_1956-57_33k_ES_PAN_21mic_H50_0407_fot_43B-29665_E_tif
  70
32
  10
546333.636
  20
4589440.565
  30
1011.174
  0
VERTEX
  8
PNOA-H_AMS_1956-57_33k_ES_PAN_21mic_H50_0407_fot_43B-29665_E_tif
  70
32
  10
547145.000
  20
4589831.500
  30
1014.258
  0
VERTEX
  8
PNOA-H_AMS_1956-57_33k_ES_PAN_21mic_H50_0407_fot_43B-29665_E_tif
  70
32
  10
547145.727
  20
4589831.369
  30
1014.232
  0
SEQEND
  8
PNOA-H_AMS_1956-57_33k_ES_PAN_21mic_H50_0407_fot_43B-29665_E_tif
  0
INSERT
  8
FeatureAttribs
  2
FEATURE
  41
1
  42
1
  43
1
  50
0
  10
542140.406
  20
4587440.000
 66
1
  0
ATTRIB
  8
FeatureAttribs
 70
0
  1
PNOA-H_AMS_1956-57_33k_ES_PAN_21mic_H50_0407_fot_43B-29663_E.tif
  2
NAME
  10
542140.406
  20
4587440.000
 40
33.67194
  0
SEQEND
  0
POLYLINE
  8
PNOA-H_AMS_1956-57_33k_ES_PAN_21mic_H50_0407_fot_43B-29663_E_tif
  70
9
  66
1
  0
VERTEX
  8
PNOA-H_AMS_1956-57_33k_ES_PAN_21mic_H50_0407_fot_43B-29663_E_tif
  70
32
  10
543579.769
  20
4585646.876
  30
976.619
  0
VERTEX
  8
PNOA-H_AMS_1956-57_33k_ES_PAN_21mic_H50_0407_fot_43B-29663_E_tif
  70
32
  10
542802.000
  20
4585229.500
  30
967.735
  0
VERTEX
  8
PNOA-H_AMS_1956-57_33k_ES_PAN_21mic_H50_0407_fot_43B-29663_E_tif
  70
32
  10
542801.626
  20
4585229.568
  30
967.742
  0
VERTEX
  8
PNOA-H_AMS_1956-57_33k_ES_PAN_21mic_H50_0407_fot_43B-29663_E_tif
  70
32
  10
540760.500
  20
4585599.000
  30
1002.549
  0
VERTEX
  8
PNOA-H_AMS_1956-57_33k_ES_PAN_21mic_H50_0407_fot_43B-29663_E_tif
  70
32
  10
540696.000
  20
4589552.999
  30
944.196
  0
VERTEX
  8
PNOA-H_AMS_1956-57_33k_ES_PAN_21mic_H50_0407_fot_43B-29663_E_tif
  70
32
  10
540769.445
  20
4589602.390
  30
945.612
  0
VERTEX
  8
PNOA-H_AMS_1956-57_33k_ES_PAN_21mic_H50_0407_fot_43B-29663_E_tif
  70
32
  10
540839.500
  20
4589649.500
  30
946.963
  0
VERTEX
  8
PNOA-H_AMS_1956-57_33k_ES_PAN_21mic_H50_0407_fot_43B-29663_E_tif
  70
32
  10
540839.744
  20
4589649.988
  30
946.939
  0
VERTEX
  8
PNOA-H_AMS_1956-57_33k_ES_PAN_21mic_H50_0407_fot_43B-29663_E_tif
  70
32
  10
540840.000
  20
4589650.500
  30
946.949
  0
VERTEX
  8
PNOA-H_AMS_1956-57_33k_ES_PAN_21mic_H50_0407_fot_43B-29663_E_tif
  70
32
  10
540840.473
  20
4589650.482
  30
946.953
  0
VERTEX
  8
PNOA-H_AMS_1956-57_33k_ES_PAN_21mic_H50_0407_fot_43B-29663_E_tif
  70
32
  10
543515.500
  20
4589546.500
  30
968.591
  0
VERTEX
  8
PNOA-H_AMS_1956-57_33k_ES_PAN_21mic_H50_0407_fot_43B-29663_E_tif
  70
32
  10
543580.000
  20
4585647.000
  30
976.622
  0
VERTEX
  8
PNOA-H_AMS_1956-57_33k_ES_PAN_21mic_H50_0407_fot_43B-29663_E_tif
  70
32
  10
543579.769
  20
4585646.876
  30
976.619
  0
SEQEND
  8
PNOA-H_AMS_1956-57_33k_ES_PAN_21mic_H50_0407_fot_43B-29663_E_tif
  0
INSERT
  8
FeatureAttribs
  2
FEATURE
  41
1
  42
1
  43
1
  50
0
  10
547214.619
  20
4583191.500
 66
1
  0
ATTRIB
  8
FeatureAttribs
 70
0
  1
PNOA-H_AMS_1956-57_33k_ES_PAN_21mic_H50_0407_fot_44B-36250_W.tif
  2
NAME
  10
547214.619
  20
4583191.500
 40
33.67194
  0
SEQEND
  0
POLYLINE
  8
PNOA-H_AMS_1956-57_33k_ES_PAN_21mic_H50_0407_fot_44B-36250_W_tif
  70
9
  66
1
  0
VERTEX
  8
PNOA-H_AMS_1956-57_33k_ES_PAN_21mic_H50_0407_fot_44B-36250_W_tif
  70
32
  10
548655.000
  20
4580958.000
  30
1029.801
  0
VERTEX
  8
PNOA-H_AMS_1956-57_33k_ES_PAN_21mic_H50_0407_fot_44B-36250_W_tif
  70
32
  10
546588.500
  20
4580689.000
  30
1050.666
  0
VERTEX
  8
PNOA-H_AMS_1956-57_33k_ES_PAN_21mic_H50_0407_fot_44B-36250_W_tif
  70
32
  10
546587.125
  20
4580689.212
  30
1050.696
  0
VERTEX
  8
PNOA-H_AMS_1956-57_33k_ES_PAN_21mic_H50_0407_fot_44B-36250_W_tif
  70
32
  10
546583.418
  20
4580689.782
  30
1050.775
  0
VERTEX
  8
PNOA-H_AMS_1956-57_33k_ES_PAN_21mic_H50_0407_fot_44B-36250_W_tif
  70
32
  10
546582.000
  20
4580690.000
  30
1050.805
  0
VERTEX
  8
PNOA-H_AMS_1956-57_33k_ES_PAN_21mic_H50_0407_fot_44B-36250_W_tif
  70
32
  10
545814.500
  20
4580978.000
  30
1024.855
  0
VERTEX
  8
PNOA-H_AMS_1956-57_33k_ES_PAN_21mic_H50_0407_fot_44B-36250_W_tif
  70
32
  10
545675.500
  20
4585309.500
  30
975.722
  0
VERTEX
  8
PNOA-H_AMS_1956-57_33k_ES_PAN_21mic_H50_0407_fot_44B-36250_W_tif
  70
32
  10
545675.611
  20
4585309.563
  30
975.723
  0
VERTEX
  8
PNOA-H_AMS_1956-57_33k_ES_PAN_21mic_H50_0407_fot_44B-36250_W_tif
  70
32
  10
546354.500
  20
4585693.500
  30
980.19
  0
VERTEX
  8
PNOA-H_AMS_1956-57_33k_ES_PAN_21mic_H50_0407_fot_44B-36250_W_tif
  70
32
  10
546355.500
  20
4585694.000
  30
980.174
  0
VERTEX
  8
PNOA-H_AMS_1956-57_33k_ES_PAN_21mic_H50_0407_fot_44B-36250_W_tif
  70
32
  10
546355.898
  20
4585693.942
  30
980.174
  0
VERTEX
  8
PNOA-H_AMS_1956-57_33k_ES_PAN_21mic_H50_0407_fot_44B-36250_W_tif
  70
32
  10
548634.500
  20
4585363.500
  30
978.326
  0
VERTEX
  8
PNOA-H_AMS_1956-57_33k_ES_PAN_21mic_H50_0407_fot_44B-36250_W_tif
  70
32
  10
548638.052
  20
4585213.035
  30
980.123
  0
VERTEX
  8
PNOA-H_AMS_1956-57_33k_ES_PAN_21mic_H50_0407_fot_44B-36250_W_tif
  70
32
  10
548737.500
  20
4581000.000
  30
1030.412
  0
VERTEX
  8
PNOA-H_AMS_1956-57_33k_ES_PAN_21mic_H50_0407_fot_44B-36250_W_tif
  70
32
  10
548737.304
  20
4580994.322
  30
1030.296
  0
VERTEX
  8
PNOA-H_AMS_1956-57_33k_ES_PAN_21mic_H50_0407_fot_44B-36250_W_tif
  70
32
  10
548737.000
  20
4580985.503
  30
1030.116
  0
VERTEX
  8
PNOA-H_AMS_1956-57_33k_ES_PAN_21mic_H50_0407_fot_44B-36250_W_tif
  70
32
  10
548737.000
  20
4580985.500
  30
1030.116
  0
VERTEX
  8
PNOA-H_AMS_1956-57_33k_ES_PAN_21mic_H50_0407_fot_44B-36250_W_tif
  70
32
  10
548656.835
  20
4580958.615
  30
1029.808
  0
VERTEX
  8
PNOA-H_AMS_1956-57_33k_ES_PAN_21mic_H50_0407_fot_44B-36250_W_tif
  70
32
  10
548655.991
  20
4580958.332
  30
1029.805
  0
VERTEX
  8
PNOA-H_AMS_1956-57_33k_ES_PAN_21mic_H50_0407_fot_44B-36250_W_tif
  70
32
  10
548655.000
  20
4580958.000
  30
1029.801
  0
SEQEND
  8
PNOA-H_AMS_1956-57_33k_ES_PAN_21mic_H50_0407_fot_44B-36250_W_tif
  0
INSERT
  8
FeatureAttribs
  2
FEATURE
  41
1
  42
1
  43
1
  50
0
  10
544304.247
  20
4583158.000
 66
1
  0
ATTRIB
  8
FeatureAttribs
 70
0
  1
PNOA-H_AMS_1956-57_33k_ES_PAN_21mic_H50_0407_fot_44B-36251_W.tif
  2
NAME
  10
544304.247
  20
4583158.000
 40
33.67194
  0
SEQEND
  0
POLYLINE
  8
PNOA-H_AMS_1956-57_33k_ES_PAN_21mic_H50_0407_fot_44B-36251_W_tif
  70
9
  66
1
  0
VERTEX
  8
PNOA-H_AMS_1956-57_33k_ES_PAN_21mic_H50_0407_fot_44B-36251_W_tif
  70
32
  10
545814.500
  20
4580978.000
  30
1024.855
  0
VERTEX
  8
PNOA-H_AMS_1956-57_33k_ES_PAN_21mic_H50_0407_fot_44B-36251_W_tif
  70
32
  10
545330.500
  20
4580901.000
  30
1022.214
  0
VERTEX
  8
PNOA-H_AMS_1956-57_33k_ES_PAN_21mic_H50_0407_fot_44B-36251_W_tif
  70
32
  10
545327.926
  20
4580901.000
  30
1021.967
  0
VERTEX
  8
PNOA-H_AMS_1956-57_33k_ES_PAN_21mic_H50_0407_fot_44B-36251_W_tif
  70
32
  10
545327.500
  20
4580901.000
  30
1021.926
  0
VERTEX
  8
PNOA-H_AMS_1956-57_33k_ES_PAN_21mic_H50_0407_fot_44B-36251_W_tif
  70
32
  10
543870.354
  20
4580669.056
  30
1036.128
  0
VERTEX
  8
PNOA-H_AMS_1956-57_33k_ES_PAN_21mic_H50_0407_fot_44B-36251_W_tif
  70
32
  10
543870.000
  20
4580669.000
  30
1036.132
  0
VERTEX
  8
PNOA-H_AMS_1956-57_33k_ES_PAN_21mic_H50_0407_fot_44B-36251_W_tif
  70
32
  10
542928.000
  20
4581033.500
  30
1042.679
  0
VERTEX
  8
PNOA-H_AMS_1956-57_33k_ES_PAN_21mic_H50_0407_fot_44B-36251_W_tif
  70
32
  10
542927.991
  20
4581033.810
  30
1042.674
  0
VERTEX
  8
PNOA-H_AMS_1956-57_33k_ES_PAN_21mic_H50_0407_fot_44B-36251_W_tif
  70
32
  10
542926.845
  20
4581071.803
  30
1041.995
  0
VERTEX
  8
PNOA-H_AMS_1956-57_33k_ES_PAN_21mic_H50_0407_fot_44B-36251_W_tif
  70
32
  10
542801.500
  20
4585229.500
  30
967.75
  0
VERTEX
  8
PNOA-H_AMS_1956-57_33k_ES_PAN_21mic_H50_0407_fot_44B-36251_W_tif
  70
32
  10
542801.626
  20
4585229.568
  30
967.751
  0
VERTEX
  8
PNOA-H_AMS_1956-57_33k_ES_PAN_21mic_H50_0407_fot_44B-36251_W_tif
  70
32
  10
543579.000
  20
4585647.000
  30
976.601
  0
VERTEX
  8
PNOA-H_AMS_1956-57_33k_ES_PAN_21mic_H50_0407_fot_44B-36251_W_tif
  70
32
  10
543579.769
  20
4585646.876
  30
976.601
  0
VERTEX
  8
PNOA-H_AMS_1956-57_33k_ES_PAN_21mic_H50_0407_fot_44B-36251_W_tif
  70
32
  10
545675.500
  20
4585309.500
  30
975.722
  0
VERTEX
  8
PNOA-H_AMS_1956-57_33k_ES_PAN_21mic_H50_0407_fot_44B-36251_W_tif
  70
32
  10
545814.500
  20
4580978.000
  30
1024.855
  0
SEQEND
  8
PNOA-H_AMS_1956-57_33k_ES_PAN_21mic_H50_0407_fot_44B-36251_W_tif
  0
INSERT
  8
FeatureAttribs
  2
FEATURE
  41
1
  42
1
  43
1
  50
0
  10
547513.386
  20
4578538.000
 66
1
  0
ATTRIB
  8
FeatureAttribs
 70
0
  1
PNOA-H_AMS_1956-57_33k_ES_PAN_21mic_H50_0407_fot_45C-37445_E.tif
  2
NAME
  10
547513.386
  20
4578538.000
 40
33.67194
  0
SEQEND
  0
POLYLINE
  8
PNOA-H_AMS_1956-57_33k_ES_PAN_21mic_H50_0407_fot_45C-37445_E_tif
  70
9
  66
1
  0
VERTEX
  8
PNOA-H_AMS_1956-57_33k_ES_PAN_21mic_H50_0407_fot_45C-37445_E_tif
  70
32
  10
548346.002
  20
4576117.530
  30
1041.913
  0
VERTEX
  8
PNOA-H_AMS_1956-57_33k_ES_PAN_21mic_H50_0407_fot_45C-37445_E_tif
  70
32
  10
548346.000
  20
4576117.500
  30
1041.913
  0
VERTEX
  8
PNOA-H_AMS_1956-57_33k_ES_PAN_21mic_H50_0407_fot_45C-37445_E_tif
  70
32
  10
547271.504
  20
4576182.500
  30
1040.781
  0
VERTEX
  8
PNOA-H_AMS_1956-57_33k_ES_PAN_21mic_H50_0407_fot_45C-37445_E_tif
  70
32
  10
546461.500
  20
4576231.500
  30
1039.927
  0
VERTEX
  8
PNOA-H_AMS_1956-57_33k_ES_PAN_21mic_H50_0407_fot_45C-37445_E_tif
  70
32
  10
546585.500
  20
4580689.000
  30
1050.676
  0
VERTEX
  8
PNOA-H_AMS_1956-57_33k_ES_PAN_21mic_H50_0407_fot_45C-37445_E_tif
  70
32
  10
546587.125
  20
4580689.212
  30
1050.66
  0
VERTEX
  8
PNOA-H_AMS_1956-57_33k_ES_PAN_21mic_H50_0407_fot_45C-37445_E_tif
  70
32
  10
548651.000
  20
4580958.000
  30
1029.758
  0
VERTEX
  8
PNOA-H_AMS_1956-57_33k_ES_PAN_21mic_H50_0407_fot_45C-37445_E_tif
  70
32
  10
548655.000
  20
4580958.500
  30
1029.843
  0
VERTEX
  8
PNOA-H_AMS_1956-57_33k_ES_PAN_21mic_H50_0407_fot_45C-37445_E_tif
  70
32
  10
548656.000
  20
4580958.500
  30
1029.849
  0
VERTEX
  8
PNOA-H_AMS_1956-57_33k_ES_PAN_21mic_H50_0407_fot_45C-37445_E_tif
  70
32
  10
548655.991
  20
4580958.332
  30
1029.836
  0
VERTEX
  8
PNOA-H_AMS_1956-57_33k_ES_PAN_21mic_H50_0407_fot_45C-37445_E_tif
  70
32
  10
548655.890
  20
4580956.410
  30
1029.688
  0
VERTEX
  8
PNOA-H_AMS_1956-57_33k_ES_PAN_21mic_H50_0407_fot_45C-37445_E_tif
  70
32
  10
548655.000
  20
4580939.500
  30
1028.382
  0
VERTEX
  8
PNOA-H_AMS_1956-57_33k_ES_PAN_21mic_H50_0407_fot_45C-37445_E_tif
  70
32
  10
548346.002
  20
4576117.530
  30
1041.913
  0
SEQEND
  8
PNOA-H_AMS_1956-57_33k_ES_PAN_21mic_H50_0407_fot_45C-37445_E_tif
  0
INSERT
  8
FeatureAttribs
  2
FEATURE
  41
1
  42
1
  43
1
  50
0
  10
545132.320
  20
4578516.000
 66
1
  0
ATTRIB
  8
FeatureAttribs
 70
0
  1
PNOA-H_AMS_1956-57_33k_ES_PAN_21mic_H50_0407_fot_45C-37444_E.tif
  2
NAME
  10
545132.320
  20
4578516.000
 40
33.67194
  0
SEQEND
  0
POLYLINE
  8
PNOA-H_AMS_1956-57_33k_ES_PAN_21mic_H50_0407_fot_45C-37444_E_tif
  70
9
  66
1
  0
VERTEX
  8
PNOA-H_AMS_1956-57_33k_ES_PAN_21mic_H50_0407_fot_45C-37444_E_tif
  70
32
  10
546185.520
  20
4576054.013
  30
1041.831
  0
VERTEX
  8
PNOA-H_AMS_1956-57_33k_ES_PAN_21mic_H50_0407_fot_45C-37444_E_tif
  70
32
  10
546185.500
  20
4576054.000
  30
1041.831
  0
VERTEX
  8
PNOA-H_AMS_1956-57_33k_ES_PAN_21mic_H50_0407_fot_45C-37444_E_tif
  70
32
  10
544394.713
  20
4576174.887
  30
1053.968
  0
VERTEX
  8
PNOA-H_AMS_1956-57_33k_ES_PAN_21mic_H50_0407_fot_45C-37444_E_tif
  70
32
  10
543600.500
  20
4576228.500
  30
1059.35
  0
VERTEX
  8
PNOA-H_AMS_1956-57_33k_ES_PAN_21mic_H50_0407_fot_45C-37444_E_tif
  70
32
  10
543870.500
  20
4580669.000
  30
1036.134
  0
VERTEX
  8
PNOA-H_AMS_1956-57_33k_ES_PAN_21mic_H50_0407_fot_45C-37444_E_tif
  70
32
  10
545327.926
  20
4580901.000
  30
1027.522
  0
VERTEX
  8
PNOA-H_AMS_1956-57_33k_ES_PAN_21mic_H50_0407_fot_45C-37444_E_tif
  70
32
  10
545808.500
  20
4580977.500
  30
1024.683
  0
VERTEX
  8
PNOA-H_AMS_1956-57_33k_ES_PAN_21mic_H50_0407_fot_45C-37444_E_tif
  70
32
  10
545811.500
  20
4580978.000
  30
1024.803
  0
VERTEX
  8
PNOA-H_AMS_1956-57_33k_ES_PAN_21mic_H50_0407_fot_45C-37444_E_tif
  70
32
  10
545814.500
  20
4580978.000
  30
1024.847
  0
VERTEX
  8
PNOA-H_AMS_1956-57_33k_ES_PAN_21mic_H50_0407_fot_45C-37444_E_tif
  70
32
  10
545816.000
  20
4580978.000
  30
1024.869
  0
VERTEX
  8
PNOA-H_AMS_1956-57_33k_ES_PAN_21mic_H50_0407_fot_45C-37444_E_tif
  70
32
  10
546583.418
  20
4580689.782
  30
1050.606
  0
VERTEX
  8
PNOA-H_AMS_1956-57_33k_ES_PAN_21mic_H50_0407_fot_45C-37444_E_tif
  70
32
  10
546585.500
  20
4580689.000
  30
1050.676
  0
VERTEX
  8
PNOA-H_AMS_1956-57_33k_ES_PAN_21mic_H50_0407_fot_45C-37444_E_tif
  70
32
  10
546461.500
  20
4576231.500
  30
1039.927
  0
VERTEX
  8
PNOA-H_AMS_1956-57_33k_ES_PAN_21mic_H50_0407_fot_45C-37444_E_tif
  70
32
  10
546461.414
  20
4576231.445
  30
1039.928
  0
VERTEX
  8
PNOA-H_AMS_1956-57_33k_ES_PAN_21mic_H50_0407_fot_45C-37444_E_tif
  70
32
  10
546185.520
  20
4576054.013
  30
1041.831
  0
SEQEND
  8
PNOA-H_AMS_1956-57_33k_ES_PAN_21mic_H50_0407_fot_45C-37444_E_tif
  0
INSERT
  8
FeatureAttribs
  2
FEATURE
  41
1
  42
1
  43
1
  50
0
  10
542299.156
  20
4578605.000
 66
1
  0
ATTRIB
  8
FeatureAttribs
 70
0
  1
PNOA-H_AMS_1956-57_33k_ES_PAN_21mic_H50_0407_fot_45C-37443_E.tif
  2
NAME
  10
542299.156
  20
4578605.000
 40
33.67194
  0
SEQEND
  0
POLYLINE
  8
PNOA-H_AMS_1956-57_33k_ES_PAN_21mic_H50_0407_fot_45C-37443_E_tif
  70
9
  66
1
  0
VERTEX
  8
PNOA-H_AMS_1956-57_33k_ES_PAN_21mic_H50_0407_fot_45C-37443_E_tif
  70
32
  10
543514.500
  20
4576176.000
  30
1058.711
  0
VERTEX
  8
PNOA-H_AMS_1956-57_33k_ES_PAN_21mic_H50_0407_fot_45C-37443_E_tif
  70
32
  10
543495.500
  20
4576176.000
  30
1059.178
  0
VERTEX
  8
PNOA-H_AMS_1956-57_33k_ES_PAN_21mic_H50_0407_fot_45C-37443_E_tif
  70
32
  10
540805.000
  20
4576236.989
  30
1070.925
  0
VERTEX
  8
PNOA-H_AMS_1956-57_33k_ES_PAN_21mic_H50_0407_fot_45C-37443_E_tif
  70
32
  10
540804.500
  20
4576237.000
  30
1070.927
  0
VERTEX
  8
PNOA-H_AMS_1956-57_33k_ES_PAN_21mic_H50_0407_fot_45C-37443_E_tif
  70
32
  10
540804.183
  20
4576237.205
  30
1070.921
  0
VERTEX
  8
PNOA-H_AMS_1956-57_33k_ES_PAN_21mic_H50_0407_fot_45C-37443_E_tif
  70
32
  10
540749.000
  20
4576273.000
  30
1069.735
  0
VERTEX
  8
PNOA-H_AMS_1956-57_33k_ES_PAN_21mic_H50_0407_fot_45C-37443_E_tif
  70
32
  10
540749.000
  20
4576274.500
  30
1069.688
  0
VERTEX
  8
PNOA-H_AMS_1956-57_33k_ES_PAN_21mic_H50_0407_fot_45C-37443_E_tif
  70
32
  10
540946.500
  20
4580687.000
  30
1066.324
  0
VERTEX
  8
PNOA-H_AMS_1956-57_33k_ES_PAN_21mic_H50_0407_fot_45C-37443_E_tif
  70
32
  10
541459.709
  20
4580776.896
  30
1060.186
  0
VERTEX
  8
PNOA-H_AMS_1956-57_33k_ES_PAN_21mic_H50_0407_fot_45C-37443_E_tif
  70
32
  10
542927.491
  20
4581033.999
  30
1042.632
  0
VERTEX
  8
PNOA-H_AMS_1956-57_33k_ES_PAN_21mic_H50_0407_fot_45C-37443_E_tif
  70
32
  10
542927.500
  20
4581034.000
  30
1042.632
  0
VERTEX
  8
PNOA-H_AMS_1956-57_33k_ES_PAN_21mic_H50_0407_fot_45C-37443_E_tif
  70
32
  10
542927.991
  20
4581033.810
  30
1042.635
  0
VERTEX
  8
PNOA-H_AMS_1956-57_33k_ES_PAN_21mic_H50_0407_fot_45C-37443_E_tif
  70
32
  10
543179.000
  20
4580936.500
  30
1043.968
  0
VERTEX
  8
PNOA-H_AMS_1956-57_33k_ES_PAN_21mic_H50_0407_fot_45C-37443_E_tif
  70
32
  10
543180.000
  20
4580936.000
  30
1043.949
  0
VERTEX
  8
PNOA-H_AMS_1956-57_33k_ES_PAN_21mic_H50_0407_fot_45C-37443_E_tif
  70
32
  10
543870.354
  20
4580669.056
  30
1036.135
  0
VERTEX
  8
PNOA-H_AMS_1956-57_33k_ES_PAN_21mic_H50_0407_fot_45C-37443_E_tif
  70
32
  10
543870.500
  20
4580669.000
  30
1036.134
  0
VERTEX
  8
PNOA-H_AMS_1956-57_33k_ES_PAN_21mic_H50_0407_fot_45C-37443_E_tif
  70
32
  10
543600.500
  20
4576228.500
  30
1059.35
  0
VERTEX
  8
PNOA-H_AMS_1956-57_33k_ES_PAN_21mic_H50_0407_fot_45C-37443_E_tif
  70
32
  10
543517.000
  20
4576177.000
  30
1058.648
  0
VERTEX
  8
PNOA-H_AMS_1956-57_33k_ES_PAN_21mic_H50_0407_fot_45C-37443_E_tif
  70
32
  10
543515.000
  20
4576176.000
  30
1058.699
  0
VERTEX
  8
PNOA-H_AMS_1956-57_33k_ES_PAN_21mic_H50_0407_fot_45C-37443_E_tif
  70
32
  10
543514.500
  20
4576176.000
  30
1058.711
  0
SEQEND
  8
PNOA-H_AMS_1956-57_33k_ES_PAN_21mic_H50_0407_fot_45C-37443_E_tif
  0
INSERT
  8
FeatureAttribs
  2
FEATURE
  41
1
  42
1
  43
1
  50
0
  10
547341.932
  20
4576069.959
 66
1
  0
ATTRIB
  8
FeatureAttribs
 70
0
  1
PNOA-H_AMS_1956-57_33k_ES_PAN_21mic_H50_0435_fot_46B-29768_E.tif
  2
NAME
  10
547341.932
  20
4576069.959
 40
33.67194
  0
SEQEND
  0
POLYLINE
  8
PNOA-H_AMS_1956-57_33k_ES_PAN_21mic_H50_0435_fot_46B-29768_E_tif
  70
9
  66
1
  0
VERTEX
  8
PNOA-H_AMS_1956-57_33k_ES_PAN_21mic_H50_0435_fot_46B-29768_E_tif
  70
32
  10
546461.414
  20
4576231.445
  30
1039.939
  0
VERTEX
  8
PNOA-H_AMS_1956-57_33k_ES_PAN_21mic_H50_0435_fot_46B-29768_E_tif
  70
32
  10
547269.000
  20
4576182.500
  30
1045
  0
VERTEX
  8
PNOA-H_AMS_1956-57_33k_ES_PAN_21mic_H50_0435_fot_46B-29768_E_tif
  70
32
  10
547271.504
  20
4576182.500
  30
1045
  0
VERTEX
  8
PNOA-H_AMS_1956-57_33k_ES_PAN_21mic_H50_0435_fot_46B-29768_E_tif
  70
32
  10
547276.000
  20
4576182.500
  30
1045
  0
VERTEX
  8
PNOA-H_AMS_1956-57_33k_ES_PAN_21mic_H50_0435_fot_46B-29768_E_tif
  70
32
  10
548346.002
  20
4576117.530
  30
1041.893
  0
VERTEX
  8
PNOA-H_AMS_1956-57_33k_ES_PAN_21mic_H50_0435_fot_46B-29768_E_tif
  70
32
  10
548346.500
  20
4576117.500
  30
1041.892
  0
VERTEX
  8
PNOA-H_AMS_1956-57_33k_ES_PAN_21mic_H50_0435_fot_46B-29768_E_tif
  70
32
  10
548861.610
  20
4575925.952
  30
1053.414
  0
VERTEX
  8
PNOA-H_AMS_1956-57_33k_ES_PAN_21mic_H50_0435_fot_46B-29768_E_tif
  70
32
  10
548860.182
  20
4575925.942
  30
0
  0
VERTEX
  8
PNOA-H_AMS_1956-57_33k_ES_PAN_21mic_H50_0435_fot_46B-29768_E_tif
  70
32
  10
547068.075
  20
4575913.892
  30
0
  0
VERTEX
  8
PNOA-H_AMS_1956-57_33k_ES_PAN_21mic_H50_0435_fot_46B-29768_E_tif
  70
32
  10
546191.465
  20
4575908.418
  30
1045.94
  0
VERTEX
  8
PNOA-H_AMS_1956-57_33k_ES_PAN_21mic_H50_0435_fot_46B-29768_E_tif
  70
32
  10
546185.520
  20
4576054.013
  30
1041.829
  0
VERTEX
  8
PNOA-H_AMS_1956-57_33k_ES_PAN_21mic_H50_0435_fot_46B-29768_E_tif
  70
32
  10
546185.500
  20
4576054.500
  30
1041.816
  0
VERTEX
  8
PNOA-H_AMS_1956-57_33k_ES_PAN_21mic_H50_0435_fot_46B-29768_E_tif
  70
32
  10
546460.500
  20
4576231.500
  30
1039.934
  0
VERTEX
  8
PNOA-H_AMS_1956-57_33k_ES_PAN_21mic_H50_0435_fot_46B-29768_E_tif
  70
32
  10
546461.414
  20
4576231.445
  30
1039.939
  0
SEQEND
  8
PNOA-H_AMS_1956-57_33k_ES_PAN_21mic_H50_0435_fot_46B-29768_E_tif
  0
INSERT
  8
FeatureAttribs
  2
FEATURE
  41
1
  42
1
  43
1
  50
0
  10
544805.208
  20
4576060.128
 66
1
  0
ATTRIB
  8
FeatureAttribs
 70
0
  1
PNOA-H_AMS_1956-57_33k_ES_PAN_21mic_H50_0435_fot_46B-29769_E.tif
  2
NAME
  10
544805.208
  20
4576060.128
 40
33.67194
  0
SEQEND
  0
POLYLINE
  8
PNOA-H_AMS_1956-57_33k_ES_PAN_21mic_H50_0435_fot_46B-29769_E_tif
  70
9
  66
1
  0
VERTEX
  8
PNOA-H_AMS_1956-57_33k_ES_PAN_21mic_H50_0435_fot_46B-29769_E_tif
  70
32
  10
543517.898
  20
4575891.755
  30
0
  0
VERTEX
  8
PNOA-H_AMS_1956-57_33k_ES_PAN_21mic_H50_0435_fot_46B-29769_E_tif
  70
32
  10
543517.884
  20
4575891.755
  30
1064.296
  0
VERTEX
  8
PNOA-H_AMS_1956-57_33k_ES_PAN_21mic_H50_0435_fot_46B-29769_E_tif
  70
32
  10
543514.500
  20
4576176.000
  30
1058.711
  0
VERTEX
  8
PNOA-H_AMS_1956-57_33k_ES_PAN_21mic_H50_0435_fot_46B-29769_E_tif
  70
32
  10
543600.000
  20
4576228.500
  30
1059.4
  0
VERTEX
  8
PNOA-H_AMS_1956-57_33k_ES_PAN_21mic_H50_0435_fot_46B-29769_E_tif
  70
32
  10
543600.500
  20
4576228.500
  30
1059.351
  0
VERTEX
  8
PNOA-H_AMS_1956-57_33k_ES_PAN_21mic_H50_0435_fot_46B-29769_E_tif
  70
32
  10
543603.000
  20
4576228.500
  30
1059.102
  0
VERTEX
  8
PNOA-H_AMS_1956-57_33k_ES_PAN_21mic_H50_0435_fot_46B-29769_E_tif
  70
32
  10
544394.713
  20
4576174.887
  30
1061.391
  0
VERTEX
  8
PNOA-H_AMS_1956-57_33k_ES_PAN_21mic_H50_0435_fot_46B-29769_E_tif
  70
32
  10
545220.000
  20
4576119.000
  30
1063.777
  0
VERTEX
  8
PNOA-H_AMS_1956-57_33k_ES_PAN_21mic_H50_0435_fot_46B-29769_E_tif
  70
32
  10
545228.000
  20
4576118.500
  30
1063.828
  0
VERTEX
  8
PNOA-H_AMS_1956-57_33k_ES_PAN_21mic_H50_0435_fot_46B-29769_E_tif
  70
32
  10
546185.500
  20
4576054.000
  30
1041.831
  0
VERTEX
  8
PNOA-H_AMS_1956-57_33k_ES_PAN_21mic_H50_0435_fot_46B-29769_E_tif
  70
32
  10
546191.463
  20
4575908.418
  30
1045.941
  0
VERTEX
  8
PNOA-H_AMS_1956-57_33k_ES_PAN_21mic_H50_0435_fot_46B-29769_E_tif
  70
32
  10
543581.538
  20
4575892.122
  30
0
  0
VERTEX
  8
PNOA-H_AMS_1956-57_33k_ES_PAN_21mic_H50_0435_fot_46B-29769_E_tif
  70
32
  10
543517.898
  20
4575891.755
  30
0
  0
SEQEND
  8
PNOA-H_AMS_1956-57_33k_ES_PAN_21mic_H50_0435_fot_46B-29769_E_tif
  0
INSERT
  8
FeatureAttribs
  2
FEATURE
  41
1
  42
1
  43
1
  50
0
  10
542162.833
  20
4576056.587
 66
1
  0
ATTRIB
  8
FeatureAttribs
 70
0
  1
PNOA-H_AMS_1956-57_33k_ES_PAN_21mic_H50_0435_fot_46B-29770_E.tif
  2
NAME
  10
542162.833
  20
4576056.587
 40
33.67194
  0
SEQEND
  0
POLYLINE
  8
PNOA-H_AMS_1956-57_33k_ES_PAN_21mic_H50_0435_fot_46B-29770_E_tif
  70
9
  66
1
  0
VERTEX
  8
PNOA-H_AMS_1956-57_33k_ES_PAN_21mic_H50_0435_fot_46B-29770_E_tif
  70
32
  10
540815.084
  20
4575876.177
  30
0
  0
VERTEX
  8
PNOA-H_AMS_1956-57_33k_ES_PAN_21mic_H50_0435_fot_46B-29770_E_tif
  70
32
  10
540814.626
  20
4575876.175
  30
1075.683
  0
VERTEX
  8
PNOA-H_AMS_1956-57_33k_ES_PAN_21mic_H50_0435_fot_46B-29770_E_tif
  70
32
  10
540805.000
  20
4576231.500
  30
1071.411
  0
VERTEX
  8
PNOA-H_AMS_1956-57_33k_ES_PAN_21mic_H50_0435_fot_46B-29770_E_tif
  70
32
  10
540805.000
  20
4576233.667
  30
1071.218
  0
VERTEX
  8
PNOA-H_AMS_1956-57_33k_ES_PAN_21mic_H50_0435_fot_46B-29770_E_tif
  70
32
  10
540805.000
  20
4576236.989
  30
1070.921
  0
VERTEX
  8
PNOA-H_AMS_1956-57_33k_ES_PAN_21mic_H50_0435_fot_46B-29770_E_tif
  70
32
  10
540805.000
  20
4576237.000
  30
1070.92
  0
VERTEX
  8
PNOA-H_AMS_1956-57_33k_ES_PAN_21mic_H50_0435_fot_46B-29770_E_tif
  70
32
  10
543514.500
  20
4576176.000
  30
1058.711
  0
VERTEX
  8
PNOA-H_AMS_1956-57_33k_ES_PAN_21mic_H50_0435_fot_46B-29770_E_tif
  70
32
  10
543517.898
  20
4575891.755
  30
1064.396
  0
VERTEX
  8
PNOA-H_AMS_1956-57_33k_ES_PAN_21mic_H50_0435_fot_46B-29770_E_tif
  70
32
  10
543517.884
  20
4575891.755
  30
1064.296
  0
VERTEX
  8
PNOA-H_AMS_1956-57_33k_ES_PAN_21mic_H50_0435_fot_46B-29770_E_tif
  70
32
  10
540815.084
  20
4575876.177
  30
0
  0
SEQEND
  8
PNOA-H_AMS_1956-57_33k_ES_PAN_21mic_H50_0435_fot_46B-29770_E_tif
  0
INSERT
  8
FeatureAttribs
  2
FEATURE
  41
1
  42
1
  43
1
  50
0
  10
553387.300
  20
4587683.750
 66
1
  0
ATTRIB
  8
FeatureAttribs
 70
0
  1
PNOA-H_AMS_1956-57_33k_ES_PAN_21mic_H50_0407_fot_43B-29667_E.tif
  2
NAME
  10
553387.300
  20
4587683.750
 40
33.67194
  0
SEQEND
  0
POLYLINE
  8
PNOA-H_AMS_1956-57_33k_ES_PAN_21mic_H50_0407_fot_43B-29667_E_tif
  70
9
  66
1
  0
VERTEX
  8
PNOA-H_AMS_1956-57_33k_ES_PAN_21mic_H50_0407_fot_43B-29667_E_tif
  70
32
  10
552722.749
  20
4589857.378
  30
1100.894
  0
VERTEX
  8
PNOA-H_AMS_1956-57_33k_ES_PAN_21mic_H50_0407_fot_43B-29667_E_tif
  70
32
  10
553417.000
  20
4589744.500
  30
1097.655
  0
VERTEX
  8
PNOA-H_AMS_1956-57_33k_ES_PAN_21mic_H50_0407_fot_43B-29667_E_tif
  70
32
  10
553419.000
  20
4589744.500
  30
1097.609
  0
VERTEX
  8
PNOA-H_AMS_1956-57_33k_ES_PAN_21mic_H50_0407_fot_43B-29667_E_tif
  70
32
  10
553420.000
  20
4589744.500
  30
1097.586
  0
VERTEX
  8
PNOA-H_AMS_1956-57_33k_ES_PAN_21mic_H50_0407_fot_43B-29667_E_tif
  70
32
  10
554115.000
  20
4589631.500
  30
1099.387
  0
VERTEX
  8
PNOA-H_AMS_1956-57_33k_ES_PAN_21mic_H50_0407_fot_43B-29667_E_tif
  70
32
  10
554810.000
  20
4589518.500
  30
1101.188
  0
VERTEX
  8
PNOA-H_AMS_1956-57_33k_ES_PAN_21mic_H50_0407_fot_43B-29667_E_tif
  70
32
  10
554814.000
  20
4585748.000
  30
1033.115
  0
VERTEX
  8
PNOA-H_AMS_1956-57_33k_ES_PAN_21mic_H50_0407_fot_43B-29667_E_tif
  70
32
  10
554814.000
  20
4585747.500
  30
1033.106
  0
VERTEX
  8
PNOA-H_AMS_1956-57_33k_ES_PAN_21mic_H50_0407_fot_43B-29667_E_tif
  70
32
  10
554441.500
  20
4585510.000
  30
1030.255
  0
VERTEX
  8
PNOA-H_AMS_1956-57_33k_ES_PAN_21mic_H50_0407_fot_43B-29667_E_tif
  70
32
  10
554441.063
  20
4585510.040
  30
1030.254
  0
VERTEX
  8
PNOA-H_AMS_1956-57_33k_ES_PAN_21mic_H50_0407_fot_43B-29667_E_tif
  70
32
  10
551972.000
  20
4585739.000
  30
1023.762
  0
VERTEX
  8
PNOA-H_AMS_1956-57_33k_ES_PAN_21mic_H50_0407_fot_43B-29667_E_tif
  70
32
  10
551954.002
  20
4589483.501
  30
1055.996
  0
VERTEX
  8
PNOA-H_AMS_1956-57_33k_ES_PAN_21mic_H50_0407_fot_43B-29667_E_tif
  70
32
  10
551954.000
  20
4589484.000
  30
1056.001
  0
VERTEX
  8
PNOA-H_AMS_1956-57_33k_ES_PAN_21mic_H50_0407_fot_43B-29667_E_tif
  70
32
  10
552722.000
  20
4589857.500
  30
1100.898
  0
VERTEX
  8
PNOA-H_AMS_1956-57_33k_ES_PAN_21mic_H50_0407_fot_43B-29667_E_tif
  70
32
  10
552722.749
  20
4589857.378
  30
1100.894
  0
SEQEND
  8
PNOA-H_AMS_1956-57_33k_ES_PAN_21mic_H50_0407_fot_43B-29667_E_tif
  0
INSERT
  8
FeatureAttribs
  2
FEATURE
  41
1
  42
1
  43
1
  50
0
  10
550550.004
  20
4587654.750
 66
1
  0
ATTRIB
  8
FeatureAttribs
 70
0
  1
PNOA-H_AMS_1956-57_33k_ES_PAN_21mic_H50_0407_fot_43B-29666_E.tif
  2
NAME
  10
550550.004
  20
4587654.750
 40
33.67194
  0
SEQEND
  0
POLYLINE
  8
PNOA-H_AMS_1956-57_33k_ES_PAN_21mic_H50_0407_fot_43B-29666_E_tif
  70
9
  66
1
  0
VERTEX
  8
PNOA-H_AMS_1956-57_33k_ES_PAN_21mic_H50_0407_fot_43B-29666_E_tif
  70
32
  10
551972.000
  20
4585738.500
  30
1023.672
  0
VERTEX
  8
PNOA-H_AMS_1956-57_33k_ES_PAN_21mic_H50_0407_fot_43B-29666_E_tif
  70
32
  10
551555.500
  20
4585462.500
  30
1020.118
  0
VERTEX
  8
PNOA-H_AMS_1956-57_33k_ES_PAN_21mic_H50_0407_fot_43B-29666_E_tif
  70
32
  10
551555.041
  20
4585462.541
  30
1020.112
  0
VERTEX
  8
PNOA-H_AMS_1956-57_33k_ES_PAN_21mic_H50_0407_fot_43B-29666_E_tif
  70
32
  10
551554.721
  20
4585462.570
  30
1020.108
  0
VERTEX
  8
PNOA-H_AMS_1956-57_33k_ES_PAN_21mic_H50_0407_fot_43B-29666_E_tif
  70
32
  10
549322.244
  20
4585662.500
  30
990.985
  0
VERTEX
  8
PNOA-H_AMS_1956-57_33k_ES_PAN_21mic_H50_0407_fot_43B-29666_E_tif
  70
32
  10
549138.000
  20
4585679.000
  30
988.582
  0
VERTEX
  8
PNOA-H_AMS_1956-57_33k_ES_PAN_21mic_H50_0407_fot_43B-29666_E_tif
  70
32
  10
549136.500
  20
4589470.500
  30
1030.162
  0
VERTEX
  8
PNOA-H_AMS_1956-57_33k_ES_PAN_21mic_H50_0407_fot_43B-29666_E_tif
  70
32
  10
549136.639
  20
4589470.565
  30
1030.155
  0
VERTEX
  8
PNOA-H_AMS_1956-57_33k_ES_PAN_21mic_H50_0407_fot_43B-29666_E_tif
  70
32
  10
549322.500
  20
4589558.000
  30
1020.482
  0
VERTEX
  8
PNOA-H_AMS_1956-57_33k_ES_PAN_21mic_H50_0407_fot_43B-29666_E_tif
  70
32
  10
549323.500
  20
4589558.500
  30
1020.494
  0
VERTEX
  8
PNOA-H_AMS_1956-57_33k_ES_PAN_21mic_H50_0407_fot_43B-29666_E_tif
  70
32
  10
549624.308
  20
4589699.268
  30
1032.674
  0
VERTEX
  8
PNOA-H_AMS_1956-57_33k_ES_PAN_21mic_H50_0407_fot_43B-29666_E_tif
  70
32
  10
549939.722
  20
4589846.870
  30
1045.446
  0
VERTEX
  8
PNOA-H_AMS_1956-57_33k_ES_PAN_21mic_H50_0407_fot_43B-29666_E_tif
  70
32
  10
549940.000
  20
4589847.000
  30
1045.457
  0
VERTEX
  8
PNOA-H_AMS_1956-57_33k_ES_PAN_21mic_H50_0407_fot_43B-29666_E_tif
  70
32
  10
551954.000
  20
4589483.500
  30
1055.954
  0
VERTEX
  8
PNOA-H_AMS_1956-57_33k_ES_PAN_21mic_H50_0407_fot_43B-29666_E_tif
  70
32
  10
551971.998
  20
4585738.998
  30
1023.676
  0
VERTEX
  8
PNOA-H_AMS_1956-57_33k_ES_PAN_21mic_H50_0407_fot_43B-29666_E_tif
  70
32
  10
551972.000
  20
4585738.500
  30
1023.672
  0
SEQEND
  8
PNOA-H_AMS_1956-57_33k_ES_PAN_21mic_H50_0407_fot_43B-29666_E_tif
  0
INSERT
  8
FeatureAttribs
  2
FEATURE
  41
1
  42
1
  43
1
  50
0
  10
553030.198
  20
4583303.000
 66
1
  0
ATTRIB
  8
FeatureAttribs
 70
0
  1
PNOA-H_AMS_1956-57_33k_ES_PAN_21mic_H50_0407_fot_44B-36248_W.tif
  2
NAME
  10
553030.198
  20
4583303.000
 40
33.67194
  0
SEQEND
  0
POLYLINE
  8
PNOA-H_AMS_1956-57_33k_ES_PAN_21mic_H50_0407_fot_44B-36248_W_tif
  70
9
  66
1
  0
VERTEX
  8
PNOA-H_AMS_1956-57_33k_ES_PAN_21mic_H50_0407_fot_44B-36248_W_tif
  70
32
  10
552582.000
  20
4580867.000
  30
1036.251
  0
VERTEX
  8
PNOA-H_AMS_1956-57_33k_ES_PAN_21mic_H50_0407_fot_44B-36248_W_tif
  70
32
  10
552581.000
  20
4580867.000
  30
1036.255
  0
VERTEX
  8
PNOA-H_AMS_1956-57_33k_ES_PAN_21mic_H50_0407_fot_44B-36248_W_tif
  70
32
  10
551696.499
  20
4581064.389
  30
1025.355
  0
VERTEX
  8
PNOA-H_AMS_1956-57_33k_ES_PAN_21mic_H50_0407_fot_44B-36248_W_tif
  70
32
  10
551696.000
  20
4581064.500
  30
1025.349
  0
VERTEX
  8
PNOA-H_AMS_1956-57_33k_ES_PAN_21mic_H50_0407_fot_44B-36248_W_tif
  70
32
  10
551555.000
  20
4585457.500
  30
1019.576
  0
VERTEX
  8
PNOA-H_AMS_1956-57_33k_ES_PAN_21mic_H50_0407_fot_44B-36248_W_tif
  70
32
  10
551555.000
  20
4585462.500
  30
1020.123
  0
VERTEX
  8
PNOA-H_AMS_1956-57_33k_ES_PAN_21mic_H50_0407_fot_44B-36248_W_tif
  70
32
  10
551555.041
  20
4585462.541
  30
1020.127
  0
VERTEX
  8
PNOA-H_AMS_1956-57_33k_ES_PAN_21mic_H50_0407_fot_44B-36248_W_tif
  70
32
  10
551556.000
  20
4585463.500
  30
1020.227
  0
VERTEX
  8
PNOA-H_AMS_1956-57_33k_ES_PAN_21mic_H50_0407_fot_44B-36248_W_tif
  70
32
  10
551971.998
  20
4585738.998
  30
1023.762
  0
VERTEX
  8
PNOA-H_AMS_1956-57_33k_ES_PAN_21mic_H50_0407_fot_44B-36248_W_tif
  70
32
  10
551972.000
  20
4585739.000
  30
1023.762
  0
VERTEX
  8
PNOA-H_AMS_1956-57_33k_ES_PAN_21mic_H50_0407_fot_44B-36248_W_tif
  70
32
  10
554441.000
  20
4585510.000
  30
1030.252
  0
VERTEX
  8
PNOA-H_AMS_1956-57_33k_ES_PAN_21mic_H50_0407_fot_44B-36248_W_tif
  70
32
  10
554435.500
  20
4582958.000
  30
1069.631
  0
VERTEX
  8
PNOA-H_AMS_1956-57_33k_ES_PAN_21mic_H50_0407_fot_44B-36248_W_tif
  70
32
  10
554435.500
  20
4582949.000
  30
1069.166
  0
VERTEX
  8
PNOA-H_AMS_1956-57_33k_ES_PAN_21mic_H50_0407_fot_44B-36248_W_tif
  70
32
  10
554434.312
  20
4582251.515
  30
1055.236
  0
VERTEX
  8
PNOA-H_AMS_1956-57_33k_ES_PAN_21mic_H50_0407_fot_44B-36248_W_tif
  70
32
  10
554432.500
  20
4581187.500
  30
1033.986
  0
VERTEX
  8
PNOA-H_AMS_1956-57_33k_ES_PAN_21mic_H50_0407_fot_44B-36248_W_tif
  70
32
  10
554432.073
  20
4581160.604
  30
1031.45
  0
VERTEX
  8
PNOA-H_AMS_1956-57_33k_ES_PAN_21mic_H50_0407_fot_44B-36248_W_tif
  70
32
  10
554431.508
  20
4581124.998
  30
1028.093
  0
VERTEX
  8
PNOA-H_AMS_1956-57_33k_ES_PAN_21mic_H50_0407_fot_44B-36248_W_tif
  70
32
  10
554431.500
  20
4581124.500
  30
1028.046
  0
VERTEX
  8
PNOA-H_AMS_1956-57_33k_ES_PAN_21mic_H50_0407_fot_44B-36248_W_tif
  70
32
  10
553703.000
  20
4580914.500
  30
1005.133
  0
VERTEX
  8
PNOA-H_AMS_1956-57_33k_ES_PAN_21mic_H50_0407_fot_44B-36248_W_tif
  70
32
  10
553702.507
  20
4580914.479
  30
1005.147
  0
VERTEX
  8
PNOA-H_AMS_1956-57_33k_ES_PAN_21mic_H50_0407_fot_44B-36248_W_tif
  70
32
  10
553702.502
  20
4580914.479
  30
1005.147
  0
VERTEX
  8
PNOA-H_AMS_1956-57_33k_ES_PAN_21mic_H50_0407_fot_44B-36248_W_tif
  70
32
  10
552585.500
  20
4580867.000
  30
1036.237
  0
VERTEX
  8
PNOA-H_AMS_1956-57_33k_ES_PAN_21mic_H50_0407_fot_44B-36248_W_tif
  70
32
  10
552582.000
  20
4580867.000
  30
1036.251
  0
SEQEND
  8
PNOA-H_AMS_1956-57_33k_ES_PAN_21mic_H50_0407_fot_44B-36248_W_tif
  0
INSERT
  8
FeatureAttribs
  2
FEATURE
  41
1
  42
1
  43
1
  50
0
  10
550155.675
  20
4583231.750
 66
1
  0
ATTRIB
  8
FeatureAttribs
 70
0
  1
PNOA-H_AMS_1956-57_33k_ES_PAN_21mic_H50_0407_fot_44B-36249_W.tif
  2
NAME
  10
550155.675
  20
4583231.750
 40
33.67194
  0
SEQEND
  0
POLYLINE
  8
PNOA-H_AMS_1956-57_33k_ES_PAN_21mic_H50_0407_fot_44B-36249_W_tif
  70
9
  66
1
  0
VERTEX
  8
PNOA-H_AMS_1956-57_33k_ES_PAN_21mic_H50_0407_fot_44B-36249_W_tif
  70
32
  10
549137.875
  20
4585678.922
  30
988.582
  0
VERTEX
  8
PNOA-H_AMS_1956-57_33k_ES_PAN_21mic_H50_0407_fot_44B-36249_W_tif
  70
32
  10
549321.500
  20
4585662.500
  30
990.828
  0
VERTEX
  8
PNOA-H_AMS_1956-57_33k_ES_PAN_21mic_H50_0407_fot_44B-36249_W_tif
  70
32
  10
549322.244
  20
4585662.500
  30
990.831
  0
VERTEX
  8
PNOA-H_AMS_1956-57_33k_ES_PAN_21mic_H50_0407_fot_44B-36249_W_tif
  70
32
  10
549324.000
  20
4585662.500
  30
990.839
  0
VERTEX
  8
PNOA-H_AMS_1956-57_33k_ES_PAN_21mic_H50_0407_fot_44B-36249_W_tif
  70
32
  10
551553.000
  20
4585463.000
  30
1020.198
  0
VERTEX
  8
PNOA-H_AMS_1956-57_33k_ES_PAN_21mic_H50_0407_fot_44B-36249_W_tif
  70
32
  10
551554.721
  20
4585462.570
  30
1020.133
  0
VERTEX
  8
PNOA-H_AMS_1956-57_33k_ES_PAN_21mic_H50_0407_fot_44B-36249_W_tif
  70
32
  10
551555.000
  20
4585462.500
  30
1020.123
  0
VERTEX
  8
PNOA-H_AMS_1956-57_33k_ES_PAN_21mic_H50_0407_fot_44B-36249_W_tif
  70
32
  10
551555.500
  20
4585457.500
  30
1019.57
  0
VERTEX
  8
PNOA-H_AMS_1956-57_33k_ES_PAN_21mic_H50_0407_fot_44B-36249_W_tif
  70
32
  10
551696.000
  20
4581064.500
  30
1025.349
  0
VERTEX
  8
PNOA-H_AMS_1956-57_33k_ES_PAN_21mic_H50_0407_fot_44B-36249_W_tif
  70
32
  10
551695.072
  20
4581064.230
  30
1025.316
  0
VERTEX
  8
PNOA-H_AMS_1956-57_33k_ES_PAN_21mic_H50_0407_fot_44B-36249_W_tif
  70
32
  10
551058.022
  20
4580879.007
  30
1002.568
  0
VERTEX
  8
PNOA-H_AMS_1956-57_33k_ES_PAN_21mic_H50_0407_fot_44B-36249_W_tif
  70
32
  10
551058.000
  20
4580879.000
  30
1002.567
  0
VERTEX
  8
PNOA-H_AMS_1956-57_33k_ES_PAN_21mic_H50_0407_fot_44B-36249_W_tif
  70
32
  10
549747.000
  20
4580784.500
  30
1011.495
  0
VERTEX
  8
PNOA-H_AMS_1956-57_33k_ES_PAN_21mic_H50_0407_fot_44B-36249_W_tif
  70
32
  10
549743.000
  20
4580784.500
  30
1011.622
  0
VERTEX
  8
PNOA-H_AMS_1956-57_33k_ES_PAN_21mic_H50_0407_fot_44B-36249_W_tif
  70
32
  10
549741.000
  20
4580784.500
  30
1011.686
  0
VERTEX
  8
PNOA-H_AMS_1956-57_33k_ES_PAN_21mic_H50_0407_fot_44B-36249_W_tif
  70
32
  10
548738.123
  20
4580985.875
  30
1030.096
  0
VERTEX
  8
PNOA-H_AMS_1956-57_33k_ES_PAN_21mic_H50_0407_fot_44B-36249_W_tif
  70
32
  10
548737.500
  20
4580986.000
  30
1030.107
  0
VERTEX
  8
PNOA-H_AMS_1956-57_33k_ES_PAN_21mic_H50_0407_fot_44B-36249_W_tif
  70
32
  10
548737.304
  20
4580994.322
  30
1030.009
  0
VERTEX
  8
PNOA-H_AMS_1956-57_33k_ES_PAN_21mic_H50_0407_fot_44B-36249_W_tif
  70
32
  10
548638.052
  20
4585213.035
  30
980.113
  0
VERTEX
  8
PNOA-H_AMS_1956-57_33k_ES_PAN_21mic_H50_0407_fot_44B-36249_W_tif
  70
32
  10
548634.512
  20
4585363.507
  30
978.334
  0
VERTEX
  8
PNOA-H_AMS_1956-57_33k_ES_PAN_21mic_H50_0407_fot_44B-36249_W_tif
  70
32
  10
548634.500
  20
4585364.000
  30
978.328
  0
VERTEX
  8
PNOA-H_AMS_1956-57_33k_ES_PAN_21mic_H50_0407_fot_44B-36249_W_tif
  70
32
  10
549137.000
  20
4585679.000
  30
988.571
  0
VERTEX
  8
PNOA-H_AMS_1956-57_33k_ES_PAN_21mic_H50_0407_fot_44B-36249_W_tif
  70
32
  10
549137.875
  20
4585678.922
  30
988.582
  0
SEQEND
  8
PNOA-H_AMS_1956-57_33k_ES_PAN_21mic_H50_0407_fot_44B-36249_W_tif
  0
INSERT
  8
FeatureAttribs
  2
FEATURE
  41
1
  42
1
  43
1
  50
0
  10
550484.884
  20
4578514.000
 66
1
  0
ATTRIB
  8
FeatureAttribs
 70
0
  1
PNOA-H_AMS_1956-57_33k_ES_PAN_21mic_H50_0407_fot_45C-37446_E.tif
  2
NAME
  10
550484.884
  20
4578514.000
 40
33.67194
  0
SEQEND
  0
POLYLINE
  8
PNOA-H_AMS_1956-57_33k_ES_PAN_21mic_H50_0407_fot_45C-37446_E_tif
  70
9
  66
1
  0
VERTEX
  8
PNOA-H_AMS_1956-57_33k_ES_PAN_21mic_H50_0407_fot_45C-37446_E_tif
  70
32
  10
551273.498
  20
4576149.029
  30
1058.795
  0
VERTEX
  8
PNOA-H_AMS_1956-57_33k_ES_PAN_21mic_H50_0407_fot_45C-37446_E_tif
  70
32
  10
551273.500
  20
4576149.000
  30
1058.795
  0
VERTEX
  8
PNOA-H_AMS_1956-57_33k_ES_PAN_21mic_H50_0407_fot_45C-37446_E_tif
  70
32
  10
549865.500
  20
4576230.000
  30
1048.132
  0
VERTEX
  8
PNOA-H_AMS_1956-57_33k_ES_PAN_21mic_H50_0407_fot_45C-37446_E_tif
  70
32
  10
549743.000
  20
4580767.000
  30
1012.075
  0
VERTEX
  8
PNOA-H_AMS_1956-57_33k_ES_PAN_21mic_H50_0407_fot_45C-37446_E_tif
  70
32
  10
549743.000
  20
4580784.500
  30
1011.618
  0
VERTEX
  8
PNOA-H_AMS_1956-57_33k_ES_PAN_21mic_H50_0407_fot_45C-37446_E_tif
  70
32
  10
549747.000
  20
4580785.000
  30
1011.485
  0
VERTEX
  8
PNOA-H_AMS_1956-57_33k_ES_PAN_21mic_H50_0407_fot_45C-37446_E_tif
  70
32
  10
551058.000
  20
4580879.000
  30
1002.567
  0
VERTEX
  8
PNOA-H_AMS_1956-57_33k_ES_PAN_21mic_H50_0407_fot_45C-37446_E_tif
  70
32
  10
551066.516
  20
4580692.416
  30
1004.821
  0
VERTEX
  8
PNOA-H_AMS_1956-57_33k_ES_PAN_21mic_H50_0407_fot_45C-37446_E_tif
  70
32
  10
551243.500
  20
4576814.500
  30
1051.681
  0
VERTEX
  8
PNOA-H_AMS_1956-57_33k_ES_PAN_21mic_H50_0407_fot_45C-37446_E_tif
  70
32
  10
551243.500
  20
4576805.000
  30
1051.671
  0
VERTEX
  8
PNOA-H_AMS_1956-57_33k_ES_PAN_21mic_H50_0407_fot_45C-37446_E_tif
  70
32
  10
551273.498
  20
4576149.029
  30
1058.795
  0
SEQEND
  8
PNOA-H_AMS_1956-57_33k_ES_PAN_21mic_H50_0407_fot_45C-37446_E_tif
  0
INSERT
  8
FeatureAttribs
  2
FEATURE
  41
1
  42
1
  43
1
  50
0
  10
553232.386
  20
4578571.500
 66
1
  0
ATTRIB
  8
FeatureAttribs
 70
0
  1
PNOA-H_AMS_1956-57_33k_ES_PAN_21mic_H50_0407_fot_45C-37447_E.tif
  2
NAME
  10
553232.386
  20
4578571.500
 40
33.67194
  0
SEQEND
  0
POLYLINE
  8
PNOA-H_AMS_1956-57_33k_ES_PAN_21mic_H50_0407_fot_45C-37447_E_tif
  70
9
  66
1
  0
VERTEX
  8
PNOA-H_AMS_1956-57_33k_ES_PAN_21mic_H50_0407_fot_45C-37447_E_tif
  70
32
  10
554136.972
  20
4576228.799
  30
1145.06
  0
VERTEX
  8
PNOA-H_AMS_1956-57_33k_ES_PAN_21mic_H50_0407_fot_45C-37447_E_tif
  70
32
  10
554137.000
  20
4576228.500
  30
1145.069
  0
VERTEX
  8
PNOA-H_AMS_1956-57_33k_ES_PAN_21mic_H50_0407_fot_45C-37447_E_tif
  70
32
  10
553414.145
  20
4576272.000
  30
1109.518
  0
VERTEX
  8
PNOA-H_AMS_1956-57_33k_ES_PAN_21mic_H50_0407_fot_45C-37447_E_tif
  70
32
  10
552508.500
  20
4576326.500
  30
1064.978
  0
VERTEX
  8
PNOA-H_AMS_1956-57_33k_ES_PAN_21mic_H50_0407_fot_45C-37447_E_tif
  70
32
  10
552582.000
  20
4580867.000
  30
1036.242
  0
VERTEX
  8
PNOA-H_AMS_1956-57_33k_ES_PAN_21mic_H50_0407_fot_45C-37447_E_tif
  70
32
  10
553398.500
  20
4580902.000
  30
1038.83
  0
VERTEX
  8
PNOA-H_AMS_1956-57_33k_ES_PAN_21mic_H50_0407_fot_45C-37447_E_tif
  70
32
  10
553410.500
  20
4580902.500
  30
1035.054
  0
VERTEX
  8
PNOA-H_AMS_1956-57_33k_ES_PAN_21mic_H50_0407_fot_45C-37447_E_tif
  70
32
  10
553693.000
  20
4580914.500
  30
1003.814
  0
VERTEX
  8
PNOA-H_AMS_1956-57_33k_ES_PAN_21mic_H50_0407_fot_45C-37447_E_tif
  70
32
  10
553702.500
  20
4580914.500
  30
1005.111
  0
VERTEX
  8
PNOA-H_AMS_1956-57_33k_ES_PAN_21mic_H50_0407_fot_45C-37447_E_tif
  70
32
  10
553702.507
  20
4580914.479
  30
1005.108
  0
VERTEX
  8
PNOA-H_AMS_1956-57_33k_ES_PAN_21mic_H50_0407_fot_45C-37447_E_tif
  70
32
  10
553703.000
  20
4580913.000
  30
1004.862
  0
VERTEX
  8
PNOA-H_AMS_1956-57_33k_ES_PAN_21mic_H50_0407_fot_45C-37447_E_tif
  70
32
  10
554136.972
  20
4576228.799
  30
1145.06
  0
SEQEND
  8
PNOA-H_AMS_1956-57_33k_ES_PAN_21mic_H50_0407_fot_45C-37447_E_tif
  0
INSERT
  8
FeatureAttribs
  2
FEATURE
  41
1
  42
1
  43
1
  50
0
  10
554589.767
  20
4578618.000
 66
1
  0
ATTRIB
  8
FeatureAttribs
 70
0
  1
PNOA-H_AMS_1956-57_33k_ES_PAN_21mic_H50_0407_fot_000-36188_R.tif
  2
NAME
  10
554589.767
  20
4578618.000
 40
33.67194
  0
SEQEND
  0
POLYLINE
  8
PNOA-H_AMS_1956-57_33k_ES_PAN_21mic_H50_0407_fot_000-36188_R_tif
  70
9
  66
1
  0
VERTEX
  8
PNOA-H_AMS_1956-57_33k_ES_PAN_21mic_H50_0407_fot_000-36188_R_tif
  70
32
  10
554413.700
  20
4576111.127
  30
1143.539
  0
VERTEX
  8
PNOA-H_AMS_1956-57_33k_ES_PAN_21mic_H50_0407_fot_000-36188_R_tif
  70
32
  10
554413.000
  20
4576111.000
  30
1143.525
  0
VERTEX
  8
PNOA-H_AMS_1956-57_33k_ES_PAN_21mic_H50_0407_fot_000-36188_R_tif
  70
32
  10
554137.000
  20
4576228.500
  30
1145.069
  0
VERTEX
  8
PNOA-H_AMS_1956-57_33k_ES_PAN_21mic_H50_0407_fot_000-36188_R_tif
  70
32
  10
554136.972
  20
4576228.799
  30
1145.06
  0
VERTEX
  8
PNOA-H_AMS_1956-57_33k_ES_PAN_21mic_H50_0407_fot_000-36188_R_tif
  70
32
  10
553702.502
  20
4580914.479
  30
1005.112
  0
VERTEX
  8
PNOA-H_AMS_1956-57_33k_ES_PAN_21mic_H50_0407_fot_000-36188_R_tif
  70
32
  10
553702.500
  20
4580914.500
  30
1005.111
  0
VERTEX
  8
PNOA-H_AMS_1956-57_33k_ES_PAN_21mic_H50_0407_fot_000-36188_R_tif
  70
32
  10
554430.000
  20
4581124.500
  30
1027.93
  0
VERTEX
  8
PNOA-H_AMS_1956-57_33k_ES_PAN_21mic_H50_0407_fot_000-36188_R_tif
  70
32
  10
554431.500
  20
4581125.000
  30
1028.151
  0
VERTEX
  8
PNOA-H_AMS_1956-57_33k_ES_PAN_21mic_H50_0407_fot_000-36188_R_tif
  70
32
  10
554431.508
  20
4581124.998
  30
1028.151
  0
VERTEX
  8
PNOA-H_AMS_1956-57_33k_ES_PAN_21mic_H50_0407_fot_000-36188_R_tif
  70
32
  10
554554.801
  20
4581098.427
  30
1027.345
  0
VERTEX
  8
PNOA-H_AMS_1956-57_33k_ES_PAN_21mic_H50_0407_fot_000-36188_R_tif
  70
32
  10
555218.000
  20
4580955.500
  30
1023.008
  0
VERTEX
  8
PNOA-H_AMS_1956-57_33k_ES_PAN_21mic_H50_0407_fot_000-36188_R_tif
  70
32
  10
555218.001
  20
4580955.444
  30
1023.009
  0
VERTEX
  8
PNOA-H_AMS_1956-57_33k_ES_PAN_21mic_H50_0407_fot_000-36188_R_tif
  70
32
  10
555218.010
  20
4580955.000
  30
1023.021
  0
VERTEX
  8
PNOA-H_AMS_1956-57_33k_ES_PAN_21mic_H50_0407_fot_000-36188_R_tif
  70
32
  10
555307.500
  20
4576417.000
  30
1147.258
  0
VERTEX
  8
PNOA-H_AMS_1956-57_33k_ES_PAN_21mic_H50_0407_fot_000-36188_R_tif
  70
32
  10
555307.482
  20
4576416.994
  30
1147.258
  0
VERTEX
  8
PNOA-H_AMS_1956-57_33k_ES_PAN_21mic_H50_0407_fot_000-36188_R_tif
  70
32
  10
554418.500
  20
4576112.000
  30
1143.634
  0
VERTEX
  8
PNOA-H_AMS_1956-57_33k_ES_PAN_21mic_H50_0407_fot_000-36188_R_tif
  70
32
  10
554415.130
  20
4576111.387
  30
1143.567
  0
VERTEX
  8
PNOA-H_AMS_1956-57_33k_ES_PAN_21mic_H50_0407_fot_000-36188_R_tif
  70
32
  10
554413.700
  20
4576111.127
  30
1143.539
  0
SEQEND
  8
PNOA-H_AMS_1956-57_33k_ES_PAN_21mic_H50_0407_fot_000-36188_R_tif
  0
INSERT
  8
FeatureAttribs
  2
FEATURE
  41
1
  42
1
  43
1
  50
0
  10
549150.631
  20
4578455.971
 66
1
  0
ATTRIB
  8
FeatureAttribs
 70
0
  1
PNOA-H_AMS_1956-57_33k_ES_PAN_21mic_H50_0407_fot_166-36186_X.tif
  2
NAME
  10
549150.631
  20
4578455.971
 40
33.67194
  0
SEQEND
  0
POLYLINE
  8
PNOA-H_AMS_1956-57_33k_ES_PAN_21mic_H50_0407_fot_166-36186_X_tif
  70
9
  66
1
  0
VERTEX
  8
PNOA-H_AMS_1956-57_33k_ES_PAN_21mic_H50_0407_fot_166-36186_X_tif
  70
32
  10
548861.610
  20
4575925.952
  30
0
  0
VERTEX
  8
PNOA-H_AMS_1956-57_33k_ES_PAN_21mic_H50_0407_fot_166-36186_X_tif
  70
32
  10
548860.182
  20
4575925.942
  30
1053.699
  0
VERTEX
  8
PNOA-H_AMS_1956-57_33k_ES_PAN_21mic_H50_0407_fot_166-36186_X_tif
  70
32
  10
548346.000
  20
4576117.500
  30
1041.913
  0
VERTEX
  8
PNOA-H_AMS_1956-57_33k_ES_PAN_21mic_H50_0407_fot_166-36186_X_tif
  70
32
  10
548346.002
  20
4576117.530
  30
1041.913
  0
VERTEX
  8
PNOA-H_AMS_1956-57_33k_ES_PAN_21mic_H50_0407_fot_166-36186_X_tif
  70
32
  10
548655.500
  20
4580955.500
  30
1029.59
  0
VERTEX
  8
PNOA-H_AMS_1956-57_33k_ES_PAN_21mic_H50_0407_fot_166-36186_X_tif
  70
32
  10
548655.890
  20
4580956.410
  30
1029.67
  0
VERTEX
  8
PNOA-H_AMS_1956-57_33k_ES_PAN_21mic_H50_0407_fot_166-36186_X_tif
  70
32
  10
548656.835
  20
4580958.615
  30
1029.864
  0
VERTEX
  8
PNOA-H_AMS_1956-57_33k_ES_PAN_21mic_H50_0407_fot_166-36186_X_tif
  70
32
  10
548657.000
  20
4580959.000
  30
1029.898
  0
VERTEX
  8
PNOA-H_AMS_1956-57_33k_ES_PAN_21mic_H50_0407_fot_166-36186_X_tif
  70
32
  10
548737.000
  20
4580985.503
  30
1030.04
  0
VERTEX
  8
PNOA-H_AMS_1956-57_33k_ES_PAN_21mic_H50_0407_fot_166-36186_X_tif
  70
32
  10
548738.123
  20
4580985.875
  30
1030.042
  0
VERTEX
  8
PNOA-H_AMS_1956-57_33k_ES_PAN_21mic_H50_0407_fot_166-36186_X_tif
  70
32
  10
548738.500
  20
4580986.000
  30
1030.043
  0
VERTEX
  8
PNOA-H_AMS_1956-57_33k_ES_PAN_21mic_H50_0407_fot_166-36186_X_tif
  70
32
  10
549743.000
  20
4580784.500
  30
1011.618
  0
VERTEX
  8
PNOA-H_AMS_1956-57_33k_ES_PAN_21mic_H50_0407_fot_166-36186_X_tif
  70
32
  10
549850.000
  20
4576808.500
  30
1044.424
  0
VERTEX
  8
PNOA-H_AMS_1956-57_33k_ES_PAN_21mic_H50_0407_fot_166-36186_X_tif
  70
32
  10
549850.000
  20
4576805.000
  30
1044.325
  0
VERTEX
  8
PNOA-H_AMS_1956-57_33k_ES_PAN_21mic_H50_0407_fot_166-36186_X_tif
  70
32
  10
549865.500
  20
4576232.500
  30
1048.181
  0
VERTEX
  8
PNOA-H_AMS_1956-57_33k_ES_PAN_21mic_H50_0407_fot_166-36186_X_tif
  70
32
  10
549865.500
  20
4576230.000
  30
1048.132
  0
VERTEX
  8
PNOA-H_AMS_1956-57_33k_ES_PAN_21mic_H50_0407_fot_166-36186_X_tif
  70
32
  10
549863.500
  20
4576229.000
  30
1048.056
  0
VERTEX
  8
PNOA-H_AMS_1956-57_33k_ES_PAN_21mic_H50_0407_fot_166-36186_X_tif
  70
32
  10
549032.023
  20
4575927.098
  30
1054.547
  0
VERTEX
  8
PNOA-H_AMS_1956-57_33k_ES_PAN_21mic_H50_0407_fot_166-36186_X_tif
  70
32
  10
549030.450
  20
4575927.087
  30
0
  0
VERTEX
  8
PNOA-H_AMS_1956-57_33k_ES_PAN_21mic_H50_0407_fot_166-36186_X_tif
  70
32
  10
548861.610
  20
4575925.952
  30
0
  0
SEQEND
  8
PNOA-H_AMS_1956-57_33k_ES_PAN_21mic_H50_0407_fot_166-36186_X_tif
  0
INSERT
  8
FeatureAttribs
  2
FEATURE
  41
1
  42
1
  43
1
  50
0
  10
551854.428
  20
4578538.750
 66
1
  0
ATTRIB
  8
FeatureAttribs
 70
0
  1
PNOA-H_AMS_1956-57_33k_ES_PAN_21mic_H50_0407_fot_000-36187_R.tif
  2
NAME
  10
551854.428
  20
4578538.750
 40
33.67194
  0
SEQEND
  0
POLYLINE
  8
PNOA-H_AMS_1956-57_33k_ES_PAN_21mic_H50_0407_fot_000-36187_R_tif
  70
9
  66
1
  0
VERTEX
  8
PNOA-H_AMS_1956-57_33k_ES_PAN_21mic_H50_0407_fot_000-36187_R_tif
  70
32
  10
552508.356
  20
4576326.448
  30
1064.977
  0
VERTEX
  8
PNOA-H_AMS_1956-57_33k_ES_PAN_21mic_H50_0407_fot_000-36187_R_tif
  70
32
  10
551633.000
  20
4576013.000
  30
1061.473
  0
VERTEX
  8
PNOA-H_AMS_1956-57_33k_ES_PAN_21mic_H50_0407_fot_000-36187_R_tif
  70
32
  10
551632.427
  20
4576013.153
  30
1061.432
  0
VERTEX
  8
PNOA-H_AMS_1956-57_33k_ES_PAN_21mic_H50_0407_fot_000-36187_R_tif
  70
32
  10
551629.645
  20
4576013.895
  30
1061.238
  0
VERTEX
  8
PNOA-H_AMS_1956-57_33k_ES_PAN_21mic_H50_0407_fot_000-36187_R_tif
  70
32
  10
551625.500
  20
4576015.000
  30
1060.948
  0
VERTEX
  8
PNOA-H_AMS_1956-57_33k_ES_PAN_21mic_H50_0407_fot_000-36187_R_tif
  70
32
  10
551276.500
  20
4576147.500
  30
1058.926
  0
VERTEX
  8
PNOA-H_AMS_1956-57_33k_ES_PAN_21mic_H50_0407_fot_000-36187_R_tif
  70
32
  10
551273.500
  20
4576149.000
  30
1058.795
  0
VERTEX
  8
PNOA-H_AMS_1956-57_33k_ES_PAN_21mic_H50_0407_fot_000-36187_R_tif
  70
32
  10
551273.498
  20
4576149.029
  30
1058.794
  0
VERTEX
  8
PNOA-H_AMS_1956-57_33k_ES_PAN_21mic_H50_0407_fot_000-36187_R_tif
  70
32
  10
551273.000
  20
4576156.000
  30
1058.693
  0
VERTEX
  8
PNOA-H_AMS_1956-57_33k_ES_PAN_21mic_H50_0407_fot_000-36187_R_tif
  70
32
  10
551066.516
  20
4580692.416
  30
1004.779
  0
VERTEX
  8
PNOA-H_AMS_1956-57_33k_ES_PAN_21mic_H50_0407_fot_000-36187_R_tif
  70
32
  10
551058.022
  20
4580879.007
  30
1002.562
  0
VERTEX
  8
PNOA-H_AMS_1956-57_33k_ES_PAN_21mic_H50_0407_fot_000-36187_R_tif
  70
32
  10
551058.000
  20
4580879.500
  30
1002.556
  0
VERTEX
  8
PNOA-H_AMS_1956-57_33k_ES_PAN_21mic_H50_0407_fot_000-36187_R_tif
  70
32
  10
551369.500
  20
4580970.000
  30
1011.434
  0
VERTEX
  8
PNOA-H_AMS_1956-57_33k_ES_PAN_21mic_H50_0407_fot_000-36187_R_tif
  70
32
  10
551371.500
  20
4580970.500
  30
1011.474
  0
VERTEX
  8
PNOA-H_AMS_1956-57_33k_ES_PAN_21mic_H50_0407_fot_000-36187_R_tif
  70
32
  10
551693.000
  20
4581064.000
  30
1025.348
  0
VERTEX
  8
PNOA-H_AMS_1956-57_33k_ES_PAN_21mic_H50_0407_fot_000-36187_R_tif
  70
32
  10
551695.072
  20
4581064.230
  30
1025.338
  0
VERTEX
  8
PNOA-H_AMS_1956-57_33k_ES_PAN_21mic_H50_0407_fot_000-36187_R_tif
  70
32
  10
551696.499
  20
4581064.389
  30
1025.331
  0
VERTEX
  8
PNOA-H_AMS_1956-57_33k_ES_PAN_21mic_H50_0407_fot_000-36187_R_tif
  70
32
  10
551697.500
  20
4581064.500
  30
1025.326
  0
VERTEX
  8
PNOA-H_AMS_1956-57_33k_ES_PAN_21mic_H50_0407_fot_000-36187_R_tif
  70
32
  10
552582.000
  20
4580867.000
  30
1036.242
  0
VERTEX
  8
PNOA-H_AMS_1956-57_33k_ES_PAN_21mic_H50_0407_fot_000-36187_R_tif
  70
32
  10
552508.500
  20
4576326.500
  30
1064.978
  0
VERTEX
  8
PNOA-H_AMS_1956-57_33k_ES_PAN_21mic_H50_0407_fot_000-36187_R_tif
  70
32
  10
552508.356
  20
4576326.448
  30
1064.977
  0
SEQEND
  8
PNOA-H_AMS_1956-57_33k_ES_PAN_21mic_H50_0407_fot_000-36187_R_tif
  0
INSERT
  8
FeatureAttribs
  2
FEATURE
  41
1
  42
1
  43
1
  50
0
  10
553165.311
  20
4576135.813
 66
1
  0
ATTRIB
  8
FeatureAttribs
 70
0
  1
PNOA-H_AMS_1956-57_33k_ES_PAN_21mic_H50_0435_fot_46B-29766_E.tif
  2
NAME
  10
553165.311
  20
4576135.813
 40
33.67194
  0
SEQEND
  0
POLYLINE
  8
PNOA-H_AMS_1956-57_33k_ES_PAN_21mic_H50_0435_fot_46B-29766_E_tif
  70
9
  66
1
  0
VERTEX
  8
PNOA-H_AMS_1956-57_33k_ES_PAN_21mic_H50_0435_fot_46B-29766_E_tif
  70
32
  10
552508.356
  20
4576326.448
  30
1064.93
  0
VERTEX
  8
PNOA-H_AMS_1956-57_33k_ES_PAN_21mic_H50_0435_fot_46B-29766_E_tif
  70
32
  10
553412.500
  20
4576272.000
  30
1146.124
  0
VERTEX
  8
PNOA-H_AMS_1956-57_33k_ES_PAN_21mic_H50_0435_fot_46B-29766_E_tif
  70
32
  10
553414.145
  20
4576272.000
  30
1146.101
  0
VERTEX
  8
PNOA-H_AMS_1956-57_33k_ES_PAN_21mic_H50_0435_fot_46B-29766_E_tif
  70
32
  10
553420.000
  20
4576272.000
  30
1146.021
  0
VERTEX
  8
PNOA-H_AMS_1956-57_33k_ES_PAN_21mic_H50_0435_fot_46B-29766_E_tif
  70
32
  10
554136.500
  20
4576229.000
  30
1145.102
  0
VERTEX
  8
PNOA-H_AMS_1956-57_33k_ES_PAN_21mic_H50_0435_fot_46B-29766_E_tif
  70
32
  10
554136.972
  20
4576228.799
  30
1145.1
  0
VERTEX
  8
PNOA-H_AMS_1956-57_33k_ES_PAN_21mic_H50_0435_fot_46B-29766_E_tif
  70
32
  10
554413.700
  20
4576111.127
  30
1143.548
  0
VERTEX
  8
PNOA-H_AMS_1956-57_33k_ES_PAN_21mic_H50_0435_fot_46B-29766_E_tif
  70
32
  10
554414.000
  20
4576111.000
  30
1143.546
  0
VERTEX
  8
PNOA-H_AMS_1956-57_33k_ES_PAN_21mic_H50_0435_fot_46B-29766_E_tif
  70
32
  10
554419.085
  20
4575965.359
  30
1134.818
  0
VERTEX
  8
PNOA-H_AMS_1956-57_33k_ES_PAN_21mic_H50_0435_fot_46B-29766_E_tif
  70
32
  10
554041.159
  20
4575962.455
  30
0
  0
VERTEX
  8
PNOA-H_AMS_1956-57_33k_ES_PAN_21mic_H50_0435_fot_46B-29766_E_tif
  70
32
  10
551635.834
  20
4575945.125
  30
1059.164
  0
VERTEX
  8
PNOA-H_AMS_1956-57_33k_ES_PAN_21mic_H50_0435_fot_46B-29766_E_tif
  70
32
  10
551635.829
  20
4575945.125
  30
1059.164
  0
VERTEX
  8
PNOA-H_AMS_1956-57_33k_ES_PAN_21mic_H50_0435_fot_46B-29766_E_tif
  70
32
  10
551632.000
  20
4576013.000
  30
1061.416
  0
VERTEX
  8
PNOA-H_AMS_1956-57_33k_ES_PAN_21mic_H50_0435_fot_46B-29766_E_tif
  70
32
  10
551632.427
  20
4576013.153
  30
1061.418
  0
VERTEX
  8
PNOA-H_AMS_1956-57_33k_ES_PAN_21mic_H50_0435_fot_46B-29766_E_tif
  70
32
  10
552507.500
  20
4576326.500
  30
1064.853
  0
VERTEX
  8
PNOA-H_AMS_1956-57_33k_ES_PAN_21mic_H50_0435_fot_46B-29766_E_tif
  70
32
  10
552508.356
  20
4576326.448
  30
1064.93
  0
SEQEND
  8
PNOA-H_AMS_1956-57_33k_ES_PAN_21mic_H50_0435_fot_46B-29766_E_tif
  0
INSERT
  8
FeatureAttribs
  2
FEATURE
  41
1
  42
1
  43
1
  50
0
  10
550453.490
  20
4576078.543
 66
1
  0
ATTRIB
  8
FeatureAttribs
 70
0
  1
PNOA-H_AMS_1956-57_33k_ES_PAN_21mic_H50_0435_fot_46B-29767_E.tif
  2
NAME
  10
550453.490
  20
4576078.543
 40
33.67194
  0
SEQEND
  0
POLYLINE
  8
PNOA-H_AMS_1956-57_33k_ES_PAN_21mic_H50_0435_fot_46B-29767_E_tif
  70
9
  66
1
  0
VERTEX
  8
PNOA-H_AMS_1956-57_33k_ES_PAN_21mic_H50_0435_fot_46B-29767_E_tif
  70
32
  10
549032.023
  20
4575927.098
  30
0
  0
VERTEX
  8
PNOA-H_AMS_1956-57_33k_ES_PAN_21mic_H50_0435_fot_46B-29767_E_tif
  70
32
  10
549030.450
  20
4575927.087
  30
1054.459
  0
VERTEX
  8
PNOA-H_AMS_1956-57_33k_ES_PAN_21mic_H50_0435_fot_46B-29767_E_tif
  70
32
  10
549322.000
  20
4576033.000
  30
1051.822
  0
VERTEX
  8
PNOA-H_AMS_1956-57_33k_ES_PAN_21mic_H50_0435_fot_46B-29767_E_tif
  70
32
  10
549323.500
  20
4576033.500
  30
1051.882
  0
VERTEX
  8
PNOA-H_AMS_1956-57_33k_ES_PAN_21mic_H50_0435_fot_46B-29767_E_tif
  70
32
  10
549864.500
  20
4576230.000
  30
1048.105
  0
VERTEX
  8
PNOA-H_AMS_1956-57_33k_ES_PAN_21mic_H50_0435_fot_46B-29767_E_tif
  70
32
  10
549865.500
  20
4576230.000
  30
1048.129
  0
VERTEX
  8
PNOA-H_AMS_1956-57_33k_ES_PAN_21mic_H50_0435_fot_46B-29767_E_tif
  70
32
  10
549869.000
  20
4576230.000
  30
1048.216
  0
VERTEX
  8
PNOA-H_AMS_1956-57_33k_ES_PAN_21mic_H50_0435_fot_46B-29767_E_tif
  70
32
  10
551273.498
  20
4576149.029
  30
1058.812
  0
VERTEX
  8
PNOA-H_AMS_1956-57_33k_ES_PAN_21mic_H50_0435_fot_46B-29767_E_tif
  70
32
  10
551274.000
  20
4576149.000
  30
1058.816
  0
VERTEX
  8
PNOA-H_AMS_1956-57_33k_ES_PAN_21mic_H50_0435_fot_46B-29767_E_tif
  70
32
  10
551629.645
  20
4576013.895
  30
1061.399
  0
VERTEX
  8
PNOA-H_AMS_1956-57_33k_ES_PAN_21mic_H50_0435_fot_46B-29767_E_tif
  70
32
  10
551632.000
  20
4576013.000
  30
1061.416
  0
VERTEX
  8
PNOA-H_AMS_1956-57_33k_ES_PAN_21mic_H50_0435_fot_46B-29767_E_tif
  70
32
  10
551635.834
  20
4575945.125
  30
1059.166
  0
VERTEX
  8
PNOA-H_AMS_1956-57_33k_ES_PAN_21mic_H50_0435_fot_46B-29767_E_tif
  70
32
  10
551635.829
  20
4575945.125
  30
0
  0
VERTEX
  8
PNOA-H_AMS_1956-57_33k_ES_PAN_21mic_H50_0435_fot_46B-29767_E_tif
  70
32
  10
550554.615
  20
4575937.336
  30
0
  0
VERTEX
  8
PNOA-H_AMS_1956-57_33k_ES_PAN_21mic_H50_0435_fot_46B-29767_E_tif
  70
32
  10
549032.023
  20
4575927.098
  30
0
  0
SEQEND
  8
PNOA-H_AMS_1956-57_33k_ES_PAN_21mic_H50_0435_fot_46B-29767_E_tif
  0
INSERT
  8
FeatureAttribs
  2
FEATURE
  41
1
  42
1
  43
1
  50
0
  10
556975.044
  20
4591890.500
 66
1
  0
ATTRIB
  8
FeatureAttribs
 70
0
  1
PNOA-H_AMS_1956-57_33k_ES_PAN_21mic_H50_0407_fot_42B-36336_E.tif
  2
NAME
  10
556975.044
  20
4591890.500
 40
33.67194
  0
SEQEND
  0
POLYLINE
  8
PNOA-H_AMS_1956-57_33k_ES_PAN_21mic_H50_0407_fot_42B-36336_E_tif
  70
9
  66
1
  0
VERTEX
  8
PNOA-H_AMS_1956-57_33k_ES_PAN_21mic_H50_0407_fot_42B-36336_E_tif
  70
32
  10
556331.334
  20
4594271.441
  30
1151.154
  0
VERTEX
  8
PNOA-H_AMS_1956-57_33k_ES_PAN_21mic_H50_0407_fot_42B-36336_E_tif
  70
32
  10
557514.500
  20
4594061.000
  30
1146.063
  0
VERTEX
  8
PNOA-H_AMS_1956-57_33k_ES_PAN_21mic_H50_0407_fot_42B-36336_E_tif
  70
32
  10
557516.000
  20
4594061.000
  30
1146.162
  0
VERTEX
  8
PNOA-H_AMS_1956-57_33k_ES_PAN_21mic_H50_0407_fot_42B-36336_E_tif
  70
32
  10
557700.886
  20
4594028.217
  30
1140.056
  0
VERTEX
  8
PNOA-H_AMS_1956-57_33k_ES_PAN_21mic_H50_0407_fot_42B-36336_E_tif
  70
32
  10
558384.500
  20
4593907.000
  30
1117.475
  0
VERTEX
  8
PNOA-H_AMS_1956-57_33k_ES_PAN_21mic_H50_0407_fot_42B-36336_E_tif
  70
32
  10
558385.224
  20
4593906.638
  30
1117.245
  0
VERTEX
  8
PNOA-H_AMS_1956-57_33k_ES_PAN_21mic_H50_0407_fot_42B-36336_E_tif
  70
32
  10
558385.500
  20
4593906.500
  30
1117.157
  0
VERTEX
  8
PNOA-H_AMS_1956-57_33k_ES_PAN_21mic_H50_0407_fot_42B-36336_E_tif
  70
32
  10
558386.000
  20
4593895.000
  30
1114.836
  0
VERTEX
  8
PNOA-H_AMS_1956-57_33k_ES_PAN_21mic_H50_0407_fot_42B-36336_E_tif
  70
32
  10
558441.000
  20
4589910.000
  30
1099.548
  0
VERTEX
  8
PNOA-H_AMS_1956-57_33k_ES_PAN_21mic_H50_0407_fot_42B-36336_E_tif
  70
32
  10
558440.746
  20
4589909.872
  30
1099.553
  0
VERTEX
  8
PNOA-H_AMS_1956-57_33k_ES_PAN_21mic_H50_0407_fot_42B-36336_E_tif
  70
32
  10
557643.500
  20
4589509.500
  30
1116.633
  0
VERTEX
  8
PNOA-H_AMS_1956-57_33k_ES_PAN_21mic_H50_0407_fot_42B-36336_E_tif
  70
32
  10
557642.756
  20
4589509.628
  30
1116.623
  0
VERTEX
  8
PNOA-H_AMS_1956-57_33k_ES_PAN_21mic_H50_0407_fot_42B-36336_E_tif
  70
32
  10
556939.833
  20
4589630.833
  30
1107.275
  0
VERTEX
  8
PNOA-H_AMS_1956-57_33k_ES_PAN_21mic_H50_0407_fot_42B-36336_E_tif
  70
32
  10
555532.500
  20
4589873.500
  30
1088.559
  0
VERTEX
  8
PNOA-H_AMS_1956-57_33k_ES_PAN_21mic_H50_0407_fot_42B-36336_E_tif
  70
32
  10
555532.501
  20
4589874.002
  30
1088.568
  0
VERTEX
  8
PNOA-H_AMS_1956-57_33k_ES_PAN_21mic_H50_0407_fot_42B-36336_E_tif
  70
32
  10
555540.500
  20
4593988.000
  30
1157.208
  0
VERTEX
  8
PNOA-H_AMS_1956-57_33k_ES_PAN_21mic_H50_0407_fot_42B-36336_E_tif
  70
32
  10
555541.089
  20
4593988.211
  30
1157.204
  0
VERTEX
  8
PNOA-H_AMS_1956-57_33k_ES_PAN_21mic_H50_0407_fot_42B-36336_E_tif
  70
32
  10
556331.000
  20
4594271.500
  30
1151.155
  0
VERTEX
  8
PNOA-H_AMS_1956-57_33k_ES_PAN_21mic_H50_0407_fot_42B-36336_E_tif
  70
32
  10
556331.334
  20
4594271.441
  30
1151.154
  0
SEQEND
  8
PNOA-H_AMS_1956-57_33k_ES_PAN_21mic_H50_0407_fot_42B-36336_E_tif
  0
INSERT
  8
FeatureAttribs
  2
FEATURE
  41
1
  42
1
  43
1
  50
0
  10
559877.400
  20
4591899.000
 66
1
  0
ATTRIB
  8
FeatureAttribs
 70
0
  1
PNOA-H_AMS_1956-57_33k_ES_PAN_21mic_H50_0407_fot_42B-36337_E.tif
  2
NAME
  10
559877.400
  20
4591899.000
 40
33.67194
  0
SEQEND
  0
POLYLINE
  8
PNOA-H_AMS_1956-57_33k_ES_PAN_21mic_H50_0407_fot_42B-36337_E_tif
  70
9
  66
1
  0
VERTEX
  8
PNOA-H_AMS_1956-57_33k_ES_PAN_21mic_H50_0407_fot_42B-36337_E_tif
  70
32
  10
561353.224
  20
4590003.859
  30
1068.266
  0
VERTEX
  8
PNOA-H_AMS_1956-57_33k_ES_PAN_21mic_H50_0407_fot_42B-36337_E_tif
  70
32
  10
560486.000
  20
4589560.500
  30
1014.113
  0
VERTEX
  8
PNOA-H_AMS_1956-57_33k_ES_PAN_21mic_H50_0407_fot_42B-36337_E_tif
  70
32
  10
560485.625
  20
4589560.564
  30
1014.128
  0
VERTEX
  8
PNOA-H_AMS_1956-57_33k_ES_PAN_21mic_H50_0407_fot_42B-36337_E_tif
  70
32
  10
558441.000
  20
4589910.000
  30
1099.548
  0
VERTEX
  8
PNOA-H_AMS_1956-57_33k_ES_PAN_21mic_H50_0407_fot_42B-36337_E_tif
  70
32
  10
558385.500
  20
4593906.500
  30
1117.157
  0
VERTEX
  8
PNOA-H_AMS_1956-57_33k_ES_PAN_21mic_H50_0407_fot_42B-36337_E_tif
  70
32
  10
558385.637
  20
4593906.564
  30
1117.157
  0
VERTEX
  8
PNOA-H_AMS_1956-57_33k_ES_PAN_21mic_H50_0407_fot_42B-36337_E_tif
  70
32
  10
559088.490
  20
4594237.495
  30
1117.854
  0
VERTEX
  8
PNOA-H_AMS_1956-57_33k_ES_PAN_21mic_H50_0407_fot_42B-36337_E_tif
  70
32
  10
559088.500
  20
4594237.500
  30
1117.854
  0
VERTEX
  8
PNOA-H_AMS_1956-57_33k_ES_PAN_21mic_H50_0407_fot_42B-36337_E_tif
  70
32
  10
559561.500
  20
4594188.000
  30
1096.407
  0
VERTEX
  8
PNOA-H_AMS_1956-57_33k_ES_PAN_21mic_H50_0407_fot_42B-36337_E_tif
  70
32
  10
559564.000
  20
4594188.000
  30
1096.146
  0
VERTEX
  8
PNOA-H_AMS_1956-57_33k_ES_PAN_21mic_H50_0407_fot_42B-36337_E_tif
  70
32
  10
559881.333
  20
4594155.079
  30
1086.853
  0
VERTEX
  8
PNOA-H_AMS_1956-57_33k_ES_PAN_21mic_H50_0407_fot_42B-36337_E_tif
  70
32
  10
561328.000
  20
4594005.000
  30
1044.489
  0
VERTEX
  8
PNOA-H_AMS_1956-57_33k_ES_PAN_21mic_H50_0407_fot_42B-36337_E_tif
  70
32
  10
561353.500
  20
4590004.000
  30
1068.283
  0
VERTEX
  8
PNOA-H_AMS_1956-57_33k_ES_PAN_21mic_H50_0407_fot_42B-36337_E_tif
  70
32
  10
561353.224
  20
4590003.859
  30
1068.266
  0
SEQEND
  8
PNOA-H_AMS_1956-57_33k_ES_PAN_21mic_H50_0407_fot_42B-36337_E_tif
  0
INSERT
  8
FeatureAttribs
  2
FEATURE
  41
1
  42
1
  43
1
  50
0
  10
559113.708
  20
4587705.000
 66
1
  0
ATTRIB
  8
FeatureAttribs
 70
0
  1
PNOA-H_AMS_1956-57_33k_ES_PAN_21mic_H50_0407_fot_43B-29669_E.tif
  2
NAME
  10
559113.708
  20
4587705.000
 40
33.67194
  0
SEQEND
  0
POLYLINE
  8
PNOA-H_AMS_1956-57_33k_ES_PAN_21mic_H50_0407_fot_43B-29669_E_tif
  70
9
  66
1
  0
VERTEX
  8
PNOA-H_AMS_1956-57_33k_ES_PAN_21mic_H50_0407_fot_43B-29669_E_tif
  70
32
  10
560630.000
  20
4585837.500
  30
963.625
  0
VERTEX
  8
PNOA-H_AMS_1956-57_33k_ES_PAN_21mic_H50_0407_fot_43B-29669_E_tif
  70
32
  10
560055.500
  20
4585500.000
  30
995.466
  0
VERTEX
  8
PNOA-H_AMS_1956-57_33k_ES_PAN_21mic_H50_0407_fot_43B-29669_E_tif
  70
32
  10
560055.497
  20
4585500.000
  30
995.466
  0
VERTEX
  8
PNOA-H_AMS_1956-57_33k_ES_PAN_21mic_H50_0407_fot_43B-29669_E_tif
  70
32
  10
557702.000
  20
4585764.500
  30
1072.921
  0
VERTEX
  8
PNOA-H_AMS_1956-57_33k_ES_PAN_21mic_H50_0407_fot_43B-29669_E_tif
  70
32
  10
557699.500
  20
4585765.000
  30
1073.085
  0
VERTEX
  8
PNOA-H_AMS_1956-57_33k_ES_PAN_21mic_H50_0407_fot_43B-29669_E_tif
  70
32
  10
557699.000
  20
4585788.500
  30
1074.918
  0
VERTEX
  8
PNOA-H_AMS_1956-57_33k_ES_PAN_21mic_H50_0407_fot_43B-29669_E_tif
  70
32
  10
557642.500
  20
4589509.500
  30
1116.644
  0
VERTEX
  8
PNOA-H_AMS_1956-57_33k_ES_PAN_21mic_H50_0407_fot_43B-29669_E_tif
  70
32
  10
557642.756
  20
4589509.628
  30
1116.639
  0
VERTEX
  8
PNOA-H_AMS_1956-57_33k_ES_PAN_21mic_H50_0407_fot_43B-29669_E_tif
  70
32
  10
558440.000
  20
4589910.000
  30
1099.734
  0
VERTEX
  8
PNOA-H_AMS_1956-57_33k_ES_PAN_21mic_H50_0407_fot_43B-29669_E_tif
  70
32
  10
558440.746
  20
4589909.872
  30
1099.684
  0
VERTEX
  8
PNOA-H_AMS_1956-57_33k_ES_PAN_21mic_H50_0407_fot_43B-29669_E_tif
  70
32
  10
559560.500
  20
4589718.500
  30
1023.733
  0
VERTEX
  8
PNOA-H_AMS_1956-57_33k_ES_PAN_21mic_H50_0407_fot_43B-29669_E_tif
  70
32
  10
559564.000
  20
4589718.000
  30
1023.596
  0
VERTEX
  8
PNOA-H_AMS_1956-57_33k_ES_PAN_21mic_H50_0407_fot_43B-29669_E_tif
  70
32
  10
560485.500
  20
4589560.500
  30
1014.084
  0
VERTEX
  8
PNOA-H_AMS_1956-57_33k_ES_PAN_21mic_H50_0407_fot_43B-29669_E_tif
  70
32
  10
560629.981
  20
4585837.989
  30
963.632
  0
VERTEX
  8
PNOA-H_AMS_1956-57_33k_ES_PAN_21mic_H50_0407_fot_43B-29669_E_tif
  70
32
  10
560630.000
  20
4585837.500
  30
963.625
  0
SEQEND
  8
PNOA-H_AMS_1956-57_33k_ES_PAN_21mic_H50_0407_fot_43B-29669_E_tif
  0
INSERT
  8
FeatureAttribs
  2
FEATURE
  41
1
  42
1
  43
1
  50
0
  10
561985.333
  20
4587754.250
 66
1
  0
ATTRIB
  8
FeatureAttribs
 70
0
  1
PNOA-H_AMS_1956-57_33k_ES_PAN_21mic_H50_0407_fot_43B-29670_E.tif
  2
NAME
  10
561985.333
  20
4587754.250
 40
33.67194
  0
SEQEND
  0
POLYLINE
  8
PNOA-H_AMS_1956-57_33k_ES_PAN_21mic_H50_0407_fot_43B-29670_E_tif
  70
9
  66
1
  0
VERTEX
  8
PNOA-H_AMS_1956-57_33k_ES_PAN_21mic_H50_0407_fot_43B-29670_E_tif
  70
32
  10
562892.000
  20
4585504.500
  30
915.794
  0
VERTEX
  8
PNOA-H_AMS_1956-57_33k_ES_PAN_21mic_H50_0407_fot_43B-29670_E_tif
  70
32
  10
562890.000
  20
4585504.500
  30
915.594
  0
VERTEX
  8
PNOA-H_AMS_1956-57_33k_ES_PAN_21mic_H50_0407_fot_43B-29670_E_tif
  70
32
  10
560630.500
  20
4585837.500
  30
963.379
  0
VERTEX
  8
PNOA-H_AMS_1956-57_33k_ES_PAN_21mic_H50_0407_fot_43B-29670_E_tif
  70
32
  10
560630.483
  20
4585837.929
  30
963.385
  0
VERTEX
  8
PNOA-H_AMS_1956-57_33k_ES_PAN_21mic_H50_0407_fot_43B-29670_E_tif
  70
32
  10
560485.500
  20
4589560.500
  30
1014.084
  0
VERTEX
  8
PNOA-H_AMS_1956-57_33k_ES_PAN_21mic_H50_0407_fot_43B-29670_E_tif
  70
32
  10
560485.625
  20
4589560.564
  30
1014.092
  0
VERTEX
  8
PNOA-H_AMS_1956-57_33k_ES_PAN_21mic_H50_0407_fot_43B-29670_E_tif
  70
32
  10
561352.500
  20
4590004.000
  30
1068.22
  0
VERTEX
  8
PNOA-H_AMS_1956-57_33k_ES_PAN_21mic_H50_0407_fot_43B-29670_E_tif
  70
32
  10
561353.224
  20
4590003.859
  30
1068.182
  0
VERTEX
  8
PNOA-H_AMS_1956-57_33k_ES_PAN_21mic_H50_0407_fot_43B-29670_E_tif
  70
32
  10
561609.000
  20
4589954.000
  30
1054.799
  0
VERTEX
  8
PNOA-H_AMS_1956-57_33k_ES_PAN_21mic_H50_0407_fot_43B-29670_E_tif
  70
32
  10
561612.000
  20
4589953.500
  30
1053.961
  0
VERTEX
  8
PNOA-H_AMS_1956-57_33k_ES_PAN_21mic_H50_0407_fot_43B-29670_E_tif
  70
32
  10
563399.500
  20
4589604.500
  30
1019.592
  0
VERTEX
  8
PNOA-H_AMS_1956-57_33k_ES_PAN_21mic_H50_0407_fot_43B-29670_E_tif
  70
32
  10
563431.000
  20
4585799.500
  30
928.558
  0
VERTEX
  8
PNOA-H_AMS_1956-57_33k_ES_PAN_21mic_H50_0407_fot_43B-29670_E_tif
  70
32
  10
562897.500
  20
4585507.000
  30
916.12
  0
VERTEX
  8
PNOA-H_AMS_1956-57_33k_ES_PAN_21mic_H50_0407_fot_43B-29670_E_tif
  70
32
  10
562892.500
  20
4585504.500
  30
915.844
  0
VERTEX
  8
PNOA-H_AMS_1956-57_33k_ES_PAN_21mic_H50_0407_fot_43B-29670_E_tif
  70
32
  10
562892.000
  20
4585504.500
  30
915.794
  0
SEQEND
  8
PNOA-H_AMS_1956-57_33k_ES_PAN_21mic_H50_0407_fot_43B-29670_E_tif
  0
INSERT
  8
FeatureAttribs
  2
FEATURE
  41
1
  42
1
  43
1
  50
0
  10
556241.125
  20
4587683.000
 66
1
  0
ATTRIB
  8
FeatureAttribs
 70
0
  1
PNOA-H_AMS_1956-57_33k_ES_PAN_21mic_H50_0407_fot_43B-29668_E.tif
  2
NAME
  10
556241.125
  20
4587683.000
 40
33.67194
  0
SEQEND
  0
POLYLINE
  8
PNOA-H_AMS_1956-57_33k_ES_PAN_21mic_H50_0407_fot_43B-29668_E_tif
  70
9
  66
1
  0
VERTEX
  8
PNOA-H_AMS_1956-57_33k_ES_PAN_21mic_H50_0407_fot_43B-29668_E_tif
  70
32
  10
557271.135
  20
4585492.642
  30
1073.741
  0
VERTEX
  8
PNOA-H_AMS_1956-57_33k_ES_PAN_21mic_H50_0407_fot_43B-29668_E_tif
  70
32
  10
557270.000
  20
4585492.500
  30
1073.518
  0
VERTEX
  8
PNOA-H_AMS_1956-57_33k_ES_PAN_21mic_H50_0407_fot_43B-29668_E_tif
  70
32
  10
555467.652
  20
4585680.000
  30
1043.76
  0
VERTEX
  8
PNOA-H_AMS_1956-57_33k_ES_PAN_21mic_H50_0407_fot_43B-29668_E_tif
  70
32
  10
554814.000
  20
4585748.000
  30
1032.968
  0
VERTEX
  8
PNOA-H_AMS_1956-57_33k_ES_PAN_21mic_H50_0407_fot_43B-29668_E_tif
  70
32
  10
554810.000
  20
4589518.500
  30
1101.188
  0
VERTEX
  8
PNOA-H_AMS_1956-57_33k_ES_PAN_21mic_H50_0407_fot_43B-29668_E_tif
  70
32
  10
554810.248
  20
4589518.622
  30
1101.185
  0
VERTEX
  8
PNOA-H_AMS_1956-57_33k_ES_PAN_21mic_H50_0407_fot_43B-29668_E_tif
  70
32
  10
555466.000
  20
4589841.000
  30
1093.382
  0
VERTEX
  8
PNOA-H_AMS_1956-57_33k_ES_PAN_21mic_H50_0407_fot_43B-29668_E_tif
  70
32
  10
555467.000
  20
4589841.500
  30
1093.303
  0
VERTEX
  8
PNOA-H_AMS_1956-57_33k_ES_PAN_21mic_H50_0407_fot_43B-29668_E_tif
  70
32
  10
555532.000
  20
4589873.500
  30
1088.625
  0
VERTEX
  8
PNOA-H_AMS_1956-57_33k_ES_PAN_21mic_H50_0407_fot_43B-29668_E_tif
  70
32
  10
555532.250
  20
4589873.500
  30
1088.594
  0
VERTEX
  8
PNOA-H_AMS_1956-57_33k_ES_PAN_21mic_H50_0407_fot_43B-29668_E_tif
  70
32
  10
555532.500
  20
4589873.500
  30
1088.563
  0
VERTEX
  8
PNOA-H_AMS_1956-57_33k_ES_PAN_21mic_H50_0407_fot_43B-29668_E_tif
  70
32
  10
555534.500
  20
4589873.500
  30
1088.315
  0
VERTEX
  8
PNOA-H_AMS_1956-57_33k_ES_PAN_21mic_H50_0407_fot_43B-29668_E_tif
  70
32
  10
556939.833
  20
4589630.833
  30
1107.201
  0
VERTEX
  8
PNOA-H_AMS_1956-57_33k_ES_PAN_21mic_H50_0407_fot_43B-29668_E_tif
  70
32
  10
557642.500
  20
4589509.500
  30
1116.644
  0
VERTEX
  8
PNOA-H_AMS_1956-57_33k_ES_PAN_21mic_H50_0407_fot_43B-29668_E_tif
  70
32
  10
557699.500
  20
4585765.000
  30
1073.085
  0
VERTEX
  8
PNOA-H_AMS_1956-57_33k_ES_PAN_21mic_H50_0407_fot_43B-29668_E_tif
  70
32
  10
557514.676
  20
4585646.851
  30
1073.615
  0
VERTEX
  8
PNOA-H_AMS_1956-57_33k_ES_PAN_21mic_H50_0407_fot_43B-29668_E_tif
  70
32
  10
557431.593
  20
4585593.741
  30
1073.853
  0
VERTEX
  8
PNOA-H_AMS_1956-57_33k_ES_PAN_21mic_H50_0407_fot_43B-29668_E_tif
  70
32
  10
557274.000
  20
4585493.000
  30
1074.305
  0
VERTEX
  8
PNOA-H_AMS_1956-57_33k_ES_PAN_21mic_H50_0407_fot_43B-29668_E_tif
  70
32
  10
557273.111
  20
4585492.889
  30
1074.13
  0
VERTEX
  8
PNOA-H_AMS_1956-57_33k_ES_PAN_21mic_H50_0407_fot_43B-29668_E_tif
  70
32
  10
557271.135
  20
4585492.642
  30
1073.741
  0
SEQEND
  8
PNOA-H_AMS_1956-57_33k_ES_PAN_21mic_H50_0407_fot_43B-29668_E_tif
  0
INSERT
  8
FeatureAttribs
  2
FEATURE
  41
1
  42
1
  43
1
  50
0
  10
561435.993
  20
4583463.500
 66
1
  0
ATTRIB
  8
FeatureAttribs
 70
0
  1
PNOA-H_AMS_1956-57_33k_ES_PAN_21mic_H50_0407_fot_44B-36245_W.tif
  2
NAME
  10
561435.993
  20
4583463.500
 40
33.67194
  0
SEQEND
  0
POLYLINE
  8
PNOA-H_AMS_1956-57_33k_ES_PAN_21mic_H50_0407_fot_44B-36245_W_tif
  70
9
  66
1
  0
VERTEX
  8
PNOA-H_AMS_1956-57_33k_ES_PAN_21mic_H50_0407_fot_44B-36245_W_tif
  70
32
  10
560630.483
  20
4585837.929
  30
963.703
  0
VERTEX
  8
PNOA-H_AMS_1956-57_33k_ES_PAN_21mic_H50_0407_fot_44B-36245_W_tif
  70
32
  10
561611.000
  20
4585693.000
  30
993.458
  0
VERTEX
  8
PNOA-H_AMS_1956-57_33k_ES_PAN_21mic_H50_0407_fot_44B-36245_W_tif
  70
32
  10
561612.000
  20
4585693.000
  30
993.462
  0
VERTEX
  8
PNOA-H_AMS_1956-57_33k_ES_PAN_21mic_H50_0407_fot_44B-36245_W_tif
  70
32
  10
562892.000
  20
4585504.500
  30
915.794
  0
VERTEX
  8
PNOA-H_AMS_1956-57_33k_ES_PAN_21mic_H50_0407_fot_44B-36245_W_tif
  70
32
  10
562756.500
  20
4581247.500
  30
907.119
  0
VERTEX
  8
PNOA-H_AMS_1956-57_33k_ES_PAN_21mic_H50_0407_fot_44B-36245_W_tif
  70
32
  10
562756.414
  20
4581247.455
  30
907.12
  0
VERTEX
  8
PNOA-H_AMS_1956-57_33k_ES_PAN_21mic_H50_0407_fot_44B-36245_W_tif
  70
32
  10
562458.500
  20
4581089.000
  30
912.21
  0
VERTEX
  8
PNOA-H_AMS_1956-57_33k_ES_PAN_21mic_H50_0407_fot_44B-36245_W_tif
  70
32
  10
562458.018
  20
4581089.009
  30
912.22
  0
VERTEX
  8
PNOA-H_AMS_1956-57_33k_ES_PAN_21mic_H50_0407_fot_44B-36245_W_tif
  70
32
  10
562456.331
  20
4581089.042
  30
912.255
  0
VERTEX
  8
PNOA-H_AMS_1956-57_33k_ES_PAN_21mic_H50_0407_fot_44B-36245_W_tif
  70
32
  10
561201.500
  20
4581113.451
  30
938.376
  0
VERTEX
  8
PNOA-H_AMS_1956-57_33k_ES_PAN_21mic_H50_0407_fot_44B-36245_W_tif
  70
32
  10
561201.497
  20
4581113.451
  30
938.376
  0
VERTEX
  8
PNOA-H_AMS_1956-57_33k_ES_PAN_21mic_H50_0407_fot_44B-36245_W_tif
  70
32
  10
561199.000
  20
4581113.500
  30
938.428
  0
VERTEX
  8
PNOA-H_AMS_1956-57_33k_ES_PAN_21mic_H50_0407_fot_44B-36245_W_tif
  70
32
  10
560033.503
  20
4581252.500
  30
936.635
  0
VERTEX
  8
PNOA-H_AMS_1956-57_33k_ES_PAN_21mic_H50_0407_fot_44B-36245_W_tif
  70
32
  10
560033.500
  20
4581252.500
  30
936.635
  0
VERTEX
  8
PNOA-H_AMS_1956-57_33k_ES_PAN_21mic_H50_0407_fot_44B-36245_W_tif
  70
32
  10
560055.497
  20
4585500.000
  30
995.379
  0
VERTEX
  8
PNOA-H_AMS_1956-57_33k_ES_PAN_21mic_H50_0407_fot_44B-36245_W_tif
  70
32
  10
560055.500
  20
4585500.500
  30
995.386
  0
VERTEX
  8
PNOA-H_AMS_1956-57_33k_ES_PAN_21mic_H50_0407_fot_44B-36245_W_tif
  70
32
  10
560629.981
  20
4585837.989
  30
963.689
  0
VERTEX
  8
PNOA-H_AMS_1956-57_33k_ES_PAN_21mic_H50_0407_fot_44B-36245_W_tif
  70
32
  10
560630.000
  20
4585838.000
  30
963.688
  0
VERTEX
  8
PNOA-H_AMS_1956-57_33k_ES_PAN_21mic_H50_0407_fot_44B-36245_W_tif
  70
32
  10
560630.483
  20
4585837.929
  30
963.703
  0
SEQEND
  8
PNOA-H_AMS_1956-57_33k_ES_PAN_21mic_H50_0407_fot_44B-36245_W_tif
  0
INSERT
  8
FeatureAttribs
  2
FEATURE
  41
1
  42
1
  43
1
  50
0
  10
555844.398
  20
4583351.500
 66
1
  0
ATTRIB
  8
FeatureAttribs
 70
0
  1
PNOA-H_AMS_1956-57_33k_ES_PAN_21mic_H50_0407_fot_44B-36247_W.tif
  2
NAME
  10
555844.398
  20
4583351.500
 40
33.67194
  0
SEQEND
  0
POLYLINE
  8
PNOA-H_AMS_1956-57_33k_ES_PAN_21mic_H50_0407_fot_44B-36247_W_tif
  70
9
  66
1
  0
VERTEX
  8
PNOA-H_AMS_1956-57_33k_ES_PAN_21mic_H50_0407_fot_44B-36247_W_tif
  70
32
  10
554814.000
  20
4585748.000
  30
1032.968
  0
VERTEX
  8
PNOA-H_AMS_1956-57_33k_ES_PAN_21mic_H50_0407_fot_44B-36247_W_tif
  70
32
  10
555464.500
  20
4585680.000
  30
1040.647
  0
VERTEX
  8
PNOA-H_AMS_1956-57_33k_ES_PAN_21mic_H50_0407_fot_44B-36247_W_tif
  70
32
  10
555467.652
  20
4585680.000
  30
1040.382
  0
VERTEX
  8
PNOA-H_AMS_1956-57_33k_ES_PAN_21mic_H50_0407_fot_44B-36247_W_tif
  70
32
  10
555468.000
  20
4585680.000
  30
1040.352
  0
VERTEX
  8
PNOA-H_AMS_1956-57_33k_ES_PAN_21mic_H50_0407_fot_44B-36247_W_tif
  70
32
  10
557271.135
  20
4585492.642
  30
1073.893
  0
VERTEX
  8
PNOA-H_AMS_1956-57_33k_ES_PAN_21mic_H50_0407_fot_44B-36247_W_tif
  70
32
  10
557272.500
  20
4585492.500
  30
1073.918
  0
VERTEX
  8
PNOA-H_AMS_1956-57_33k_ES_PAN_21mic_H50_0407_fot_44B-36247_W_tif
  70
32
  10
557232.000
  20
4581215.500
  30
974.342
  0
VERTEX
  8
PNOA-H_AMS_1956-57_33k_ES_PAN_21mic_H50_0407_fot_44B-36247_W_tif
  70
32
  10
557231.500
  20
4581206.500
  30
975.085
  0
VERTEX
  8
PNOA-H_AMS_1956-57_33k_ES_PAN_21mic_H50_0407_fot_44B-36247_W_tif
  70
32
  10
557231.260
  20
4581206.410
  30
975.092
  0
VERTEX
  8
PNOA-H_AMS_1956-57_33k_ES_PAN_21mic_H50_0407_fot_44B-36247_W_tif
  70
32
  10
557227.500
  20
4581205.000
  30
975.192
  0
VERTEX
  8
PNOA-H_AMS_1956-57_33k_ES_PAN_21mic_H50_0407_fot_44B-36247_W_tif
  70
32
  10
556545.542
  20
4580973.514
  30
1018.249
  0
VERTEX
  8
PNOA-H_AMS_1956-57_33k_ES_PAN_21mic_H50_0407_fot_44B-36247_W_tif
  70
32
  10
556545.500
  20
4580973.500
  30
1018.251
  0
VERTEX
  8
PNOA-H_AMS_1956-57_33k_ES_PAN_21mic_H50_0407_fot_44B-36247_W_tif
  70
32
  10
555222.000
  20
4580955.000
  30
1022.656
  0
VERTEX
  8
PNOA-H_AMS_1956-57_33k_ES_PAN_21mic_H50_0407_fot_44B-36247_W_tif
  70
32
  10
555221.486
  20
4580955.057
  30
1022.711
  0
VERTEX
  8
PNOA-H_AMS_1956-57_33k_ES_PAN_21mic_H50_0407_fot_44B-36247_W_tif
  70
32
  10
555218.001
  20
4580955.444
  30
1023.09
  0
VERTEX
  8
PNOA-H_AMS_1956-57_33k_ES_PAN_21mic_H50_0407_fot_44B-36247_W_tif
  70
32
  10
555213.000
  20
4580956.000
  30
1023.634
  0
VERTEX
  8
PNOA-H_AMS_1956-57_33k_ES_PAN_21mic_H50_0407_fot_44B-36247_W_tif
  70
32
  10
554554.801
  20
4581098.427
  30
1027.472
  0
VERTEX
  8
PNOA-H_AMS_1956-57_33k_ES_PAN_21mic_H50_0407_fot_44B-36247_W_tif
  70
32
  10
554432.000
  20
4581125.000
  30
1028.188
  0
VERTEX
  8
PNOA-H_AMS_1956-57_33k_ES_PAN_21mic_H50_0407_fot_44B-36247_W_tif
  70
32
  10
554432.073
  20
4581160.604
  30
1028.205
  0
VERTEX
  8
PNOA-H_AMS_1956-57_33k_ES_PAN_21mic_H50_0407_fot_44B-36247_W_tif
  70
32
  10
554434.312
  20
4582251.515
  30
1028.718
  0
VERTEX
  8
PNOA-H_AMS_1956-57_33k_ES_PAN_21mic_H50_0407_fot_44B-36247_W_tif
  70
32
  10
554441.000
  20
4585510.000
  30
1030.252
  0
VERTEX
  8
PNOA-H_AMS_1956-57_33k_ES_PAN_21mic_H50_0407_fot_44B-36247_W_tif
  70
32
  10
554441.063
  20
4585510.040
  30
1030.252
  0
VERTEX
  8
PNOA-H_AMS_1956-57_33k_ES_PAN_21mic_H50_0407_fot_44B-36247_W_tif
  70
32
  10
554814.000
  20
4585748.000
  30
1032.968
  0
SEQEND
  8
PNOA-H_AMS_1956-57_33k_ES_PAN_21mic_H50_0407_fot_44B-36247_W_tif
  0
INSERT
  8
FeatureAttribs
  2
FEATURE
  41
1
  42
1
  43
1
  50
0
  10
558648.421
  20
4583382.000
 66
1
  0
ATTRIB
  8
FeatureAttribs
 70
0
  1
PNOA-H_AMS_1956-57_33k_ES_PAN_21mic_H50_0407_fot_44B-36246_W.tif
  2
NAME
  10
558648.421
  20
4583382.000
 40
33.67194
  0
SEQEND
  0
POLYLINE
  8
PNOA-H_AMS_1956-57_33k_ES_PAN_21mic_H50_0407_fot_44B-36246_W_tif
  70
9
  66
1
  0
VERTEX
  8
PNOA-H_AMS_1956-57_33k_ES_PAN_21mic_H50_0407_fot_44B-36246_W_tif
  70
32
  10
559511.867
  20
4581035.117
  30
985.911
  0
VERTEX
  8
PNOA-H_AMS_1956-57_33k_ES_PAN_21mic_H50_0407_fot_44B-36246_W_tif
  70
32
  10
559425.000
  20
4580999.000
  30
994.145
  0
VERTEX
  8
PNOA-H_AMS_1956-57_33k_ES_PAN_21mic_H50_0407_fot_44B-36246_W_tif
  70
32
  10
558719.856
  20
4581024.711
  30
984.99
  0
VERTEX
  8
PNOA-H_AMS_1956-57_33k_ES_PAN_21mic_H50_0407_fot_44B-36246_W_tif
  70
32
  10
558040.000
  20
4581049.500
  30
976.163
  0
VERTEX
  8
PNOA-H_AMS_1956-57_33k_ES_PAN_21mic_H50_0407_fot_44B-36246_W_tif
  70
32
  10
558038.501
  20
4581049.791
  30
976.161
  0
VERTEX
  8
PNOA-H_AMS_1956-57_33k_ES_PAN_21mic_H50_0407_fot_44B-36246_W_tif
  70
32
  10
557232.373
  20
4581206.331
  30
975.087
  0
VERTEX
  8
PNOA-H_AMS_1956-57_33k_ES_PAN_21mic_H50_0407_fot_44B-36246_W_tif
  70
32
  10
557231.500
  20
4581206.500
  30
975.085
  0
VERTEX
  8
PNOA-H_AMS_1956-57_33k_ES_PAN_21mic_H50_0407_fot_44B-36246_W_tif
  70
32
  10
557272.500
  20
4585492.500
  30
1073.918
  0
VERTEX
  8
PNOA-H_AMS_1956-57_33k_ES_PAN_21mic_H50_0407_fot_44B-36246_W_tif
  70
32
  10
557273.111
  20
4585492.889
  30
1073.906
  0
VERTEX
  8
PNOA-H_AMS_1956-57_33k_ES_PAN_21mic_H50_0407_fot_44B-36246_W_tif
  70
32
  10
557431.593
  20
4585593.741
  30
1070.932
  0
VERTEX
  8
PNOA-H_AMS_1956-57_33k_ES_PAN_21mic_H50_0407_fot_44B-36246_W_tif
  70
32
  10
557514.500
  20
4585646.500
  30
1069.376
  0
VERTEX
  8
PNOA-H_AMS_1956-57_33k_ES_PAN_21mic_H50_0407_fot_44B-36246_W_tif
  70
32
  10
557514.676
  20
4585646.851
  30
1069.394
  0
VERTEX
  8
PNOA-H_AMS_1956-57_33k_ES_PAN_21mic_H50_0407_fot_44B-36246_W_tif
  70
32
  10
557515.000
  20
4585647.500
  30
1069.429
  0
VERTEX
  8
PNOA-H_AMS_1956-57_33k_ES_PAN_21mic_H50_0407_fot_44B-36246_W_tif
  70
32
  10
557695.000
  20
4585762.500
  30
1072.972
  0
VERTEX
  8
PNOA-H_AMS_1956-57_33k_ES_PAN_21mic_H50_0407_fot_44B-36246_W_tif
  70
32
  10
557699.000
  20
4585765.000
  30
1073.105
  0
VERTEX
  8
PNOA-H_AMS_1956-57_33k_ES_PAN_21mic_H50_0407_fot_44B-36246_W_tif
  70
32
  10
557699.500
  20
4585765.000
  30
1073.085
  0
VERTEX
  8
PNOA-H_AMS_1956-57_33k_ES_PAN_21mic_H50_0407_fot_44B-36246_W_tif
  70
32
  10
557702.000
  20
4585765.000
  30
1072.981
  0
VERTEX
  8
PNOA-H_AMS_1956-57_33k_ES_PAN_21mic_H50_0407_fot_44B-36246_W_tif
  70
32
  10
560055.497
  20
4585500.000
  30
995.466
  0
VERTEX
  8
PNOA-H_AMS_1956-57_33k_ES_PAN_21mic_H50_0407_fot_44B-36246_W_tif
  70
32
  10
560055.500
  20
4585500.000
  30
995.466
  0
VERTEX
  8
PNOA-H_AMS_1956-57_33k_ES_PAN_21mic_H50_0407_fot_44B-36246_W_tif
  70
32
  10
560033.503
  20
4581252.500
  30
936.473
  0
VERTEX
  8
PNOA-H_AMS_1956-57_33k_ES_PAN_21mic_H50_0407_fot_44B-36246_W_tif
  70
32
  10
560033.500
  20
4581252.000
  30
936.466
  0
VERTEX
  8
PNOA-H_AMS_1956-57_33k_ES_PAN_21mic_H50_0407_fot_44B-36246_W_tif
  70
32
  10
559511.867
  20
4581035.117
  30
985.911
  0
SEQEND
  8
PNOA-H_AMS_1956-57_33k_ES_PAN_21mic_H50_0407_fot_44B-36246_W_tif
  0
INSERT
  8
FeatureAttribs
  2
FEATURE
  41
1
  42
1
  43
1
  50
0
  10
558839.823
  20
4578788.250
 66
1
  0
ATTRIB
  8
FeatureAttribs
 70
0
  1
PNOA-H_AMS_1956-57_33k_ES_PAN_21mic_H50_0407_fot_45C-37449_E.tif
  2
NAME
  10
558839.823
  20
4578788.250
 40
33.67194
  0
SEQEND
  0
POLYLINE
  8
PNOA-H_AMS_1956-57_33k_ES_PAN_21mic_H50_0407_fot_45C-37449_E_tif
  70
9
  66
1
  0
VERTEX
  8
PNOA-H_AMS_1956-57_33k_ES_PAN_21mic_H50_0407_fot_45C-37449_E_tif
  70
32
  10
559813.956
  20
4576557.500
  30
930.595
  0
VERTEX
  8
PNOA-H_AMS_1956-57_33k_ES_PAN_21mic_H50_0407_fot_45C-37449_E_tif
  70
32
  10
558084.500
  20
4576526.500
  30
965.212
  0
VERTEX
  8
PNOA-H_AMS_1956-57_33k_ES_PAN_21mic_H50_0407_fot_45C-37449_E_tif
  70
32
  10
558084.005
  20
4576574.645
  30
965.336
  0
VERTEX
  8
PNOA-H_AMS_1956-57_33k_ES_PAN_21mic_H50_0407_fot_45C-37449_E_tif
  70
32
  10
558038.500
  20
4581004.000
  30
976.742
  0
VERTEX
  8
PNOA-H_AMS_1956-57_33k_ES_PAN_21mic_H50_0407_fot_45C-37449_E_tif
  70
32
  10
558038.501
  20
4581049.791
  30
976.371
  0
VERTEX
  8
PNOA-H_AMS_1956-57_33k_ES_PAN_21mic_H50_0407_fot_45C-37449_E_tif
  70
32
  10
558038.500
  20
4581050.000
  30
976.372
  0
VERTEX
  8
PNOA-H_AMS_1956-57_33k_ES_PAN_21mic_H50_0407_fot_45C-37449_E_tif
  70
32
  10
558040.000
  20
4581050.000
  30
976.146
  0
VERTEX
  8
PNOA-H_AMS_1956-57_33k_ES_PAN_21mic_H50_0407_fot_45C-37449_E_tif
  70
32
  10
558719.856
  20
4581024.711
  30
985.024
  0
VERTEX
  8
PNOA-H_AMS_1956-57_33k_ES_PAN_21mic_H50_0407_fot_45C-37449_E_tif
  70
32
  10
559424.041
  20
4580998.517
  30
994.219
  0
VERTEX
  8
PNOA-H_AMS_1956-57_33k_ES_PAN_21mic_H50_0407_fot_45C-37449_E_tif
  70
32
  10
559424.500
  20
4580998.500
  30
994.225
  0
VERTEX
  8
PNOA-H_AMS_1956-57_33k_ES_PAN_21mic_H50_0407_fot_45C-37449_E_tif
  70
32
  10
559792.000
  20
4576809.000
  30
935.711
  0
VERTEX
  8
PNOA-H_AMS_1956-57_33k_ES_PAN_21mic_H50_0407_fot_45C-37449_E_tif
  70
32
  10
559792.000
  20
4576807.546
  30
936.043
  0
VERTEX
  8
PNOA-H_AMS_1956-57_33k_ES_PAN_21mic_H50_0407_fot_45C-37449_E_tif
  70
32
  10
559792.000
  20
4576805.000
  30
936.624
  0
VERTEX
  8
PNOA-H_AMS_1956-57_33k_ES_PAN_21mic_H50_0407_fot_45C-37449_E_tif
  70
32
  10
559810.389
  20
4576598.125
  30
931.584
  0
VERTEX
  8
PNOA-H_AMS_1956-57_33k_ES_PAN_21mic_H50_0407_fot_45C-37449_E_tif
  70
32
  10
559814.000
  20
4576557.500
  30
930.594
  0
VERTEX
  8
PNOA-H_AMS_1956-57_33k_ES_PAN_21mic_H50_0407_fot_45C-37449_E_tif
  70
32
  10
559813.956
  20
4576557.500
  30
930.595
  0
SEQEND
  8
PNOA-H_AMS_1956-57_33k_ES_PAN_21mic_H50_0407_fot_45C-37449_E_tif
  0
INSERT
  8
FeatureAttribs
  2
FEATURE
  41
1
  42
1
  43
1
  50
0
  10
556002.500
  20
4578686.000
 66
1
  0
ATTRIB
  8
FeatureAttribs
 70
0
  1
PNOA-H_AMS_1956-57_33k_ES_PAN_21mic_H50_0407_fot_45C-37448_E.tif
  2
NAME
  10
556002.500
  20
4578686.000
 40
33.67194
  0
SEQEND
  0
POLYLINE
  8
PNOA-H_AMS_1956-57_33k_ES_PAN_21mic_H50_0407_fot_45C-37448_E_tif
  70
9
  66
1
  0
VERTEX
  8
PNOA-H_AMS_1956-57_33k_ES_PAN_21mic_H50_0407_fot_45C-37448_E_tif
  70
32
  10
556938.999
  20
4576398.511
  30
986.121
  0
VERTEX
  8
PNOA-H_AMS_1956-57_33k_ES_PAN_21mic_H50_0407_fot_45C-37448_E_tif
  70
32
  10
556939.000
  20
4576398.500
  30
986.121
  0
VERTEX
  8
PNOA-H_AMS_1956-57_33k_ES_PAN_21mic_H50_0407_fot_45C-37448_E_tif
  70
32
  10
556852.788
  20
4576399.478
  30
994.636
  0
VERTEX
  8
PNOA-H_AMS_1956-57_33k_ES_PAN_21mic_H50_0407_fot_45C-37448_E_tif
  70
32
  10
555307.500
  20
4576417.000
  30
1147.258
  0
VERTEX
  8
PNOA-H_AMS_1956-57_33k_ES_PAN_21mic_H50_0407_fot_45C-37448_E_tif
  70
32
  10
555218.000
  20
4580955.000
  30
1023.005
  0
VERTEX
  8
PNOA-H_AMS_1956-57_33k_ES_PAN_21mic_H50_0407_fot_45C-37448_E_tif
  70
32
  10
555218.010
  20
4580955.000
  30
1023.005
  0
VERTEX
  8
PNOA-H_AMS_1956-57_33k_ES_PAN_21mic_H50_0407_fot_45C-37448_E_tif
  70
32
  10
555221.486
  20
4580955.057
  30
1023.085
  0
VERTEX
  8
PNOA-H_AMS_1956-57_33k_ES_PAN_21mic_H50_0407_fot_45C-37448_E_tif
  70
32
  10
555401.000
  20
4580958.000
  30
1027.169
  0
VERTEX
  8
PNOA-H_AMS_1956-57_33k_ES_PAN_21mic_H50_0407_fot_45C-37448_E_tif
  70
32
  10
555436.500
  20
4580958.500
  30
1022.853
  0
VERTEX
  8
PNOA-H_AMS_1956-57_33k_ES_PAN_21mic_H50_0407_fot_45C-37448_E_tif
  70
32
  10
556545.500
  20
4580973.500
  30
1018.251
  0
VERTEX
  8
PNOA-H_AMS_1956-57_33k_ES_PAN_21mic_H50_0407_fot_45C-37448_E_tif
  70
32
  10
556938.999
  20
4576398.511
  30
986.121
  0
SEQEND
  8
PNOA-H_AMS_1956-57_33k_ES_PAN_21mic_H50_0407_fot_45C-37448_E_tif
  0
INSERT
  8
FeatureAttribs
  2
FEATURE
  41
1
  42
1
  43
1
  50
0
  10
560343.931
  20
4578838.250
 66
1
  0
ATTRIB
  8
FeatureAttribs
 70
0
  1
PNOA-H_AMS_1956-57_33k_ES_PAN_21mic_H50_0407_fot_000-36190_R.tif
  2
NAME
  10
560343.931
  20
4578838.250
 40
33.67194
  0
SEQEND
  0
POLYLINE
  8
PNOA-H_AMS_1956-57_33k_ES_PAN_21mic_H50_0407_fot_000-36190_R_tif
  70
9
  66
1
  0
VERTEX
  8
PNOA-H_AMS_1956-57_33k_ES_PAN_21mic_H50_0407_fot_000-36190_R_tif
  70
32
  10
560949.000
  20
4576601.000
  30
893.967
  0
VERTEX
  8
PNOA-H_AMS_1956-57_33k_ES_PAN_21mic_H50_0407_fot_000-36190_R_tif
  70
32
  10
560046.000
  20
4576424.000
  30
924.974
  0
VERTEX
  8
PNOA-H_AMS_1956-57_33k_ES_PAN_21mic_H50_0407_fot_000-36190_R_tif
  70
32
  10
560045.164
  20
4576424.228
  30
924.999
  0
VERTEX
  8
PNOA-H_AMS_1956-57_33k_ES_PAN_21mic_H50_0407_fot_000-36190_R_tif
  70
32
  10
560042.231
  20
4576425.028
  30
925.086
  0
VERTEX
  8
PNOA-H_AMS_1956-57_33k_ES_PAN_21mic_H50_0407_fot_000-36190_R_tif
  70
32
  10
560040.500
  20
4576425.500
  30
925.138
  0
VERTEX
  8
PNOA-H_AMS_1956-57_33k_ES_PAN_21mic_H50_0407_fot_000-36190_R_tif
  70
32
  10
559814.000
  20
4576557.000
  30
930.579
  0
VERTEX
  8
PNOA-H_AMS_1956-57_33k_ES_PAN_21mic_H50_0407_fot_000-36190_R_tif
  70
32
  10
559813.956
  20
4576557.500
  30
930.586
  0
VERTEX
  8
PNOA-H_AMS_1956-57_33k_ES_PAN_21mic_H50_0407_fot_000-36190_R_tif
  70
32
  10
559810.389
  20
4576598.125
  30
931.169
  0
VERTEX
  8
PNOA-H_AMS_1956-57_33k_ES_PAN_21mic_H50_0407_fot_000-36190_R_tif
  70
32
  10
559792.000
  20
4576807.546
  30
934.172
  0
VERTEX
  8
PNOA-H_AMS_1956-57_33k_ES_PAN_21mic_H50_0407_fot_000-36190_R_tif
  70
32
  10
559424.000
  20
4580998.500
  30
994.279
  0
VERTEX
  8
PNOA-H_AMS_1956-57_33k_ES_PAN_21mic_H50_0407_fot_000-36190_R_tif
  70
32
  10
559424.041
  20
4580998.517
  30
994.275
  0
VERTEX
  8
PNOA-H_AMS_1956-57_33k_ES_PAN_21mic_H50_0407_fot_000-36190_R_tif
  70
32
  10
559511.867
  20
4581035.117
  30
985.968
  0
VERTEX
  8
PNOA-H_AMS_1956-57_33k_ES_PAN_21mic_H50_0407_fot_000-36190_R_tif
  70
32
  10
560033.500
  20
4581252.500
  30
936.635
  0
VERTEX
  8
PNOA-H_AMS_1956-57_33k_ES_PAN_21mic_H50_0407_fot_000-36190_R_tif
  70
32
  10
560033.503
  20
4581252.500
  30
936.635
  0
VERTEX
  8
PNOA-H_AMS_1956-57_33k_ES_PAN_21mic_H50_0407_fot_000-36190_R_tif
  70
32
  10
561201.500
  20
4581113.500
  30
937.685
  0
VERTEX
  8
PNOA-H_AMS_1956-57_33k_ES_PAN_21mic_H50_0407_fot_000-36190_R_tif
  70
32
  10
561201.497
  20
4581113.451
  30
937.684
  0
VERTEX
  8
PNOA-H_AMS_1956-57_33k_ES_PAN_21mic_H50_0407_fot_000-36190_R_tif
  70
32
  10
561075.000
  20
4578857.500
  30
887.712
  0
VERTEX
  8
PNOA-H_AMS_1956-57_33k_ES_PAN_21mic_H50_0407_fot_000-36190_R_tif
  70
32
  10
561075.000
  20
4578853.000
  30
887.388
  0
VERTEX
  8
PNOA-H_AMS_1956-57_33k_ES_PAN_21mic_H50_0407_fot_000-36190_R_tif
  70
32
  10
560949.002
  20
4576601.033
  30
893.967
  0
VERTEX
  8
PNOA-H_AMS_1956-57_33k_ES_PAN_21mic_H50_0407_fot_000-36190_R_tif
  70
32
  10
560949.000
  20
4576601.000
  30
893.967
  0
SEQEND
  8
PNOA-H_AMS_1956-57_33k_ES_PAN_21mic_H50_0407_fot_000-36190_R_tif
  0
INSERT
  8
FeatureAttribs
  2
FEATURE
  41
1
  42
1
  43
1
  50
0
  10
557399.243
  20
4578751.750
 66
1
  0
ATTRIB
  8
FeatureAttribs
 70
0
  1
PNOA-H_AMS_1956-57_33k_ES_PAN_21mic_H50_0407_fot_000-36189_R.tif
  2
NAME
  10
557399.243
  20
4578751.750
 40
33.67194
  0
SEQEND
  0
POLYLINE
  8
PNOA-H_AMS_1956-57_33k_ES_PAN_21mic_H50_0407_fot_000-36189_R_tif
  70
9
  66
1
  0
VERTEX
  8
PNOA-H_AMS_1956-57_33k_ES_PAN_21mic_H50_0407_fot_000-36189_R_tif
  70
32
  10
558084.500
  20
4576526.000
  30
965.418
  0
VERTEX
  8
PNOA-H_AMS_1956-57_33k_ES_PAN_21mic_H50_0407_fot_000-36189_R_tif
  70
32
  10
557156.500
  20
4576297.000
  30
977.323
  0
VERTEX
  8
PNOA-H_AMS_1956-57_33k_ES_PAN_21mic_H50_0407_fot_000-36189_R_tif
  70
32
  10
557155.121
  20
4576297.153
  30
977.303
  0
VERTEX
  8
PNOA-H_AMS_1956-57_33k_ES_PAN_21mic_H50_0407_fot_000-36189_R_tif
  70
32
  10
557153.886
  20
4576297.290
  30
977.284
  0
VERTEX
  8
PNOA-H_AMS_1956-57_33k_ES_PAN_21mic_H50_0407_fot_000-36189_R_tif
  70
32
  10
557152.000
  20
4576297.500
  30
977.256
  0
VERTEX
  8
PNOA-H_AMS_1956-57_33k_ES_PAN_21mic_H50_0407_fot_000-36189_R_tif
  70
32
  10
556939.000
  20
4576398.500
  30
986.121
  0
VERTEX
  8
PNOA-H_AMS_1956-57_33k_ES_PAN_21mic_H50_0407_fot_000-36189_R_tif
  70
32
  10
556938.999
  20
4576398.511
  30
986.121
  0
VERTEX
  8
PNOA-H_AMS_1956-57_33k_ES_PAN_21mic_H50_0407_fot_000-36189_R_tif
  70
32
  10
556545.542
  20
4580973.514
  30
1018.146
  0
VERTEX
  8
PNOA-H_AMS_1956-57_33k_ES_PAN_21mic_H50_0407_fot_000-36189_R_tif
  70
32
  10
556545.500
  20
4580974.000
  30
1018.149
  0
VERTEX
  8
PNOA-H_AMS_1956-57_33k_ES_PAN_21mic_H50_0407_fot_000-36189_R_tif
  70
32
  10
557228.500
  20
4581206.000
  30
975.187
  0
VERTEX
  8
PNOA-H_AMS_1956-57_33k_ES_PAN_21mic_H50_0407_fot_000-36189_R_tif
  70
32
  10
557230.000
  20
4581206.500
  30
975.142
  0
VERTEX
  8
PNOA-H_AMS_1956-57_33k_ES_PAN_21mic_H50_0407_fot_000-36189_R_tif
  70
32
  10
557231.260
  20
4581206.410
  30
975.048
  0
VERTEX
  8
PNOA-H_AMS_1956-57_33k_ES_PAN_21mic_H50_0407_fot_000-36189_R_tif
  70
32
  10
557232.373
  20
4581206.331
  30
974.965
  0
VERTEX
  8
PNOA-H_AMS_1956-57_33k_ES_PAN_21mic_H50_0407_fot_000-36189_R_tif
  70
32
  10
557237.000
  20
4581206.000
  30
974.619
  0
VERTEX
  8
PNOA-H_AMS_1956-57_33k_ES_PAN_21mic_H50_0407_fot_000-36189_R_tif
  70
32
  10
558038.500
  20
4581050.000
  30
976.372
  0
VERTEX
  8
PNOA-H_AMS_1956-57_33k_ES_PAN_21mic_H50_0407_fot_000-36189_R_tif
  70
32
  10
558038.501
  20
4581049.791
  30
976.371
  0
VERTEX
  8
PNOA-H_AMS_1956-57_33k_ES_PAN_21mic_H50_0407_fot_000-36189_R_tif
  70
32
  10
558084.005
  20
4576574.645
  30
965.536
  0
VERTEX
  8
PNOA-H_AMS_1956-57_33k_ES_PAN_21mic_H50_0407_fot_000-36189_R_tif
  70
32
  10
558084.495
  20
4576526.499
  30
965.42
  0
VERTEX
  8
PNOA-H_AMS_1956-57_33k_ES_PAN_21mic_H50_0407_fot_000-36189_R_tif
  70
32
  10
558084.500
  20
4576526.000
  30
965.418
  0
SEQEND
  8
PNOA-H_AMS_1956-57_33k_ES_PAN_21mic_H50_0407_fot_000-36189_R_tif
  0
INSERT
  8
FeatureAttribs
  2
FEATURE
  41
1
  42
1
  43
1
  50
0
  10
561859.625
  20
4578857.250
 66
1
  0
ATTRIB
  8
FeatureAttribs
 70
0
  1
PNOA-H_AMS_1956-57_33k_ES_PAN_21mic_H50_0407_fot_45C-37450_E.tif
  2
NAME
  10
561859.625
  20
4578857.250
 40
33.67194
  0
SEQEND
  0
POLYLINE
  8
PNOA-H_AMS_1956-57_33k_ES_PAN_21mic_H50_0407_fot_45C-37450_E_tif
  70
9
  66
1
  0
VERTEX
  8
PNOA-H_AMS_1956-57_33k_ES_PAN_21mic_H50_0407_fot_45C-37450_E_tif
  70
32
  10
562776.500
  20
4576719.000
  30
893.3
  0
VERTEX
  8
PNOA-H_AMS_1956-57_33k_ES_PAN_21mic_H50_0407_fot_45C-37450_E_tif
  70
32
  10
560949.000
  20
4576601.000
  30
893.967
  0
VERTEX
  8
PNOA-H_AMS_1956-57_33k_ES_PAN_21mic_H50_0407_fot_45C-37450_E_tif
  70
32
  10
560949.002
  20
4576601.033
  30
893.967
  0
VERTEX
  8
PNOA-H_AMS_1956-57_33k_ES_PAN_21mic_H50_0407_fot_45C-37450_E_tif
  70
32
  10
561201.500
  20
4581110.000
  30
937.655
  0
VERTEX
  8
PNOA-H_AMS_1956-57_33k_ES_PAN_21mic_H50_0407_fot_45C-37450_E_tif
  70
32
  10
561201.500
  20
4581113.451
  30
937.685
  0
VERTEX
  8
PNOA-H_AMS_1956-57_33k_ES_PAN_21mic_H50_0407_fot_45C-37450_E_tif
  70
32
  10
561201.500
  20
4581113.500
  30
937.685
  0
VERTEX
  8
PNOA-H_AMS_1956-57_33k_ES_PAN_21mic_H50_0407_fot_45C-37450_E_tif
  70
32
  10
562454.500
  20
4581089.500
  30
912.412
  0
VERTEX
  8
PNOA-H_AMS_1956-57_33k_ES_PAN_21mic_H50_0407_fot_45C-37450_E_tif
  70
32
  10
562456.331
  20
4581089.042
  30
912.314
  0
VERTEX
  8
PNOA-H_AMS_1956-57_33k_ES_PAN_21mic_H50_0407_fot_45C-37450_E_tif
  70
32
  10
562458.032
  20
4581088.617
  30
912.223
  0
VERTEX
  8
PNOA-H_AMS_1956-57_33k_ES_PAN_21mic_H50_0407_fot_45C-37450_E_tif
  70
32
  10
562458.500
  20
4581088.500
  30
912.198
  0
VERTEX
  8
PNOA-H_AMS_1956-57_33k_ES_PAN_21mic_H50_0407_fot_45C-37450_E_tif
  70
32
  10
562630.500
  20
4579052.500
  30
877.766
  0
VERTEX
  8
PNOA-H_AMS_1956-57_33k_ES_PAN_21mic_H50_0407_fot_45C-37450_E_tif
  70
32
  10
562630.518
  20
4579052.241
  30
877.767
  0
VERTEX
  8
PNOA-H_AMS_1956-57_33k_ES_PAN_21mic_H50_0407_fot_45C-37450_E_tif
  70
32
  10
562630.535
  20
4579051.993
  30
877.769
  0
VERTEX
  8
PNOA-H_AMS_1956-57_33k_ES_PAN_21mic_H50_0407_fot_45C-37450_E_tif
  70
32
  10
562790.500
  20
4576721.500
  30
893.354
  0
VERTEX
  8
PNOA-H_AMS_1956-57_33k_ES_PAN_21mic_H50_0407_fot_45C-37450_E_tif
  70
32
  10
562790.500
  20
4576720.000
  30
893.365
  0
VERTEX
  8
PNOA-H_AMS_1956-57_33k_ES_PAN_21mic_H50_0407_fot_45C-37450_E_tif
  70
32
  10
562787.467
  20
4576719.783
  30
893.351
  0
VERTEX
  8
PNOA-H_AMS_1956-57_33k_ES_PAN_21mic_H50_0407_fot_45C-37450_E_tif
  70
32
  10
562776.500
  20
4576719.000
  30
893.3
  0
SEQEND
  8
PNOA-H_AMS_1956-57_33k_ES_PAN_21mic_H50_0407_fot_45C-37450_E_tif
  0
INSERT
  8
FeatureAttribs
  2
FEATURE
  41
1
  42
1
  43
1
  50
0
  10
561521.768
  20
4576364.909
 66
1
  0
ATTRIB
  8
FeatureAttribs
 70
0
  1
PNOA-H_AMS_1956-57_33k_ES_PAN_21mic_H50_0435_fot_46B-29763_E.tif
  2
NAME
  10
561521.768
  20
4576364.909
 40
33.67194
  0
SEQEND
  0
POLYLINE
  8
PNOA-H_AMS_1956-57_33k_ES_PAN_21mic_H50_0435_fot_46B-29763_E_tif
  70
9
  66
1
  0
VERTEX
  8
PNOA-H_AMS_1956-57_33k_ES_PAN_21mic_H50_0435_fot_46B-29763_E_tif
  70
32
  10
561014.257
  20
4576017.717
  30
0
  0
VERTEX
  8
PNOA-H_AMS_1956-57_33k_ES_PAN_21mic_H50_0435_fot_46B-29763_E_tif
  70
32
  10
560046.930
  20
4576009.819
  30
919.872
  0
VERTEX
  8
PNOA-H_AMS_1956-57_33k_ES_PAN_21mic_H50_0435_fot_46B-29763_E_tif
  70
32
  10
560044.000
  20
4576424.000
  30
925.063
  0
VERTEX
  8
PNOA-H_AMS_1956-57_33k_ES_PAN_21mic_H50_0435_fot_46B-29763_E_tif
  70
32
  10
560045.164
  20
4576424.228
  30
925.023
  0
VERTEX
  8
PNOA-H_AMS_1956-57_33k_ES_PAN_21mic_H50_0435_fot_46B-29763_E_tif
  70
32
  10
560948.500
  20
4576601.000
  30
893.968
  0
VERTEX
  8
PNOA-H_AMS_1956-57_33k_ES_PAN_21mic_H50_0435_fot_46B-29763_E_tif
  70
32
  10
560949.002
  20
4576601.033
  30
893.967
  0
VERTEX
  8
PNOA-H_AMS_1956-57_33k_ES_PAN_21mic_H50_0435_fot_46B-29763_E_tif
  70
32
  10
562776.500
  20
4576719.500
  30
893.296
  0
VERTEX
  8
PNOA-H_AMS_1956-57_33k_ES_PAN_21mic_H50_0435_fot_46B-29763_E_tif
  70
32
  10
562784.000
  20
4576720.000
  30
893.323
  0
VERTEX
  8
PNOA-H_AMS_1956-57_33k_ES_PAN_21mic_H50_0435_fot_46B-29763_E_tif
  70
32
  10
562787.467
  20
4576719.783
  30
893.347
  0
VERTEX
  8
PNOA-H_AMS_1956-57_33k_ES_PAN_21mic_H50_0435_fot_46B-29763_E_tif
  70
32
  10
562791.242
  20
4576719.547
  30
893.374
  0
VERTEX
  8
PNOA-H_AMS_1956-57_33k_ES_PAN_21mic_H50_0435_fot_46B-29763_E_tif
  70
32
  10
562792.000
  20
4576719.500
  30
893.379
  0
VERTEX
  8
PNOA-H_AMS_1956-57_33k_ES_PAN_21mic_H50_0435_fot_46B-29763_E_tif
  70
32
  10
562996.005
  20
4576595.410
  30
900.417
  0
VERTEX
  8
PNOA-H_AMS_1956-57_33k_ES_PAN_21mic_H50_0435_fot_46B-29763_E_tif
  70
32
  10
562997.500
  20
4576594.500
  30
900.469
  0
VERTEX
  8
PNOA-H_AMS_1956-57_33k_ES_PAN_21mic_H50_0435_fot_46B-29763_E_tif
  70
32
  10
562997.504
  20
4576594.000
  30
900.46
  0
VERTEX
  8
PNOA-H_AMS_1956-57_33k_ES_PAN_21mic_H50_0435_fot_46B-29763_E_tif
  70
32
  10
563001.443
  20
4576034.898
  30
890.282
  0
VERTEX
  8
PNOA-H_AMS_1956-57_33k_ES_PAN_21mic_H50_0435_fot_46B-29763_E_tif
  70
32
  10
563001.413
  20
4576034.897
  30
0
  0
VERTEX
  8
PNOA-H_AMS_1956-57_33k_ES_PAN_21mic_H50_0435_fot_46B-29763_E_tif
  70
32
  10
561014.257
  20
4576017.717
  30
0
  0
SEQEND
  8
PNOA-H_AMS_1956-57_33k_ES_PAN_21mic_H50_0435_fot_46B-29763_E_tif
  0
INSERT
  8
FeatureAttribs
  2
FEATURE
  41
1
  42
1
  43
1
  50
0
  10
555903.001
  20
4576191.180
 66
1
  0
ATTRIB
  8
FeatureAttribs
 70
0
  1
PNOA-H_AMS_1956-57_33k_ES_PAN_21mic_H50_0435_fot_46B-29765_E.tif
  2
NAME
  10
555903.001
  20
4576191.180
 40
33.67194
  0
SEQEND
  0
POLYLINE
  8
PNOA-H_AMS_1956-57_33k_ES_PAN_21mic_H50_0435_fot_46B-29765_E_tif
  70
9
  66
1
  0
VERTEX
  8
PNOA-H_AMS_1956-57_33k_ES_PAN_21mic_H50_0435_fot_46B-29765_E_tif
  70
32
  10
557164.809
  20
4575986.460
  30
970.219
  0
VERTEX
  8
PNOA-H_AMS_1956-57_33k_ES_PAN_21mic_H50_0435_fot_46B-29765_E_tif
  70
32
  10
554419.085
  20
4575965.359
  30
1134.818
  0
VERTEX
  8
PNOA-H_AMS_1956-57_33k_ES_PAN_21mic_H50_0435_fot_46B-29765_E_tif
  70
32
  10
554414.000
  20
4576111.000
  30
1143.546
  0
VERTEX
  8
PNOA-H_AMS_1956-57_33k_ES_PAN_21mic_H50_0435_fot_46B-29765_E_tif
  70
32
  10
554415.130
  20
4576111.387
  30
1143.551
  0
VERTEX
  8
PNOA-H_AMS_1956-57_33k_ES_PAN_21mic_H50_0435_fot_46B-29765_E_tif
  70
32
  10
555307.000
  20
4576417.000
  30
1147.255
  0
VERTEX
  8
PNOA-H_AMS_1956-57_33k_ES_PAN_21mic_H50_0435_fot_46B-29765_E_tif
  70
32
  10
555307.482
  20
4576416.994
  30
1147.257
  0
VERTEX
  8
PNOA-H_AMS_1956-57_33k_ES_PAN_21mic_H50_0435_fot_46B-29765_E_tif
  70
32
  10
555460.000
  20
4576415.000
  30
1147.9
  0
VERTEX
  8
PNOA-H_AMS_1956-57_33k_ES_PAN_21mic_H50_0435_fot_46B-29765_E_tif
  70
32
  10
555468.000
  20
4576415.000
  30
1147.841
  0
VERTEX
  8
PNOA-H_AMS_1956-57_33k_ES_PAN_21mic_H50_0435_fot_46B-29765_E_tif
  70
32
  10
556852.788
  20
4576399.478
  30
995.659
  0
VERTEX
  8
PNOA-H_AMS_1956-57_33k_ES_PAN_21mic_H50_0435_fot_46B-29765_E_tif
  70
32
  10
556938.999
  20
4576398.511
  30
986.184
  0
VERTEX
  8
PNOA-H_AMS_1956-57_33k_ES_PAN_21mic_H50_0435_fot_46B-29765_E_tif
  70
32
  10
556940.000
  20
4576398.500
  30
986.074
  0
VERTEX
  8
PNOA-H_AMS_1956-57_33k_ES_PAN_21mic_H50_0435_fot_46B-29765_E_tif
  70
32
  10
557153.886
  20
4576297.290
  30
977.312
  0
VERTEX
  8
PNOA-H_AMS_1956-57_33k_ES_PAN_21mic_H50_0435_fot_46B-29765_E_tif
  70
32
  10
557154.500
  20
4576297.000
  30
977.286
  0
VERTEX
  8
PNOA-H_AMS_1956-57_33k_ES_PAN_21mic_H50_0435_fot_46B-29765_E_tif
  70
32
  10
557164.809
  20
4575986.460
  30
970.219
  0
SEQEND
  8
PNOA-H_AMS_1956-57_33k_ES_PAN_21mic_H50_0435_fot_46B-29765_E_tif
  0
INSERT
  8
FeatureAttribs
  2
FEATURE
  41
1
  42
1
  43
1
  50
0
  10
558600.203
  20
4576271.980
 66
1
  0
ATTRIB
  8
FeatureAttribs
 70
0
  1
PNOA-H_AMS_1956-57_33k_ES_PAN_21mic_H50_0435_fot_46B-29764_E.tif
  2
NAME
  10
558600.203
  20
4576271.980
 40
33.67194
  0
SEQEND
  0
POLYLINE
  8
PNOA-H_AMS_1956-57_33k_ES_PAN_21mic_H50_0435_fot_46B-29764_E_tif
  70
9
  66
1
  0
VERTEX
  8
PNOA-H_AMS_1956-57_33k_ES_PAN_21mic_H50_0435_fot_46B-29764_E_tif
  70
32
  10
559814.000
  20
4576557.500
  30
930.594
  0
VERTEX
  8
PNOA-H_AMS_1956-57_33k_ES_PAN_21mic_H50_0435_fot_46B-29764_E_tif
  70
32
  10
559816.000
  20
4576556.500
  30
930.473
  0
VERTEX
  8
PNOA-H_AMS_1956-57_33k_ES_PAN_21mic_H50_0435_fot_46B-29764_E_tif
  70
32
  10
560042.231
  20
4576425.028
  30
925.105
  0
VERTEX
  8
PNOA-H_AMS_1956-57_33k_ES_PAN_21mic_H50_0435_fot_46B-29764_E_tif
  70
32
  10
560044.000
  20
4576424.000
  30
925.063
  0
VERTEX
  8
PNOA-H_AMS_1956-57_33k_ES_PAN_21mic_H50_0435_fot_46B-29764_E_tif
  70
32
  10
560046.930
  20
4576009.819
  30
919.872
  0
VERTEX
  8
PNOA-H_AMS_1956-57_33k_ES_PAN_21mic_H50_0435_fot_46B-29764_E_tif
  70
32
  10
557527.706
  20
4575989.249
  30
0
  0
VERTEX
  8
PNOA-H_AMS_1956-57_33k_ES_PAN_21mic_H50_0435_fot_46B-29764_E_tif
  70
32
  10
557164.809
  20
4575986.460
  30
970.219
  0
VERTEX
  8
PNOA-H_AMS_1956-57_33k_ES_PAN_21mic_H50_0435_fot_46B-29764_E_tif
  70
32
  10
557154.500
  20
4576297.000
  30
977.286
  0
VERTEX
  8
PNOA-H_AMS_1956-57_33k_ES_PAN_21mic_H50_0435_fot_46B-29764_E_tif
  70
32
  10
557155.121
  20
4576297.153
  30
977.276
  0
VERTEX
  8
PNOA-H_AMS_1956-57_33k_ES_PAN_21mic_H50_0435_fot_46B-29764_E_tif
  70
32
  10
557513.000
  20
4576385.500
  30
971.083
  0
VERTEX
  8
PNOA-H_AMS_1956-57_33k_ES_PAN_21mic_H50_0435_fot_46B-29764_E_tif
  70
32
  10
557515.000
  20
4576386.000
  30
970.824
  0
VERTEX
  8
PNOA-H_AMS_1956-57_33k_ES_PAN_21mic_H50_0435_fot_46B-29764_E_tif
  70
32
  10
558084.495
  20
4576526.499
  30
965.212
  0
VERTEX
  8
PNOA-H_AMS_1956-57_33k_ES_PAN_21mic_H50_0435_fot_46B-29764_E_tif
  70
32
  10
558084.500
  20
4576526.500
  30
965.212
  0
VERTEX
  8
PNOA-H_AMS_1956-57_33k_ES_PAN_21mic_H50_0435_fot_46B-29764_E_tif
  70
32
  10
559802.500
  20
4576557.500
  30
931.154
  0
VERTEX
  8
PNOA-H_AMS_1956-57_33k_ES_PAN_21mic_H50_0435_fot_46B-29764_E_tif
  70
32
  10
559813.956
  20
4576557.500
  30
930.595
  0
VERTEX
  8
PNOA-H_AMS_1956-57_33k_ES_PAN_21mic_H50_0435_fot_46B-29764_E_tif
  70
32
  10
559814.000
  20
4576557.500
  30
930.594
  0
SEQEND
  8
PNOA-H_AMS_1956-57_33k_ES_PAN_21mic_H50_0435_fot_46B-29764_E_tif
  0
INSERT
  8
FeatureAttribs
  2
FEATURE
  41
1
  42
1
  43
1
  50
0
  10
565717.028
  20
4591935.750
 66
1
  0
ATTRIB
  8
FeatureAttribs
 70
0
  1
PNOA-H_AMS_1956-57_33k_ES_PAN_21mic_H50_0407_fot_42B-36339_E.tif
  2
NAME
  10
565717.028
  20
4591935.750
 40
33.67194
  0
SEQEND
  0
POLYLINE
  8
PNOA-H_AMS_1956-57_33k_ES_PAN_21mic_H50_0407_fot_42B-36339_E_tif
  70
9
  66
1
  0
VERTEX
  8
PNOA-H_AMS_1956-57_33k_ES_PAN_21mic_H50_0407_fot_42B-36339_E_tif
  70
32
  10
566260.005
  20
4589601.502
  30
928.025
  0
VERTEX
  8
PNOA-H_AMS_1956-57_33k_ES_PAN_21mic_H50_0407_fot_42B-36339_E_tif
  70
32
  10
566260.000
  20
4589601.500
  30
928.025
  0
VERTEX
  8
PNOA-H_AMS_1956-57_33k_ES_PAN_21mic_H50_0407_fot_42B-36339_E_tif
  70
32
  10
564272.847
  20
4590020.427
  30
951.63
  0
VERTEX
  8
PNOA-H_AMS_1956-57_33k_ES_PAN_21mic_H50_0407_fot_42B-36339_E_tif
  70
32
  10
564272.500
  20
4590020.500
  30
951.635
  0
VERTEX
  8
PNOA-H_AMS_1956-57_33k_ES_PAN_21mic_H50_0407_fot_42B-36339_E_tif
  70
32
  10
564267.500
  20
4594131.500
  30
1001.594
  0
VERTEX
  8
PNOA-H_AMS_1956-57_33k_ES_PAN_21mic_H50_0407_fot_42B-36339_E_tif
  70
32
  10
564267.500
  20
4594132.000
  30
1001.6
  0
VERTEX
  8
PNOA-H_AMS_1956-57_33k_ES_PAN_21mic_H50_0407_fot_42B-36339_E_tif
  70
32
  10
564315.500
  20
4594161.500
  30
1004.388
  0
VERTEX
  8
PNOA-H_AMS_1956-57_33k_ES_PAN_21mic_H50_0407_fot_42B-36339_E_tif
  70
32
  10
564315.998
  20
4594161.550
  30
1004.389
  0
VERTEX
  8
PNOA-H_AMS_1956-57_33k_ES_PAN_21mic_H50_0407_fot_42B-36339_E_tif
  70
32
  10
564320.500
  20
4594162.000
  30
1004.404
  0
VERTEX
  8
PNOA-H_AMS_1956-57_33k_ES_PAN_21mic_H50_0407_fot_42B-36339_E_tif
  70
32
  10
566959.500
  20
4594269.500
  30
915.258
  0
VERTEX
  8
PNOA-H_AMS_1956-57_33k_ES_PAN_21mic_H50_0407_fot_42B-36339_E_tif
  70
32
  10
566971.500
  20
4594270.000
  30
915.383
  0
VERTEX
  8
PNOA-H_AMS_1956-57_33k_ES_PAN_21mic_H50_0407_fot_42B-36339_E_tif
  70
32
  10
566973.500
  20
4594270.000
  30
915.401
  0
VERTEX
  8
PNOA-H_AMS_1956-57_33k_ES_PAN_21mic_H50_0407_fot_42B-36339_E_tif
  70
32
  10
566974.000
  20
4594270.000
  30
915.406
  0
VERTEX
  8
PNOA-H_AMS_1956-57_33k_ES_PAN_21mic_H50_0407_fot_42B-36339_E_tif
  70
32
  10
567117.000
  20
4594195.500
  30
917.317
  0
VERTEX
  8
PNOA-H_AMS_1956-57_33k_ES_PAN_21mic_H50_0407_fot_42B-36339_E_tif
  70
32
  10
567122.022
  20
4594192.761
  30
917.437
  0
VERTEX
  8
PNOA-H_AMS_1956-57_33k_ES_PAN_21mic_H50_0407_fot_42B-36339_E_tif
  70
32
  10
567122.500
  20
4594192.500
  30
917.449
  0
VERTEX
  8
PNOA-H_AMS_1956-57_33k_ES_PAN_21mic_H50_0407_fot_42B-36339_E_tif
  70
32
  10
567122.622
  20
4594192.011
  30
917.439
  0
VERTEX
  8
PNOA-H_AMS_1956-57_33k_ES_PAN_21mic_H50_0407_fot_42B-36339_E_tif
  70
32
  10
567123.000
  20
4594190.500
  30
917.409
  0
VERTEX
  8
PNOA-H_AMS_1956-57_33k_ES_PAN_21mic_H50_0407_fot_42B-36339_E_tif
  70
32
  10
567198.000
  20
4590054.500
  30
940.098
  0
VERTEX
  8
PNOA-H_AMS_1956-57_33k_ES_PAN_21mic_H50_0407_fot_42B-36339_E_tif
  70
32
  10
567197.848
  20
4590054.427
  30
940.096
  0
VERTEX
  8
PNOA-H_AMS_1956-57_33k_ES_PAN_21mic_H50_0407_fot_42B-36339_E_tif
  70
32
  10
566260.005
  20
4589601.502
  30
928.025
  0
SEQEND
  8
PNOA-H_AMS_1956-57_33k_ES_PAN_21mic_H50_0407_fot_42B-36339_E_tif
  0
INSERT
  8
FeatureAttribs
  2
FEATURE
  41
1
  42
1
  43
1
  50
0
  10
562805.814
  20
4591900.250
 66
1
  0
ATTRIB
  8
FeatureAttribs
 70
0
  1
PNOA-H_AMS_1956-57_33k_ES_PAN_21mic_H50_0407_fot_42B-36338_E.tif
  2
NAME
  10
562805.814
  20
4591900.250
 40
33.67194
  0
SEQEND
  0
POLYLINE
  8
PNOA-H_AMS_1956-57_33k_ES_PAN_21mic_H50_0407_fot_42B-36338_E_tif
  70
9
  66
1
  0
VERTEX
  8
PNOA-H_AMS_1956-57_33k_ES_PAN_21mic_H50_0407_fot_42B-36338_E_tif
  70
32
  10
564272.500
  20
4590020.000
  30
951.59
  0
VERTEX
  8
PNOA-H_AMS_1956-57_33k_ES_PAN_21mic_H50_0407_fot_42B-36338_E_tif
  70
32
  10
563400.500
  20
4589604.500
  30
1019.519
  0
VERTEX
  8
PNOA-H_AMS_1956-57_33k_ES_PAN_21mic_H50_0407_fot_42B-36338_E_tif
  70
32
  10
563399.790
  20
4589604.638
  30
1019.536
  0
VERTEX
  8
PNOA-H_AMS_1956-57_33k_ES_PAN_21mic_H50_0407_fot_42B-36338_E_tif
  70
32
  10
561353.500
  20
4590004.000
  30
1068.283
  0
VERTEX
  8
PNOA-H_AMS_1956-57_33k_ES_PAN_21mic_H50_0407_fot_42B-36338_E_tif
  70
32
  10
561328.000
  20
4594005.000
  30
1044.489
  0
VERTEX
  8
PNOA-H_AMS_1956-57_33k_ES_PAN_21mic_H50_0407_fot_42B-36338_E_tif
  70
32
  10
561610.500
  20
4594163.500
  30
1011.648
  0
VERTEX
  8
PNOA-H_AMS_1956-57_33k_ES_PAN_21mic_H50_0407_fot_42B-36338_E_tif
  70
32
  10
561611.500
  20
4594164.000
  30
1011.697
  0
VERTEX
  8
PNOA-H_AMS_1956-57_33k_ES_PAN_21mic_H50_0407_fot_42B-36338_E_tif
  70
32
  10
561668.500
  20
4594196.000
  30
1020.352
  0
VERTEX
  8
PNOA-H_AMS_1956-57_33k_ES_PAN_21mic_H50_0407_fot_42B-36338_E_tif
  70
32
  10
561669.000
  20
4594196.000
  30
1020.265
  0
VERTEX
  8
PNOA-H_AMS_1956-57_33k_ES_PAN_21mic_H50_0407_fot_42B-36338_E_tif
  70
32
  10
561680.500
  20
4594196.000
  30
1018.277
  0
VERTEX
  8
PNOA-H_AMS_1956-57_33k_ES_PAN_21mic_H50_0407_fot_42B-36338_E_tif
  70
32
  10
564267.500
  20
4594131.500
  30
1001.539
  0
VERTEX
  8
PNOA-H_AMS_1956-57_33k_ES_PAN_21mic_H50_0407_fot_42B-36338_E_tif
  70
32
  10
564272.500
  20
4590020.500
  30
951.596
  0
VERTEX
  8
PNOA-H_AMS_1956-57_33k_ES_PAN_21mic_H50_0407_fot_42B-36338_E_tif
  70
32
  10
564272.500
  20
4590020.262
  30
951.593
  0
VERTEX
  8
PNOA-H_AMS_1956-57_33k_ES_PAN_21mic_H50_0407_fot_42B-36338_E_tif
  70
32
  10
564272.500
  20
4590020.000
  30
951.59
  0
SEQEND
  8
PNOA-H_AMS_1956-57_33k_ES_PAN_21mic_H50_0407_fot_42B-36338_E_tif
  0
INSERT
  8
FeatureAttribs
  2
FEATURE
  41
1
  42
1
  43
1
  50
0
  10
567499.083
  20
4592086.131
 66
1
  0
ATTRIB
  8
FeatureAttribs
 70
0
  1
PNOA-H_AMS_1956-57_33k_ES_PAN_21mic_H50_0407_fot_42B-36340_E.tif
  2
NAME
  10
567499.083
  20
4592086.131
 40
33.67194
  0
SEQEND
  0
POLYLINE
  8
PNOA-H_AMS_1956-57_33k_ES_PAN_21mic_H50_0407_fot_42B-36340_E_tif
  70
9
  66
1
  0
VERTEX
  8
PNOA-H_AMS_1956-57_33k_ES_PAN_21mic_H50_0407_fot_42B-36340_E_tif
  70
32
  10
567857.618
  20
4589916.164
  30
0
  0
VERTEX
  8
PNOA-H_AMS_1956-57_33k_ES_PAN_21mic_H50_0407_fot_42B-36340_E_tif
  70
32
  10
567857.618
  20
4589916.128
  30
922.167
  0
VERTEX
  8
PNOA-H_AMS_1956-57_33k_ES_PAN_21mic_H50_0407_fot_42B-36340_E_tif
  70
32
  10
567755.738
  20
4589937.500
  30
924.937
  0
VERTEX
  8
PNOA-H_AMS_1956-57_33k_ES_PAN_21mic_H50_0407_fot_42B-36340_E_tif
  70
32
  10
567198.000
  20
4590054.500
  30
940.098
  0
VERTEX
  8
PNOA-H_AMS_1956-57_33k_ES_PAN_21mic_H50_0407_fot_42B-36340_E_tif
  70
32
  10
567122.500
  20
4594192.000
  30
917.433
  0
VERTEX
  8
PNOA-H_AMS_1956-57_33k_ES_PAN_21mic_H50_0407_fot_42B-36340_E_tif
  70
32
  10
567122.622
  20
4594192.011
  30
917.438
  0
VERTEX
  8
PNOA-H_AMS_1956-57_33k_ES_PAN_21mic_H50_0407_fot_42B-36340_E_tif
  70
32
  10
567123.709
  20
4594192.112
  30
917.488
  0
VERTEX
  8
PNOA-H_AMS_1956-57_33k_ES_PAN_21mic_H50_0407_fot_42B-36340_E_tif
  70
32
  10
567750.000
  20
4594250.000
  30
946.244
  0
VERTEX
  8
PNOA-H_AMS_1956-57_33k_ES_PAN_21mic_H50_0407_fot_42B-36340_E_tif
  70
32
  10
567755.500
  20
4594250.500
  30
949.497
  0
VERTEX
  8
PNOA-H_AMS_1956-57_33k_ES_PAN_21mic_H50_0407_fot_42B-36340_E_tif
  70
32
  10
567816.852
  20
4594256.133
  30
949.198
  0
VERTEX
  8
PNOA-H_AMS_1956-57_33k_ES_PAN_21mic_H50_0407_fot_42B-36340_E_tif
  70
32
  10
567816.856
  20
4594255.667
  30
0
  0
VERTEX
  8
PNOA-H_AMS_1956-57_33k_ES_PAN_21mic_H50_0407_fot_42B-36340_E_tif
  70
32
  10
567835.513
  20
4592269.915
  30
0
  0
VERTEX
  8
PNOA-H_AMS_1956-57_33k_ES_PAN_21mic_H50_0407_fot_42B-36340_E_tif
  70
32
  10
567857.234
  20
4589957.000
  30
0
  0
VERTEX
  8
PNOA-H_AMS_1956-57_33k_ES_PAN_21mic_H50_0407_fot_42B-36340_E_tif
  70
32
  10
567857.618
  20
4589916.164
  30
0
  0
SEQEND
  8
PNOA-H_AMS_1956-57_33k_ES_PAN_21mic_H50_0407_fot_42B-36340_E_tif
  0
INSERT
  8
FeatureAttribs
  2
FEATURE
  41
1
  42
1
  43
1
  50
0
  10
567077.120
  20
4587802.034
 66
1
  0
ATTRIB
  8
FeatureAttribs
 70
0
  1
PNOA-H_AMS_1956-57_33k_ES_PAN_21mic_H50_0408_fot_000-29672_R.tif
  2
NAME
  10
567077.120
  20
4587802.034
 40
33.67194
  0
SEQEND
  0
POLYLINE
  8
PNOA-H_AMS_1956-57_33k_ES_PAN_21mic_H50_0408_fot_000-29672_R_tif
  70
9
  66
1
  0
VERTEX
  8
PNOA-H_AMS_1956-57_33k_ES_PAN_21mic_H50_0408_fot_000-29672_R_tif
  70
32
  10
567197.848
  20
4590054.427
  30
939.968
  0
VERTEX
  8
PNOA-H_AMS_1956-57_33k_ES_PAN_21mic_H50_0408_fot_000-29672_R_tif
  70
32
  10
567754.500
  20
4589937.500
  30
914.742
  0
VERTEX
  8
PNOA-H_AMS_1956-57_33k_ES_PAN_21mic_H50_0408_fot_000-29672_R_tif
  70
32
  10
567755.738
  20
4589937.500
  30
914.643
  0
VERTEX
  8
PNOA-H_AMS_1956-57_33k_ES_PAN_21mic_H50_0408_fot_000-29672_R_tif
  70
32
  10
567756.000
  20
4589937.500
  30
914.622
  0
VERTEX
  8
PNOA-H_AMS_1956-57_33k_ES_PAN_21mic_H50_0408_fot_000-29672_R_tif
  70
32
  10
567857.618
  20
4589916.164
  30
912.62
  0
VERTEX
  8
PNOA-H_AMS_1956-57_33k_ES_PAN_21mic_H50_0408_fot_000-29672_R_tif
  70
32
  10
567857.618
  20
4589916.128
  30
0
  0
VERTEX
  8
PNOA-H_AMS_1956-57_33k_ES_PAN_21mic_H50_0408_fot_000-29672_R_tif
  70
32
  10
567878.947
  20
4587644.092
  30
0
  0
VERTEX
  8
PNOA-H_AMS_1956-57_33k_ES_PAN_21mic_H50_0408_fot_000-29672_R_tif
  70
32
  10
567898.601
  20
4585549.568
  30
870.006
  0
VERTEX
  8
PNOA-H_AMS_1956-57_33k_ES_PAN_21mic_H50_0408_fot_000-29672_R_tif
  70
32
  10
566295.500
  20
4585793.000
  30
897.031
  0
VERTEX
  8
PNOA-H_AMS_1956-57_33k_ES_PAN_21mic_H50_0408_fot_000-29672_R_tif
  70
32
  10
566260.005
  20
4589601.502
  30
928.111
  0
VERTEX
  8
PNOA-H_AMS_1956-57_33k_ES_PAN_21mic_H50_0408_fot_000-29672_R_tif
  70
32
  10
566260.000
  20
4589602.000
  30
928.115
  0
VERTEX
  8
PNOA-H_AMS_1956-57_33k_ES_PAN_21mic_H50_0408_fot_000-29672_R_tif
  70
32
  10
567197.500
  20
4590054.500
  30
939.984
  0
VERTEX
  8
PNOA-H_AMS_1956-57_33k_ES_PAN_21mic_H50_0408_fot_000-29672_R_tif
  70
32
  10
567197.848
  20
4590054.427
  30
939.968
  0
SEQEND
  8
PNOA-H_AMS_1956-57_33k_ES_PAN_21mic_H50_0408_fot_000-29672_R_tif
  0
INSERT
  8
FeatureAttribs
  2
FEATURE
  41
1
  42
1
  43
1
  50
0
  10
564846.047
  20
4587751.000
 66
1
  0
ATTRIB
  8
FeatureAttribs
 70
0
  1
PNOA-H_AMS_1956-57_33k_ES_PAN_21mic_H50_0407_fot_43B-29671_E.tif
  2
NAME
  10
564846.047
  20
4587751.000
 40
33.67194
  0
SEQEND
  0
POLYLINE
  8
PNOA-H_AMS_1956-57_33k_ES_PAN_21mic_H50_0407_fot_43B-29671_E_tif
  70
9
  66
1
  0
VERTEX
  8
PNOA-H_AMS_1956-57_33k_ES_PAN_21mic_H50_0407_fot_43B-29671_E_tif
  70
32
  10
565716.053
  20
4585481.521
  30
904.908
  0
VERTEX
  8
PNOA-H_AMS_1956-57_33k_ES_PAN_21mic_H50_0407_fot_43B-29671_E_tif
  70
32
  10
565716.000
  20
4585481.500
  30
904.911
  0
VERTEX
  8
PNOA-H_AMS_1956-57_33k_ES_PAN_21mic_H50_0407_fot_43B-29671_E_tif
  70
32
  10
565705.000
  20
4585483.000
  30
906.329
  0
VERTEX
  8
PNOA-H_AMS_1956-57_33k_ES_PAN_21mic_H50_0407_fot_43B-29671_E_tif
  70
32
  10
563431.000
  20
4585799.500
  30
928.558
  0
VERTEX
  8
PNOA-H_AMS_1956-57_33k_ES_PAN_21mic_H50_0407_fot_43B-29671_E_tif
  70
32
  10
563399.500
  20
4589604.500
  30
1019.592
  0
VERTEX
  8
PNOA-H_AMS_1956-57_33k_ES_PAN_21mic_H50_0407_fot_43B-29671_E_tif
  70
32
  10
563399.790
  20
4589604.638
  30
1019.554
  0
VERTEX
  8
PNOA-H_AMS_1956-57_33k_ES_PAN_21mic_H50_0407_fot_43B-29671_E_tif
  70
32
  10
563658.500
  20
4589728.000
  30
985.808
  0
VERTEX
  8
PNOA-H_AMS_1956-57_33k_ES_PAN_21mic_H50_0407_fot_43B-29671_E_tif
  70
32
  10
563659.500
  20
4589728.500
  30
985.712
  0
VERTEX
  8
PNOA-H_AMS_1956-57_33k_ES_PAN_21mic_H50_0407_fot_43B-29671_E_tif
  70
32
  10
564272.500
  20
4590020.262
  30
951.612
  0
VERTEX
  8
PNOA-H_AMS_1956-57_33k_ES_PAN_21mic_H50_0407_fot_43B-29671_E_tif
  70
32
  10
564272.847
  20
4590020.427
  30
951.593
  0
VERTEX
  8
PNOA-H_AMS_1956-57_33k_ES_PAN_21mic_H50_0407_fot_43B-29671_E_tif
  70
32
  10
564273.000
  20
4590020.500
  30
951.584
  0
VERTEX
  8
PNOA-H_AMS_1956-57_33k_ES_PAN_21mic_H50_0407_fot_43B-29671_E_tif
  70
32
  10
566260.000
  20
4589601.500
  30
928.025
  0
VERTEX
  8
PNOA-H_AMS_1956-57_33k_ES_PAN_21mic_H50_0407_fot_43B-29671_E_tif
  70
32
  10
566295.500
  20
4585793.000
  30
897.031
  0
VERTEX
  8
PNOA-H_AMS_1956-57_33k_ES_PAN_21mic_H50_0407_fot_43B-29671_E_tif
  70
32
  10
566295.280
  20
4585792.882
  30
897.034
  0
VERTEX
  8
PNOA-H_AMS_1956-57_33k_ES_PAN_21mic_H50_0407_fot_43B-29671_E_tif
  70
32
  10
565718.500
  20
4585482.500
  30
904.775
  0
VERTEX
  8
PNOA-H_AMS_1956-57_33k_ES_PAN_21mic_H50_0407_fot_43B-29671_E_tif
  70
32
  10
565716.492
  20
4585481.697
  30
904.884
  0
VERTEX
  8
PNOA-H_AMS_1956-57_33k_ES_PAN_21mic_H50_0407_fot_43B-29671_E_tif
  70
32
  10
565716.053
  20
4585481.521
  30
904.908
  0
SEQEND
  8
PNOA-H_AMS_1956-57_33k_ES_PAN_21mic_H50_0407_fot_43B-29671_E_tif
  0
INSERT
  8
FeatureAttribs
  2
FEATURE
  41
1
  42
1
  43
1
  50
0
  10
564247.205
  20
4583463.000
 66
1
  0
ATTRIB
  8
FeatureAttribs
 70
0
  1
PNOA-H_AMS_1956-57_33k_ES_PAN_21mic_H50_0407_fot_44B-36244_W.tif
  2
NAME
  10
564247.205
  20
4583463.000
 40
33.67194
  0
SEQEND
  0
POLYLINE
  8
PNOA-H_AMS_1956-57_33k_ES_PAN_21mic_H50_0407_fot_44B-36244_W_tif
  70
9
  66
1
  0
VERTEX
  8
PNOA-H_AMS_1956-57_33k_ES_PAN_21mic_H50_0407_fot_44B-36244_W_tif
  70
32
  10
565616.500
  20
4581375.500
  30
859.666
  0
VERTEX
  8
PNOA-H_AMS_1956-57_33k_ES_PAN_21mic_H50_0407_fot_44B-36244_W_tif
  70
32
  10
565194.500
  20
4581126.500
  30
848.234
  0
VERTEX
  8
PNOA-H_AMS_1956-57_33k_ES_PAN_21mic_H50_0407_fot_44B-36244_W_tif
  70
32
  10
565194.039
  20
4581126.523
  30
848.245
  0
VERTEX
  8
PNOA-H_AMS_1956-57_33k_ES_PAN_21mic_H50_0407_fot_44B-36244_W_tif
  70
32
  10
562756.500
  20
4581247.500
  30
907.119
  0
VERTEX
  8
PNOA-H_AMS_1956-57_33k_ES_PAN_21mic_H50_0407_fot_44B-36244_W_tif
  70
32
  10
562892.000
  20
4585504.500
  30
915.794
  0
VERTEX
  8
PNOA-H_AMS_1956-57_33k_ES_PAN_21mic_H50_0407_fot_44B-36244_W_tif
  70
32
  10
563427.000
  20
4585798.000
  30
928.618
  0
VERTEX
  8
PNOA-H_AMS_1956-57_33k_ES_PAN_21mic_H50_0407_fot_44B-36244_W_tif
  70
32
  10
563430.000
  20
4585799.500
  30
928.574
  0
VERTEX
  8
PNOA-H_AMS_1956-57_33k_ES_PAN_21mic_H50_0407_fot_44B-36244_W_tif
  70
32
  10
563431.000
  20
4585799.500
  30
928.549
  0
VERTEX
  8
PNOA-H_AMS_1956-57_33k_ES_PAN_21mic_H50_0407_fot_44B-36244_W_tif
  70
32
  10
563434.000
  20
4585799.500
  30
928.474
  0
VERTEX
  8
PNOA-H_AMS_1956-57_33k_ES_PAN_21mic_H50_0407_fot_44B-36244_W_tif
  70
32
  10
565705.000
  20
4585483.000
  30
906.329
  0
VERTEX
  8
PNOA-H_AMS_1956-57_33k_ES_PAN_21mic_H50_0407_fot_44B-36244_W_tif
  70
32
  10
565708.000
  20
4585483.000
  30
905.981
  0
VERTEX
  8
PNOA-H_AMS_1956-57_33k_ES_PAN_21mic_H50_0407_fot_44B-36244_W_tif
  70
32
  10
565716.000
  20
4585482.000
  30
904.973
  0
VERTEX
  8
PNOA-H_AMS_1956-57_33k_ES_PAN_21mic_H50_0407_fot_44B-36244_W_tif
  70
32
  10
565716.053
  20
4585481.521
  30
904.908
  0
VERTEX
  8
PNOA-H_AMS_1956-57_33k_ES_PAN_21mic_H50_0407_fot_44B-36244_W_tif
  70
32
  10
565716.407
  20
4585478.338
  30
904.476
  0
VERTEX
  8
PNOA-H_AMS_1956-57_33k_ES_PAN_21mic_H50_0407_fot_44B-36244_W_tif
  70
32
  10
565716.500
  20
4585477.500
  30
904.362
  0
VERTEX
  8
PNOA-H_AMS_1956-57_33k_ES_PAN_21mic_H50_0407_fot_44B-36244_W_tif
  70
32
  10
565707.500
  20
4585108.320
  30
900.339
  0
VERTEX
  8
PNOA-H_AMS_1956-57_33k_ES_PAN_21mic_H50_0407_fot_44B-36244_W_tif
  70
32
  10
565641.500
  20
4582401.000
  30
870.84
  0
VERTEX
  8
PNOA-H_AMS_1956-57_33k_ES_PAN_21mic_H50_0407_fot_44B-36244_W_tif
  70
32
  10
565616.512
  20
4581375.999
  30
859.672
  0
VERTEX
  8
PNOA-H_AMS_1956-57_33k_ES_PAN_21mic_H50_0407_fot_44B-36244_W_tif
  70
32
  10
565616.500
  20
4581375.500
  30
859.666
  0
SEQEND
  8
PNOA-H_AMS_1956-57_33k_ES_PAN_21mic_H50_0407_fot_44B-36244_W_tif
  0
INSERT
  8
FeatureAttribs
  2
FEATURE
  41
1
  42
1
  43
1
  50
0
  10
566793.307
  20
4583532.153
 66
1
  0
ATTRIB
  8
FeatureAttribs
 70
0
  1
PNOA-H_AMS_1956-57_33k_ES_PAN_21mic_H50_0407_fot_44B-36243_W.tif
  2
NAME
  10
566793.307
  20
4583532.153
 40
33.67194
  0
SEQEND
  0
POLYLINE
  8
PNOA-H_AMS_1956-57_33k_ES_PAN_21mic_H50_0407_fot_44B-36243_W_tif
  70
9
  66
1
  0
VERTEX
  8
PNOA-H_AMS_1956-57_33k_ES_PAN_21mic_H50_0407_fot_44B-36243_W_tif
  70
32
  10
567922.344
  20
4583018.302
  30
0
  0
VERTEX
  8
PNOA-H_AMS_1956-57_33k_ES_PAN_21mic_H50_0407_fot_44B-36243_W_tif
  70
32
  10
567938.724
  20
4581271.306
  30
810.896
  0
VERTEX
  8
PNOA-H_AMS_1956-57_33k_ES_PAN_21mic_H50_0407_fot_44B-36243_W_tif
  70
32
  10
565616.512
  20
4581375.999
  30
859.501
  0
VERTEX
  8
PNOA-H_AMS_1956-57_33k_ES_PAN_21mic_H50_0407_fot_44B-36243_W_tif
  70
32
  10
565616.500
  20
4581376.000
  30
859.502
  0
VERTEX
  8
PNOA-H_AMS_1956-57_33k_ES_PAN_21mic_H50_0407_fot_44B-36243_W_tif
  70
32
  10
565641.500
  20
4582401.000
  30
865.439
  0
VERTEX
  8
PNOA-H_AMS_1956-57_33k_ES_PAN_21mic_H50_0407_fot_44B-36243_W_tif
  70
32
  10
565707.500
  20
4585107.000
  30
881.113
  0
VERTEX
  8
PNOA-H_AMS_1956-57_33k_ES_PAN_21mic_H50_0407_fot_44B-36243_W_tif
  70
32
  10
565707.500
  20
4585108.320
  30
881.226
  0
VERTEX
  8
PNOA-H_AMS_1956-57_33k_ES_PAN_21mic_H50_0407_fot_44B-36243_W_tif
  70
32
  10
565707.500
  20
4585128.000
  30
882.91
  0
VERTEX
  8
PNOA-H_AMS_1956-57_33k_ES_PAN_21mic_H50_0407_fot_44B-36243_W_tif
  70
32
  10
565716.407
  20
4585478.338
  30
904.692
  0
VERTEX
  8
PNOA-H_AMS_1956-57_33k_ES_PAN_21mic_H50_0407_fot_44B-36243_W_tif
  70
32
  10
565716.492
  20
4585481.697
  30
904.901
  0
VERTEX
  8
PNOA-H_AMS_1956-57_33k_ES_PAN_21mic_H50_0407_fot_44B-36243_W_tif
  70
32
  10
565716.500
  20
4585482.000
  30
904.92
  0
VERTEX
  8
PNOA-H_AMS_1956-57_33k_ES_PAN_21mic_H50_0407_fot_44B-36243_W_tif
  70
32
  10
566294.500
  20
4585793.000
  30
897.003
  0
VERTEX
  8
PNOA-H_AMS_1956-57_33k_ES_PAN_21mic_H50_0407_fot_44B-36243_W_tif
  70
32
  10
566295.280
  20
4585792.882
  30
896.99
  0
VERTEX
  8
PNOA-H_AMS_1956-57_33k_ES_PAN_21mic_H50_0407_fot_44B-36243_W_tif
  70
32
  10
567898.601
  20
4585549.524
  30
869.993
  0
VERTEX
  8
PNOA-H_AMS_1956-57_33k_ES_PAN_21mic_H50_0407_fot_44B-36243_W_tif
  70
32
  10
567900.650
  20
4585331.193
  30
0
  0
VERTEX
  8
PNOA-H_AMS_1956-57_33k_ES_PAN_21mic_H50_0407_fot_44B-36243_W_tif
  70
32
  10
567922.344
  20
4583018.302
  30
0
  0
SEQEND
  8
PNOA-H_AMS_1956-57_33k_ES_PAN_21mic_H50_0407_fot_44B-36243_W_tif
  0
INSERT
  8
FeatureAttribs
  2
FEATURE
  41
1
  42
1
  43
1
  50
0
  10
563954.625
  20
4579840.000
 66
1
  0
ATTRIB
  8
FeatureAttribs
 70
0
  1
PNOA-H_AMS_1956-57_33k_ES_PAN_21mic_H50_0407_fot_45C-37451_E.tif
  2
NAME
  10
563954.625
  20
4579840.000
 40
33.67194
  0
SEQEND
  0
POLYLINE
  8
PNOA-H_AMS_1956-57_33k_ES_PAN_21mic_H50_0407_fot_45C-37451_E_tif
  70
9
  66
1
  0
VERTEX
  8
PNOA-H_AMS_1956-57_33k_ES_PAN_21mic_H50_0407_fot_45C-37451_E_tif
  70
32
  10
565511.500
  20
4578435.000
  30
836.893
  0
VERTEX
  8
PNOA-H_AMS_1956-57_33k_ES_PAN_21mic_H50_0407_fot_45C-37451_E_tif
  70
32
  10
565511.500
  20
4578432.500
  30
837.028
  0
VERTEX
  8
PNOA-H_AMS_1956-57_33k_ES_PAN_21mic_H50_0407_fot_45C-37451_E_tif
  70
32
  10
565510.500
  20
4578432.500
  30
837.073
  0
VERTEX
  8
PNOA-H_AMS_1956-57_33k_ES_PAN_21mic_H50_0407_fot_45C-37451_E_tif
  70
32
  10
562633.000
  20
4579051.000
  30
878.316
  0
VERTEX
  8
PNOA-H_AMS_1956-57_33k_ES_PAN_21mic_H50_0407_fot_45C-37451_E_tif
  70
32
  10
562631.377
  20
4579051.811
  30
877.961
  0
VERTEX
  8
PNOA-H_AMS_1956-57_33k_ES_PAN_21mic_H50_0407_fot_45C-37451_E_tif
  70
32
  10
562630.518
  20
4579052.241
  30
877.773
  0
VERTEX
  8
PNOA-H_AMS_1956-57_33k_ES_PAN_21mic_H50_0407_fot_45C-37451_E_tif
  70
32
  10
562630.000
  20
4579052.500
  30
877.66
  0
VERTEX
  8
PNOA-H_AMS_1956-57_33k_ES_PAN_21mic_H50_0407_fot_45C-37451_E_tif
  70
32
  10
562458.032
  20
4581088.617
  30
912.235
  0
VERTEX
  8
PNOA-H_AMS_1956-57_33k_ES_PAN_21mic_H50_0407_fot_45C-37451_E_tif
  70
32
  10
562458.000
  20
4581089.000
  30
912.242
  0
VERTEX
  8
PNOA-H_AMS_1956-57_33k_ES_PAN_21mic_H50_0407_fot_45C-37451_E_tif
  70
32
  10
562458.018
  20
4581089.009
  30
912.241
  0
VERTEX
  8
PNOA-H_AMS_1956-57_33k_ES_PAN_21mic_H50_0407_fot_45C-37451_E_tif
  70
32
  10
562755.500
  20
4581247.500
  30
907.24
  0
VERTEX
  8
PNOA-H_AMS_1956-57_33k_ES_PAN_21mic_H50_0407_fot_45C-37451_E_tif
  70
32
  10
562756.414
  20
4581247.455
  30
907.214
  0
VERTEX
  8
PNOA-H_AMS_1956-57_33k_ES_PAN_21mic_H50_0407_fot_45C-37451_E_tif
  70
32
  10
563650.000
  20
4581203.000
  30
882.064
  0
VERTEX
  8
PNOA-H_AMS_1956-57_33k_ES_PAN_21mic_H50_0407_fot_45C-37451_E_tif
  70
32
  10
563660.000
  20
4581202.500
  30
881.496
  0
VERTEX
  8
PNOA-H_AMS_1956-57_33k_ES_PAN_21mic_H50_0407_fot_45C-37451_E_tif
  70
32
  10
565194.000
  20
4581126.500
  30
848.24
  0
VERTEX
  8
PNOA-H_AMS_1956-57_33k_ES_PAN_21mic_H50_0407_fot_45C-37451_E_tif
  70
32
  10
565511.500
  20
4578435.000
  30
836.893
  0
SEQEND
  8
PNOA-H_AMS_1956-57_33k_ES_PAN_21mic_H50_0407_fot_45C-37451_E_tif
  0
INSERT
  8
FeatureAttribs
  2
FEATURE
  41
1
  42
1
  43
1
  50
0
  10
566645.315
  20
4579897.500
 66
1
  0
ATTRIB
  8
FeatureAttribs
 70
0
  1
PNOA-H_AMS_1956-57_33k_ES_PAN_21mic_H50_0407_fot_45C-37452_E.tif
  2
NAME
  10
566645.315
  20
4579897.500
 40
33.67194
  0
SEQEND
  0
POLYLINE
  8
PNOA-H_AMS_1956-57_33k_ES_PAN_21mic_H50_0407_fot_45C-37452_E_tif
  70
9
  66
1
  0
VERTEX
  8
PNOA-H_AMS_1956-57_33k_ES_PAN_21mic_H50_0407_fot_45C-37452_E_tif
  70
32
  10
567956.159
  20
4579411.150
  30
835.709
  0
VERTEX
  8
PNOA-H_AMS_1956-57_33k_ES_PAN_21mic_H50_0407_fot_45C-37452_E_tif
  70
32
  10
565513.500
  20
4578419.000
  30
837.744
  0
VERTEX
  8
PNOA-H_AMS_1956-57_33k_ES_PAN_21mic_H50_0407_fot_45C-37452_E_tif
  70
32
  10
565194.000
  20
4581126.500
  30
848.24
  0
VERTEX
  8
PNOA-H_AMS_1956-57_33k_ES_PAN_21mic_H50_0407_fot_45C-37452_E_tif
  70
32
  10
565194.039
  20
4581126.523
  30
848.241
  0
VERTEX
  8
PNOA-H_AMS_1956-57_33k_ES_PAN_21mic_H50_0407_fot_45C-37452_E_tif
  70
32
  10
565615.500
  20
4581375.500
  30
859.684
  0
VERTEX
  8
PNOA-H_AMS_1956-57_33k_ES_PAN_21mic_H50_0407_fot_45C-37452_E_tif
  70
32
  10
565616.500
  20
4581376.000
  30
859.502
  0
VERTEX
  8
PNOA-H_AMS_1956-57_33k_ES_PAN_21mic_H50_0407_fot_45C-37452_E_tif
  70
32
  10
565616.512
  20
4581375.999
  30
859.501
  0
VERTEX
  8
PNOA-H_AMS_1956-57_33k_ES_PAN_21mic_H50_0407_fot_45C-37452_E_tif
  70
32
  10
567938.724
  20
4581271.306
  30
810.896
  0
VERTEX
  8
PNOA-H_AMS_1956-57_33k_ES_PAN_21mic_H50_0407_fot_45C-37452_E_tif
  70
32
  10
567944.029
  20
4580705.420
  30
0
  0
VERTEX
  8
PNOA-H_AMS_1956-57_33k_ES_PAN_21mic_H50_0407_fot_45C-37452_E_tif
  70
32
  10
567956.156
  20
4579411.509
  30
0
  0
VERTEX
  8
PNOA-H_AMS_1956-57_33k_ES_PAN_21mic_H50_0407_fot_45C-37452_E_tif
  70
32
  10
567956.159
  20
4579411.150
  30
835.709
  0
SEQEND
  8
PNOA-H_AMS_1956-57_33k_ES_PAN_21mic_H50_0407_fot_45C-37452_E_tif
  0
INSERT
  8
FeatureAttribs
  2
FEATURE
  41
1
  42
1
  43
1
  50
0
  10
564128.510
  20
4577823.000
 66
1
  0
ATTRIB
  8
FeatureAttribs
 70
0
  1
PNOA-H_AMS_1956-57_33k_ES_PAN_21mic_H50_0407_fot_000-36191_R.tif
  2
NAME
  10
564128.510
  20
4577823.000
 40
33.67194
  0
SEQEND
  0
POLYLINE
  8
PNOA-H_AMS_1956-57_33k_ES_PAN_21mic_H50_0407_fot_000-36191_R_tif
  70
9
  66
1
  0
VERTEX
  8
PNOA-H_AMS_1956-57_33k_ES_PAN_21mic_H50_0407_fot_000-36191_R_tif
  70
32
  10
565586.579
  20
4576889.452
  30
843.576
  0
VERTEX
  8
PNOA-H_AMS_1956-57_33k_ES_PAN_21mic_H50_0407_fot_000-36191_R_tif
  70
32
  10
564849.500
  20
4576805.000
  30
853.337
  0
VERTEX
  8
PNOA-H_AMS_1956-57_33k_ES_PAN_21mic_H50_0407_fot_000-36191_R_tif
  70
32
  10
564846.160
  20
4576805.000
  30
853.246
  0
VERTEX
  8
PNOA-H_AMS_1956-57_33k_ES_PAN_21mic_H50_0407_fot_000-36191_R_tif
  70
32
  10
564845.000
  20
4576805.000
  30
853.214
  0
VERTEX
  8
PNOA-H_AMS_1956-57_33k_ES_PAN_21mic_H50_0407_fot_000-36191_R_tif
  70
32
  10
564040.017
  20
4576712.990
  30
873.797
  0
VERTEX
  8
PNOA-H_AMS_1956-57_33k_ES_PAN_21mic_H50_0407_fot_000-36191_R_tif
  70
32
  10
562999.000
  20
4576594.000
  30
900.416
  0
VERTEX
  8
PNOA-H_AMS_1956-57_33k_ES_PAN_21mic_H50_0407_fot_000-36191_R_tif
  70
32
  10
562998.707
  20
4576594.138
  30
900.424
  0
VERTEX
  8
PNOA-H_AMS_1956-57_33k_ES_PAN_21mic_H50_0407_fot_000-36191_R_tif
  70
32
  10
562996.005
  20
4576595.410
  30
900.495
  0
VERTEX
  8
PNOA-H_AMS_1956-57_33k_ES_PAN_21mic_H50_0407_fot_000-36191_R_tif
  70
32
  10
562990.500
  20
4576598.000
  30
900.64
  0
VERTEX
  8
PNOA-H_AMS_1956-57_33k_ES_PAN_21mic_H50_0407_fot_000-36191_R_tif
  70
32
  10
562791.242
  20
4576719.547
  30
893.392
  0
VERTEX
  8
PNOA-H_AMS_1956-57_33k_ES_PAN_21mic_H50_0407_fot_000-36191_R_tif
  70
32
  10
562790.500
  20
4576720.000
  30
893.365
  0
VERTEX
  8
PNOA-H_AMS_1956-57_33k_ES_PAN_21mic_H50_0407_fot_000-36191_R_tif
  70
32
  10
562630.500
  20
4579052.000
  30
877.776
  0
VERTEX
  8
PNOA-H_AMS_1956-57_33k_ES_PAN_21mic_H50_0407_fot_000-36191_R_tif
  70
32
  10
562630.535
  20
4579051.993
  30
877.775
  0
VERTEX
  8
PNOA-H_AMS_1956-57_33k_ES_PAN_21mic_H50_0407_fot_000-36191_R_tif
  70
32
  10
562631.377
  20
4579051.811
  30
877.763
  0
VERTEX
  8
PNOA-H_AMS_1956-57_33k_ES_PAN_21mic_H50_0407_fot_000-36191_R_tif
  70
32
  10
565511.500
  20
4578432.500
  30
837.028
  0
VERTEX
  8
PNOA-H_AMS_1956-57_33k_ES_PAN_21mic_H50_0407_fot_000-36191_R_tif
  70
32
  10
565513.841
  20
4578411.896
  30
838.253
  0
VERTEX
  8
PNOA-H_AMS_1956-57_33k_ES_PAN_21mic_H50_0407_fot_000-36191_R_tif
  70
32
  10
565514.000
  20
4578410.500
  30
838.335
  0
VERTEX
  8
PNOA-H_AMS_1956-57_33k_ES_PAN_21mic_H50_0407_fot_000-36191_R_tif
  70
32
  10
565587.000
  20
4576889.500
  30
843.571
  0
VERTEX
  8
PNOA-H_AMS_1956-57_33k_ES_PAN_21mic_H50_0407_fot_000-36191_R_tif
  70
32
  10
565586.579
  20
4576889.452
  30
843.576
  0
SEQEND
  8
PNOA-H_AMS_1956-57_33k_ES_PAN_21mic_H50_0407_fot_000-36191_R_tif
  0
INSERT
  8
FeatureAttribs
  2
FEATURE
  41
1
  42
1
  43
1
  50
0
  10
566749.879
  20
4578056.755
 66
1
  0
ATTRIB
  8
FeatureAttribs
 70
0
  1
PNOA-H_AMS_1956-57_33k_ES_PAN_21mic_H50_0407_fot_000-36192_R.tif
  2
NAME
  10
566749.879
  20
4578056.755
 40
33.67194
  0
SEQEND
  0
POLYLINE
  8
PNOA-H_AMS_1956-57_33k_ES_PAN_21mic_H50_0407_fot_000-36192_R_tif
  70
9
  66
1
  0
VERTEX
  8
PNOA-H_AMS_1956-57_33k_ES_PAN_21mic_H50_0407_fot_000-36192_R_tif
  70
32
  10
565894.867
  20
4576702.081
  30
848.556
  0
VERTEX
  8
PNOA-H_AMS_1956-57_33k_ES_PAN_21mic_H50_0407_fot_000-36192_R_tif
  70
32
  10
565894.000
  20
4576702.000
  30
848.562
  0
VERTEX
  8
PNOA-H_AMS_1956-57_33k_ES_PAN_21mic_H50_0407_fot_000-36192_R_tif
  70
32
  10
565734.163
  20
4576799.620
  30
845.963
  0
VERTEX
  8
PNOA-H_AMS_1956-57_33k_ES_PAN_21mic_H50_0407_fot_000-36192_R_tif
  70
32
  10
565587.000
  20
4576889.500
  30
843.571
  0
VERTEX
  8
PNOA-H_AMS_1956-57_33k_ES_PAN_21mic_H50_0407_fot_000-36192_R_tif
  70
32
  10
565513.841
  20
4578411.896
  30
837.771
  0
VERTEX
  8
PNOA-H_AMS_1956-57_33k_ES_PAN_21mic_H50_0407_fot_000-36192_R_tif
  70
32
  10
565513.500
  20
4578419.000
  30
837.744
  0
VERTEX
  8
PNOA-H_AMS_1956-57_33k_ES_PAN_21mic_H50_0407_fot_000-36192_R_tif
  70
32
  10
567956.156
  20
4579411.509
  30
835.796
  0
VERTEX
  8
PNOA-H_AMS_1956-57_33k_ES_PAN_21mic_H50_0407_fot_000-36192_R_tif
  70
32
  10
567956.159
  20
4579411.150
  30
835.797
  0
VERTEX
  8
PNOA-H_AMS_1956-57_33k_ES_PAN_21mic_H50_0407_fot_000-36192_R_tif
  70
32
  10
567965.706
  20
4578392.545
  30
0
  0
VERTEX
  8
PNOA-H_AMS_1956-57_33k_ES_PAN_21mic_H50_0407_fot_000-36192_R_tif
  70
32
  10
567979.725
  20
4576896.032
  30
0
  0
VERTEX
  8
PNOA-H_AMS_1956-57_33k_ES_PAN_21mic_H50_0407_fot_000-36192_R_tif
  70
32
  10
567979.728
  20
4576895.707
  30
842.267
  0
VERTEX
  8
PNOA-H_AMS_1956-57_33k_ES_PAN_21mic_H50_0407_fot_000-36192_R_tif
  70
32
  10
567006.500
  20
4576805.000
  30
842.287
  0
VERTEX
  8
PNOA-H_AMS_1956-57_33k_ES_PAN_21mic_H50_0407_fot_000-36192_R_tif
  70
32
  10
567001.000
  20
4576805.000
  30
841.333
  0
VERTEX
  8
PNOA-H_AMS_1956-57_33k_ES_PAN_21mic_H50_0407_fot_000-36192_R_tif
  70
32
  10
566841.680
  20
4576790.176
  30
842.374
  0
VERTEX
  8
PNOA-H_AMS_1956-57_33k_ES_PAN_21mic_H50_0407_fot_000-36192_R_tif
  70
32
  10
565894.867
  20
4576702.081
  30
848.556
  0
SEQEND
  8
PNOA-H_AMS_1956-57_33k_ES_PAN_21mic_H50_0407_fot_000-36192_R_tif
  0
INSERT
  8
FeatureAttribs
  2
FEATURE
  41
1
  42
1
  43
1
  50
0
  10
566940.422
  20
4576478.337
 66
1
  0
ATTRIB
  8
FeatureAttribs
 70
0
  1
PNOA-H_AMS_1956-57_33k_ES_PAN_21mic_H50_0435_fot_46B-29761_E.tif
  2
NAME
  10
566940.422
  20
4576478.337
 40
33.67194
  0
SEQEND
  0
POLYLINE
  8
PNOA-H_AMS_1956-57_33k_ES_PAN_21mic_H50_0435_fot_46B-29761_E_tif
  70
9
  66
1
  0
VERTEX
  8
PNOA-H_AMS_1956-57_33k_ES_PAN_21mic_H50_0435_fot_46B-29761_E_tif
  70
32
  10
567987.373
  20
4576079.679
  30
0
  0
VERTEX
  8
PNOA-H_AMS_1956-57_33k_ES_PAN_21mic_H50_0435_fot_46B-29761_E_tif
  70
32
  10
565901.323
  20
4576060.642
  30
847.901
  0
VERTEX
  8
PNOA-H_AMS_1956-57_33k_ES_PAN_21mic_H50_0435_fot_46B-29761_E_tif
  70
32
  10
565895.000
  20
4576702.000
  30
848.593
  0
VERTEX
  8
PNOA-H_AMS_1956-57_33k_ES_PAN_21mic_H50_0435_fot_46B-29761_E_tif
  70
32
  10
566841.680
  20
4576790.176
  30
850.763
  0
VERTEX
  8
PNOA-H_AMS_1956-57_33k_ES_PAN_21mic_H50_0435_fot_46B-29761_E_tif
  70
32
  10
567747.000
  20
4576874.500
  30
852.837
  0
VERTEX
  8
PNOA-H_AMS_1956-57_33k_ES_PAN_21mic_H50_0435_fot_46B-29761_E_tif
  70
32
  10
567752.500
  20
4576875.000
  30
852.647
  0
VERTEX
  8
PNOA-H_AMS_1956-57_33k_ES_PAN_21mic_H50_0435_fot_46B-29761_E_tif
  70
32
  10
567979.725
  20
4576896.032
  30
849.953
  0
VERTEX
  8
PNOA-H_AMS_1956-57_33k_ES_PAN_21mic_H50_0435_fot_46B-29761_E_tif
  70
32
  10
567979.728
  20
4576895.707
  30
0
  0
VERTEX
  8
PNOA-H_AMS_1956-57_33k_ES_PAN_21mic_H50_0435_fot_46B-29761_E_tif
  70
32
  10
567987.373
  20
4576079.679
  30
0
  0
SEQEND
  8
PNOA-H_AMS_1956-57_33k_ES_PAN_21mic_H50_0435_fot_46B-29761_E_tif
  0
INSERT
  8
FeatureAttribs
  2
FEATURE
  41
1
  42
1
  43
1
  50
0
  10
564447.893
  20
4576462.199
 66
1
  0
ATTRIB
  8
FeatureAttribs
 70
0
  1
PNOA-H_AMS_1956-57_33k_ES_PAN_21mic_H50_0435_fot_46B-29762_E.tif
  2
NAME
  10
564447.893
  20
4576462.199
 40
33.67194
  0
SEQEND
  0
POLYLINE
  8
PNOA-H_AMS_1956-57_33k_ES_PAN_21mic_H50_0435_fot_46B-29762_E_tif
  70
9
  66
1
  0
VERTEX
  8
PNOA-H_AMS_1956-57_33k_ES_PAN_21mic_H50_0435_fot_46B-29762_E_tif
  70
32
  10
563001.443
  20
4576034.898
  30
0
  0
VERTEX
  8
PNOA-H_AMS_1956-57_33k_ES_PAN_21mic_H50_0435_fot_46B-29762_E_tif
  70
32
  10
563001.413
  20
4576034.897
  30
890.219
  0
VERTEX
  8
PNOA-H_AMS_1956-57_33k_ES_PAN_21mic_H50_0435_fot_46B-29762_E_tif
  70
32
  10
562997.500
  20
4576594.000
  30
900.502
  0
VERTEX
  8
PNOA-H_AMS_1956-57_33k_ES_PAN_21mic_H50_0435_fot_46B-29762_E_tif
  70
32
  10
562997.504
  20
4576594.000
  30
900.502
  0
VERTEX
  8
PNOA-H_AMS_1956-57_33k_ES_PAN_21mic_H50_0435_fot_46B-29762_E_tif
  70
32
  10
562998.707
  20
4576594.138
  30
900.475
  0
VERTEX
  8
PNOA-H_AMS_1956-57_33k_ES_PAN_21mic_H50_0435_fot_46B-29762_E_tif
  70
32
  10
564040.017
  20
4576712.990
  30
877.576
  0
VERTEX
  8
PNOA-H_AMS_1956-57_33k_ES_PAN_21mic_H50_0435_fot_46B-29762_E_tif
  70
32
  10
564846.160
  20
4576805.000
  30
859.848
  0
VERTEX
  8
PNOA-H_AMS_1956-57_33k_ES_PAN_21mic_H50_0435_fot_46B-29762_E_tif
  70
32
  10
565586.500
  20
4576889.500
  30
843.567
  0
VERTEX
  8
PNOA-H_AMS_1956-57_33k_ES_PAN_21mic_H50_0435_fot_46B-29762_E_tif
  70
32
  10
565586.579
  20
4576889.452
  30
843.569
  0
VERTEX
  8
PNOA-H_AMS_1956-57_33k_ES_PAN_21mic_H50_0435_fot_46B-29762_E_tif
  70
32
  10
565707.000
  20
4576816.000
  30
845.671
  0
VERTEX
  8
PNOA-H_AMS_1956-57_33k_ES_PAN_21mic_H50_0435_fot_46B-29762_E_tif
  70
32
  10
565708.000
  20
4576815.500
  30
845.659
  0
VERTEX
  8
PNOA-H_AMS_1956-57_33k_ES_PAN_21mic_H50_0435_fot_46B-29762_E_tif
  70
32
  10
565734.163
  20
4576799.620
  30
846.07
  0
VERTEX
  8
PNOA-H_AMS_1956-57_33k_ES_PAN_21mic_H50_0435_fot_46B-29762_E_tif
  70
32
  10
565894.867
  20
4576702.081
  30
848.591
  0
VERTEX
  8
PNOA-H_AMS_1956-57_33k_ES_PAN_21mic_H50_0435_fot_46B-29762_E_tif
  70
32
  10
565895.000
  20
4576702.000
  30
848.593
  0
VERTEX
  8
PNOA-H_AMS_1956-57_33k_ES_PAN_21mic_H50_0435_fot_46B-29762_E_tif
  70
32
  10
565901.323
  20
4576060.642
  30
847.881
  0
VERTEX
  8
PNOA-H_AMS_1956-57_33k_ES_PAN_21mic_H50_0435_fot_46B-29762_E_tif
  70
32
  10
564500.813
  20
4576047.861
  30
0
  0
VERTEX
  8
PNOA-H_AMS_1956-57_33k_ES_PAN_21mic_H50_0435_fot_46B-29762_E_tif
  70
32
  10
563001.443
  20
4576034.898
  30
0
  0
SEQEND
  8
PNOA-H_AMS_1956-57_33k_ES_PAN_21mic_H50_0435_fot_46B-29762_E_tif
  0
ENDSEC
  0
EOF
