  0
SECTION
  2
HEADER
  9
$ACADVER
  1
AC1009
  9
$LUNITS
  70
2
  9
$LIMMIN
  10
512171.656
  20
4575771.554
  9
$LIMMAX
  10
540095.004
  20
4594375.033
  9
$EXTMIN
  10
512171.656
  20
4575771.554
  9
$EXTMAX
  10
540095.004
  20
4594375.033
  999
Created by Global Mapper
  999
Projection: UTM
  999
Datum: ETRS89
  999
Ground Units: meters
  999
ZONE: 30
  0
ENDSEC
  0
SECTION
  2
TABLES
  0
ENDSEC
  0
SECTION
  2
BLOCKS
  0
BLOCK
  8
FeatureAttribs
  70
0
  2
FEATURE
  3
FEATURE
  10
0.00000000
  20
0.00000000
  0
ATTDEF
  8
FeatureAttribs
  70
0
  1
 
  2
NAME
  3
NAME
  10
0.00000000
  20
0.00000000
  40
1.00000000
  0
ENDBLK
  0
ENDSEC
  0
SECTION
  2
ENTITIES
  0
INSERT
  8
FeatureAttribs
  2
FEATURE
  41
1
  42
1
  43
1
  50
0
  10
512285.351
  20
4594205.995
 66
1
  0
ATTRIB
  8
FeatureAttribs
 70
0
  1
PNOA-H_AMS_1956-57_33k_ES_PAN_21mic_H50_0377_fot_41B-37397_W.tif
  2
NAME
  10
512285.351
  20
4594205.995
 40
33.55298
  0
SEQEND
  0
POLYLINE
  8
PNOA-H_AMS_1956-57_33k_ES_PAN_21mic_H50_0377_fot_41B-37397_W_tif
  70
9
  66
1
  0
VERTEX
  8
PNOA-H_AMS_1956-57_33k_ES_PAN_21mic_H50_0377_fot_41B-37397_W_tif
  70
32
  10
512515.500
  20
4594241.500
  30
929.331
  0
VERTEX
  8
PNOA-H_AMS_1956-57_33k_ES_PAN_21mic_H50_0377_fot_41B-37397_W_tif
  70
32
  10
512171.888
  20
4594136.841
  30
921.561
  0
VERTEX
  8
PNOA-H_AMS_1956-57_33k_ES_PAN_21mic_H50_0377_fot_41B-37397_W_tif
  70
32
  10
512171.887
  20
4594137.222
  30
0
  0
VERTEX
  8
PNOA-H_AMS_1956-57_33k_ES_PAN_21mic_H50_0377_fot_41B-37397_W_tif
  70
32
  10
512171.656
  20
4594274.486
  30
0
  0
VERTEX
  8
PNOA-H_AMS_1956-57_33k_ES_PAN_21mic_H50_0377_fot_41B-37397_W_tif
  70
32
  10
512515.115
  20
4594275.148
  30
0
  0
VERTEX
  8
PNOA-H_AMS_1956-57_33k_ES_PAN_21mic_H50_0377_fot_41B-37397_W_tif
  70
32
  10
512515.476
  20
4594275.149
  30
929.308
  0
VERTEX
  8
PNOA-H_AMS_1956-57_33k_ES_PAN_21mic_H50_0377_fot_41B-37397_W_tif
  70
32
  10
512516.000
  20
4594255.500
  30
929.264
  0
VERTEX
  8
PNOA-H_AMS_1956-57_33k_ES_PAN_21mic_H50_0377_fot_41B-37397_W_tif
  70
32
  10
512515.794
  20
4594249.726
  30
929.292
  0
VERTEX
  8
PNOA-H_AMS_1956-57_33k_ES_PAN_21mic_H50_0377_fot_41B-37397_W_tif
  70
32
  10
512515.518
  20
4594241.995
  30
929.329
  0
VERTEX
  8
PNOA-H_AMS_1956-57_33k_ES_PAN_21mic_H50_0377_fot_41B-37397_W_tif
  70
32
  10
512515.500
  20
4594241.500
  30
929.331
  0
SEQEND
  8
PNOA-H_AMS_1956-57_33k_ES_PAN_21mic_H50_0377_fot_41B-37397_W_tif
  0
INSERT
  8
FeatureAttribs
  2
FEATURE
  41
1
  42
1
  43
1
  50
0
  10
513096.600
  20
4591672.000
 66
1
  0
ATTRIB
  8
FeatureAttribs
 70
0
  1
PNOA-H_AMS_1956-57_33k_ES_PAN_21mic_H50_0406_fot_42B-36321_E.tif
  2
NAME
  10
513096.600
  20
4591672.000
 40
33.55298
  0
SEQEND
  0
POLYLINE
  8
PNOA-H_AMS_1956-57_33k_ES_PAN_21mic_H50_0406_fot_42B-36321_E_tif
  70
9
  66
1
  0
VERTEX
  8
PNOA-H_AMS_1956-57_33k_ES_PAN_21mic_H50_0406_fot_42B-36321_E_tif
  70
32
  10
514024.500
  20
4589572.500
  30
955.377
  0
VERTEX
  8
PNOA-H_AMS_1956-57_33k_ES_PAN_21mic_H50_0406_fot_42B-36321_E_tif
  70
32
  10
512514.500
  20
4589102.000
  30
935.416
  0
VERTEX
  8
PNOA-H_AMS_1956-57_33k_ES_PAN_21mic_H50_0406_fot_42B-36321_E_tif
  70
32
  10
512513.000
  20
4589102.000
  30
935.463
  0
VERTEX
  8
PNOA-H_AMS_1956-57_33k_ES_PAN_21mic_H50_0406_fot_42B-36321_E_tif
  70
32
  10
512511.500
  20
4589102.000
  30
935.51
  0
VERTEX
  8
PNOA-H_AMS_1956-57_33k_ES_PAN_21mic_H50_0406_fot_42B-36321_E_tif
  70
32
  10
512497.500
  20
4589106.500
  30
935.794
  0
VERTEX
  8
PNOA-H_AMS_1956-57_33k_ES_PAN_21mic_H50_0406_fot_42B-36321_E_tif
  70
32
  10
512180.193
  20
4589210.127
  30
951.422
  0
VERTEX
  8
PNOA-H_AMS_1956-57_33k_ES_PAN_21mic_H50_0406_fot_42B-36321_E_tif
  70
32
  10
512180.192
  20
4589210.632
  30
0
  0
VERTEX
  8
PNOA-H_AMS_1956-57_33k_ES_PAN_21mic_H50_0406_fot_42B-36321_E_tif
  70
32
  10
512179.454
  20
4589648.703
  30
0
  0
VERTEX
  8
PNOA-H_AMS_1956-57_33k_ES_PAN_21mic_H50_0406_fot_42B-36321_E_tif
  70
32
  10
512175.556
  20
4591961.590
  30
0
  0
VERTEX
  8
PNOA-H_AMS_1956-57_33k_ES_PAN_21mic_H50_0406_fot_42B-36321_E_tif
  70
32
  10
512171.888
  20
4594136.841
  30
0
  0
VERTEX
  8
PNOA-H_AMS_1956-57_33k_ES_PAN_21mic_H50_0406_fot_42B-36321_E_tif
  70
32
  10
512171.887
  20
4594137.222
  30
921.584
  0
VERTEX
  8
PNOA-H_AMS_1956-57_33k_ES_PAN_21mic_H50_0406_fot_42B-36321_E_tif
  70
32
  10
512514.000
  20
4594241.500
  30
929.325
  0
VERTEX
  8
PNOA-H_AMS_1956-57_33k_ES_PAN_21mic_H50_0406_fot_42B-36321_E_tif
  70
32
  10
512515.500
  20
4594242.000
  30
929.334
  0
VERTEX
  8
PNOA-H_AMS_1956-57_33k_ES_PAN_21mic_H50_0406_fot_42B-36321_E_tif
  70
32
  10
512515.518
  20
4594241.995
  30
929.334
  0
VERTEX
  8
PNOA-H_AMS_1956-57_33k_ES_PAN_21mic_H50_0406_fot_42B-36321_E_tif
  70
32
  10
512784.840
  20
4594173.223
  30
928.445
  0
VERTEX
  8
PNOA-H_AMS_1956-57_33k_ES_PAN_21mic_H50_0406_fot_42B-36321_E_tif
  70
32
  10
514003.973
  20
4593861.911
  30
924.422
  0
VERTEX
  8
PNOA-H_AMS_1956-57_33k_ES_PAN_21mic_H50_0406_fot_42B-36321_E_tif
  70
32
  10
514009.500
  20
4593860.500
  30
924.404
  0
VERTEX
  8
PNOA-H_AMS_1956-57_33k_ES_PAN_21mic_H50_0406_fot_42B-36321_E_tif
  70
32
  10
514024.499
  20
4589573.000
  30
955.373
  0
VERTEX
  8
PNOA-H_AMS_1956-57_33k_ES_PAN_21mic_H50_0406_fot_42B-36321_E_tif
  70
32
  10
514024.500
  20
4589572.500
  30
955.377
  0
SEQEND
  8
PNOA-H_AMS_1956-57_33k_ES_PAN_21mic_H50_0406_fot_42B-36321_E_tif
  0
INSERT
  8
FeatureAttribs
  2
FEATURE
  41
1
  42
1
  43
1
  50
0
  10
516884.870
  20
4594127.141
 66
1
  0
ATTRIB
  8
FeatureAttribs
 70
0
  1
PNOA-H_AMS_1956-57_33k_ES_PAN_21mic_H50_0378_fot_41B-37395_W.tif
  2
NAME
  10
516884.870
  20
4594127.141
 40
33.55298
  0
SEQEND
  0
POLYLINE
  8
PNOA-H_AMS_1956-57_33k_ES_PAN_21mic_H50_0378_fot_41B-37395_W_tif
  70
9
  66
1
  0
VERTEX
  8
PNOA-H_AMS_1956-57_33k_ES_PAN_21mic_H50_0378_fot_41B-37395_W_tif
  70
32
  10
517970.389
  20
4594286.782
  30
902.209
  0
VERTEX
  8
PNOA-H_AMS_1956-57_33k_ES_PAN_21mic_H50_0378_fot_41B-37395_W_tif
  70
32
  10
516944.500
  20
4593967.500
  30
899.316
  0
VERTEX
  8
PNOA-H_AMS_1956-57_33k_ES_PAN_21mic_H50_0378_fot_41B-37395_W_tif
  70
32
  10
516944.224
  20
4593967.570
  30
899.318
  0
VERTEX
  8
PNOA-H_AMS_1956-57_33k_ES_PAN_21mic_H50_0378_fot_41B-37395_W_tif
  70
32
  10
516656.200
  20
4594040.300
  30
901.089
  0
VERTEX
  8
PNOA-H_AMS_1956-57_33k_ES_PAN_21mic_H50_0378_fot_41B-37395_W_tif
  70
32
  10
515701.738
  20
4594281.316
  30
906.956
  0
VERTEX
  8
PNOA-H_AMS_1956-57_33k_ES_PAN_21mic_H50_0378_fot_41B-37395_W_tif
  70
32
  10
515703.378
  20
4594281.320
  30
0
  0
VERTEX
  8
PNOA-H_AMS_1956-57_33k_ES_PAN_21mic_H50_0378_fot_41B-37395_W_tif
  70
32
  10
517969.131
  20
4594286.779
  30
0
  0
VERTEX
  8
PNOA-H_AMS_1956-57_33k_ES_PAN_21mic_H50_0378_fot_41B-37395_W_tif
  70
32
  10
517970.389
  20
4594286.782
  30
902.209
  0
SEQEND
  8
PNOA-H_AMS_1956-57_33k_ES_PAN_21mic_H50_0378_fot_41B-37395_W_tif
  0
INSERT
  8
FeatureAttribs
  2
FEATURE
  41
1
  42
1
  43
1
  50
0
  10
513931.416
  20
4594070.548
 66
1
  0
ATTRIB
  8
FeatureAttribs
 70
0
  1
PNOA-H_AMS_1956-57_33k_ES_PAN_21mic_H50_0378_fot_41B-37396_W.tif
  2
NAME
  10
513931.416
  20
4594070.548
 40
33.55298
  0
SEQEND
  0
POLYLINE
  8
PNOA-H_AMS_1956-57_33k_ES_PAN_21mic_H50_0378_fot_41B-37396_W_tif
  70
9
  66
1
  0
VERTEX
  8
PNOA-H_AMS_1956-57_33k_ES_PAN_21mic_H50_0378_fot_41B-37396_W_tif
  70
32
  10
515341.806
  20
4594280.597
  30
909.929
  0
VERTEX
  8
PNOA-H_AMS_1956-57_33k_ES_PAN_21mic_H50_0378_fot_41B-37396_W_tif
  70
32
  10
514011.500
  20
4593860.500
  30
924.382
  0
VERTEX
  8
PNOA-H_AMS_1956-57_33k_ES_PAN_21mic_H50_0378_fot_41B-37396_W_tif
  70
32
  10
514010.245
  20
4593860.735
  30
924.397
  0
VERTEX
  8
PNOA-H_AMS_1956-57_33k_ES_PAN_21mic_H50_0378_fot_41B-37396_W_tif
  70
32
  10
514003.973
  20
4593861.911
  30
924.474
  0
VERTEX
  8
PNOA-H_AMS_1956-57_33k_ES_PAN_21mic_H50_0378_fot_41B-37396_W_tif
  70
32
  10
513995.500
  20
4593863.500
  30
924.579
  0
VERTEX
  8
PNOA-H_AMS_1956-57_33k_ES_PAN_21mic_H50_0378_fot_41B-37396_W_tif
  70
32
  10
512784.840
  20
4594173.223
  30
928.471
  0
VERTEX
  8
PNOA-H_AMS_1956-57_33k_ES_PAN_21mic_H50_0378_fot_41B-37396_W_tif
  70
32
  10
512516.000
  20
4594242.000
  30
929.336
  0
VERTEX
  8
PNOA-H_AMS_1956-57_33k_ES_PAN_21mic_H50_0378_fot_41B-37396_W_tif
  70
32
  10
512515.794
  20
4594249.726
  30
929.349
  0
VERTEX
  8
PNOA-H_AMS_1956-57_33k_ES_PAN_21mic_H50_0378_fot_41B-37396_W_tif
  70
32
  10
512515.115
  20
4594275.148
  30
929.393
  0
VERTEX
  8
PNOA-H_AMS_1956-57_33k_ES_PAN_21mic_H50_0378_fot_41B-37396_W_tif
  70
32
  10
512515.476
  20
4594275.149
  30
0
  0
VERTEX
  8
PNOA-H_AMS_1956-57_33k_ES_PAN_21mic_H50_0378_fot_41B-37396_W_tif
  70
32
  10
515340.059
  20
4594280.593
  30
0
  0
VERTEX
  8
PNOA-H_AMS_1956-57_33k_ES_PAN_21mic_H50_0378_fot_41B-37396_W_tif
  70
32
  10
515341.806
  20
4594280.597
  30
909.929
  0
SEQEND
  8
PNOA-H_AMS_1956-57_33k_ES_PAN_21mic_H50_0378_fot_41B-37396_W_tif
  0
INSERT
  8
FeatureAttribs
  2
FEATURE
  41
1
  42
1
  43
1
  50
0
  10
519788.618
  20
4594179.387
 66
1
  0
ATTRIB
  8
FeatureAttribs
 70
0
  1
PNOA-H_AMS_1956-57_33k_ES_PAN_21mic_H50_0378_fot_41B-37394_W.tif
  2
NAME
  10
519788.618
  20
4594179.387
 40
33.55298
  0
SEQEND
  0
POLYLINE
  8
PNOA-H_AMS_1956-57_33k_ES_PAN_21mic_H50_0378_fot_41B-37394_W_tif
  70
9
  66
1
  0
VERTEX
  8
PNOA-H_AMS_1956-57_33k_ES_PAN_21mic_H50_0378_fot_41B-37394_W_tif
  70
32
  10
520581.575
  20
4594293.774
  30
906.421
  0
VERTEX
  8
PNOA-H_AMS_1956-57_33k_ES_PAN_21mic_H50_0378_fot_41B-37394_W_tif
  70
32
  10
519888.000
  20
4594065.000
  30
904.823
  0
VERTEX
  8
PNOA-H_AMS_1956-57_33k_ES_PAN_21mic_H50_0378_fot_41B-37394_W_tif
  70
32
  10
519887.083
  20
4594065.192
  30
904.822
  0
VERTEX
  8
PNOA-H_AMS_1956-57_33k_ES_PAN_21mic_H50_0378_fot_41B-37394_W_tif
  70
32
  10
519208.920
  20
4594207.384
  30
904.116
  0
VERTEX
  8
PNOA-H_AMS_1956-57_33k_ES_PAN_21mic_H50_0378_fot_41B-37394_W_tif
  70
32
  10
518820.477
  20
4594288.830
  30
903.711
  0
VERTEX
  8
PNOA-H_AMS_1956-57_33k_ES_PAN_21mic_H50_0378_fot_41B-37394_W_tif
  70
32
  10
518821.326
  20
4594288.832
  30
0
  0
VERTEX
  8
PNOA-H_AMS_1956-57_33k_ES_PAN_21mic_H50_0378_fot_41B-37394_W_tif
  70
32
  10
519126.891
  20
4594289.568
  30
0
  0
VERTEX
  8
PNOA-H_AMS_1956-57_33k_ES_PAN_21mic_H50_0378_fot_41B-37394_W_tif
  70
32
  10
520580.086
  20
4594293.770
  30
0
  0
VERTEX
  8
PNOA-H_AMS_1956-57_33k_ES_PAN_21mic_H50_0378_fot_41B-37394_W_tif
  70
32
  10
520581.575
  20
4594293.774
  30
906.421
  0
SEQEND
  8
PNOA-H_AMS_1956-57_33k_ES_PAN_21mic_H50_0378_fot_41B-37394_W_tif
  0
INSERT
  8
FeatureAttribs
  2
FEATURE
  41
1
  42
1
  43
1
  50
0
  10
518427.039
  20
4591730.166
 66
1
  0
ATTRIB
  8
FeatureAttribs
 70
0
  1
PNOA-H_AMS_1956-57_33k_ES_PAN_21mic_H50_0406_fot_42B-36323_E.tif
  2
NAME
  10
518427.039
  20
4591730.166
 40
33.55298
  0
SEQEND
  0
POLYLINE
  8
PNOA-H_AMS_1956-57_33k_ES_PAN_21mic_H50_0406_fot_42B-36323_E_tif
  70
9
  66
1
  0
VERTEX
  8
PNOA-H_AMS_1956-57_33k_ES_PAN_21mic_H50_0406_fot_42B-36323_E_tif
  70
32
  10
519910.000
  20
4589596.500
  30
1015.768
  0
VERTEX
  8
PNOA-H_AMS_1956-57_33k_ES_PAN_21mic_H50_0406_fot_42B-36323_E_tif
  70
32
  10
518173.001
  20
4589171.500
  30
1045.781
  0
VERTEX
  8
PNOA-H_AMS_1956-57_33k_ES_PAN_21mic_H50_0406_fot_42B-36323_E_tif
  70
32
  10
516966.000
  20
4589611.500
  30
1038.379
  0
VERTEX
  8
PNOA-H_AMS_1956-57_33k_ES_PAN_21mic_H50_0406_fot_42B-36323_E_tif
  70
32
  10
516944.000
  20
4593967.500
  30
899.335
  0
VERTEX
  8
PNOA-H_AMS_1956-57_33k_ES_PAN_21mic_H50_0406_fot_42B-36323_E_tif
  70
32
  10
516944.224
  20
4593967.570
  30
899.335
  0
VERTEX
  8
PNOA-H_AMS_1956-57_33k_ES_PAN_21mic_H50_0406_fot_42B-36323_E_tif
  70
32
  10
517969.131
  20
4594286.779
  30
902.205
  0
VERTEX
  8
PNOA-H_AMS_1956-57_33k_ES_PAN_21mic_H50_0406_fot_42B-36323_E_tif
  70
32
  10
517970.389
  20
4594286.782
  30
0
  0
VERTEX
  8
PNOA-H_AMS_1956-57_33k_ES_PAN_21mic_H50_0406_fot_42B-36323_E_tif
  70
32
  10
518820.477
  20
4594288.830
  30
0
  0
VERTEX
  8
PNOA-H_AMS_1956-57_33k_ES_PAN_21mic_H50_0406_fot_42B-36323_E_tif
  70
32
  10
518821.326
  20
4594288.832
  30
903.909
  0
VERTEX
  8
PNOA-H_AMS_1956-57_33k_ES_PAN_21mic_H50_0406_fot_42B-36323_E_tif
  70
32
  10
519208.920
  20
4594207.384
  30
904.24
  0
VERTEX
  8
PNOA-H_AMS_1956-57_33k_ES_PAN_21mic_H50_0406_fot_42B-36323_E_tif
  70
32
  10
519886.500
  20
4594065.000
  30
904.819
  0
VERTEX
  8
PNOA-H_AMS_1956-57_33k_ES_PAN_21mic_H50_0406_fot_42B-36323_E_tif
  70
32
  10
519909.998
  20
4589596.877
  30
1015.759
  0
VERTEX
  8
PNOA-H_AMS_1956-57_33k_ES_PAN_21mic_H50_0406_fot_42B-36323_E_tif
  70
32
  10
519910.000
  20
4589596.500
  30
1015.768
  0
SEQEND
  8
PNOA-H_AMS_1956-57_33k_ES_PAN_21mic_H50_0406_fot_42B-36323_E_tif
  0
INSERT
  8
FeatureAttribs
  2
FEATURE
  41
1
  42
1
  43
1
  50
0
  10
515486.284
  20
4591692.160
 66
1
  0
ATTRIB
  8
FeatureAttribs
 70
0
  1
PNOA-H_AMS_1956-57_33k_ES_PAN_21mic_H50_0406_fot_42B-36322_E.tif
  2
NAME
  10
515486.284
  20
4591692.160
 40
33.55298
  0
SEQEND
  0
POLYLINE
  8
PNOA-H_AMS_1956-57_33k_ES_PAN_21mic_H50_0406_fot_42B-36322_E_tif
  70
9
  66
1
  0
VERTEX
  8
PNOA-H_AMS_1956-57_33k_ES_PAN_21mic_H50_0406_fot_42B-36322_E_tif
  70
32
  10
516965.500
  20
4589611.000
  30
1038.4
  0
VERTEX
  8
PNOA-H_AMS_1956-57_33k_ES_PAN_21mic_H50_0406_fot_42B-36322_E_tif
  70
32
  10
515368.000
  20
4589103.000
  30
973.184
  0
VERTEX
  8
PNOA-H_AMS_1956-57_33k_ES_PAN_21mic_H50_0406_fot_42B-36322_E_tif
  70
32
  10
515367.524
  20
4589103.167
  30
973.178
  0
VERTEX
  8
PNOA-H_AMS_1956-57_33k_ES_PAN_21mic_H50_0406_fot_42B-36322_E_tif
  70
32
  10
514025.000
  20
4589573.000
  30
955.343
  0
VERTEX
  8
PNOA-H_AMS_1956-57_33k_ES_PAN_21mic_H50_0406_fot_42B-36322_E_tif
  70
32
  10
514009.500
  20
4593860.500
  30
924.404
  0
VERTEX
  8
PNOA-H_AMS_1956-57_33k_ES_PAN_21mic_H50_0406_fot_42B-36322_E_tif
  70
32
  10
514010.245
  20
4593860.735
  30
924.396
  0
VERTEX
  8
PNOA-H_AMS_1956-57_33k_ES_PAN_21mic_H50_0406_fot_42B-36322_E_tif
  70
32
  10
514505.500
  20
4594017.000
  30
918.977
  0
VERTEX
  8
PNOA-H_AMS_1956-57_33k_ES_PAN_21mic_H50_0406_fot_42B-36322_E_tif
  70
32
  10
514507.000
  20
4594017.500
  30
918.978
  0
VERTEX
  8
PNOA-H_AMS_1956-57_33k_ES_PAN_21mic_H50_0406_fot_42B-36322_E_tif
  70
32
  10
515340.059
  20
4594280.593
  30
909.966
  0
VERTEX
  8
PNOA-H_AMS_1956-57_33k_ES_PAN_21mic_H50_0406_fot_42B-36322_E_tif
  70
32
  10
515341.806
  20
4594280.597
  30
0
  0
VERTEX
  8
PNOA-H_AMS_1956-57_33k_ES_PAN_21mic_H50_0406_fot_42B-36322_E_tif
  70
32
  10
515649.273
  20
4594281.189
  30
0
  0
VERTEX
  8
PNOA-H_AMS_1956-57_33k_ES_PAN_21mic_H50_0406_fot_42B-36322_E_tif
  70
32
  10
515701.738
  20
4594281.316
  30
0
  0
VERTEX
  8
PNOA-H_AMS_1956-57_33k_ES_PAN_21mic_H50_0406_fot_42B-36322_E_tif
  70
32
  10
515703.378
  20
4594281.320
  30
906.947
  0
VERTEX
  8
PNOA-H_AMS_1956-57_33k_ES_PAN_21mic_H50_0406_fot_42B-36322_E_tif
  70
32
  10
516656.200
  20
4594040.300
  30
901.101
  0
VERTEX
  8
PNOA-H_AMS_1956-57_33k_ES_PAN_21mic_H50_0406_fot_42B-36322_E_tif
  70
32
  10
516944.000
  20
4593967.500
  30
899.335
  0
VERTEX
  8
PNOA-H_AMS_1956-57_33k_ES_PAN_21mic_H50_0406_fot_42B-36322_E_tif
  70
32
  10
516965.498
  20
4589611.499
  30
1038.384
  0
VERTEX
  8
PNOA-H_AMS_1956-57_33k_ES_PAN_21mic_H50_0406_fot_42B-36322_E_tif
  70
32
  10
516965.500
  20
4589611.000
  30
1038.4
  0
SEQEND
  8
PNOA-H_AMS_1956-57_33k_ES_PAN_21mic_H50_0406_fot_42B-36322_E_tif
  0
INSERT
  8
FeatureAttribs
  2
FEATURE
  41
1
  42
1
  43
1
  50
0
  10
525545.156
  20
4594164.747
 66
1
  0
ATTRIB
  8
FeatureAttribs
 70
0
  1
PNOA-H_AMS_1956-57_33k_ES_PAN_21mic_H50_0378_fot_41B-37392_W.tif
  2
NAME
  10
525545.156
  20
4594164.747
 40
33.55298
  0
SEQEND
  0
POLYLINE
  8
PNOA-H_AMS_1956-57_33k_ES_PAN_21mic_H50_0378_fot_41B-37392_W_tif
  70
9
  66
1
  0
VERTEX
  8
PNOA-H_AMS_1956-57_33k_ES_PAN_21mic_H50_0378_fot_41B-37392_W_tif
  70
32
  10
526505.000
  20
4594299.500
  30
941.578
  0
VERTEX
  8
PNOA-H_AMS_1956-57_33k_ES_PAN_21mic_H50_0378_fot_41B-37392_W_tif
  70
32
  10
525757.500
  20
4594016.500
  30
932.493
  0
VERTEX
  8
PNOA-H_AMS_1956-57_33k_ES_PAN_21mic_H50_0378_fot_41B-37392_W_tif
  70
32
  10
525757.162
  20
4594016.561
  30
932.49
  0
VERTEX
  8
PNOA-H_AMS_1956-57_33k_ES_PAN_21mic_H50_0378_fot_41B-37392_W_tif
  70
32
  10
525388.048
  20
4594083.599
  30
930.028
  0
VERTEX
  8
PNOA-H_AMS_1956-57_33k_ES_PAN_21mic_H50_0378_fot_41B-37392_W_tif
  70
32
  10
524747.133
  20
4594200.000
  30
925.752
  0
VERTEX
  8
PNOA-H_AMS_1956-57_33k_ES_PAN_21mic_H50_0378_fot_41B-37392_W_tif
  70
32
  10
524169.534
  20
4594304.902
  30
921.898
  0
VERTEX
  8
PNOA-H_AMS_1956-57_33k_ES_PAN_21mic_H50_0378_fot_41B-37392_W_tif
  70
32
  10
526082.132
  20
4594311.353
  30
0
  0
VERTEX
  8
PNOA-H_AMS_1956-57_33k_ES_PAN_21mic_H50_0378_fot_41B-37392_W_tif
  70
32
  10
526507.035
  20
4594312.991
  30
941.782
  0
VERTEX
  8
PNOA-H_AMS_1956-57_33k_ES_PAN_21mic_H50_0378_fot_41B-37392_W_tif
  70
32
  10
526507.491
  20
4594312.993
  30
941.772
  0
VERTEX
  8
PNOA-H_AMS_1956-57_33k_ES_PAN_21mic_H50_0378_fot_41B-37392_W_tif
  70
32
  10
526507.000
  20
4594301.500
  30
941.572
  0
VERTEX
  8
PNOA-H_AMS_1956-57_33k_ES_PAN_21mic_H50_0378_fot_41B-37392_W_tif
  70
32
  10
526506.522
  20
4594301.022
  30
941.574
  0
VERTEX
  8
PNOA-H_AMS_1956-57_33k_ES_PAN_21mic_H50_0378_fot_41B-37392_W_tif
  70
32
  10
526506.000
  20
4594300.500
  30
941.575
  0
VERTEX
  8
PNOA-H_AMS_1956-57_33k_ES_PAN_21mic_H50_0378_fot_41B-37392_W_tif
  70
32
  10
526505.000
  20
4594299.500
  30
941.578
  0
SEQEND
  8
PNOA-H_AMS_1956-57_33k_ES_PAN_21mic_H50_0378_fot_41B-37392_W_tif
  0
INSERT
  8
FeatureAttribs
  2
FEATURE
  41
1
  42
1
  43
1
  50
0
  10
522700.589
  20
4594190.030
 66
1
  0
ATTRIB
  8
FeatureAttribs
 70
0
  1
PNOA-H_AMS_1956-57_33k_ES_PAN_21mic_H50_0378_fot_41B-37393_W.tif
  2
NAME
  10
522700.589
  20
4594190.030
 40
33.55298
  0
SEQEND
  0
POLYLINE
  8
PNOA-H_AMS_1956-57_33k_ES_PAN_21mic_H50_0378_fot_41B-37393_W_tif
  70
9
  66
1
  0
VERTEX
  8
PNOA-H_AMS_1956-57_33k_ES_PAN_21mic_H50_0378_fot_41B-37393_W_tif
  70
32
  10
523475.386
  20
4594302.560
  30
916.825
  0
VERTEX
  8
PNOA-H_AMS_1956-57_33k_ES_PAN_21mic_H50_0378_fot_41B-37393_W_tif
  70
32
  10
522807.500
  20
4594077.500
  30
911.177
  0
VERTEX
  8
PNOA-H_AMS_1956-57_33k_ES_PAN_21mic_H50_0378_fot_41B-37393_W_tif
  70
32
  10
522806.419
  20
4594077.641
  30
911.175
  0
VERTEX
  8
PNOA-H_AMS_1956-57_33k_ES_PAN_21mic_H50_0378_fot_41B-37393_W_tif
  70
32
  10
522803.443
  20
4594078.029
  30
911.17
  0
VERTEX
  8
PNOA-H_AMS_1956-57_33k_ES_PAN_21mic_H50_0378_fot_41B-37393_W_tif
  70
32
  10
522796.000
  20
4594079.000
  30
911.157
  0
VERTEX
  8
PNOA-H_AMS_1956-57_33k_ES_PAN_21mic_H50_0378_fot_41B-37393_W_tif
  70
32
  10
521742.451
  20
4594297.130
  30
908.949
  0
VERTEX
  8
PNOA-H_AMS_1956-57_33k_ES_PAN_21mic_H50_0378_fot_41B-37393_W_tif
  70
32
  10
521744.721
  20
4594297.137
  30
0
  0
VERTEX
  8
PNOA-H_AMS_1956-57_33k_ES_PAN_21mic_H50_0378_fot_41B-37393_W_tif
  70
32
  10
522604.511
  20
4594299.623
  30
0
  0
VERTEX
  8
PNOA-H_AMS_1956-57_33k_ES_PAN_21mic_H50_0378_fot_41B-37393_W_tif
  70
32
  10
523474.608
  20
4594302.558
  30
0
  0
VERTEX
  8
PNOA-H_AMS_1956-57_33k_ES_PAN_21mic_H50_0378_fot_41B-37393_W_tif
  70
32
  10
523475.386
  20
4594302.560
  30
916.825
  0
SEQEND
  8
PNOA-H_AMS_1956-57_33k_ES_PAN_21mic_H50_0378_fot_41B-37393_W_tif
  0
INSERT
  8
FeatureAttribs
  2
FEATURE
  41
1
  42
1
  43
1
  50
0
  10
524286.677
  20
4591771.199
 66
1
  0
ATTRIB
  8
FeatureAttribs
 70
0
  1
PNOA-H_AMS_1956-57_33k_ES_PAN_21mic_H50_0406_fot_42B-36325_E.tif
  2
NAME
  10
524286.677
  20
4591771.199
 40
33.55298
  0
SEQEND
  0
POLYLINE
  8
PNOA-H_AMS_1956-57_33k_ES_PAN_21mic_H50_0406_fot_42B-36325_E_tif
  70
9
  66
1
  0
VERTEX
  8
PNOA-H_AMS_1956-57_33k_ES_PAN_21mic_H50_0406_fot_42B-36325_E_tif
  70
32
  10
524168.558
  20
4594304.899
  30
932.31
  0
VERTEX
  8
PNOA-H_AMS_1956-57_33k_ES_PAN_21mic_H50_0406_fot_42B-36325_E_tif
  70
32
  10
524745.500
  20
4594200.000
  30
949.631
  0
VERTEX
  8
PNOA-H_AMS_1956-57_33k_ES_PAN_21mic_H50_0406_fot_42B-36325_E_tif
  70
32
  10
524747.133
  20
4594200.000
  30
949.846
  0
VERTEX
  8
PNOA-H_AMS_1956-57_33k_ES_PAN_21mic_H50_0406_fot_42B-36325_E_tif
  70
32
  10
524748.000
  20
4594200.000
  30
949.959
  0
VERTEX
  8
PNOA-H_AMS_1956-57_33k_ES_PAN_21mic_H50_0406_fot_42B-36325_E_tif
  70
32
  10
525388.048
  20
4594083.599
  30
938.858
  0
VERTEX
  8
PNOA-H_AMS_1956-57_33k_ES_PAN_21mic_H50_0406_fot_42B-36325_E_tif
  70
32
  10
525757.000
  20
4594016.500
  30
932.458
  0
VERTEX
  8
PNOA-H_AMS_1956-57_33k_ES_PAN_21mic_H50_0406_fot_42B-36325_E_tif
  70
32
  10
525750.500
  20
4589614.500
  30
938.348
  0
VERTEX
  8
PNOA-H_AMS_1956-57_33k_ES_PAN_21mic_H50_0406_fot_42B-36325_E_tif
  70
32
  10
523641.500
  20
4589237.500
  30
970.626
  0
VERTEX
  8
PNOA-H_AMS_1956-57_33k_ES_PAN_21mic_H50_0406_fot_42B-36325_E_tif
  70
32
  10
523639.000
  20
4589237.500
  30
970.8
  0
VERTEX
  8
PNOA-H_AMS_1956-57_33k_ES_PAN_21mic_H50_0406_fot_42B-36325_E_tif
  70
32
  10
523638.000
  20
4589237.500
  30
970.87
  0
VERTEX
  8
PNOA-H_AMS_1956-57_33k_ES_PAN_21mic_H50_0406_fot_42B-36325_E_tif
  70
32
  10
522832.500
  20
4589606.500
  30
1034.068
  0
VERTEX
  8
PNOA-H_AMS_1956-57_33k_ES_PAN_21mic_H50_0406_fot_42B-36325_E_tif
  70
32
  10
522806.000
  20
4594077.500
  30
911.18
  0
VERTEX
  8
PNOA-H_AMS_1956-57_33k_ES_PAN_21mic_H50_0406_fot_42B-36325_E_tif
  70
32
  10
522806.419
  20
4594077.641
  30
911.183
  0
VERTEX
  8
PNOA-H_AMS_1956-57_33k_ES_PAN_21mic_H50_0406_fot_42B-36325_E_tif
  70
32
  10
523474.608
  20
4594302.558
  30
916.825
  0
VERTEX
  8
PNOA-H_AMS_1956-57_33k_ES_PAN_21mic_H50_0406_fot_42B-36325_E_tif
  70
32
  10
523475.386
  20
4594302.560
  30
916.842
  0
VERTEX
  8
PNOA-H_AMS_1956-57_33k_ES_PAN_21mic_H50_0406_fot_42B-36325_E_tif
  70
32
  10
524168.558
  20
4594304.899
  30
932.31
  0
SEQEND
  8
PNOA-H_AMS_1956-57_33k_ES_PAN_21mic_H50_0406_fot_42B-36325_E_tif
  0
INSERT
  8
FeatureAttribs
  2
FEATURE
  41
1
  42
1
  43
1
  50
0
  10
527242.733
  20
4591771.250
 66
1
  0
ATTRIB
  8
FeatureAttribs
 70
0
  1
PNOA-H_AMS_1956-57_33k_ES_PAN_21mic_H50_0406_fot_42B-36326_E.tif
  2
NAME
  10
527242.733
  20
4591771.250
 40
33.55298
  0
SEQEND
  0
POLYLINE
  8
PNOA-H_AMS_1956-57_33k_ES_PAN_21mic_H50_0406_fot_42B-36326_E_tif
  70
9
  66
1
  0
VERTEX
  8
PNOA-H_AMS_1956-57_33k_ES_PAN_21mic_H50_0406_fot_42B-36326_E_tif
  70
32
  10
526492.738
  20
4589242.131
  30
970.009
  0
VERTEX
  8
PNOA-H_AMS_1956-57_33k_ES_PAN_21mic_H50_0406_fot_42B-36326_E_tif
  70
32
  10
526492.000
  20
4589242.000
  30
970.017
  0
VERTEX
  8
PNOA-H_AMS_1956-57_33k_ES_PAN_21mic_H50_0406_fot_42B-36326_E_tif
  70
32
  10
525750.500
  20
4589614.500
  30
938.348
  0
VERTEX
  8
PNOA-H_AMS_1956-57_33k_ES_PAN_21mic_H50_0406_fot_42B-36326_E_tif
  70
32
  10
525757.000
  20
4594016.500
  30
932.458
  0
VERTEX
  8
PNOA-H_AMS_1956-57_33k_ES_PAN_21mic_H50_0406_fot_42B-36326_E_tif
  70
32
  10
525757.162
  20
4594016.561
  30
932.461
  0
VERTEX
  8
PNOA-H_AMS_1956-57_33k_ES_PAN_21mic_H50_0406_fot_42B-36326_E_tif
  70
32
  10
526506.000
  20
4594300.500
  30
941.575
  0
VERTEX
  8
PNOA-H_AMS_1956-57_33k_ES_PAN_21mic_H50_0406_fot_42B-36326_E_tif
  70
32
  10
526792.500
  20
4594257.500
  30
938.431
  0
VERTEX
  8
PNOA-H_AMS_1956-57_33k_ES_PAN_21mic_H50_0406_fot_42B-36326_E_tif
  70
32
  10
526796.000
  20
4594257.000
  30
938.411
  0
VERTEX
  8
PNOA-H_AMS_1956-57_33k_ES_PAN_21mic_H50_0406_fot_42B-36326_E_tif
  70
32
  10
528714.500
  20
4593970.500
  30
924.978
  0
VERTEX
  8
PNOA-H_AMS_1956-57_33k_ES_PAN_21mic_H50_0406_fot_42B-36326_E_tif
  70
32
  10
528748.500
  20
4589643.500
  30
943.588
  0
VERTEX
  8
PNOA-H_AMS_1956-57_33k_ES_PAN_21mic_H50_0406_fot_42B-36326_E_tif
  70
32
  10
528747.775
  20
4589643.371
  30
943.596
  0
VERTEX
  8
PNOA-H_AMS_1956-57_33k_ES_PAN_21mic_H50_0406_fot_42B-36326_E_tif
  70
32
  10
526809.175
  20
4589298.435
  30
966.302
  0
VERTEX
  8
PNOA-H_AMS_1956-57_33k_ES_PAN_21mic_H50_0406_fot_42B-36326_E_tif
  70
32
  10
526492.738
  20
4589242.131
  30
970.009
  0
SEQEND
  8
PNOA-H_AMS_1956-57_33k_ES_PAN_21mic_H50_0406_fot_42B-36326_E_tif
  0
INSERT
  8
FeatureAttribs
  2
FEATURE
  41
1
  42
1
  43
1
  50
0
  10
521359.279
  20
4591742.318
 66
1
  0
ATTRIB
  8
FeatureAttribs
 70
0
  1
PNOA-H_AMS_1956-57_33k_ES_PAN_21mic_H50_0406_fot_42B-36324_E.tif
  2
NAME
  10
521359.279
  20
4591742.318
 40
33.55298
  0
SEQEND
  0
POLYLINE
  8
PNOA-H_AMS_1956-57_33k_ES_PAN_21mic_H50_0406_fot_42B-36324_E_tif
  70
9
  66
1
  0
VERTEX
  8
PNOA-H_AMS_1956-57_33k_ES_PAN_21mic_H50_0406_fot_42B-36324_E_tif
  70
32
  10
522832.500
  20
4589606.500
  30
1034.068
  0
VERTEX
  8
PNOA-H_AMS_1956-57_33k_ES_PAN_21mic_H50_0406_fot_42B-36324_E_tif
  70
32
  10
520881.000
  20
4589187.500
  30
991.07
  0
VERTEX
  8
PNOA-H_AMS_1956-57_33k_ES_PAN_21mic_H50_0406_fot_42B-36324_E_tif
  70
32
  10
520880.052
  20
4589187.619
  30
991.031
  0
VERTEX
  8
PNOA-H_AMS_1956-57_33k_ES_PAN_21mic_H50_0406_fot_42B-36324_E_tif
  70
32
  10
520878.870
  20
4589187.766
  30
990.983
  0
VERTEX
  8
PNOA-H_AMS_1956-57_33k_ES_PAN_21mic_H50_0406_fot_42B-36324_E_tif
  70
32
  10
520877.000
  20
4589188.000
  30
990.906
  0
VERTEX
  8
PNOA-H_AMS_1956-57_33k_ES_PAN_21mic_H50_0406_fot_42B-36324_E_tif
  70
32
  10
520858.000
  20
4589196.000
  30
990.609
  0
VERTEX
  8
PNOA-H_AMS_1956-57_33k_ES_PAN_21mic_H50_0406_fot_42B-36324_E_tif
  70
32
  10
519910.183
  20
4589596.923
  30
1015.839
  0
VERTEX
  8
PNOA-H_AMS_1956-57_33k_ES_PAN_21mic_H50_0406_fot_42B-36324_E_tif
  70
32
  10
519910.000
  20
4589597.000
  30
1015.844
  0
VERTEX
  8
PNOA-H_AMS_1956-57_33k_ES_PAN_21mic_H50_0406_fot_42B-36324_E_tif
  70
32
  10
519886.500
  20
4594065.000
  30
904.819
  0
VERTEX
  8
PNOA-H_AMS_1956-57_33k_ES_PAN_21mic_H50_0406_fot_42B-36324_E_tif
  70
32
  10
519887.083
  20
4594065.192
  30
904.82
  0
VERTEX
  8
PNOA-H_AMS_1956-57_33k_ES_PAN_21mic_H50_0406_fot_42B-36324_E_tif
  70
32
  10
520580.086
  20
4594293.770
  30
905.735
  0
VERTEX
  8
PNOA-H_AMS_1956-57_33k_ES_PAN_21mic_H50_0406_fot_42B-36324_E_tif
  70
32
  10
520581.575
  20
4594293.774
  30
0
  0
VERTEX
  8
PNOA-H_AMS_1956-57_33k_ES_PAN_21mic_H50_0406_fot_42B-36324_E_tif
  70
32
  10
521742.451
  20
4594297.130
  30
0
  0
VERTEX
  8
PNOA-H_AMS_1956-57_33k_ES_PAN_21mic_H50_0406_fot_42B-36324_E_tif
  70
32
  10
521744.721
  20
4594297.137
  30
908.954
  0
VERTEX
  8
PNOA-H_AMS_1956-57_33k_ES_PAN_21mic_H50_0406_fot_42B-36324_E_tif
  70
32
  10
522803.443
  20
4594078.029
  30
911.174
  0
VERTEX
  8
PNOA-H_AMS_1956-57_33k_ES_PAN_21mic_H50_0406_fot_42B-36324_E_tif
  70
32
  10
522806.000
  20
4594077.500
  30
911.18
  0
VERTEX
  8
PNOA-H_AMS_1956-57_33k_ES_PAN_21mic_H50_0406_fot_42B-36324_E_tif
  70
32
  10
522832.500
  20
4589606.500
  30
1034.068
  0
SEQEND
  8
PNOA-H_AMS_1956-57_33k_ES_PAN_21mic_H50_0406_fot_42B-36324_E_tif
  0
INSERT
  8
FeatureAttribs
  2
FEATURE
  41
1
  42
1
  43
1
  50
0
  10
533198.651
  20
4591802.750
 66
1
  0
ATTRIB
  8
FeatureAttribs
 70
0
  1
PNOA-H_AMS_1956-57_33k_ES_PAN_21mic_H50_0406_fot_42B-36328_E.tif
  2
NAME
  10
533198.651
  20
4591802.750
 40
33.55298
  0
SEQEND
  0
POLYLINE
  8
PNOA-H_AMS_1956-57_33k_ES_PAN_21mic_H50_0406_fot_42B-36328_E_tif
  70
9
  66
1
  0
VERTEX
  8
PNOA-H_AMS_1956-57_33k_ES_PAN_21mic_H50_0406_fot_42B-36328_E_tif
  70
32
  10
532174.500
  20
4589380.000
  30
950.839
  0
VERTEX
  8
PNOA-H_AMS_1956-57_33k_ES_PAN_21mic_H50_0406_fot_42B-36328_E_tif
  70
32
  10
532173.500
  20
4589380.000
  30
950.832
  0
VERTEX
  8
PNOA-H_AMS_1956-57_33k_ES_PAN_21mic_H50_0406_fot_42B-36328_E_tif
  70
32
  10
531715.000
  20
4589628.500
  30
945.225
  0
VERTEX
  8
PNOA-H_AMS_1956-57_33k_ES_PAN_21mic_H50_0406_fot_42B-36328_E_tif
  70
32
  10
531695.002
  20
4594012.001
  30
954.472
  0
VERTEX
  8
PNOA-H_AMS_1956-57_33k_ES_PAN_21mic_H50_0406_fot_42B-36328_E_tif
  70
32
  10
531695.000
  20
4594012.500
  30
954.474
  0
VERTEX
  8
PNOA-H_AMS_1956-57_33k_ES_PAN_21mic_H50_0406_fot_42B-36328_E_tif
  70
32
  10
532123.994
  20
4594225.497
  30
953.456
  0
VERTEX
  8
PNOA-H_AMS_1956-57_33k_ES_PAN_21mic_H50_0406_fot_42B-36328_E_tif
  70
32
  10
532124.000
  20
4594225.500
  30
953.456
  0
VERTEX
  8
PNOA-H_AMS_1956-57_33k_ES_PAN_21mic_H50_0406_fot_42B-36328_E_tif
  70
32
  10
532938.500
  20
4594169.000
  30
969.294
  0
VERTEX
  8
PNOA-H_AMS_1956-57_33k_ES_PAN_21mic_H50_0406_fot_42B-36328_E_tif
  70
32
  10
532940.000
  20
4594169.000
  30
969.315
  0
VERTEX
  8
PNOA-H_AMS_1956-57_33k_ES_PAN_21mic_H50_0406_fot_42B-36328_E_tif
  70
32
  10
534623.500
  20
4594053.000
  30
951.335
  0
VERTEX
  8
PNOA-H_AMS_1956-57_33k_ES_PAN_21mic_H50_0406_fot_42B-36328_E_tif
  70
32
  10
534758.500
  20
4589632.500
  30
956.682
  0
VERTEX
  8
PNOA-H_AMS_1956-57_33k_ES_PAN_21mic_H50_0406_fot_42B-36328_E_tif
  70
32
  10
534756.391
  20
4589632.294
  30
956.678
  0
VERTEX
  8
PNOA-H_AMS_1956-57_33k_ES_PAN_21mic_H50_0406_fot_42B-36328_E_tif
  70
32
  10
532179.500
  20
4589380.000
  30
950.874
  0
VERTEX
  8
PNOA-H_AMS_1956-57_33k_ES_PAN_21mic_H50_0406_fot_42B-36328_E_tif
  70
32
  10
532174.500
  20
4589380.000
  30
950.839
  0
SEQEND
  8
PNOA-H_AMS_1956-57_33k_ES_PAN_21mic_H50_0406_fot_42B-36328_E_tif
  0
INSERT
  8
FeatureAttribs
  2
FEATURE
  41
1
  42
1
  43
1
  50
0
  10
530218.575
  20
4591759.500
 66
1
  0
ATTRIB
  8
FeatureAttribs
 70
0
  1
PNOA-H_AMS_1956-57_33k_ES_PAN_21mic_H50_0406_fot_42B-36327_E.tif
  2
NAME
  10
530218.575
  20
4591759.500
 40
33.55298
  0
SEQEND
  0
POLYLINE
  8
PNOA-H_AMS_1956-57_33k_ES_PAN_21mic_H50_0406_fot_42B-36327_E_tif
  70
9
  66
1
  0
VERTEX
  8
PNOA-H_AMS_1956-57_33k_ES_PAN_21mic_H50_0406_fot_42B-36327_E_tif
  70
32
  10
529396.005
  20
4589302.001
  30
982.742
  0
VERTEX
  8
PNOA-H_AMS_1956-57_33k_ES_PAN_21mic_H50_0406_fot_42B-36327_E_tif
  70
32
  10
529396.000
  20
4589302.000
  30
982.742
  0
VERTEX
  8
PNOA-H_AMS_1956-57_33k_ES_PAN_21mic_H50_0406_fot_42B-36327_E_tif
  70
32
  10
528749.193
  20
4589643.134
  30
943.629
  0
VERTEX
  8
PNOA-H_AMS_1956-57_33k_ES_PAN_21mic_H50_0406_fot_42B-36327_E_tif
  70
32
  10
528748.500
  20
4589643.500
  30
943.588
  0
VERTEX
  8
PNOA-H_AMS_1956-57_33k_ES_PAN_21mic_H50_0406_fot_42B-36327_E_tif
  70
32
  10
528714.500
  20
4593970.500
  30
924.978
  0
VERTEX
  8
PNOA-H_AMS_1956-57_33k_ES_PAN_21mic_H50_0406_fot_42B-36327_E_tif
  70
32
  10
528714.752
  20
4593970.612
  30
924.971
  0
VERTEX
  8
PNOA-H_AMS_1956-57_33k_ES_PAN_21mic_H50_0406_fot_42B-36327_E_tif
  70
32
  10
528842.000
  20
4594027.000
  30
921.165
  0
VERTEX
  8
PNOA-H_AMS_1956-57_33k_ES_PAN_21mic_H50_0406_fot_42B-36327_E_tif
  70
32
  10
528843.000
  20
4594027.500
  30
921.123
  0
VERTEX
  8
PNOA-H_AMS_1956-57_33k_ES_PAN_21mic_H50_0406_fot_42B-36327_E_tif
  70
32
  10
529267.500
  20
4594215.500
  30
920.387
  0
VERTEX
  8
PNOA-H_AMS_1956-57_33k_ES_PAN_21mic_H50_0406_fot_42B-36327_E_tif
  70
32
  10
529269.102
  20
4594215.937
  30
920.325
  0
VERTEX
  8
PNOA-H_AMS_1956-57_33k_ES_PAN_21mic_H50_0406_fot_42B-36327_E_tif
  70
32
  10
529272.645
  20
4594216.903
  30
920.189
  0
VERTEX
  8
PNOA-H_AMS_1956-57_33k_ES_PAN_21mic_H50_0406_fot_42B-36327_E_tif
  70
32
  10
529273.000
  20
4594217.000
  30
920.176
  0
VERTEX
  8
PNOA-H_AMS_1956-57_33k_ES_PAN_21mic_H50_0406_fot_42B-36327_E_tif
  70
32
  10
531695.000
  20
4594012.000
  30
954.48
  0
VERTEX
  8
PNOA-H_AMS_1956-57_33k_ES_PAN_21mic_H50_0406_fot_42B-36327_E_tif
  70
32
  10
531715.000
  20
4589628.500
  30
945.225
  0
VERTEX
  8
PNOA-H_AMS_1956-57_33k_ES_PAN_21mic_H50_0406_fot_42B-36327_E_tif
  70
32
  10
529396.005
  20
4589302.001
  30
982.742
  0
SEQEND
  8
PNOA-H_AMS_1956-57_33k_ES_PAN_21mic_H50_0406_fot_42B-36327_E_tif
  0
INSERT
  8
FeatureAttribs
  2
FEATURE
  41
1
  42
1
  43
1
  50
0
  10
530900.871
  20
4594173.937
 66
1
  0
ATTRIB
  8
FeatureAttribs
 70
0
  1
PNOA-H_AMS_1956-57_33k_ES_PAN_21mic_H50_0378_fot_41B-37390_W.tif
  2
NAME
  10
530900.871
  20
4594173.937
 40
33.55298
  0
SEQEND
  0
POLYLINE
  8
PNOA-H_AMS_1956-57_33k_ES_PAN_21mic_H50_0378_fot_41B-37390_W_tif
  70
9
  66
1
  0
VERTEX
  8
PNOA-H_AMS_1956-57_33k_ES_PAN_21mic_H50_0378_fot_41B-37390_W_tif
  70
32
  10
531695.002
  20
4594012.001
  30
954.48
  0
VERTEX
  8
PNOA-H_AMS_1956-57_33k_ES_PAN_21mic_H50_0378_fot_41B-37390_W_tif
  70
32
  10
531695.000
  20
4594012.000
  30
954.48
  0
VERTEX
  8
PNOA-H_AMS_1956-57_33k_ES_PAN_21mic_H50_0378_fot_41B-37390_W_tif
  70
32
  10
529272.645
  20
4594216.903
  30
920.24
  0
VERTEX
  8
PNOA-H_AMS_1956-57_33k_ES_PAN_21mic_H50_0378_fot_41B-37390_W_tif
  70
32
  10
529271.500
  20
4594217.000
  30
920.224
  0
VERTEX
  8
PNOA-H_AMS_1956-57_33k_ES_PAN_21mic_H50_0378_fot_41B-37390_W_tif
  70
32
  10
529274.006
  20
4594323.658
  30
922.062
  0
VERTEX
  8
PNOA-H_AMS_1956-57_33k_ES_PAN_21mic_H50_0378_fot_41B-37390_W_tif
  70
32
  10
529559.754
  20
4594324.760
  30
0
  0
VERTEX
  8
PNOA-H_AMS_1956-57_33k_ES_PAN_21mic_H50_0378_fot_41B-37390_W_tif
  70
32
  10
532122.580
  20
4594335.874
  30
954.877
  0
VERTEX
  8
PNOA-H_AMS_1956-57_33k_ES_PAN_21mic_H50_0378_fot_41B-37390_W_tif
  70
32
  10
532123.994
  20
4594225.497
  30
953.472
  0
VERTEX
  8
PNOA-H_AMS_1956-57_33k_ES_PAN_21mic_H50_0378_fot_41B-37390_W_tif
  70
32
  10
532124.000
  20
4594225.000
  30
953.465
  0
VERTEX
  8
PNOA-H_AMS_1956-57_33k_ES_PAN_21mic_H50_0378_fot_41B-37390_W_tif
  70
32
  10
531695.002
  20
4594012.001
  30
954.48
  0
SEQEND
  8
PNOA-H_AMS_1956-57_33k_ES_PAN_21mic_H50_0378_fot_41B-37390_W_tif
  0
INSERT
  8
FeatureAttribs
  2
FEATURE
  41
1
  42
1
  43
1
  50
0
  10
528323.639
  20
4594147.079
 66
1
  0
ATTRIB
  8
FeatureAttribs
 70
0
  1
PNOA-H_AMS_1956-57_33k_ES_PAN_21mic_H50_0378_fot_41B-37391_W.tif
  2
NAME
  10
528323.639
  20
4594147.079
 40
33.55298
  0
SEQEND
  0
POLYLINE
  8
PNOA-H_AMS_1956-57_33k_ES_PAN_21mic_H50_0378_fot_41B-37391_W_tif
  70
9
  66
1
  0
VERTEX
  8
PNOA-H_AMS_1956-57_33k_ES_PAN_21mic_H50_0378_fot_41B-37391_W_tif
  70
32
  10
529269.102
  20
4594215.937
  30
920.244
  0
VERTEX
  8
PNOA-H_AMS_1956-57_33k_ES_PAN_21mic_H50_0378_fot_41B-37391_W_tif
  70
32
  10
528715.500
  20
4593970.500
  30
924.904
  0
VERTEX
  8
PNOA-H_AMS_1956-57_33k_ES_PAN_21mic_H50_0378_fot_41B-37391_W_tif
  70
32
  10
528714.752
  20
4593970.612
  30
924.91
  0
VERTEX
  8
PNOA-H_AMS_1956-57_33k_ES_PAN_21mic_H50_0378_fot_41B-37391_W_tif
  70
32
  10
526506.500
  20
4594300.500
  30
941.573
  0
VERTEX
  8
PNOA-H_AMS_1956-57_33k_ES_PAN_21mic_H50_0378_fot_41B-37391_W_tif
  70
32
  10
526506.522
  20
4594301.022
  30
941.582
  0
VERTEX
  8
PNOA-H_AMS_1956-57_33k_ES_PAN_21mic_H50_0378_fot_41B-37391_W_tif
  70
32
  10
526507.035
  20
4594312.991
  30
941.79
  0
VERTEX
  8
PNOA-H_AMS_1956-57_33k_ES_PAN_21mic_H50_0378_fot_41B-37391_W_tif
  70
32
  10
526507.491
  20
4594312.993
  30
0
  0
VERTEX
  8
PNOA-H_AMS_1956-57_33k_ES_PAN_21mic_H50_0378_fot_41B-37391_W_tif
  70
32
  10
529274.006
  20
4594323.658
  30
922.061
  0
VERTEX
  8
PNOA-H_AMS_1956-57_33k_ES_PAN_21mic_H50_0378_fot_41B-37391_W_tif
  70
32
  10
529271.500
  20
4594217.000
  30
920.224
  0
VERTEX
  8
PNOA-H_AMS_1956-57_33k_ES_PAN_21mic_H50_0378_fot_41B-37391_W_tif
  70
32
  10
529269.102
  20
4594215.937
  30
920.244
  0
SEQEND
  8
PNOA-H_AMS_1956-57_33k_ES_PAN_21mic_H50_0378_fot_41B-37391_W_tif
  0
INSERT
  8
FeatureAttribs
  2
FEATURE
  41
1
  42
1
  43
1
  50
0
  10
533685.275
  20
4594201.229
 66
1
  0
ATTRIB
  8
FeatureAttribs
 70
0
  1
PNOA-H_AMS_1956-57_33k_ES_PAN_21mic_H50_0378_fot_41B-37389_W.tif
  2
NAME
  10
533685.275
  20
4594201.229
 40
33.55298
  0
SEQEND
  0
POLYLINE
  8
PNOA-H_AMS_1956-57_33k_ES_PAN_21mic_H50_0378_fot_41B-37389_W_tif
  70
9
  66
1
  0
VERTEX
  8
PNOA-H_AMS_1956-57_33k_ES_PAN_21mic_H50_0378_fot_41B-37389_W_tif
  70
32
  10
534623.515
  20
4594053.008
  30
951.336
  0
VERTEX
  8
PNOA-H_AMS_1956-57_33k_ES_PAN_21mic_H50_0378_fot_41B-37389_W_tif
  70
32
  10
534623.500
  20
4594053.000
  30
951.335
  0
VERTEX
  8
PNOA-H_AMS_1956-57_33k_ES_PAN_21mic_H50_0378_fot_41B-37389_W_tif
  70
32
  10
532124.000
  20
4594225.500
  30
953.456
  0
VERTEX
  8
PNOA-H_AMS_1956-57_33k_ES_PAN_21mic_H50_0378_fot_41B-37389_W_tif
  70
32
  10
532122.587
  20
4594335.874
  30
954.861
  0
VERTEX
  8
PNOA-H_AMS_1956-57_33k_ES_PAN_21mic_H50_0378_fot_41B-37389_W_tif
  70
32
  10
533037.379
  20
4594339.842
  30
0
  0
VERTEX
  8
PNOA-H_AMS_1956-57_33k_ES_PAN_21mic_H50_0378_fot_41B-37389_W_tif
  70
32
  10
535032.517
  20
4594349.456
  30
0
  0
VERTEX
  8
PNOA-H_AMS_1956-57_33k_ES_PAN_21mic_H50_0378_fot_41B-37389_W_tif
  70
32
  10
535033.003
  20
4594349.458
  30
960.686
  0
VERTEX
  8
PNOA-H_AMS_1956-57_33k_ES_PAN_21mic_H50_0378_fot_41B-37389_W_tif
  70
32
  10
535034.491
  20
4594277.911
  30
958.835
  0
VERTEX
  8
PNOA-H_AMS_1956-57_33k_ES_PAN_21mic_H50_0378_fot_41B-37389_W_tif
  70
32
  10
535034.500
  20
4594277.500
  30
958.825
  0
VERTEX
  8
PNOA-H_AMS_1956-57_33k_ES_PAN_21mic_H50_0378_fot_41B-37389_W_tif
  70
32
  10
534623.515
  20
4594053.008
  30
951.336
  0
SEQEND
  8
PNOA-H_AMS_1956-57_33k_ES_PAN_21mic_H50_0378_fot_41B-37389_W_tif
  0
INSERT
  8
FeatureAttribs
  2
FEATURE
  41
1
  42
1
  43
1
  50
0
  10
538933.411
  20
4594283.977
 66
1
  0
ATTRIB
  8
FeatureAttribs
 70
0
  1
PNOA-H_AMS_1956-57_33k_ES_PAN_21mic_H50_0378_fot_41B-37387_W.tif
  2
NAME
  10
538933.411
  20
4594283.977
 40
33.55298
  0
SEQEND
  0
POLYLINE
  8
PNOA-H_AMS_1956-57_33k_ES_PAN_21mic_H50_0378_fot_41B-37387_W_tif
  70
9
  66
1
  0
VERTEX
  8
PNOA-H_AMS_1956-57_33k_ES_PAN_21mic_H50_0378_fot_41B-37387_W_tif
  70
32
  10
537873.000
  20
4594213.000
  30
964.474
  0
VERTEX
  8
PNOA-H_AMS_1956-57_33k_ES_PAN_21mic_H50_0378_fot_41B-37387_W_tif
  70
32
  10
537874.451
  20
4594363.806
  30
966.138
  0
VERTEX
  8
PNOA-H_AMS_1956-57_33k_ES_PAN_21mic_H50_0378_fot_41B-37387_W_tif
  70
32
  10
539992.635
  20
4594375.033
  30
0
  0
VERTEX
  8
PNOA-H_AMS_1956-57_33k_ES_PAN_21mic_H50_0378_fot_41B-37387_W_tif
  70
32
  10
539993.644
  20
4594192.920
  30
943.028
  0
VERTEX
  8
PNOA-H_AMS_1956-57_33k_ES_PAN_21mic_H50_0378_fot_41B-37387_W_tif
  70
32
  10
537873.000
  20
4594213.000
  30
964.474
  0
SEQEND
  8
PNOA-H_AMS_1956-57_33k_ES_PAN_21mic_H50_0378_fot_41B-37387_W_tif
  0
INSERT
  8
FeatureAttribs
  2
FEATURE
  41
1
  42
1
  43
1
  50
0
  10
536655.341
  20
4594259.153
 66
1
  0
ATTRIB
  8
FeatureAttribs
 70
0
  1
PNOA-H_AMS_1956-57_33k_ES_PAN_21mic_H50_0378_fot_41B-37388_W.tif
  2
NAME
  10
536655.341
  20
4594259.153
 40
33.55298
  0
SEQEND
  0
POLYLINE
  8
PNOA-H_AMS_1956-57_33k_ES_PAN_21mic_H50_0378_fot_41B-37388_W_tif
  70
9
  66
1
  0
VERTEX
  8
PNOA-H_AMS_1956-57_33k_ES_PAN_21mic_H50_0378_fot_41B-37388_W_tif
  70
32
  10
537872.992
  20
4594212.995
  30
964.474
  0
VERTEX
  8
PNOA-H_AMS_1956-57_33k_ES_PAN_21mic_H50_0378_fot_41B-37388_W_tif
  70
32
  10
537769.500
  20
4594154.500
  30
958.583
  0
VERTEX
  8
PNOA-H_AMS_1956-57_33k_ES_PAN_21mic_H50_0378_fot_41B-37388_W_tif
  70
32
  10
537769.037
  20
4594154.521
  30
958.583
  0
VERTEX
  8
PNOA-H_AMS_1956-57_33k_ES_PAN_21mic_H50_0378_fot_41B-37388_W_tif
  70
32
  10
537651.782
  20
4594159.782
  30
958.591
  0
VERTEX
  8
PNOA-H_AMS_1956-57_33k_ES_PAN_21mic_H50_0378_fot_41B-37388_W_tif
  70
32
  10
535039.500
  20
4594277.000
  30
958.768
  0
VERTEX
  8
PNOA-H_AMS_1956-57_33k_ES_PAN_21mic_H50_0378_fot_41B-37388_W_tif
  70
32
  10
535036.750
  20
4594277.500
  30
958.809
  0
VERTEX
  8
PNOA-H_AMS_1956-57_33k_ES_PAN_21mic_H50_0378_fot_41B-37388_W_tif
  70
32
  10
535034.491
  20
4594277.911
  30
958.843
  0
VERTEX
  8
PNOA-H_AMS_1956-57_33k_ES_PAN_21mic_H50_0378_fot_41B-37388_W_tif
  70
32
  10
535034.000
  20
4594278.000
  30
958.85
  0
VERTEX
  8
PNOA-H_AMS_1956-57_33k_ES_PAN_21mic_H50_0378_fot_41B-37388_W_tif
  70
32
  10
535032.517
  20
4594349.456
  30
960.708
  0
VERTEX
  8
PNOA-H_AMS_1956-57_33k_ES_PAN_21mic_H50_0378_fot_41B-37388_W_tif
  70
32
  10
535033.003
  20
4594349.458
  30
960.694
  0
VERTEX
  8
PNOA-H_AMS_1956-57_33k_ES_PAN_21mic_H50_0378_fot_41B-37388_W_tif
  70
32
  10
536515.006
  20
4594356.600
  30
0
  0
VERTEX
  8
PNOA-H_AMS_1956-57_33k_ES_PAN_21mic_H50_0378_fot_41B-37388_W_tif
  70
32
  10
537874.451
  20
4594363.806
  30
966.138
  0
VERTEX
  8
PNOA-H_AMS_1956-57_33k_ES_PAN_21mic_H50_0378_fot_41B-37388_W_tif
  70
32
  10
537873.000
  20
4594213.000
  30
964.474
  0
VERTEX
  8
PNOA-H_AMS_1956-57_33k_ES_PAN_21mic_H50_0378_fot_41B-37388_W_tif
  70
32
  10
537872.992
  20
4594212.995
  30
964.474
  0
SEQEND
  8
PNOA-H_AMS_1956-57_33k_ES_PAN_21mic_H50_0378_fot_41B-37388_W_tif
  0
INSERT
  8
FeatureAttribs
  2
FEATURE
  41
1
  42
1
  43
1
  50
0
  10
536225.476
  20
4591875.500
 66
1
  0
ATTRIB
  8
FeatureAttribs
 70
0
  1
PNOA-H_AMS_1956-57_33k_ES_PAN_21mic_H50_0406_fot_42B-36329_E.tif
  2
NAME
  10
536225.476
  20
4591875.500
 40
33.55298
  0
SEQEND
  0
POLYLINE
  8
PNOA-H_AMS_1956-57_33k_ES_PAN_21mic_H50_0406_fot_42B-36329_E_tif
  70
9
  66
1
  0
VERTEX
  8
PNOA-H_AMS_1956-57_33k_ES_PAN_21mic_H50_0406_fot_42B-36329_E_tif
  70
32
  10
535018.958
  20
4589473.526
  30
969.985
  0
VERTEX
  8
PNOA-H_AMS_1956-57_33k_ES_PAN_21mic_H50_0406_fot_42B-36329_E_tif
  70
32
  10
535018.500
  20
4589473.500
  30
969.987
  0
VERTEX
  8
PNOA-H_AMS_1956-57_33k_ES_PAN_21mic_H50_0406_fot_42B-36329_E_tif
  70
32
  10
534759.161
  20
4589632.096
  30
956.716
  0
VERTEX
  8
PNOA-H_AMS_1956-57_33k_ES_PAN_21mic_H50_0406_fot_42B-36329_E_tif
  70
32
  10
534758.500
  20
4589632.500
  30
956.682
  0
VERTEX
  8
PNOA-H_AMS_1956-57_33k_ES_PAN_21mic_H50_0406_fot_42B-36329_E_tif
  70
32
  10
534623.515
  20
4594053.008
  30
951.338
  0
VERTEX
  8
PNOA-H_AMS_1956-57_33k_ES_PAN_21mic_H50_0406_fot_42B-36329_E_tif
  70
32
  10
534623.500
  20
4594053.500
  30
951.338
  0
VERTEX
  8
PNOA-H_AMS_1956-57_33k_ES_PAN_21mic_H50_0406_fot_42B-36329_E_tif
  70
32
  10
534986.000
  20
4594251.500
  30
959.166
  0
VERTEX
  8
PNOA-H_AMS_1956-57_33k_ES_PAN_21mic_H50_0406_fot_42B-36329_E_tif
  70
32
  10
534987.000
  20
4594252.000
  30
959.151
  0
VERTEX
  8
PNOA-H_AMS_1956-57_33k_ES_PAN_21mic_H50_0406_fot_42B-36329_E_tif
  70
32
  10
535034.000
  20
4594277.500
  30
958.829
  0
VERTEX
  8
PNOA-H_AMS_1956-57_33k_ES_PAN_21mic_H50_0406_fot_42B-36329_E_tif
  70
32
  10
535034.500
  20
4594277.500
  30
958.825
  0
VERTEX
  8
PNOA-H_AMS_1956-57_33k_ES_PAN_21mic_H50_0406_fot_42B-36329_E_tif
  70
32
  10
535036.750
  20
4594277.500
  30
958.809
  0
VERTEX
  8
PNOA-H_AMS_1956-57_33k_ES_PAN_21mic_H50_0406_fot_42B-36329_E_tif
  70
32
  10
535039.500
  20
4594277.500
  30
958.789
  0
VERTEX
  8
PNOA-H_AMS_1956-57_33k_ES_PAN_21mic_H50_0406_fot_42B-36329_E_tif
  70
32
  10
537651.782
  20
4594159.782
  30
958.599
  0
VERTEX
  8
PNOA-H_AMS_1956-57_33k_ES_PAN_21mic_H50_0406_fot_42B-36329_E_tif
  70
32
  10
537769.000
  20
4594154.500
  30
958.59
  0
VERTEX
  8
PNOA-H_AMS_1956-57_33k_ES_PAN_21mic_H50_0406_fot_42B-36329_E_tif
  70
32
  10
537753.000
  20
4589628.500
  30
954.672
  0
VERTEX
  8
PNOA-H_AMS_1956-57_33k_ES_PAN_21mic_H50_0406_fot_42B-36329_E_tif
  70
32
  10
537752.080
  20
4589628.448
  30
954.677
  0
VERTEX
  8
PNOA-H_AMS_1956-57_33k_ES_PAN_21mic_H50_0406_fot_42B-36329_E_tif
  70
32
  10
535830.182
  20
4589519.509
  30
965.441
  0
VERTEX
  8
PNOA-H_AMS_1956-57_33k_ES_PAN_21mic_H50_0406_fot_42B-36329_E_tif
  70
32
  10
535018.958
  20
4589473.526
  30
969.985
  0
SEQEND
  8
PNOA-H_AMS_1956-57_33k_ES_PAN_21mic_H50_0406_fot_42B-36329_E_tif
  0
INSERT
  8
FeatureAttribs
  2
FEATURE
  41
1
  42
1
  43
1
  50
0
  10
512356.931
  20
4587178.728
 66
1
  0
ATTRIB
  8
FeatureAttribs
 70
0
  1
PNOA-H_AMS_1956-57_33k_ES_PAN_21mic_H50_0405_fot_43B-29652_E.tif
  2
NAME
  10
512356.931
  20
4587178.728
 40
33.55298
  0
SEQEND
  0
POLYLINE
  8
PNOA-H_AMS_1956-57_33k_ES_PAN_21mic_H50_0405_fot_43B-29652_E_tif
  70
9
  66
1
  0
VERTEX
  8
PNOA-H_AMS_1956-57_33k_ES_PAN_21mic_H50_0405_fot_43B-29652_E_tif
  70
32
  10
512381.324
  20
4585265.287
  30
1004.868
  0
VERTEX
  8
PNOA-H_AMS_1956-57_33k_ES_PAN_21mic_H50_0405_fot_43B-29652_E_tif
  70
32
  10
512187.037
  20
4585146.825
  30
986.634
  0
VERTEX
  8
PNOA-H_AMS_1956-57_33k_ES_PAN_21mic_H50_0405_fot_43B-29652_E_tif
  70
32
  10
512187.037
  20
4585147.196
  30
0
  0
VERTEX
  8
PNOA-H_AMS_1956-57_33k_ES_PAN_21mic_H50_0405_fot_43B-29652_E_tif
  70
32
  10
512183.351
  20
4587335.824
  30
0
  0
VERTEX
  8
PNOA-H_AMS_1956-57_33k_ES_PAN_21mic_H50_0405_fot_43B-29652_E_tif
  70
32
  10
512180.193
  20
4589210.127
  30
0
  0
VERTEX
  8
PNOA-H_AMS_1956-57_33k_ES_PAN_21mic_H50_0405_fot_43B-29652_E_tif
  70
32
  10
512180.192
  20
4589210.632
  30
951.751
  0
VERTEX
  8
PNOA-H_AMS_1956-57_33k_ES_PAN_21mic_H50_0405_fot_43B-29652_E_tif
  70
32
  10
512513.000
  20
4589102.000
  30
935.469
  0
VERTEX
  8
PNOA-H_AMS_1956-57_33k_ES_PAN_21mic_H50_0405_fot_43B-29652_E_tif
  70
32
  10
512546.500
  20
4585366.000
  30
1020.37
  0
VERTEX
  8
PNOA-H_AMS_1956-57_33k_ES_PAN_21mic_H50_0405_fot_43B-29652_E_tif
  70
32
  10
512459.107
  20
4585312.714
  30
1012.168
  0
VERTEX
  8
PNOA-H_AMS_1956-57_33k_ES_PAN_21mic_H50_0405_fot_43B-29652_E_tif
  70
32
  10
512381.324
  20
4585265.287
  30
1004.868
  0
SEQEND
  8
PNOA-H_AMS_1956-57_33k_ES_PAN_21mic_H50_0405_fot_43B-29652_E_tif
  0
INSERT
  8
FeatureAttribs
  2
FEATURE
  41
1
  42
1
  43
1
  50
0
  10
513515.664
  20
4583183.250
 66
1
  0
ATTRIB
  8
FeatureAttribs
 70
0
  1
PNOA-H_AMS_1956-57_33k_ES_PAN_21mic_H50_0406_fot_44B-36262_W.tif
  2
NAME
  10
513515.664
  20
4583183.250
 40
33.55298
  0
SEQEND
  0
POLYLINE
  8
PNOA-H_AMS_1956-57_33k_ES_PAN_21mic_H50_0406_fot_44B-36262_W_tif
  70
9
  66
1
  0
VERTEX
  8
PNOA-H_AMS_1956-57_33k_ES_PAN_21mic_H50_0406_fot_44B-36262_W_tif
  70
32
  10
512524.969
  20
4581000.531
  30
1072.782
  0
VERTEX
  8
PNOA-H_AMS_1956-57_33k_ES_PAN_21mic_H50_0406_fot_44B-36262_W_tif
  70
32
  10
512524.500
  20
4581000.500
  30
1072.775
  0
VERTEX
  8
PNOA-H_AMS_1956-57_33k_ES_PAN_21mic_H50_0406_fot_44B-36262_W_tif
  70
32
  10
512193.711
  20
4581181.813
  30
1022.153
  0
VERTEX
  8
PNOA-H_AMS_1956-57_33k_ES_PAN_21mic_H50_0406_fot_44B-36262_W_tif
  70
32
  10
512193.711
  20
4581182.188
  30
0
  0
VERTEX
  8
PNOA-H_AMS_1956-57_33k_ES_PAN_21mic_H50_0406_fot_44B-36262_W_tif
  70
32
  10
512191.140
  20
4582710.091
  30
0
  0
VERTEX
  8
PNOA-H_AMS_1956-57_33k_ES_PAN_21mic_H50_0406_fot_44B-36262_W_tif
  70
32
  10
512187.246
  20
4585022.953
  30
0
  0
VERTEX
  8
PNOA-H_AMS_1956-57_33k_ES_PAN_21mic_H50_0406_fot_44B-36262_W_tif
  70
32
  10
512187.037
  20
4585146.825
  30
0
  0
VERTEX
  8
PNOA-H_AMS_1956-57_33k_ES_PAN_21mic_H50_0406_fot_44B-36262_W_tif
  70
32
  10
512187.037
  20
4585147.196
  30
985.387
  0
VERTEX
  8
PNOA-H_AMS_1956-57_33k_ES_PAN_21mic_H50_0406_fot_44B-36262_W_tif
  70
32
  10
512381.324
  20
4585265.287
  30
1001.881
  0
VERTEX
  8
PNOA-H_AMS_1956-57_33k_ES_PAN_21mic_H50_0406_fot_44B-36262_W_tif
  70
32
  10
512459.000
  20
4585312.500
  30
1008.475
  0
VERTEX
  8
PNOA-H_AMS_1956-57_33k_ES_PAN_21mic_H50_0406_fot_44B-36262_W_tif
  70
32
  10
512459.107
  20
4585312.714
  30
1008.504
  0
VERTEX
  8
PNOA-H_AMS_1956-57_33k_ES_PAN_21mic_H50_0406_fot_44B-36262_W_tif
  70
32
  10
512459.500
  20
4585313.500
  30
1008.608
  0
VERTEX
  8
PNOA-H_AMS_1956-57_33k_ES_PAN_21mic_H50_0406_fot_44B-36262_W_tif
  70
32
  10
512545.500
  20
4585366.000
  30
1020.442
  0
VERTEX
  8
PNOA-H_AMS_1956-57_33k_ES_PAN_21mic_H50_0406_fot_44B-36262_W_tif
  70
32
  10
512546.500
  20
4585366.000
  30
1020.361
  0
VERTEX
  8
PNOA-H_AMS_1956-57_33k_ES_PAN_21mic_H50_0406_fot_44B-36262_W_tif
  70
32
  10
512550.500
  20
4585366.000
  30
1020.034
  0
VERTEX
  8
PNOA-H_AMS_1956-57_33k_ES_PAN_21mic_H50_0406_fot_44B-36262_W_tif
  70
32
  10
514513.611
  20
4585121.556
  30
1038.699
  0
VERTEX
  8
PNOA-H_AMS_1956-57_33k_ES_PAN_21mic_H50_0406_fot_44B-36262_W_tif
  70
32
  10
514759.000
  20
4585091.000
  30
1041.032
  0
VERTEX
  8
PNOA-H_AMS_1956-57_33k_ES_PAN_21mic_H50_0406_fot_44B-36262_W_tif
  70
32
  10
514928.000
  20
4581158.500
  30
1111.838
  0
VERTEX
  8
PNOA-H_AMS_1956-57_33k_ES_PAN_21mic_H50_0406_fot_44B-36262_W_tif
  70
32
  10
512667.215
  20
4581009.882
  30
1075.094
  0
VERTEX
  8
PNOA-H_AMS_1956-57_33k_ES_PAN_21mic_H50_0406_fot_44B-36262_W_tif
  70
32
  10
512524.969
  20
4581000.531
  30
1072.782
  0
SEQEND
  8
PNOA-H_AMS_1956-57_33k_ES_PAN_21mic_H50_0406_fot_44B-36262_W_tif
  0
INSERT
  8
FeatureAttribs
  2
FEATURE
  41
1
  42
1
  43
1
  50
0
  10
512344.416
  20
4580397.492
 66
1
  0
ATTRIB
  8
FeatureAttribs
 70
0
  1
PNOA-H_AMS_1956-57_33k_ES_PAN_21mic_H50_0405_fot_45C-37432_E.tif
  2
NAME
  10
512344.416
  20
4580397.492
 40
33.55298
  0
SEQEND
  0
POLYLINE
  8
PNOA-H_AMS_1956-57_33k_ES_PAN_21mic_H50_0405_fot_45C-37432_E_tif
  70
9
  66
1
  0
VERTEX
  8
PNOA-H_AMS_1956-57_33k_ES_PAN_21mic_H50_0405_fot_45C-37432_E_tif
  70
32
  10
512469.500
  20
4579932.500
  30
1078.306
  0
VERTEX
  8
PNOA-H_AMS_1956-57_33k_ES_PAN_21mic_H50_0405_fot_45C-37432_E_tif
  70
32
  10
512196.351
  20
4579612.796
  30
1077.17
  0
VERTEX
  8
PNOA-H_AMS_1956-57_33k_ES_PAN_21mic_H50_0405_fot_45C-37432_E_tif
  70
32
  10
512195.031
  20
4580397.237
  30
0
  0
VERTEX
  8
PNOA-H_AMS_1956-57_33k_ES_PAN_21mic_H50_0405_fot_45C-37432_E_tif
  70
32
  10
512193.711
  20
4581181.813
  30
0
  0
VERTEX
  8
PNOA-H_AMS_1956-57_33k_ES_PAN_21mic_H50_0405_fot_45C-37432_E_tif
  70
32
  10
512193.711
  20
4581182.188
  30
1022.083
  0
VERTEX
  8
PNOA-H_AMS_1956-57_33k_ES_PAN_21mic_H50_0405_fot_45C-37432_E_tif
  70
32
  10
512524.000
  20
4581001.500
  30
1072.512
  0
VERTEX
  8
PNOA-H_AMS_1956-57_33k_ES_PAN_21mic_H50_0405_fot_45C-37432_E_tif
  70
32
  10
512524.969
  20
4581000.531
  30
1072.788
  0
VERTEX
  8
PNOA-H_AMS_1956-57_33k_ES_PAN_21mic_H50_0405_fot_45C-37432_E_tif
  70
32
  10
512525.000
  20
4581000.500
  30
1072.797
  0
VERTEX
  8
PNOA-H_AMS_1956-57_33k_ES_PAN_21mic_H50_0405_fot_45C-37432_E_tif
  70
32
  10
512525.000
  20
4580994.500
  30
1074.347
  0
VERTEX
  8
PNOA-H_AMS_1956-57_33k_ES_PAN_21mic_H50_0405_fot_45C-37432_E_tif
  70
32
  10
512469.521
  20
4579932.900
  30
1078.304
  0
VERTEX
  8
PNOA-H_AMS_1956-57_33k_ES_PAN_21mic_H50_0405_fot_45C-37432_E_tif
  70
32
  10
512469.500
  20
4579932.500
  30
1078.306
  0
SEQEND
  8
PNOA-H_AMS_1956-57_33k_ES_PAN_21mic_H50_0405_fot_45C-37432_E_tif
  0
INSERT
  8
FeatureAttribs
  2
FEATURE
  41
1
  42
1
  43
1
  50
0
  10
512514.671
  20
4578215.898
 66
1
  0
ATTRIB
  8
FeatureAttribs
 70
0
  1
PNOA-H_AMS_1956-57_33k_ES_PAN_21mic_H50_0405_fot_45B-36181_E.tif
  2
NAME
  10
512514.671
  20
4578215.898
 40
33.55298
  0
SEQEND
  0
POLYLINE
  8
PNOA-H_AMS_1956-57_33k_ES_PAN_21mic_H50_0405_fot_45B-36181_E_tif
  70
9
  66
1
  0
VERTEX
  8
PNOA-H_AMS_1956-57_33k_ES_PAN_21mic_H50_0405_fot_45B-36181_E_tif
  70
32
  10
513168.167
  20
4576602.357
  30
1087.209
  0
VERTEX
  8
PNOA-H_AMS_1956-57_33k_ES_PAN_21mic_H50_0405_fot_45B-36181_E_tif
  70
32
  10
512201.588
  20
4576498.795
  30
1101.454
  0
VERTEX
  8
PNOA-H_AMS_1956-57_33k_ES_PAN_21mic_H50_0405_fot_45B-36181_E_tif
  70
32
  10
512201.588
  20
4576498.906
  30
0
  0
VERTEX
  8
PNOA-H_AMS_1956-57_33k_ES_PAN_21mic_H50_0405_fot_45B-36181_E_tif
  70
32
  10
512198.922
  20
4578084.391
  30
0
  0
VERTEX
  8
PNOA-H_AMS_1956-57_33k_ES_PAN_21mic_H50_0405_fot_45B-36181_E_tif
  70
32
  10
512196.351
  20
4579612.757
  30
1080.28
  0
VERTEX
  8
PNOA-H_AMS_1956-57_33k_ES_PAN_21mic_H50_0405_fot_45B-36181_E_tif
  70
32
  10
512469.599
  20
4579932.530
  30
1078.465
  0
VERTEX
  8
PNOA-H_AMS_1956-57_33k_ES_PAN_21mic_H50_0405_fot_45B-36181_E_tif
  70
32
  10
512470.000
  20
4579933.000
  30
1078.462
  0
VERTEX
  8
PNOA-H_AMS_1956-57_33k_ES_PAN_21mic_H50_0405_fot_45B-36181_E_tif
  70
32
  10
513169.319
  20
4576603.362
  30
1087.187
  0
VERTEX
  8
PNOA-H_AMS_1956-57_33k_ES_PAN_21mic_H50_0405_fot_45B-36181_E_tif
  70
32
  10
513169.500
  20
4576602.500
  30
1087.189
  0
VERTEX
  8
PNOA-H_AMS_1956-57_33k_ES_PAN_21mic_H50_0405_fot_45B-36181_E_tif
  70
32
  10
513168.167
  20
4576602.357
  30
1087.209
  0
SEQEND
  8
PNOA-H_AMS_1956-57_33k_ES_PAN_21mic_H50_0405_fot_45B-36181_E_tif
  0
INSERT
  8
FeatureAttribs
  2
FEATURE
  41
1
  42
1
  43
1
  50
0
  10
512930.928
  20
4576187.027
 66
1
  0
ATTRIB
  8
FeatureAttribs
 70
0
  1
PNOA-H_AMS_1956-57_33k_ES_PAN_21mic_H50_0433_fot_46B-29781_E.tif
  2
NAME
  10
512930.928
  20
4576187.027
 40
33.55298
  0
SEQEND
  0
POLYLINE
  8
PNOA-H_AMS_1956-57_33k_ES_PAN_21mic_H50_0433_fot_46B-29781_E_tif
  70
9
  66
1
  0
VERTEX
  8
PNOA-H_AMS_1956-57_33k_ES_PAN_21mic_H50_0433_fot_46B-29781_E_tif
  70
32
  10
513627.221
  20
4575774.291
  30
0
  0
VERTEX
  8
PNOA-H_AMS_1956-57_33k_ES_PAN_21mic_H50_0433_fot_46B-29781_E_tif
  70
32
  10
512202.810
  20
4575771.554
  30
0
  0
VERTEX
  8
PNOA-H_AMS_1956-57_33k_ES_PAN_21mic_H50_0433_fot_46B-29781_E_tif
  70
32
  10
512201.588
  20
4576498.795
  30
0
  0
VERTEX
  8
PNOA-H_AMS_1956-57_33k_ES_PAN_21mic_H50_0433_fot_46B-29781_E_tif
  70
32
  10
512201.588
  20
4576498.906
  30
1101.206
  0
VERTEX
  8
PNOA-H_AMS_1956-57_33k_ES_PAN_21mic_H50_0433_fot_46B-29781_E_tif
  70
32
  10
513163.000
  20
4576602.000
  30
1086.846
  0
VERTEX
  8
PNOA-H_AMS_1956-57_33k_ES_PAN_21mic_H50_0433_fot_46B-29781_E_tif
  70
32
  10
513167.500
  20
4576602.500
  30
1087.136
  0
VERTEX
  8
PNOA-H_AMS_1956-57_33k_ES_PAN_21mic_H50_0433_fot_46B-29781_E_tif
  70
32
  10
513168.167
  20
4576602.357
  30
1087.172
  0
VERTEX
  8
PNOA-H_AMS_1956-57_33k_ES_PAN_21mic_H50_0433_fot_46B-29781_E_tif
  70
32
  10
513170.237
  20
4576601.913
  30
1087.281
  0
VERTEX
  8
PNOA-H_AMS_1956-57_33k_ES_PAN_21mic_H50_0433_fot_46B-29781_E_tif
  70
32
  10
513174.500
  20
4576601.000
  30
1087.508
  0
VERTEX
  8
PNOA-H_AMS_1956-57_33k_ES_PAN_21mic_H50_0433_fot_46B-29781_E_tif
  70
32
  10
513289.173
  20
4576558.541
  30
1101.969
  0
VERTEX
  8
PNOA-H_AMS_1956-57_33k_ES_PAN_21mic_H50_0433_fot_46B-29781_E_tif
  70
32
  10
513345.131
  20
4576537.822
  30
1109.026
  0
VERTEX
  8
PNOA-H_AMS_1956-57_33k_ES_PAN_21mic_H50_0433_fot_46B-29781_E_tif
  70
32
  10
513346.000
  20
4576537.500
  30
1109.135
  0
VERTEX
  8
PNOA-H_AMS_1956-57_33k_ES_PAN_21mic_H50_0433_fot_46B-29781_E_tif
  70
32
  10
513670.960
  20
4576331.025
  30
1108.598
  0
VERTEX
  8
PNOA-H_AMS_1956-57_33k_ES_PAN_21mic_H50_0433_fot_46B-29781_E_tif
  70
32
  10
513671.000
  20
4576331.000
  30
1108.598
  0
VERTEX
  8
PNOA-H_AMS_1956-57_33k_ES_PAN_21mic_H50_0433_fot_46B-29781_E_tif
  70
32
  10
513627.480
  20
4575774.291
  30
1117.629
  0
VERTEX
  8
PNOA-H_AMS_1956-57_33k_ES_PAN_21mic_H50_0433_fot_46B-29781_E_tif
  70
32
  10
513627.221
  20
4575774.291
  30
0
  0
SEQEND
  8
PNOA-H_AMS_1956-57_33k_ES_PAN_21mic_H50_0433_fot_46B-29781_E_tif
  0
INSERT
  8
FeatureAttribs
  2
FEATURE
  41
1
  42
1
  43
1
  50
0
  10
513959.338
  20
4587332.000
 66
1
  0
ATTRIB
  8
FeatureAttribs
 70
0
  1
PNOA-H_AMS_1956-57_33k_ES_PAN_21mic_H50_0406_fot_43B-29653_E.tif
  2
NAME
  10
513959.338
  20
4587332.000
 40
33.55298
  0
SEQEND
  0
POLYLINE
  8
PNOA-H_AMS_1956-57_33k_ES_PAN_21mic_H50_0406_fot_43B-29653_E_tif
  70
9
  66
1
  0
VERTEX
  8
PNOA-H_AMS_1956-57_33k_ES_PAN_21mic_H50_0406_fot_43B-29653_E_tif
  70
32
  10
515413.500
  20
4585492.000
  30
1064.796
  0
VERTEX
  8
PNOA-H_AMS_1956-57_33k_ES_PAN_21mic_H50_0406_fot_43B-29653_E_tif
  70
32
  10
514759.500
  20
4585091.000
  30
1040.949
  0
VERTEX
  8
PNOA-H_AMS_1956-57_33k_ES_PAN_21mic_H50_0406_fot_43B-29653_E_tif
  70
32
  10
514759.084
  20
4585091.052
  30
1040.945
  0
VERTEX
  8
PNOA-H_AMS_1956-57_33k_ES_PAN_21mic_H50_0406_fot_43B-29653_E_tif
  70
32
  10
514513.611
  20
4585121.556
  30
1038.662
  0
VERTEX
  8
PNOA-H_AMS_1956-57_33k_ES_PAN_21mic_H50_0406_fot_43B-29653_E_tif
  70
32
  10
512546.500
  20
4585366.000
  30
1020.37
  0
VERTEX
  8
PNOA-H_AMS_1956-57_33k_ES_PAN_21mic_H50_0406_fot_43B-29653_E_tif
  70
32
  10
512513.000
  20
4589102.000
  30
935.469
  0
VERTEX
  8
PNOA-H_AMS_1956-57_33k_ES_PAN_21mic_H50_0406_fot_43B-29653_E_tif
  70
32
  10
514024.499
  20
4589573.000
  30
955.349
  0
VERTEX
  8
PNOA-H_AMS_1956-57_33k_ES_PAN_21mic_H50_0406_fot_43B-29653_E_tif
  70
32
  10
514506.500
  20
4589404.000
  30
950.055
  0
VERTEX
  8
PNOA-H_AMS_1956-57_33k_ES_PAN_21mic_H50_0406_fot_43B-29653_E_tif
  70
32
  10
514508.000
  20
4589403.500
  30
950.133
  0
VERTEX
  8
PNOA-H_AMS_1956-57_33k_ES_PAN_21mic_H50_0406_fot_43B-29653_E_tif
  70
32
  10
515367.000
  20
4589103.000
  30
973.349
  0
VERTEX
  8
PNOA-H_AMS_1956-57_33k_ES_PAN_21mic_H50_0406_fot_43B-29653_E_tif
  70
32
  10
515413.494
  20
4585492.496
  30
1064.783
  0
VERTEX
  8
PNOA-H_AMS_1956-57_33k_ES_PAN_21mic_H50_0406_fot_43B-29653_E_tif
  70
32
  10
515413.500
  20
4585492.000
  30
1064.796
  0
SEQEND
  8
PNOA-H_AMS_1956-57_33k_ES_PAN_21mic_H50_0406_fot_43B-29653_E_tif
  0
INSERT
  8
FeatureAttribs
  2
FEATURE
  41
1
  42
1
  43
1
  50
0
  10
516784.827
  20
4587368.750
 66
1
  0
ATTRIB
  8
FeatureAttribs
 70
0
  1
PNOA-H_AMS_1956-57_33k_ES_PAN_21mic_H50_0406_fot_43B-29654_E.tif
  2
NAME
  10
516784.827
  20
4587368.750
 40
33.55298
  0
SEQEND
  0
POLYLINE
  8
PNOA-H_AMS_1956-57_33k_ES_PAN_21mic_H50_0406_fot_43B-29654_E_tif
  70
9
  66
1
  0
VERTEX
  8
PNOA-H_AMS_1956-57_33k_ES_PAN_21mic_H50_0406_fot_43B-29654_E_tif
  70
32
  10
517564.005
  20
4585126.003
  30
1028.003
  0
VERTEX
  8
PNOA-H_AMS_1956-57_33k_ES_PAN_21mic_H50_0406_fot_43B-29654_E_tif
  70
32
  10
517564.000
  20
4585126.000
  30
1028.003
  0
VERTEX
  8
PNOA-H_AMS_1956-57_33k_ES_PAN_21mic_H50_0406_fot_43B-29654_E_tif
  70
32
  10
515413.500
  20
4585492.500
  30
1064.774
  0
VERTEX
  8
PNOA-H_AMS_1956-57_33k_ES_PAN_21mic_H50_0406_fot_43B-29654_E_tif
  70
32
  10
515367.000
  20
4589103.000
  30
973.349
  0
VERTEX
  8
PNOA-H_AMS_1956-57_33k_ES_PAN_21mic_H50_0406_fot_43B-29654_E_tif
  70
32
  10
515367.524
  20
4589103.167
  30
973.37
  0
VERTEX
  8
PNOA-H_AMS_1956-57_33k_ES_PAN_21mic_H50_0406_fot_43B-29654_E_tif
  70
32
  10
516964.000
  20
4589611.000
  30
1038.426
  0
VERTEX
  8
PNOA-H_AMS_1956-57_33k_ES_PAN_21mic_H50_0406_fot_43B-29654_E_tif
  70
32
  10
516965.498
  20
4589611.499
  30
1038.387
  0
VERTEX
  8
PNOA-H_AMS_1956-57_33k_ES_PAN_21mic_H50_0406_fot_43B-29654_E_tif
  70
32
  10
516965.500
  20
4589611.500
  30
1038.387
  0
VERTEX
  8
PNOA-H_AMS_1956-57_33k_ES_PAN_21mic_H50_0406_fot_43B-29654_E_tif
  70
32
  10
518173.001
  20
4589171.500
  30
1045.781
  0
VERTEX
  8
PNOA-H_AMS_1956-57_33k_ES_PAN_21mic_H50_0406_fot_43B-29654_E_tif
  70
32
  10
518188.000
  20
4585476.500
  30
961.512
  0
VERTEX
  8
PNOA-H_AMS_1956-57_33k_ES_PAN_21mic_H50_0406_fot_43B-29654_E_tif
  70
32
  10
518187.894
  20
4585476.441
  30
961.524
  0
VERTEX
  8
PNOA-H_AMS_1956-57_33k_ES_PAN_21mic_H50_0406_fot_43B-29654_E_tif
  70
32
  10
517564.005
  20
4585126.003
  30
1028.003
  0
SEQEND
  8
PNOA-H_AMS_1956-57_33k_ES_PAN_21mic_H50_0406_fot_43B-29654_E_tif
  0
INSERT
  8
FeatureAttribs
  2
FEATURE
  41
1
  42
1
  43
1
  50
0
  10
518953.279
  20
4583227.500
 66
1
  0
ATTRIB
  8
FeatureAttribs
 70
0
  1
PNOA-H_AMS_1956-57_33k_ES_PAN_21mic_H50_0406_fot_44B-36260_W.tif
  2
NAME
  10
518953.279
  20
4583227.500
 40
33.55298
  0
SEQEND
  0
POLYLINE
  8
PNOA-H_AMS_1956-57_33k_ES_PAN_21mic_H50_0406_fot_44B-36260_W_tif
  70
9
  66
1
  0
VERTEX
  8
PNOA-H_AMS_1956-57_33k_ES_PAN_21mic_H50_0406_fot_44B-36260_W_tif
  70
32
  10
518187.894
  20
4585476.441
  30
961.575
  0
VERTEX
  8
PNOA-H_AMS_1956-57_33k_ES_PAN_21mic_H50_0406_fot_44B-36260_W_tif
  70
32
  10
518603.000
  20
4585414.000
  30
943.377
  0
VERTEX
  8
PNOA-H_AMS_1956-57_33k_ES_PAN_21mic_H50_0406_fot_44B-36260_W_tif
  70
32
  10
518604.000
  20
4585414.000
  30
943.352
  0
VERTEX
  8
PNOA-H_AMS_1956-57_33k_ES_PAN_21mic_H50_0406_fot_44B-36260_W_tif
  70
32
  10
520321.500
  20
4585156.000
  30
1054.436
  0
VERTEX
  8
PNOA-H_AMS_1956-57_33k_ES_PAN_21mic_H50_0406_fot_44B-36260_W_tif
  70
32
  10
520327.500
  20
4581163.000
  30
1046.994
  0
VERTEX
  8
PNOA-H_AMS_1956-57_33k_ES_PAN_21mic_H50_0406_fot_44B-36260_W_tif
  70
32
  10
519045.137
  20
4581048.758
  30
1005.905
  0
VERTEX
  8
PNOA-H_AMS_1956-57_33k_ES_PAN_21mic_H50_0406_fot_44B-36260_W_tif
  70
32
  10
518256.500
  20
4580978.500
  30
980.637
  0
VERTEX
  8
PNOA-H_AMS_1956-57_33k_ES_PAN_21mic_H50_0406_fot_44B-36260_W_tif
  70
32
  10
518245.000
  20
4580980.500
  30
979.406
  0
VERTEX
  8
PNOA-H_AMS_1956-57_33k_ES_PAN_21mic_H50_0406_fot_44B-36260_W_tif
  70
32
  10
518101.584
  20
4581018.526
  30
985.734
  0
VERTEX
  8
PNOA-H_AMS_1956-57_33k_ES_PAN_21mic_H50_0406_fot_44B-36260_W_tif
  70
32
  10
517609.500
  20
4581149.000
  30
1007.45
  0
VERTEX
  8
PNOA-H_AMS_1956-57_33k_ES_PAN_21mic_H50_0406_fot_44B-36260_W_tif
  70
32
  10
517608.958
  20
4581149.289
  30
1007.623
  0
VERTEX
  8
PNOA-H_AMS_1956-57_33k_ES_PAN_21mic_H50_0406_fot_44B-36260_W_tif
  70
32
  10
517608.689
  20
4581149.432
  30
1007.709
  0
VERTEX
  8
PNOA-H_AMS_1956-57_33k_ES_PAN_21mic_H50_0406_fot_44B-36260_W_tif
  70
32
  10
517602.000
  20
4581153.000
  30
1009.84
  0
VERTEX
  8
PNOA-H_AMS_1956-57_33k_ES_PAN_21mic_H50_0406_fot_44B-36260_W_tif
  70
32
  10
517564.005
  20
4585126.003
  30
1027.933
  0
VERTEX
  8
PNOA-H_AMS_1956-57_33k_ES_PAN_21mic_H50_0406_fot_44B-36260_W_tif
  70
32
  10
517564.000
  20
4585126.500
  30
1027.936
  0
VERTEX
  8
PNOA-H_AMS_1956-57_33k_ES_PAN_21mic_H50_0406_fot_44B-36260_W_tif
  70
32
  10
518187.500
  20
4585476.500
  30
961.593
  0
VERTEX
  8
PNOA-H_AMS_1956-57_33k_ES_PAN_21mic_H50_0406_fot_44B-36260_W_tif
  70
32
  10
518187.894
  20
4585476.441
  30
961.575
  0
SEQEND
  8
PNOA-H_AMS_1956-57_33k_ES_PAN_21mic_H50_0406_fot_44B-36260_W_tif
  0
INSERT
  8
FeatureAttribs
  2
FEATURE
  41
1
  42
1
  43
1
  50
0
  10
516210.345
  20
4583238.000
 66
1
  0
ATTRIB
  8
FeatureAttribs
 70
0
  1
PNOA-H_AMS_1956-57_33k_ES_PAN_21mic_H50_0406_fot_44B-36261_W.tif
  2
NAME
  10
516210.345
  20
4583238.000
 40
33.55298
  0
SEQEND
  0
POLYLINE
  8
PNOA-H_AMS_1956-57_33k_ES_PAN_21mic_H50_0406_fot_44B-36261_W_tif
  70
9
  66
1
  0
VERTEX
  8
PNOA-H_AMS_1956-57_33k_ES_PAN_21mic_H50_0406_fot_44B-36261_W_tif
  70
32
  10
515316.809
  20
4580983.560
  30
1108.599
  0
VERTEX
  8
PNOA-H_AMS_1956-57_33k_ES_PAN_21mic_H50_0406_fot_44B-36261_W_tif
  70
32
  10
515316.000
  20
4580983.500
  30
1108.634
  0
VERTEX
  8
PNOA-H_AMS_1956-57_33k_ES_PAN_21mic_H50_0406_fot_44B-36261_W_tif
  70
32
  10
515167.500
  20
4581030.000
  30
1111.848
  0
VERTEX
  8
PNOA-H_AMS_1956-57_33k_ES_PAN_21mic_H50_0406_fot_44B-36261_W_tif
  70
32
  10
515166.934
  20
4581030.303
  30
1111.848
  0
VERTEX
  8
PNOA-H_AMS_1956-57_33k_ES_PAN_21mic_H50_0406_fot_44B-36261_W_tif
  70
32
  10
515100.987
  20
4581065.687
  30
1111.845
  0
VERTEX
  8
PNOA-H_AMS_1956-57_33k_ES_PAN_21mic_H50_0406_fot_44B-36261_W_tif
  70
32
  10
514928.000
  20
4581158.500
  30
1111.838
  0
VERTEX
  8
PNOA-H_AMS_1956-57_33k_ES_PAN_21mic_H50_0406_fot_44B-36261_W_tif
  70
32
  10
514759.000
  20
4585091.000
  30
1041.032
  0
VERTEX
  8
PNOA-H_AMS_1956-57_33k_ES_PAN_21mic_H50_0406_fot_44B-36261_W_tif
  70
32
  10
514759.084
  20
4585091.052
  30
1041.035
  0
VERTEX
  8
PNOA-H_AMS_1956-57_33k_ES_PAN_21mic_H50_0406_fot_44B-36261_W_tif
  70
32
  10
515413.494
  20
4585492.496
  30
1064.774
  0
VERTEX
  8
PNOA-H_AMS_1956-57_33k_ES_PAN_21mic_H50_0406_fot_44B-36261_W_tif
  70
32
  10
515413.500
  20
4585492.500
  30
1064.774
  0
VERTEX
  8
PNOA-H_AMS_1956-57_33k_ES_PAN_21mic_H50_0406_fot_44B-36261_W_tif
  70
32
  10
516553.000
  20
4585298.000
  30
1046.134
  0
VERTEX
  8
PNOA-H_AMS_1956-57_33k_ES_PAN_21mic_H50_0406_fot_44B-36261_W_tif
  70
32
  10
516556.000
  20
4585297.500
  30
1046.286
  0
VERTEX
  8
PNOA-H_AMS_1956-57_33k_ES_PAN_21mic_H50_0406_fot_44B-36261_W_tif
  70
32
  10
517564.000
  20
4585126.000
  30
1028.003
  0
VERTEX
  8
PNOA-H_AMS_1956-57_33k_ES_PAN_21mic_H50_0406_fot_44B-36261_W_tif
  70
32
  10
517602.000
  20
4581153.000
  30
1009.84
  0
VERTEX
  8
PNOA-H_AMS_1956-57_33k_ES_PAN_21mic_H50_0406_fot_44B-36261_W_tif
  70
32
  10
515665.051
  20
4581009.381
  30
1093.549
  0
VERTEX
  8
PNOA-H_AMS_1956-57_33k_ES_PAN_21mic_H50_0406_fot_44B-36261_W_tif
  70
32
  10
515316.809
  20
4580983.560
  30
1108.599
  0
SEQEND
  8
PNOA-H_AMS_1956-57_33k_ES_PAN_21mic_H50_0406_fot_44B-36261_W_tif
  0
INSERT
  8
FeatureAttribs
  2
FEATURE
  41
1
  42
1
  43
1
  50
0
  10
519538.868
  20
4587376.500
 66
1
  0
ATTRIB
  8
FeatureAttribs
 70
0
  1
PNOA-H_AMS_1956-57_33k_ES_PAN_21mic_H50_0406_fot_43B-29655_E.tif
  2
NAME
  10
519538.868
  20
4587376.500
 40
33.55298
  0
SEQEND
  0
POLYLINE
  8
PNOA-H_AMS_1956-57_33k_ES_PAN_21mic_H50_0406_fot_43B-29655_E_tif
  70
9
  66
1
  0
VERTEX
  8
PNOA-H_AMS_1956-57_33k_ES_PAN_21mic_H50_0406_fot_43B-29655_E_tif
  70
32
  10
520572.961
  20
4585303.408
  30
1052.946
  0
VERTEX
  8
PNOA-H_AMS_1956-57_33k_ES_PAN_21mic_H50_0406_fot_43B-29655_E_tif
  70
32
  10
520321.500
  20
4585156.000
  30
1054.436
  0
VERTEX
  8
PNOA-H_AMS_1956-57_33k_ES_PAN_21mic_H50_0406_fot_43B-29655_E_tif
  70
32
  10
518188.000
  20
4585476.500
  30
961.512
  0
VERTEX
  8
PNOA-H_AMS_1956-57_33k_ES_PAN_21mic_H50_0406_fot_43B-29655_E_tif
  70
32
  10
518173.001
  20
4589171.500
  30
1045.719
  0
VERTEX
  8
PNOA-H_AMS_1956-57_33k_ES_PAN_21mic_H50_0406_fot_43B-29655_E_tif
  70
32
  10
518173.000
  20
4589172.000
  30
1045.73
  0
VERTEX
  8
PNOA-H_AMS_1956-57_33k_ES_PAN_21mic_H50_0406_fot_43B-29655_E_tif
  70
32
  10
518600.000
  20
4589276.500
  30
1034.499
  0
VERTEX
  8
PNOA-H_AMS_1956-57_33k_ES_PAN_21mic_H50_0406_fot_43B-29655_E_tif
  70
32
  10
518602.000
  20
4589277.000
  30
1034.374
  0
VERTEX
  8
PNOA-H_AMS_1956-57_33k_ES_PAN_21mic_H50_0406_fot_43B-29655_E_tif
  70
32
  10
519909.998
  20
4589596.877
  30
1016.026
  0
VERTEX
  8
PNOA-H_AMS_1956-57_33k_ES_PAN_21mic_H50_0406_fot_43B-29655_E_tif
  70
32
  10
519910.183
  20
4589596.923
  30
1016.024
  0
VERTEX
  8
PNOA-H_AMS_1956-57_33k_ES_PAN_21mic_H50_0406_fot_43B-29655_E_tif
  70
32
  10
519910.500
  20
4589597.000
  30
1016.019
  0
VERTEX
  8
PNOA-H_AMS_1956-57_33k_ES_PAN_21mic_H50_0406_fot_43B-29655_E_tif
  70
32
  10
520878.870
  20
4589187.766
  30
991.049
  0
VERTEX
  8
PNOA-H_AMS_1956-57_33k_ES_PAN_21mic_H50_0406_fot_43B-29655_E_tif
  70
32
  10
520879.500
  20
4589187.500
  30
991.033
  0
VERTEX
  8
PNOA-H_AMS_1956-57_33k_ES_PAN_21mic_H50_0406_fot_43B-29655_E_tif
  70
32
  10
520916.000
  20
4585504.500
  30
1050.913
  0
VERTEX
  8
PNOA-H_AMS_1956-57_33k_ES_PAN_21mic_H50_0406_fot_43B-29655_E_tif
  70
32
  10
520915.383
  20
4585504.138
  30
1050.916
  0
VERTEX
  8
PNOA-H_AMS_1956-57_33k_ES_PAN_21mic_H50_0406_fot_43B-29655_E_tif
  70
32
  10
520651.110
  20
4585349.220
  30
1052.483
  0
VERTEX
  8
PNOA-H_AMS_1956-57_33k_ES_PAN_21mic_H50_0406_fot_43B-29655_E_tif
  70
32
  10
520572.961
  20
4585303.408
  30
1052.946
  0
SEQEND
  8
PNOA-H_AMS_1956-57_33k_ES_PAN_21mic_H50_0406_fot_43B-29655_E_tif
  0
INSERT
  8
FeatureAttribs
  2
FEATURE
  41
1
  42
1
  43
1
  50
0
  10
513489.867
  20
4578848.250
 66
1
  0
ATTRIB
  8
FeatureAttribs
 70
0
  1
PNOA-H_AMS_1956-57_33k_ES_PAN_21mic_H50_0406_fot_45C-37433_E.tif
  2
NAME
  10
513489.867
  20
4578848.250
 40
33.55298
  0
SEQEND
  0
POLYLINE
  8
PNOA-H_AMS_1956-57_33k_ES_PAN_21mic_H50_0406_fot_45C-37433_E_tif
  70
9
  66
1
  0
VERTEX
  8
PNOA-H_AMS_1956-57_33k_ES_PAN_21mic_H50_0406_fot_45C-37433_E_tif
  70
32
  10
515167.000
  20
4581030.000
  30
1111.886
  0
VERTEX
  8
PNOA-H_AMS_1956-57_33k_ES_PAN_21mic_H50_0406_fot_45C-37433_E_tif
  70
32
  10
513345.500
  20
4576538.000
  30
1109.013
  0
VERTEX
  8
PNOA-H_AMS_1956-57_33k_ES_PAN_21mic_H50_0406_fot_45C-37433_E_tif
  70
32
  10
513345.241
  20
4576538.094
  30
1108.981
  0
VERTEX
  8
PNOA-H_AMS_1956-57_33k_ES_PAN_21mic_H50_0406_fot_45C-37433_E_tif
  70
32
  10
513289.173
  20
4576558.541
  30
1102.027
  0
VERTEX
  8
PNOA-H_AMS_1956-57_33k_ES_PAN_21mic_H50_0406_fot_45C-37433_E_tif
  70
32
  10
513170.237
  20
4576601.913
  30
1087.275
  0
VERTEX
  8
PNOA-H_AMS_1956-57_33k_ES_PAN_21mic_H50_0406_fot_45C-37433_E_tif
  70
32
  10
513170.000
  20
4576602.000
  30
1087.245
  0
VERTEX
  8
PNOA-H_AMS_1956-57_33k_ES_PAN_21mic_H50_0406_fot_45C-37433_E_tif
  70
32
  10
513169.319
  20
4576603.362
  30
1087.096
  0
VERTEX
  8
PNOA-H_AMS_1956-57_33k_ES_PAN_21mic_H50_0406_fot_45C-37433_E_tif
  70
32
  10
513169.000
  20
4576604.000
  30
1087.026
  0
VERTEX
  8
PNOA-H_AMS_1956-57_33k_ES_PAN_21mic_H50_0406_fot_45C-37433_E_tif
  70
32
  10
512469.599
  20
4579932.530
  30
1078.349
  0
VERTEX
  8
PNOA-H_AMS_1956-57_33k_ES_PAN_21mic_H50_0406_fot_45C-37433_E_tif
  70
32
  10
512469.521
  20
4579932.900
  30
1078.348
  0
VERTEX
  8
PNOA-H_AMS_1956-57_33k_ES_PAN_21mic_H50_0406_fot_45C-37433_E_tif
  70
32
  10
512469.500
  20
4579933.000
  30
1078.348
  0
VERTEX
  8
PNOA-H_AMS_1956-57_33k_ES_PAN_21mic_H50_0406_fot_45C-37433_E_tif
  70
32
  10
512525.000
  20
4581000.500
  30
1072.797
  0
VERTEX
  8
PNOA-H_AMS_1956-57_33k_ES_PAN_21mic_H50_0406_fot_45C-37433_E_tif
  70
32
  10
512667.215
  20
4581009.882
  30
1075.113
  0
VERTEX
  8
PNOA-H_AMS_1956-57_33k_ES_PAN_21mic_H50_0406_fot_45C-37433_E_tif
  70
32
  10
514912.500
  20
4581158.000
  30
1111.67
  0
VERTEX
  8
PNOA-H_AMS_1956-57_33k_ES_PAN_21mic_H50_0406_fot_45C-37433_E_tif
  70
32
  10
514920.000
  20
4581158.500
  30
1111.734
  0
VERTEX
  8
PNOA-H_AMS_1956-57_33k_ES_PAN_21mic_H50_0406_fot_45C-37433_E_tif
  70
32
  10
514928.000
  20
4581158.500
  30
1111.836
  0
VERTEX
  8
PNOA-H_AMS_1956-57_33k_ES_PAN_21mic_H50_0406_fot_45C-37433_E_tif
  70
32
  10
514929.000
  20
4581158.500
  30
1111.849
  0
VERTEX
  8
PNOA-H_AMS_1956-57_33k_ES_PAN_21mic_H50_0406_fot_45C-37433_E_tif
  70
32
  10
514933.000
  20
4581156.500
  30
1111.952
  0
VERTEX
  8
PNOA-H_AMS_1956-57_33k_ES_PAN_21mic_H50_0406_fot_45C-37433_E_tif
  70
32
  10
515100.987
  20
4581065.687
  30
1111.905
  0
VERTEX
  8
PNOA-H_AMS_1956-57_33k_ES_PAN_21mic_H50_0406_fot_45C-37433_E_tif
  70
32
  10
515166.859
  20
4581030.076
  30
1111.886
  0
VERTEX
  8
PNOA-H_AMS_1956-57_33k_ES_PAN_21mic_H50_0406_fot_45C-37433_E_tif
  70
32
  10
515167.000
  20
4581030.000
  30
1111.886
  0
SEQEND
  8
PNOA-H_AMS_1956-57_33k_ES_PAN_21mic_H50_0406_fot_45C-37433_E_tif
  0
INSERT
  8
FeatureAttribs
  2
FEATURE
  41
1
  42
1
  43
1
  50
0
  10
516357.422
  20
4578700.250
 66
1
  0
ATTRIB
  8
FeatureAttribs
 70
0
  1
PNOA-H_AMS_1956-57_33k_ES_PAN_21mic_H50_0406_fot_45C-37434_E.tif
  2
NAME
  10
516357.422
  20
4578700.250
 40
33.55298
  0
SEQEND
  0
POLYLINE
  8
PNOA-H_AMS_1956-57_33k_ES_PAN_21mic_H50_0406_fot_45C-37434_E_tif
  70
9
  66
1
  0
VERTEX
  8
PNOA-H_AMS_1956-57_33k_ES_PAN_21mic_H50_0406_fot_45C-37434_E_tif
  70
32
  10
517598.000
  20
4581153.000
  30
1010.945
  0
VERTEX
  8
PNOA-H_AMS_1956-57_33k_ES_PAN_21mic_H50_0406_fot_45C-37434_E_tif
  70
32
  10
517602.000
  20
4581153.000
  30
1009.84
  0
VERTEX
  8
PNOA-H_AMS_1956-57_33k_ES_PAN_21mic_H50_0406_fot_45C-37434_E_tif
  70
32
  10
517602.500
  20
4581153.000
  30
1009.702
  0
VERTEX
  8
PNOA-H_AMS_1956-57_33k_ES_PAN_21mic_H50_0406_fot_45C-37434_E_tif
  70
32
  10
517608.500
  20
4581150.000
  30
1007.821
  0
VERTEX
  8
PNOA-H_AMS_1956-57_33k_ES_PAN_21mic_H50_0406_fot_45C-37434_E_tif
  70
32
  10
517608.689
  20
4581149.432
  30
1007.734
  0
VERTEX
  8
PNOA-H_AMS_1956-57_33k_ES_PAN_21mic_H50_0406_fot_45C-37434_E_tif
  70
32
  10
517608.875
  20
4581148.875
  30
1007.649
  0
VERTEX
  8
PNOA-H_AMS_1956-57_33k_ES_PAN_21mic_H50_0406_fot_45C-37434_E_tif
  70
32
  10
517609.000
  20
4581148.500
  30
1007.592
  0
VERTEX
  8
PNOA-H_AMS_1956-57_33k_ES_PAN_21mic_H50_0406_fot_45C-37434_E_tif
  70
32
  10
516638.000
  20
4576300.500
  30
1100.271
  0
VERTEX
  8
PNOA-H_AMS_1956-57_33k_ES_PAN_21mic_H50_0406_fot_45C-37434_E_tif
  70
32
  10
516637.500
  20
4576299.500
  30
1100.236
  0
VERTEX
  8
PNOA-H_AMS_1956-57_33k_ES_PAN_21mic_H50_0406_fot_45C-37434_E_tif
  70
32
  10
516637.455
  20
4576299.489
  30
1100.233
  0
VERTEX
  8
PNOA-H_AMS_1956-57_33k_ES_PAN_21mic_H50_0406_fot_45C-37434_E_tif
  70
32
  10
516631.500
  20
4576298.000
  30
1099.873
  0
VERTEX
  8
PNOA-H_AMS_1956-57_33k_ES_PAN_21mic_H50_0406_fot_45C-37434_E_tif
  70
32
  10
516408.500
  20
4576247.500
  30
1094.141
  0
VERTEX
  8
PNOA-H_AMS_1956-57_33k_ES_PAN_21mic_H50_0406_fot_45C-37434_E_tif
  70
32
  10
516407.670
  20
4576247.691
  30
1094.109
  0
VERTEX
  8
PNOA-H_AMS_1956-57_33k_ES_PAN_21mic_H50_0406_fot_45C-37434_E_tif
  70
32
  10
516404.719
  20
4576248.373
  30
1093.994
  0
VERTEX
  8
PNOA-H_AMS_1956-57_33k_ES_PAN_21mic_H50_0406_fot_45C-37434_E_tif
  70
32
  10
516402.000
  20
4576249.000
  30
1093.889
  0
VERTEX
  8
PNOA-H_AMS_1956-57_33k_ES_PAN_21mic_H50_0406_fot_45C-37434_E_tif
  70
32
  10
515895.500
  20
4576442.500
  30
1027.583
  0
VERTEX
  8
PNOA-H_AMS_1956-57_33k_ES_PAN_21mic_H50_0406_fot_45C-37434_E_tif
  70
32
  10
515872.663
  20
4576451.246
  30
1027.68
  0
VERTEX
  8
PNOA-H_AMS_1956-57_33k_ES_PAN_21mic_H50_0406_fot_45C-37434_E_tif
  70
32
  10
515872.000
  20
4576451.500
  30
1027.683
  0
VERTEX
  8
PNOA-H_AMS_1956-57_33k_ES_PAN_21mic_H50_0406_fot_45C-37434_E_tif
  70
32
  10
515871.463
  20
4576452.306
  30
1027.687
  0
VERTEX
  8
PNOA-H_AMS_1956-57_33k_ES_PAN_21mic_H50_0406_fot_45C-37434_E_tif
  70
32
  10
515871.000
  20
4576453.000
  30
1027.69
  0
VERTEX
  8
PNOA-H_AMS_1956-57_33k_ES_PAN_21mic_H50_0406_fot_45C-37434_E_tif
  70
32
  10
515317.000
  20
4580983.500
  30
1108.617
  0
VERTEX
  8
PNOA-H_AMS_1956-57_33k_ES_PAN_21mic_H50_0406_fot_45C-37434_E_tif
  70
32
  10
515665.051
  20
4581009.381
  30
1105.378
  0
VERTEX
  8
PNOA-H_AMS_1956-57_33k_ES_PAN_21mic_H50_0406_fot_45C-37434_E_tif
  70
32
  10
516547.500
  20
4581075.000
  30
1097.164
  0
VERTEX
  8
PNOA-H_AMS_1956-57_33k_ES_PAN_21mic_H50_0406_fot_45C-37434_E_tif
  70
32
  10
516554.000
  20
4581075.500
  30
1097.137
  0
VERTEX
  8
PNOA-H_AMS_1956-57_33k_ES_PAN_21mic_H50_0406_fot_45C-37434_E_tif
  70
32
  10
517598.000
  20
4581153.000
  30
1010.945
  0
SEQEND
  8
PNOA-H_AMS_1956-57_33k_ES_PAN_21mic_H50_0406_fot_45C-37434_E_tif
  0
INSERT
  8
FeatureAttribs
  2
FEATURE
  41
1
  42
1
  43
1
  50
0
  10
519238.495
  20
4578669.250
 66
1
  0
ATTRIB
  8
FeatureAttribs
 70
0
  1
PNOA-H_AMS_1956-57_33k_ES_PAN_21mic_H50_0406_fot_45C-37435_E.tif
  2
NAME
  10
519238.495
  20
4578669.250
 40
33.55298
  0
SEQEND
  0
POLYLINE
  8
PNOA-H_AMS_1956-57_33k_ES_PAN_21mic_H50_0406_fot_45C-37435_E_tif
  70
9
  66
1
  0
VERTEX
  8
PNOA-H_AMS_1956-57_33k_ES_PAN_21mic_H50_0406_fot_45C-37435_E_tif
  70
32
  10
519652.000
  20
4576287.500
  30
1042.707
  0
VERTEX
  8
PNOA-H_AMS_1956-57_33k_ES_PAN_21mic_H50_0406_fot_45C-37435_E_tif
  70
32
  10
519031.000
  20
4576175.500
  30
1069.126
  0
VERTEX
  8
PNOA-H_AMS_1956-57_33k_ES_PAN_21mic_H50_0406_fot_45C-37435_E_tif
  70
32
  10
519029.762
  20
4576175.638
  30
1069.198
  0
VERTEX
  8
PNOA-H_AMS_1956-57_33k_ES_PAN_21mic_H50_0406_fot_45C-37435_E_tif
  70
32
  10
519028.196
  20
4576175.812
  30
1069.289
  0
VERTEX
  8
PNOA-H_AMS_1956-57_33k_ES_PAN_21mic_H50_0406_fot_45C-37435_E_tif
  70
32
  10
519026.500
  20
4576176.000
  30
1069.387
  0
VERTEX
  8
PNOA-H_AMS_1956-57_33k_ES_PAN_21mic_H50_0406_fot_45C-37435_E_tif
  70
32
  10
518742.729
  20
4576285.943
  30
1094.407
  0
VERTEX
  8
PNOA-H_AMS_1956-57_33k_ES_PAN_21mic_H50_0406_fot_45C-37435_E_tif
  70
32
  10
518740.000
  20
4576287.000
  30
1094.648
  0
VERTEX
  8
PNOA-H_AMS_1956-57_33k_ES_PAN_21mic_H50_0406_fot_45C-37435_E_tif
  70
32
  10
518604.000
  20
4577598.359
  30
1062.797
  0
VERTEX
  8
PNOA-H_AMS_1956-57_33k_ES_PAN_21mic_H50_0406_fot_45C-37435_E_tif
  70
32
  10
518253.500
  20
4580978.000
  30
980.713
  0
VERTEX
  8
PNOA-H_AMS_1956-57_33k_ES_PAN_21mic_H50_0406_fot_45C-37435_E_tif
  70
32
  10
518253.874
  20
4580978.033
  30
980.724
  0
VERTEX
  8
PNOA-H_AMS_1956-57_33k_ES_PAN_21mic_H50_0406_fot_45C-37435_E_tif
  70
32
  10
519045.137
  20
4581048.758
  30
1005.831
  0
VERTEX
  8
PNOA-H_AMS_1956-57_33k_ES_PAN_21mic_H50_0406_fot_45C-37435_E_tif
  70
32
  10
520306.500
  20
4581161.500
  30
1045.854
  0
VERTEX
  8
PNOA-H_AMS_1956-57_33k_ES_PAN_21mic_H50_0406_fot_45C-37435_E_tif
  70
32
  10
520323.500
  20
4581163.000
  30
1046.763
  0
VERTEX
  8
PNOA-H_AMS_1956-57_33k_ES_PAN_21mic_H50_0406_fot_45C-37435_E_tif
  70
32
  10
520327.500
  20
4581163.000
  30
1046.984
  0
VERTEX
  8
PNOA-H_AMS_1956-57_33k_ES_PAN_21mic_H50_0406_fot_45C-37435_E_tif
  70
32
  10
520328.500
  20
4581163.000
  30
1047.039
  0
VERTEX
  8
PNOA-H_AMS_1956-57_33k_ES_PAN_21mic_H50_0406_fot_45C-37435_E_tif
  70
32
  10
520330.900
  20
4581161.800
  30
1047.264
  0
VERTEX
  8
PNOA-H_AMS_1956-57_33k_ES_PAN_21mic_H50_0406_fot_45C-37435_E_tif
  70
32
  10
520331.500
  20
4581161.500
  30
1047.32
  0
VERTEX
  8
PNOA-H_AMS_1956-57_33k_ES_PAN_21mic_H50_0406_fot_45C-37435_E_tif
  70
32
  10
519724.500
  20
4576807.500
  30
1067.354
  0
VERTEX
  8
PNOA-H_AMS_1956-57_33k_ES_PAN_21mic_H50_0406_fot_45C-37435_E_tif
  70
32
  10
519724.500
  20
4576805.000
  30
1067.739
  0
VERTEX
  8
PNOA-H_AMS_1956-57_33k_ES_PAN_21mic_H50_0406_fot_45C-37435_E_tif
  70
32
  10
519652.069
  20
4576287.995
  30
1042.731
  0
VERTEX
  8
PNOA-H_AMS_1956-57_33k_ES_PAN_21mic_H50_0406_fot_45C-37435_E_tif
  70
32
  10
519652.000
  20
4576287.500
  30
1042.707
  0
SEQEND
  8
PNOA-H_AMS_1956-57_33k_ES_PAN_21mic_H50_0406_fot_45C-37435_E_tif
  0
INSERT
  8
FeatureAttribs
  2
FEATURE
  41
1
  42
1
  43
1
  50
0
  10
517805.085
  20
4578718.250
 66
1
  0
ATTRIB
  8
FeatureAttribs
 70
0
  1
PNOA-H_AMS_1956-57_33k_ES_PAN_21mic_H50_0406_fot_000-36183_R.tif
  2
NAME
  10
517805.085
  20
4578718.250
 40
33.55298
  0
SEQEND
  0
POLYLINE
  8
PNOA-H_AMS_1956-57_33k_ES_PAN_21mic_H50_0406_fot_000-36183_R_tif
  70
9
  66
1
  0
VERTEX
  8
PNOA-H_AMS_1956-57_33k_ES_PAN_21mic_H50_0406_fot_000-36183_R_tif
  70
32
  10
518604.000
  20
4577596.000
  30
1016.522
  0
VERTEX
  8
PNOA-H_AMS_1956-57_33k_ES_PAN_21mic_H50_0406_fot_000-36183_R_tif
  70
32
  10
518740.000
  20
4576287.000
  30
1094.648
  0
VERTEX
  8
PNOA-H_AMS_1956-57_33k_ES_PAN_21mic_H50_0406_fot_000-36183_R_tif
  70
32
  10
518738.463
  20
4576287.009
  30
1094.652
  0
VERTEX
  8
PNOA-H_AMS_1956-57_33k_ES_PAN_21mic_H50_0406_fot_000-36183_R_tif
  70
32
  10
516686.372
  20
4576299.209
  30
1100.106
  0
VERTEX
  8
PNOA-H_AMS_1956-57_33k_ES_PAN_21mic_H50_0406_fot_000-36183_R_tif
  70
32
  10
516637.500
  20
4576299.500
  30
1100.236
  0
VERTEX
  8
PNOA-H_AMS_1956-57_33k_ES_PAN_21mic_H50_0406_fot_000-36183_R_tif
  70
32
  10
517608.875
  20
4581148.875
  30
1007.646
  0
VERTEX
  8
PNOA-H_AMS_1956-57_33k_ES_PAN_21mic_H50_0406_fot_000-36183_R_tif
  70
32
  10
517608.958
  20
4581149.289
  30
1007.638
  0
VERTEX
  8
PNOA-H_AMS_1956-57_33k_ES_PAN_21mic_H50_0406_fot_000-36183_R_tif
  70
32
  10
517609.000
  20
4581149.500
  30
1007.634
  0
VERTEX
  8
PNOA-H_AMS_1956-57_33k_ES_PAN_21mic_H50_0406_fot_000-36183_R_tif
  70
32
  10
518101.584
  20
4581018.526
  30
987.083
  0
VERTEX
  8
PNOA-H_AMS_1956-57_33k_ES_PAN_21mic_H50_0406_fot_000-36183_R_tif
  70
32
  10
518253.874
  20
4580978.033
  30
980.729
  0
VERTEX
  8
PNOA-H_AMS_1956-57_33k_ES_PAN_21mic_H50_0406_fot_000-36183_R_tif
  70
32
  10
518254.000
  20
4580978.000
  30
980.724
  0
VERTEX
  8
PNOA-H_AMS_1956-57_33k_ES_PAN_21mic_H50_0406_fot_000-36183_R_tif
  70
32
  10
518604.000
  20
4577600.500
  30
1017.93
  0
VERTEX
  8
PNOA-H_AMS_1956-57_33k_ES_PAN_21mic_H50_0406_fot_000-36183_R_tif
  70
32
  10
518604.000
  20
4577598.359
  30
1017.26
  0
VERTEX
  8
PNOA-H_AMS_1956-57_33k_ES_PAN_21mic_H50_0406_fot_000-36183_R_tif
  70
32
  10
518604.000
  20
4577596.000
  30
1016.522
  0
SEQEND
  8
PNOA-H_AMS_1956-57_33k_ES_PAN_21mic_H50_0406_fot_000-36183_R_tif
  0
INSERT
  8
FeatureAttribs
  2
FEATURE
  41
1
  42
1
  43
1
  50
0
  10
514906.480
  20
4578680.750
 66
1
  0
ATTRIB
  8
FeatureAttribs
 70
0
  1
PNOA-H_AMS_1956-57_33k_ES_PAN_21mic_H50_0406_fot_000-36182_R.tif
  2
NAME
  10
514906.480
  20
4578680.750
 40
33.55298
  0
SEQEND
  0
POLYLINE
  8
PNOA-H_AMS_1956-57_33k_ES_PAN_21mic_H50_0406_fot_000-36182_R_tif
  70
9
  66
1
  0
VERTEX
  8
PNOA-H_AMS_1956-57_33k_ES_PAN_21mic_H50_0406_fot_000-36182_R_tif
  70
32
  10
513670.960
  20
4576331.025
  30
1108.612
  0
VERTEX
  8
PNOA-H_AMS_1956-57_33k_ES_PAN_21mic_H50_0406_fot_000-36182_R_tif
  70
32
  10
513670.500
  20
4576331.000
  30
1108.629
  0
VERTEX
  8
PNOA-H_AMS_1956-57_33k_ES_PAN_21mic_H50_0406_fot_000-36182_R_tif
  70
32
  10
513345.000
  20
4576537.500
  30
1109.176
  0
VERTEX
  8
PNOA-H_AMS_1956-57_33k_ES_PAN_21mic_H50_0406_fot_000-36182_R_tif
  70
32
  10
513345.131
  20
4576537.822
  30
1109.177
  0
VERTEX
  8
PNOA-H_AMS_1956-57_33k_ES_PAN_21mic_H50_0406_fot_000-36182_R_tif
  70
32
  10
513345.241
  20
4576538.094
  30
1109.177
  0
VERTEX
  8
PNOA-H_AMS_1956-57_33k_ES_PAN_21mic_H50_0406_fot_000-36182_R_tif
  70
32
  10
515166.500
  20
4581029.000
  30
1111.873
  0
VERTEX
  8
PNOA-H_AMS_1956-57_33k_ES_PAN_21mic_H50_0406_fot_000-36182_R_tif
  70
32
  10
515166.859
  20
4581030.076
  30
1111.899
  0
VERTEX
  8
PNOA-H_AMS_1956-57_33k_ES_PAN_21mic_H50_0406_fot_000-36182_R_tif
  70
32
  10
515166.934
  20
4581030.303
  30
1111.904
  0
VERTEX
  8
PNOA-H_AMS_1956-57_33k_ES_PAN_21mic_H50_0406_fot_000-36182_R_tif
  70
32
  10
515167.000
  20
4581030.500
  30
1111.909
  0
VERTEX
  8
PNOA-H_AMS_1956-57_33k_ES_PAN_21mic_H50_0406_fot_000-36182_R_tif
  70
32
  10
515316.809
  20
4580983.560
  30
1108.621
  0
VERTEX
  8
PNOA-H_AMS_1956-57_33k_ES_PAN_21mic_H50_0406_fot_000-36182_R_tif
  70
32
  10
515317.000
  20
4580983.500
  30
1108.617
  0
VERTEX
  8
PNOA-H_AMS_1956-57_33k_ES_PAN_21mic_H50_0406_fot_000-36182_R_tif
  70
32
  10
515871.463
  20
4576452.306
  30
1027.692
  0
VERTEX
  8
PNOA-H_AMS_1956-57_33k_ES_PAN_21mic_H50_0406_fot_000-36182_R_tif
  70
32
  10
515871.500
  20
4576452.000
  30
1027.687
  0
VERTEX
  8
PNOA-H_AMS_1956-57_33k_ES_PAN_21mic_H50_0406_fot_000-36182_R_tif
  70
32
  10
515867.558
  20
4576451.783
  30
1027.832
  0
VERTEX
  8
PNOA-H_AMS_1956-57_33k_ES_PAN_21mic_H50_0406_fot_000-36182_R_tif
  70
32
  10
513672.252
  20
4576331.096
  30
1108.565
  0
VERTEX
  8
PNOA-H_AMS_1956-57_33k_ES_PAN_21mic_H50_0406_fot_000-36182_R_tif
  70
32
  10
513670.960
  20
4576331.025
  30
1108.612
  0
SEQEND
  8
PNOA-H_AMS_1956-57_33k_ES_PAN_21mic_H50_0406_fot_000-36182_R_tif
  0
INSERT
  8
FeatureAttribs
  2
FEATURE
  41
1
  42
1
  43
1
  50
0
  10
520326.309
  20
4576037.111
 66
1
  0
ATTRIB
  8
FeatureAttribs
 70
0
  1
PNOA-H_AMS_1956-57_33k_ES_PAN_21mic_H50_0434_fot_46B-29778_E.tif
  2
NAME
  10
520326.309
  20
4576037.111
 40
33.55298
  0
SEQEND
  0
POLYLINE
  8
PNOA-H_AMS_1956-57_33k_ES_PAN_21mic_H50_0434_fot_46B-29778_E_tif
  70
9
  66
1
  0
VERTEX
  8
PNOA-H_AMS_1956-57_33k_ES_PAN_21mic_H50_0434_fot_46B-29778_E_tif
  70
32
  10
519652.069
  20
4576287.995
  30
1042.699
  0
VERTEX
  8
PNOA-H_AMS_1956-57_33k_ES_PAN_21mic_H50_0434_fot_46B-29778_E_tif
  70
32
  10
520649.500
  20
4576211.000
  30
1083.772
  0
VERTEX
  8
PNOA-H_AMS_1956-57_33k_ES_PAN_21mic_H50_0434_fot_46B-29778_E_tif
  70
32
  10
520652.000
  20
4576211.000
  30
1083.727
  0
VERTEX
  8
PNOA-H_AMS_1956-57_33k_ES_PAN_21mic_H50_0434_fot_46B-29778_E_tif
  70
32
  10
520840.500
  20
4576196.500
  30
1086.015
  0
VERTEX
  8
PNOA-H_AMS_1956-57_33k_ES_PAN_21mic_H50_0434_fot_46B-29778_E_tif
  70
32
  10
521632.638
  20
4576135.566
  30
1095.629
  0
VERTEX
  8
PNOA-H_AMS_1956-57_33k_ES_PAN_21mic_H50_0434_fot_46B-29778_E_tif
  70
32
  10
521633.500
  20
4576135.500
  30
1095.639
  0
VERTEX
  8
PNOA-H_AMS_1956-57_33k_ES_PAN_21mic_H50_0434_fot_46B-29778_E_tif
  70
32
  10
521624.884
  20
4575793.683
  30
1097.694
  0
VERTEX
  8
PNOA-H_AMS_1956-57_33k_ES_PAN_21mic_H50_0434_fot_46B-29778_E_tif
  70
32
  10
519175.849
  20
4575786.625
  30
0
  0
VERTEX
  8
PNOA-H_AMS_1956-57_33k_ES_PAN_21mic_H50_0434_fot_46B-29778_E_tif
  70
32
  10
519008.183
  20
4575786.222
  30
1073.559
  0
VERTEX
  8
PNOA-H_AMS_1956-57_33k_ES_PAN_21mic_H50_0434_fot_46B-29778_E_tif
  70
32
  10
519008.181
  20
4575786.222
  30
1073.558
  0
VERTEX
  8
PNOA-H_AMS_1956-57_33k_ES_PAN_21mic_H50_0434_fot_46B-29778_E_tif
  70
32
  10
519029.000
  20
4576175.500
  30
1069.268
  0
VERTEX
  8
PNOA-H_AMS_1956-57_33k_ES_PAN_21mic_H50_0434_fot_46B-29778_E_tif
  70
32
  10
519029.762
  20
4576175.638
  30
1069.235
  0
VERTEX
  8
PNOA-H_AMS_1956-57_33k_ES_PAN_21mic_H50_0434_fot_46B-29778_E_tif
  70
32
  10
519652.000
  20
4576288.000
  30
1042.696
  0
VERTEX
  8
PNOA-H_AMS_1956-57_33k_ES_PAN_21mic_H50_0434_fot_46B-29778_E_tif
  70
32
  10
519652.069
  20
4576287.995
  30
1042.699
  0
SEQEND
  8
PNOA-H_AMS_1956-57_33k_ES_PAN_21mic_H50_0434_fot_46B-29778_E_tif
  0
INSERT
  8
FeatureAttribs
  2
FEATURE
  41
1
  42
1
  43
1
  50
0
  10
515025.050
  20
4576113.145
 66
1
  0
ATTRIB
  8
FeatureAttribs
 70
0
  1
PNOA-H_AMS_1956-57_33k_ES_PAN_21mic_H50_0434_fot_46B-29780_E.tif
  2
NAME
  10
515025.050
  20
4576113.145
 40
33.55298
  0
SEQEND
  0
POLYLINE
  8
PNOA-H_AMS_1956-57_33k_ES_PAN_21mic_H50_0434_fot_46B-29780_E_tif
  70
9
  66
1
  0
VERTEX
  8
PNOA-H_AMS_1956-57_33k_ES_PAN_21mic_H50_0434_fot_46B-29780_E_tif
  70
32
  10
513627.480
  20
4575774.291
  30
1117.748
  0
VERTEX
  8
PNOA-H_AMS_1956-57_33k_ES_PAN_21mic_H50_0434_fot_46B-29780_E_tif
  70
32
  10
513627.221
  20
4575774.291
  30
1117.777
  0
VERTEX
  8
PNOA-H_AMS_1956-57_33k_ES_PAN_21mic_H50_0434_fot_46B-29780_E_tif
  70
32
  10
513670.500
  20
4576328.500
  30
1108.812
  0
VERTEX
  8
PNOA-H_AMS_1956-57_33k_ES_PAN_21mic_H50_0434_fot_46B-29780_E_tif
  70
32
  10
513671.000
  20
4576331.000
  30
1108.598
  0
VERTEX
  8
PNOA-H_AMS_1956-57_33k_ES_PAN_21mic_H50_0434_fot_46B-29780_E_tif
  70
32
  10
513672.252
  20
4576331.096
  30
1108.505
  0
VERTEX
  8
PNOA-H_AMS_1956-57_33k_ES_PAN_21mic_H50_0434_fot_46B-29780_E_tif
  70
32
  10
513677.500
  20
4576331.500
  30
1108.115
  0
VERTEX
  8
PNOA-H_AMS_1956-57_33k_ES_PAN_21mic_H50_0434_fot_46B-29780_E_tif
  70
32
  10
515856.500
  20
4576451.500
  30
1027.94
  0
VERTEX
  8
PNOA-H_AMS_1956-57_33k_ES_PAN_21mic_H50_0434_fot_46B-29780_E_tif
  70
32
  10
515865.500
  20
4576452.000
  30
1027.772
  0
VERTEX
  8
PNOA-H_AMS_1956-57_33k_ES_PAN_21mic_H50_0434_fot_46B-29780_E_tif
  70
32
  10
515867.558
  20
4576451.783
  30
1027.746
  0
VERTEX
  8
PNOA-H_AMS_1956-57_33k_ES_PAN_21mic_H50_0434_fot_46B-29780_E_tif
  70
32
  10
515872.663
  20
4576451.246
  30
1027.682
  0
VERTEX
  8
PNOA-H_AMS_1956-57_33k_ES_PAN_21mic_H50_0434_fot_46B-29780_E_tif
  70
32
  10
515875.000
  20
4576451.000
  30
1027.653
  0
VERTEX
  8
PNOA-H_AMS_1956-57_33k_ES_PAN_21mic_H50_0434_fot_46B-29780_E_tif
  70
32
  10
516404.719
  20
4576248.373
  30
1093.779
  0
VERTEX
  8
PNOA-H_AMS_1956-57_33k_ES_PAN_21mic_H50_0434_fot_46B-29780_E_tif
  70
32
  10
516407.000
  20
4576247.500
  30
1094.064
  0
VERTEX
  8
PNOA-H_AMS_1956-57_33k_ES_PAN_21mic_H50_0434_fot_46B-29780_E_tif
  70
32
  10
516370.166
  20
4575779.887
  30
1097.877
  0
VERTEX
  8
PNOA-H_AMS_1956-57_33k_ES_PAN_21mic_H50_0434_fot_46B-29780_E_tif
  70
32
  10
516369.912
  20
4575779.887
  30
0
  0
VERTEX
  8
PNOA-H_AMS_1956-57_33k_ES_PAN_21mic_H50_0434_fot_46B-29780_E_tif
  70
32
  10
515689.329
  20
4575778.252
  30
0
  0
VERTEX
  8
PNOA-H_AMS_1956-57_33k_ES_PAN_21mic_H50_0434_fot_46B-29780_E_tif
  70
32
  10
513627.480
  20
4575774.291
  30
1117.748
  0
SEQEND
  8
PNOA-H_AMS_1956-57_33k_ES_PAN_21mic_H50_0434_fot_46B-29780_E_tif
  0
INSERT
  8
FeatureAttribs
  2
FEATURE
  41
1
  42
1
  43
1
  50
0
  10
517706.055
  20
4576039.693
 66
1
  0
ATTRIB
  8
FeatureAttribs
 70
0
  1
PNOA-H_AMS_1956-57_33k_ES_PAN_21mic_H50_0434_fot_46B-29779_E.tif
  2
NAME
  10
517706.055
  20
4576039.693
 40
33.55298
  0
SEQEND
  0
POLYLINE
  8
PNOA-H_AMS_1956-57_33k_ES_PAN_21mic_H50_0434_fot_46B-29779_E_tif
  70
9
  66
1
  0
VERTEX
  8
PNOA-H_AMS_1956-57_33k_ES_PAN_21mic_H50_0434_fot_46B-29779_E_tif
  70
32
  10
516370.166
  20
4575779.887
  30
1097.685
  0
VERTEX
  8
PNOA-H_AMS_1956-57_33k_ES_PAN_21mic_H50_0434_fot_46B-29779_E_tif
  70
32
  10
516369.912
  20
4575779.887
  30
1097.626
  0
VERTEX
  8
PNOA-H_AMS_1956-57_33k_ES_PAN_21mic_H50_0434_fot_46B-29779_E_tif
  70
32
  10
516406.500
  20
4576244.500
  30
1093.769
  0
VERTEX
  8
PNOA-H_AMS_1956-57_33k_ES_PAN_21mic_H50_0434_fot_46B-29779_E_tif
  70
32
  10
516407.000
  20
4576247.500
  30
1094.064
  0
VERTEX
  8
PNOA-H_AMS_1956-57_33k_ES_PAN_21mic_H50_0434_fot_46B-29779_E_tif
  70
32
  10
516407.670
  20
4576247.691
  30
1094.113
  0
VERTEX
  8
PNOA-H_AMS_1956-57_33k_ES_PAN_21mic_H50_0434_fot_46B-29779_E_tif
  70
32
  10
516410.500
  20
4576248.500
  30
1094.32
  0
VERTEX
  8
PNOA-H_AMS_1956-57_33k_ES_PAN_21mic_H50_0434_fot_46B-29779_E_tif
  70
32
  10
516552.000
  20
4576280.500
  30
1098.042
  0
VERTEX
  8
PNOA-H_AMS_1956-57_33k_ES_PAN_21mic_H50_0434_fot_46B-29779_E_tif
  70
32
  10
516554.000
  20
4576281.000
  30
1098.052
  0
VERTEX
  8
PNOA-H_AMS_1956-57_33k_ES_PAN_21mic_H50_0434_fot_46B-29779_E_tif
  70
32
  10
516635.500
  20
4576299.500
  30
1100.121
  0
VERTEX
  8
PNOA-H_AMS_1956-57_33k_ES_PAN_21mic_H50_0434_fot_46B-29779_E_tif
  70
32
  10
516637.455
  20
4576299.489
  30
1100.116
  0
VERTEX
  8
PNOA-H_AMS_1956-57_33k_ES_PAN_21mic_H50_0434_fot_46B-29779_E_tif
  70
32
  10
516686.372
  20
4576299.209
  30
1100.002
  0
VERTEX
  8
PNOA-H_AMS_1956-57_33k_ES_PAN_21mic_H50_0434_fot_46B-29779_E_tif
  70
32
  10
518736.500
  20
4576287.500
  30
1095.203
  0
VERTEX
  8
PNOA-H_AMS_1956-57_33k_ES_PAN_21mic_H50_0434_fot_46B-29779_E_tif
  70
32
  10
518738.463
  20
4576287.009
  30
1094.838
  0
VERTEX
  8
PNOA-H_AMS_1956-57_33k_ES_PAN_21mic_H50_0434_fot_46B-29779_E_tif
  70
32
  10
518742.729
  20
4576285.943
  30
1094.044
  0
VERTEX
  8
PNOA-H_AMS_1956-57_33k_ES_PAN_21mic_H50_0434_fot_46B-29779_E_tif
  70
32
  10
518746.500
  20
4576285.000
  30
1093.342
  0
VERTEX
  8
PNOA-H_AMS_1956-57_33k_ES_PAN_21mic_H50_0434_fot_46B-29779_E_tif
  70
32
  10
519028.196
  20
4576175.812
  30
1069.336
  0
VERTEX
  8
PNOA-H_AMS_1956-57_33k_ES_PAN_21mic_H50_0434_fot_46B-29779_E_tif
  70
32
  10
519029.000
  20
4576175.500
  30
1069.268
  0
VERTEX
  8
PNOA-H_AMS_1956-57_33k_ES_PAN_21mic_H50_0434_fot_46B-29779_E_tif
  70
32
  10
519008.183
  20
4575786.222
  30
1073.557
  0
VERTEX
  8
PNOA-H_AMS_1956-57_33k_ES_PAN_21mic_H50_0434_fot_46B-29779_E_tif
  70
32
  10
519008.181
  20
4575786.222
  30
1073.557
  0
VERTEX
  8
PNOA-H_AMS_1956-57_33k_ES_PAN_21mic_H50_0434_fot_46B-29779_E_tif
  70
32
  10
516370.166
  20
4575779.887
  30
1097.685
  0
SEQEND
  8
PNOA-H_AMS_1956-57_33k_ES_PAN_21mic_H50_0434_fot_46B-29779_E_tif
  0
INSERT
  8
FeatureAttribs
  2
FEATURE
  41
1
  42
1
  43
1
  50
0
  10
525093.924
  20
4587392.250
 66
1
  0
ATTRIB
  8
FeatureAttribs
 70
0
  1
PNOA-H_AMS_1956-57_33k_ES_PAN_21mic_H50_0406_fot_43B-29657_E.tif
  2
NAME
  10
525093.924
  20
4587392.250
 40
33.55298
  0
SEQEND
  0
POLYLINE
  8
PNOA-H_AMS_1956-57_33k_ES_PAN_21mic_H50_0406_fot_43B-29657_E_tif
  70
9
  66
1
  0
VERTEX
  8
PNOA-H_AMS_1956-57_33k_ES_PAN_21mic_H50_0406_fot_43B-29657_E_tif
  70
32
  10
525748.000
  20
4589614.500
  30
938.268
  0
VERTEX
  8
PNOA-H_AMS_1956-57_33k_ES_PAN_21mic_H50_0406_fot_43B-29657_E_tif
  70
32
  10
525750.500
  20
4589614.500
  30
938.348
  0
VERTEX
  8
PNOA-H_AMS_1956-57_33k_ES_PAN_21mic_H50_0406_fot_43B-29657_E_tif
  70
32
  10
525751.500
  20
4589614.500
  30
938.38
  0
VERTEX
  8
PNOA-H_AMS_1956-57_33k_ES_PAN_21mic_H50_0406_fot_43B-29657_E_tif
  70
32
  10
526492.738
  20
4589242.131
  30
970.081
  0
VERTEX
  8
PNOA-H_AMS_1956-57_33k_ES_PAN_21mic_H50_0406_fot_43B-29657_E_tif
  70
32
  10
526493.000
  20
4589242.000
  30
970.093
  0
VERTEX
  8
PNOA-H_AMS_1956-57_33k_ES_PAN_21mic_H50_0406_fot_43B-29657_E_tif
  70
32
  10
526542.493
  20
4585548.496
  30
1125.738
  0
VERTEX
  8
PNOA-H_AMS_1956-57_33k_ES_PAN_21mic_H50_0406_fot_43B-29657_E_tif
  70
32
  10
526542.500
  20
4585548.000
  30
1125.759
  0
VERTEX
  8
PNOA-H_AMS_1956-57_33k_ES_PAN_21mic_H50_0406_fot_43B-29657_E_tif
  70
32
  10
525869.500
  20
4585170.000
  30
1125.532
  0
VERTEX
  8
PNOA-H_AMS_1956-57_33k_ES_PAN_21mic_H50_0406_fot_43B-29657_E_tif
  70
32
  10
525869.089
  20
4585170.067
  30
1125.531
  0
VERTEX
  8
PNOA-H_AMS_1956-57_33k_ES_PAN_21mic_H50_0406_fot_43B-29657_E_tif
  70
32
  10
525410.644
  20
4585245.030
  30
1125.108
  0
VERTEX
  8
PNOA-H_AMS_1956-57_33k_ES_PAN_21mic_H50_0406_fot_43B-29657_E_tif
  70
32
  10
524747.277
  20
4585353.500
  30
1124.495
  0
VERTEX
  8
PNOA-H_AMS_1956-57_33k_ES_PAN_21mic_H50_0406_fot_43B-29657_E_tif
  70
32
  10
523701.500
  20
4585524.500
  30
1123.529
  0
VERTEX
  8
PNOA-H_AMS_1956-57_33k_ES_PAN_21mic_H50_0406_fot_43B-29657_E_tif
  70
32
  10
523639.000
  20
4589237.500
  30
970.8
  0
VERTEX
  8
PNOA-H_AMS_1956-57_33k_ES_PAN_21mic_H50_0406_fot_43B-29657_E_tif
  70
32
  10
525745.000
  20
4589614.000
  30
938.195
  0
VERTEX
  8
PNOA-H_AMS_1956-57_33k_ES_PAN_21mic_H50_0406_fot_43B-29657_E_tif
  70
32
  10
525748.000
  20
4589614.500
  30
938.268
  0
SEQEND
  8
PNOA-H_AMS_1956-57_33k_ES_PAN_21mic_H50_0406_fot_43B-29657_E_tif
  0
INSERT
  8
FeatureAttribs
  2
FEATURE
  41
1
  42
1
  43
1
  50
0
  10
522283.850
  20
4587387.250
 66
1
  0
ATTRIB
  8
FeatureAttribs
 70
0
  1
PNOA-H_AMS_1956-57_33k_ES_PAN_21mic_H50_0406_fot_43B-29656_E.tif
  2
NAME
  10
522283.850
  20
4587387.250
 40
33.55298
  0
SEQEND
  0
POLYLINE
  8
PNOA-H_AMS_1956-57_33k_ES_PAN_21mic_H50_0406_fot_43B-29656_E_tif
  70
9
  66
1
  0
VERTEX
  8
PNOA-H_AMS_1956-57_33k_ES_PAN_21mic_H50_0406_fot_43B-29656_E_tif
  70
32
  10
523701.388
  20
4585524.436
  30
1123.529
  0
VERTEX
  8
PNOA-H_AMS_1956-57_33k_ES_PAN_21mic_H50_0406_fot_43B-29656_E_tif
  70
32
  10
523074.000
  20
4585168.000
  30
1123.263
  0
VERTEX
  8
PNOA-H_AMS_1956-57_33k_ES_PAN_21mic_H50_0406_fot_43B-29656_E_tif
  70
32
  10
523073.215
  20
4585168.122
  30
1123.236
  0
VERTEX
  8
PNOA-H_AMS_1956-57_33k_ES_PAN_21mic_H50_0406_fot_43B-29656_E_tif
  70
32
  10
522534.500
  20
4585252.125
  30
1105.175
  0
VERTEX
  8
PNOA-H_AMS_1956-57_33k_ES_PAN_21mic_H50_0406_fot_43B-29656_E_tif
  70
32
  10
520917.172
  20
4585504.317
  30
1050.952
  0
VERTEX
  8
PNOA-H_AMS_1956-57_33k_ES_PAN_21mic_H50_0406_fot_43B-29656_E_tif
  70
32
  10
520916.000
  20
4585504.500
  30
1050.913
  0
VERTEX
  8
PNOA-H_AMS_1956-57_33k_ES_PAN_21mic_H50_0406_fot_43B-29656_E_tif
  70
32
  10
520879.500
  20
4589187.500
  30
991.033
  0
VERTEX
  8
PNOA-H_AMS_1956-57_33k_ES_PAN_21mic_H50_0406_fot_43B-29656_E_tif
  70
32
  10
520880.052
  20
4589187.619
  30
991.045
  0
VERTEX
  8
PNOA-H_AMS_1956-57_33k_ES_PAN_21mic_H50_0406_fot_43B-29656_E_tif
  70
32
  10
522828.000
  20
4589606.000
  30
1034.022
  0
VERTEX
  8
PNOA-H_AMS_1956-57_33k_ES_PAN_21mic_H50_0406_fot_43B-29656_E_tif
  70
32
  10
522830.500
  20
4589606.500
  30
1034.047
  0
VERTEX
  8
PNOA-H_AMS_1956-57_33k_ES_PAN_21mic_H50_0406_fot_43B-29656_E_tif
  70
32
  10
522832.500
  20
4589606.500
  30
1034.066
  0
VERTEX
  8
PNOA-H_AMS_1956-57_33k_ES_PAN_21mic_H50_0406_fot_43B-29656_E_tif
  70
32
  10
522833.500
  20
4589606.500
  30
1034.075
  0
VERTEX
  8
PNOA-H_AMS_1956-57_33k_ES_PAN_21mic_H50_0406_fot_43B-29656_E_tif
  70
32
  10
522842.500
  20
4589602.500
  30
1034.195
  0
VERTEX
  8
PNOA-H_AMS_1956-57_33k_ES_PAN_21mic_H50_0406_fot_43B-29656_E_tif
  70
32
  10
523633.000
  20
4589240.500
  30
971.194
  0
VERTEX
  8
PNOA-H_AMS_1956-57_33k_ES_PAN_21mic_H50_0406_fot_43B-29656_E_tif
  70
32
  10
523639.000
  20
4589237.500
  30
970.8
  0
VERTEX
  8
PNOA-H_AMS_1956-57_33k_ES_PAN_21mic_H50_0406_fot_43B-29656_E_tif
  70
32
  10
523639.500
  20
4589233.000
  30
970.828
  0
VERTEX
  8
PNOA-H_AMS_1956-57_33k_ES_PAN_21mic_H50_0406_fot_43B-29656_E_tif
  70
32
  10
523701.500
  20
4585524.500
  30
1123.529
  0
VERTEX
  8
PNOA-H_AMS_1956-57_33k_ES_PAN_21mic_H50_0406_fot_43B-29656_E_tif
  70
32
  10
523701.388
  20
4585524.436
  30
1123.529
  0
SEQEND
  8
PNOA-H_AMS_1956-57_33k_ES_PAN_21mic_H50_0406_fot_43B-29656_E_tif
  0
INSERT
  8
FeatureAttribs
  2
FEATURE
  41
1
  42
1
  43
1
  50
0
  10
527201.384
  20
4583227.250
 66
1
  0
ATTRIB
  8
FeatureAttribs
 70
0
  1
PNOA-H_AMS_1956-57_33k_ES_PAN_21mic_H50_0406_fot_44B-36257_W.tif
  2
NAME
  10
527201.384
  20
4583227.250
 40
33.55298
  0
SEQEND
  0
POLYLINE
  8
PNOA-H_AMS_1956-57_33k_ES_PAN_21mic_H50_0406_fot_44B-36257_W_tif
  70
9
  66
1
  0
VERTEX
  8
PNOA-H_AMS_1956-57_33k_ES_PAN_21mic_H50_0406_fot_44B-36257_W_tif
  70
32
  10
528507.500
  20
4581140.000
  30
1116.688
  0
VERTEX
  8
PNOA-H_AMS_1956-57_33k_ES_PAN_21mic_H50_0406_fot_44B-36257_W_tif
  70
32
  10
526380.000
  20
4580906.000
  30
1118.457
  0
VERTEX
  8
PNOA-H_AMS_1956-57_33k_ES_PAN_21mic_H50_0406_fot_44B-36257_W_tif
  70
32
  10
526379.909
  20
4580906.045
  30
1118.456
  0
VERTEX
  8
PNOA-H_AMS_1956-57_33k_ES_PAN_21mic_H50_0406_fot_44B-36257_W_tif
  70
32
  10
526379.500
  20
4580906.247
  30
1118.454
  0
VERTEX
  8
PNOA-H_AMS_1956-57_33k_ES_PAN_21mic_H50_0406_fot_44B-36257_W_tif
  70
32
  10
525788.500
  20
4581198.000
  30
1114.987
  0
VERTEX
  8
PNOA-H_AMS_1956-57_33k_ES_PAN_21mic_H50_0406_fot_44B-36257_W_tif
  70
32
  10
525788.510
  20
4581198.495
  30
1114.988
  0
VERTEX
  8
PNOA-H_AMS_1956-57_33k_ES_PAN_21mic_H50_0406_fot_44B-36257_W_tif
  70
32
  10
525790.483
  20
4581296.350
  30
1115.248
  0
VERTEX
  8
PNOA-H_AMS_1956-57_33k_ES_PAN_21mic_H50_0406_fot_44B-36257_W_tif
  70
32
  10
525868.500
  20
4585165.000
  30
1125.527
  0
VERTEX
  8
PNOA-H_AMS_1956-57_33k_ES_PAN_21mic_H50_0406_fot_44B-36257_W_tif
  70
32
  10
525869.000
  20
4585170.000
  30
1125.533
  0
VERTEX
  8
PNOA-H_AMS_1956-57_33k_ES_PAN_21mic_H50_0406_fot_44B-36257_W_tif
  70
32
  10
525869.089
  20
4585170.067
  30
1125.532
  0
VERTEX
  8
PNOA-H_AMS_1956-57_33k_ES_PAN_21mic_H50_0406_fot_44B-36257_W_tif
  70
32
  10
525871.000
  20
4585171.500
  30
1125.527
  0
VERTEX
  8
PNOA-H_AMS_1956-57_33k_ES_PAN_21mic_H50_0406_fot_44B-36257_W_tif
  70
32
  10
526542.493
  20
4585548.496
  30
1125.753
  0
VERTEX
  8
PNOA-H_AMS_1956-57_33k_ES_PAN_21mic_H50_0406_fot_44B-36257_W_tif
  70
32
  10
526542.500
  20
4585548.500
  30
1125.753
  0
VERTEX
  8
PNOA-H_AMS_1956-57_33k_ES_PAN_21mic_H50_0406_fot_44B-36257_W_tif
  70
32
  10
526795.000
  20
4585500.000
  30
1125.923
  0
VERTEX
  8
PNOA-H_AMS_1956-57_33k_ES_PAN_21mic_H50_0406_fot_44B-36257_W_tif
  70
32
  10
526796.000
  20
4585500.000
  30
1125.916
  0
VERTEX
  8
PNOA-H_AMS_1956-57_33k_ES_PAN_21mic_H50_0406_fot_44B-36257_W_tif
  70
32
  10
528634.000
  20
4585150.000
  30
1128.487
  0
VERTEX
  8
PNOA-H_AMS_1956-57_33k_ES_PAN_21mic_H50_0406_fot_44B-36257_W_tif
  70
32
  10
528507.500
  20
4581140.000
  30
1116.688
  0
SEQEND
  8
PNOA-H_AMS_1956-57_33k_ES_PAN_21mic_H50_0406_fot_44B-36257_W_tif
  0
INSERT
  8
FeatureAttribs
  2
FEATURE
  41
1
  42
1
  43
1
  50
0
  10
524447.730
  20
4583252.750
 66
1
  0
ATTRIB
  8
FeatureAttribs
 70
0
  1
PNOA-H_AMS_1956-57_33k_ES_PAN_21mic_H50_0406_fot_44B-36258_W.tif
  2
NAME
  10
524447.730
  20
4583252.750
 40
33.55298
  0
SEQEND
  0
POLYLINE
  8
PNOA-H_AMS_1956-57_33k_ES_PAN_21mic_H50_0406_fot_44B-36258_W_tif
  70
9
  66
1
  0
VERTEX
  8
PNOA-H_AMS_1956-57_33k_ES_PAN_21mic_H50_0406_fot_44B-36258_W_tif
  70
32
  10
524745.500
  20
4585353.500
  30
1125.699
  0
VERTEX
  8
PNOA-H_AMS_1956-57_33k_ES_PAN_21mic_H50_0406_fot_44B-36258_W_tif
  70
32
  10
524747.277
  20
4585353.500
  30
1125.704
  0
VERTEX
  8
PNOA-H_AMS_1956-57_33k_ES_PAN_21mic_H50_0406_fot_44B-36258_W_tif
  70
32
  10
524748.000
  20
4585353.500
  30
1125.707
  0
VERTEX
  8
PNOA-H_AMS_1956-57_33k_ES_PAN_21mic_H50_0406_fot_44B-36258_W_tif
  70
32
  10
525410.644
  20
4585245.030
  30
1125.604
  0
VERTEX
  8
PNOA-H_AMS_1956-57_33k_ES_PAN_21mic_H50_0406_fot_44B-36258_W_tif
  70
32
  10
525869.000
  20
4585170.000
  30
1125.533
  0
VERTEX
  8
PNOA-H_AMS_1956-57_33k_ES_PAN_21mic_H50_0406_fot_44B-36258_W_tif
  70
32
  10
525790.483
  20
4581296.350
  30
1115.257
  0
VERTEX
  8
PNOA-H_AMS_1956-57_33k_ES_PAN_21mic_H50_0406_fot_44B-36258_W_tif
  70
32
  10
525788.500
  20
4581198.500
  30
1114.998
  0
VERTEX
  8
PNOA-H_AMS_1956-57_33k_ES_PAN_21mic_H50_0406_fot_44B-36258_W_tif
  70
32
  10
523728.500
  20
4580981.000
  30
1117.591
  0
VERTEX
  8
PNOA-H_AMS_1956-57_33k_ES_PAN_21mic_H50_0406_fot_44B-36258_W_tif
  70
32
  10
523725.056
  20
4580981.164
  30
1117.625
  0
VERTEX
  8
PNOA-H_AMS_1956-57_33k_ES_PAN_21mic_H50_0406_fot_44B-36258_W_tif
  70
32
  10
523721.316
  20
4580981.342
  30
1117.661
  0
VERTEX
  8
PNOA-H_AMS_1956-57_33k_ES_PAN_21mic_H50_0406_fot_44B-36258_W_tif
  70
32
  10
523718.000
  20
4580981.500
  30
1117.693
  0
VERTEX
  8
PNOA-H_AMS_1956-57_33k_ES_PAN_21mic_H50_0406_fot_44B-36258_W_tif
  70
32
  10
523304.000
  20
4581056.909
  30
1040.148
  0
VERTEX
  8
PNOA-H_AMS_1956-57_33k_ES_PAN_21mic_H50_0406_fot_44B-36258_W_tif
  70
32
  10
523303.983
  20
4581056.912
  30
1040.145
  0
VERTEX
  8
PNOA-H_AMS_1956-57_33k_ES_PAN_21mic_H50_0406_fot_44B-36258_W_tif
  70
32
  10
523303.500
  20
4581057.000
  30
1040.055
  0
VERTEX
  8
PNOA-H_AMS_1956-57_33k_ES_PAN_21mic_H50_0406_fot_44B-36258_W_tif
  70
32
  10
523057.000
  20
4581177.500
  30
982.317
  0
VERTEX
  8
PNOA-H_AMS_1956-57_33k_ES_PAN_21mic_H50_0406_fot_44B-36258_W_tif
  70
32
  10
523073.000
  20
4585168.000
  30
1123.241
  0
VERTEX
  8
PNOA-H_AMS_1956-57_33k_ES_PAN_21mic_H50_0406_fot_44B-36258_W_tif
  70
32
  10
523073.215
  20
4585168.122
  30
1123.241
  0
VERTEX
  8
PNOA-H_AMS_1956-57_33k_ES_PAN_21mic_H50_0406_fot_44B-36258_W_tif
  70
32
  10
523701.000
  20
4585524.500
  30
1123.531
  0
VERTEX
  8
PNOA-H_AMS_1956-57_33k_ES_PAN_21mic_H50_0406_fot_44B-36258_W_tif
  70
32
  10
523701.388
  20
4585524.436
  30
1123.532
  0
VERTEX
  8
PNOA-H_AMS_1956-57_33k_ES_PAN_21mic_H50_0406_fot_44B-36258_W_tif
  70
32
  10
524745.500
  20
4585353.500
  30
1125.699
  0
SEQEND
  8
PNOA-H_AMS_1956-57_33k_ES_PAN_21mic_H50_0406_fot_44B-36258_W_tif
  0
INSERT
  8
FeatureAttribs
  2
FEATURE
  41
1
  42
1
  43
1
  50
0
  10
521694.839
  20
4583252.000
 66
1
  0
ATTRIB
  8
FeatureAttribs
 70
0
  1
PNOA-H_AMS_1956-57_33k_ES_PAN_21mic_H50_0406_fot_44B-36259_W.tif
  2
NAME
  10
521694.839
  20
4583252.000
 40
33.55298
  0
SEQEND
  0
POLYLINE
  8
PNOA-H_AMS_1956-57_33k_ES_PAN_21mic_H50_0406_fot_44B-36259_W_tif
  70
9
  66
1
  0
VERTEX
  8
PNOA-H_AMS_1956-57_33k_ES_PAN_21mic_H50_0406_fot_44B-36259_W_tif
  70
32
  10
521041.500
  20
4580999.500
  30
1118.651
  0
VERTEX
  8
PNOA-H_AMS_1956-57_33k_ES_PAN_21mic_H50_0406_fot_44B-36259_W_tif
  70
32
  10
521040.000
  20
4580999.500
  30
1118.656
  0
VERTEX
  8
PNOA-H_AMS_1956-57_33k_ES_PAN_21mic_H50_0406_fot_44B-36259_W_tif
  70
32
  10
521029.000
  20
4581002.000
  30
1118.639
  0
VERTEX
  8
PNOA-H_AMS_1956-57_33k_ES_PAN_21mic_H50_0406_fot_44B-36259_W_tif
  70
32
  10
520336.000
  20
4581160.000
  30
1047.687
  0
VERTEX
  8
PNOA-H_AMS_1956-57_33k_ES_PAN_21mic_H50_0406_fot_44B-36259_W_tif
  70
32
  10
520332.205
  20
4581161.339
  30
1047.377
  0
VERTEX
  8
PNOA-H_AMS_1956-57_33k_ES_PAN_21mic_H50_0406_fot_44B-36259_W_tif
  70
32
  10
520330.900
  20
4581161.800
  30
1047.271
  0
VERTEX
  8
PNOA-H_AMS_1956-57_33k_ES_PAN_21mic_H50_0406_fot_44B-36259_W_tif
  70
32
  10
520327.500
  20
4581163.000
  30
1046.994
  0
VERTEX
  8
PNOA-H_AMS_1956-57_33k_ES_PAN_21mic_H50_0406_fot_44B-36259_W_tif
  70
32
  10
520321.500
  20
4585156.000
  30
1054.613
  0
VERTEX
  8
PNOA-H_AMS_1956-57_33k_ES_PAN_21mic_H50_0406_fot_44B-36259_W_tif
  70
32
  10
520321.500
  20
4585156.500
  30
1054.614
  0
VERTEX
  8
PNOA-H_AMS_1956-57_33k_ES_PAN_21mic_H50_0406_fot_44B-36259_W_tif
  70
32
  10
520572.961
  20
4585303.408
  30
1043.567
  0
VERTEX
  8
PNOA-H_AMS_1956-57_33k_ES_PAN_21mic_H50_0406_fot_44B-36259_W_tif
  70
32
  10
520651.000
  20
4585349.000
  30
1040.138
  0
VERTEX
  8
PNOA-H_AMS_1956-57_33k_ES_PAN_21mic_H50_0406_fot_44B-36259_W_tif
  70
32
  10
520651.110
  20
4585349.220
  30
1040.173
  0
VERTEX
  8
PNOA-H_AMS_1956-57_33k_ES_PAN_21mic_H50_0406_fot_44B-36259_W_tif
  70
32
  10
520651.500
  20
4585350.000
  30
1040.295
  0
VERTEX
  8
PNOA-H_AMS_1956-57_33k_ES_PAN_21mic_H50_0406_fot_44B-36259_W_tif
  70
32
  10
520914.000
  20
4585504.000
  30
1051.009
  0
VERTEX
  8
PNOA-H_AMS_1956-57_33k_ES_PAN_21mic_H50_0406_fot_44B-36259_W_tif
  70
32
  10
520915.383
  20
4585504.138
  30
1050.902
  0
VERTEX
  8
PNOA-H_AMS_1956-57_33k_ES_PAN_21mic_H50_0406_fot_44B-36259_W_tif
  70
32
  10
520917.172
  20
4585504.317
  30
1050.763
  0
VERTEX
  8
PNOA-H_AMS_1956-57_33k_ES_PAN_21mic_H50_0406_fot_44B-36259_W_tif
  70
32
  10
520919.000
  20
4585504.500
  30
1050.622
  0
VERTEX
  8
PNOA-H_AMS_1956-57_33k_ES_PAN_21mic_H50_0406_fot_44B-36259_W_tif
  70
32
  10
522534.500
  20
4585252.125
  30
1105.086
  0
VERTEX
  8
PNOA-H_AMS_1956-57_33k_ES_PAN_21mic_H50_0406_fot_44B-36259_W_tif
  70
32
  10
523073.000
  20
4585168.000
  30
1123.241
  0
VERTEX
  8
PNOA-H_AMS_1956-57_33k_ES_PAN_21mic_H50_0406_fot_44B-36259_W_tif
  70
32
  10
523057.000
  20
4581177.500
  30
982.317
  0
VERTEX
  8
PNOA-H_AMS_1956-57_33k_ES_PAN_21mic_H50_0406_fot_44B-36259_W_tif
  70
32
  10
521045.000
  20
4580999.500
  30
1118.641
  0
VERTEX
  8
PNOA-H_AMS_1956-57_33k_ES_PAN_21mic_H50_0406_fot_44B-36259_W_tif
  70
32
  10
521041.500
  20
4580999.500
  30
1118.651
  0
SEQEND
  8
PNOA-H_AMS_1956-57_33k_ES_PAN_21mic_H50_0406_fot_44B-36259_W_tif
  0
INSERT
  8
FeatureAttribs
  2
FEATURE
  41
1
  42
1
  43
1
  50
0
  10
522088.742
  20
4578663.000
 66
1
  0
ATTRIB
  8
FeatureAttribs
 70
0
  1
PNOA-H_AMS_1956-57_33k_ES_PAN_21mic_H50_0406_fot_45C-37436_E.tif
  2
NAME
  10
522088.742
  20
4578663.000
 40
33.55298
  0
SEQEND
  0
POLYLINE
  8
PNOA-H_AMS_1956-57_33k_ES_PAN_21mic_H50_0406_fot_45C-37436_E_tif
  70
9
  66
1
  0
VERTEX
  8
PNOA-H_AMS_1956-57_33k_ES_PAN_21mic_H50_0406_fot_45C-37436_E_tif
  70
32
  10
521657.373
  20
4576148.500
  30
1095.972
  0
VERTEX
  8
PNOA-H_AMS_1956-57_33k_ES_PAN_21mic_H50_0406_fot_45C-37436_E_tif
  70
32
  10
521657.000
  20
4576148.500
  30
1095.961
  0
VERTEX
  8
PNOA-H_AMS_1956-57_33k_ES_PAN_21mic_H50_0406_fot_45C-37436_E_tif
  70
32
  10
521041.500
  20
4580998.000
  30
1118.639
  0
VERTEX
  8
PNOA-H_AMS_1956-57_33k_ES_PAN_21mic_H50_0406_fot_45C-37436_E_tif
  70
32
  10
521041.500
  20
4580999.500
  30
1118.648
  0
VERTEX
  8
PNOA-H_AMS_1956-57_33k_ES_PAN_21mic_H50_0406_fot_45C-37436_E_tif
  70
32
  10
521045.000
  20
4581000.000
  30
1118.645
  0
VERTEX
  8
PNOA-H_AMS_1956-57_33k_ES_PAN_21mic_H50_0406_fot_45C-37436_E_tif
  70
32
  10
523055.000
  20
4581177.500
  30
982.325
  0
VERTEX
  8
PNOA-H_AMS_1956-57_33k_ES_PAN_21mic_H50_0406_fot_45C-37436_E_tif
  70
32
  10
523057.000
  20
4581177.500
  30
982.317
  0
VERTEX
  8
PNOA-H_AMS_1956-57_33k_ES_PAN_21mic_H50_0406_fot_45C-37436_E_tif
  70
32
  10
523057.500
  20
4581177.500
  30
982.315
  0
VERTEX
  8
PNOA-H_AMS_1956-57_33k_ES_PAN_21mic_H50_0406_fot_45C-37436_E_tif
  70
32
  10
523304.000
  20
4581057.000
  30
1040.31
  0
VERTEX
  8
PNOA-H_AMS_1956-57_33k_ES_PAN_21mic_H50_0406_fot_45C-37436_E_tif
  70
32
  10
523303.983
  20
4581056.912
  30
1040.313
  0
VERTEX
  8
PNOA-H_AMS_1956-57_33k_ES_PAN_21mic_H50_0406_fot_45C-37436_E_tif
  70
32
  10
522876.500
  20
4578854.500
  30
1117.062
  0
VERTEX
  8
PNOA-H_AMS_1956-57_33k_ES_PAN_21mic_H50_0406_fot_45C-37436_E_tif
  70
32
  10
522876.500
  20
4578853.000
  30
1117.047
  0
VERTEX
  8
PNOA-H_AMS_1956-57_33k_ES_PAN_21mic_H50_0406_fot_45C-37436_E_tif
  70
32
  10
522375.000
  20
4576269.000
  30
1099.148
  0
VERTEX
  8
PNOA-H_AMS_1956-57_33k_ES_PAN_21mic_H50_0406_fot_45C-37436_E_tif
  70
32
  10
522374.350
  20
4576268.890
  30
1099.145
  0
VERTEX
  8
PNOA-H_AMS_1956-57_33k_ES_PAN_21mic_H50_0406_fot_45C-37436_E_tif
  70
32
  10
521663.500
  20
4576148.500
  30
1096.157
  0
VERTEX
  8
PNOA-H_AMS_1956-57_33k_ES_PAN_21mic_H50_0406_fot_45C-37436_E_tif
  70
32
  10
521660.459
  20
4576148.500
  30
1096.065
  0
VERTEX
  8
PNOA-H_AMS_1956-57_33k_ES_PAN_21mic_H50_0406_fot_45C-37436_E_tif
  70
32
  10
521657.373
  20
4576148.500
  30
1095.972
  0
SEQEND
  8
PNOA-H_AMS_1956-57_33k_ES_PAN_21mic_H50_0406_fot_45C-37436_E_tif
  0
INSERT
  8
FeatureAttribs
  2
FEATURE
  41
1
  42
1
  43
1
  50
0
  10
525268.960
  20
4578707.000
 66
1
  0
ATTRIB
  8
FeatureAttribs
 70
0
  1
PNOA-H_AMS_1956-57_33k_ES_PAN_21mic_H50_0406_fot_45C-37437_E.tif
  2
NAME
  10
525268.960
  20
4578707.000
 40
33.55298
  0
SEQEND
  0
POLYLINE
  8
PNOA-H_AMS_1956-57_33k_ES_PAN_21mic_H50_0406_fot_45C-37437_E_tif
  70
9
  66
1
  0
VERTEX
  8
PNOA-H_AMS_1956-57_33k_ES_PAN_21mic_H50_0406_fot_45C-37437_E_tif
  70
32
  10
525986.366
  20
4576394.422
  30
1100.92
  0
VERTEX
  8
PNOA-H_AMS_1956-57_33k_ES_PAN_21mic_H50_0406_fot_45C-37437_E_tif
  70
32
  10
524717.500
  20
4576215.500
  30
1089.547
  0
VERTEX
  8
PNOA-H_AMS_1956-57_33k_ES_PAN_21mic_H50_0406_fot_45C-37437_E_tif
  70
32
  10
524715.750
  20
4576215.750
  30
1089.644
  0
VERTEX
  8
PNOA-H_AMS_1956-57_33k_ES_PAN_21mic_H50_0406_fot_45C-37437_E_tif
  70
32
  10
524714.408
  20
4576215.942
  30
1089.719
  0
VERTEX
  8
PNOA-H_AMS_1956-57_33k_ES_PAN_21mic_H50_0406_fot_45C-37437_E_tif
  70
32
  10
524714.000
  20
4576216.000
  30
1089.741
  0
VERTEX
  8
PNOA-H_AMS_1956-57_33k_ES_PAN_21mic_H50_0406_fot_45C-37437_E_tif
  70
32
  10
524712.000
  20
4576225.500
  30
1089.941
  0
VERTEX
  8
PNOA-H_AMS_1956-57_33k_ES_PAN_21mic_H50_0406_fot_45C-37437_E_tif
  70
32
  10
523723.674
  20
4580980.163
  30
1117.618
  0
VERTEX
  8
PNOA-H_AMS_1956-57_33k_ES_PAN_21mic_H50_0406_fot_45C-37437_E_tif
  70
32
  10
523723.500
  20
4580981.000
  30
1117.623
  0
VERTEX
  8
PNOA-H_AMS_1956-57_33k_ES_PAN_21mic_H50_0406_fot_45C-37437_E_tif
  70
32
  10
523725.056
  20
4580981.164
  30
1117.618
  0
VERTEX
  8
PNOA-H_AMS_1956-57_33k_ES_PAN_21mic_H50_0406_fot_45C-37437_E_tif
  70
32
  10
524739.000
  20
4581088.000
  30
1114.536
  0
VERTEX
  8
PNOA-H_AMS_1956-57_33k_ES_PAN_21mic_H50_0406_fot_45C-37437_E_tif
  70
32
  10
524744.000
  20
4581088.500
  30
1114.408
  0
VERTEX
  8
PNOA-H_AMS_1956-57_33k_ES_PAN_21mic_H50_0406_fot_45C-37437_E_tif
  70
32
  10
525788.500
  20
4581198.500
  30
1114.998
  0
VERTEX
  8
PNOA-H_AMS_1956-57_33k_ES_PAN_21mic_H50_0406_fot_45C-37437_E_tif
  70
32
  10
525788.510
  20
4581198.495
  30
1114.998
  0
VERTEX
  8
PNOA-H_AMS_1956-57_33k_ES_PAN_21mic_H50_0406_fot_45C-37437_E_tif
  70
32
  10
526379.500
  20
4580906.500
  30
1118.457
  0
VERTEX
  8
PNOA-H_AMS_1956-57_33k_ES_PAN_21mic_H50_0406_fot_45C-37437_E_tif
  70
32
  10
526379.500
  20
4580906.247
  30
1118.457
  0
VERTEX
  8
PNOA-H_AMS_1956-57_33k_ES_PAN_21mic_H50_0406_fot_45C-37437_E_tif
  70
32
  10
526379.500
  20
4580906.000
  30
1118.456
  0
VERTEX
  8
PNOA-H_AMS_1956-57_33k_ES_PAN_21mic_H50_0406_fot_45C-37437_E_tif
  70
32
  10
526379.500
  20
4580890.000
  30
1118.417
  0
VERTEX
  8
PNOA-H_AMS_1956-57_33k_ES_PAN_21mic_H50_0406_fot_45C-37437_E_tif
  70
32
  10
526302.500
  20
4576439.000
  30
1103.753
  0
VERTEX
  8
PNOA-H_AMS_1956-57_33k_ES_PAN_21mic_H50_0406_fot_45C-37437_E_tif
  70
32
  10
525986.366
  20
4576394.422
  30
1100.92
  0
SEQEND
  8
PNOA-H_AMS_1956-57_33k_ES_PAN_21mic_H50_0406_fot_45C-37437_E_tif
  0
INSERT
  8
FeatureAttribs
  2
FEATURE
  41
1
  42
1
  43
1
  50
0
  10
523523.569
  20
4578539.250
 66
1
  0
ATTRIB
  8
FeatureAttribs
 70
0
  1
PNOA-H_AMS_1956-57_33k_ES_PAN_21mic_H50_0406_fot_000-36185_R.tif
  2
NAME
  10
523523.569
  20
4578539.250
 40
33.55298
  0
SEQEND
  0
POLYLINE
  8
PNOA-H_AMS_1956-57_33k_ES_PAN_21mic_H50_0406_fot_000-36185_R_tif
  70
9
  66
1
  0
VERTEX
  8
PNOA-H_AMS_1956-57_33k_ES_PAN_21mic_H50_0406_fot_000-36185_R_tif
  70
32
  10
524291.500
  20
4576021.500
  30
1092.031
  0
VERTEX
  8
PNOA-H_AMS_1956-57_33k_ES_PAN_21mic_H50_0406_fot_000-36185_R_tif
  70
32
  10
524288.000
  20
4576021.500
  30
1092.039
  0
VERTEX
  8
PNOA-H_AMS_1956-57_33k_ES_PAN_21mic_H50_0406_fot_000-36185_R_tif
  70
32
  10
522699.630
  20
4576227.000
  30
1097.942
  0
VERTEX
  8
PNOA-H_AMS_1956-57_33k_ES_PAN_21mic_H50_0406_fot_000-36185_R_tif
  70
32
  10
522375.000
  20
4576269.000
  30
1099.148
  0
VERTEX
  8
PNOA-H_AMS_1956-57_33k_ES_PAN_21mic_H50_0406_fot_000-36185_R_tif
  70
32
  10
523304.000
  20
4581055.000
  30
1041.126
  0
VERTEX
  8
PNOA-H_AMS_1956-57_33k_ES_PAN_21mic_H50_0406_fot_000-36185_R_tif
  70
32
  10
523304.000
  20
4581056.909
  30
1040.347
  0
VERTEX
  8
PNOA-H_AMS_1956-57_33k_ES_PAN_21mic_H50_0406_fot_000-36185_R_tif
  70
32
  10
523304.000
  20
4581057.000
  30
1040.31
  0
VERTEX
  8
PNOA-H_AMS_1956-57_33k_ES_PAN_21mic_H50_0406_fot_000-36185_R_tif
  70
32
  10
523721.000
  20
4580981.500
  30
1117.66
  0
VERTEX
  8
PNOA-H_AMS_1956-57_33k_ES_PAN_21mic_H50_0406_fot_000-36185_R_tif
  70
32
  10
523721.316
  20
4580981.342
  30
1117.652
  0
VERTEX
  8
PNOA-H_AMS_1956-57_33k_ES_PAN_21mic_H50_0406_fot_000-36185_R_tif
  70
32
  10
523723.674
  20
4580980.163
  30
1117.597
  0
VERTEX
  8
PNOA-H_AMS_1956-57_33k_ES_PAN_21mic_H50_0406_fot_000-36185_R_tif
  70
32
  10
523724.000
  20
4580980.000
  30
1117.589
  0
VERTEX
  8
PNOA-H_AMS_1956-57_33k_ES_PAN_21mic_H50_0406_fot_000-36185_R_tif
  70
32
  10
524714.500
  20
4576216.000
  30
1089.715
  0
VERTEX
  8
PNOA-H_AMS_1956-57_33k_ES_PAN_21mic_H50_0406_fot_000-36185_R_tif
  70
32
  10
524714.408
  20
4576215.942
  30
1089.719
  0
VERTEX
  8
PNOA-H_AMS_1956-57_33k_ES_PAN_21mic_H50_0406_fot_000-36185_R_tif
  70
32
  10
524712.974
  20
4576215.029
  30
1089.781
  0
VERTEX
  8
PNOA-H_AMS_1956-57_33k_ES_PAN_21mic_H50_0406_fot_000-36185_R_tif
  70
32
  10
524709.000
  20
4576212.500
  30
1089.952
  0
VERTEX
  8
PNOA-H_AMS_1956-57_33k_ES_PAN_21mic_H50_0406_fot_000-36185_R_tif
  70
32
  10
524293.000
  20
4576021.500
  30
1092.027
  0
VERTEX
  8
PNOA-H_AMS_1956-57_33k_ES_PAN_21mic_H50_0406_fot_000-36185_R_tif
  70
32
  10
524291.500
  20
4576021.500
  30
1092.031
  0
SEQEND
  8
PNOA-H_AMS_1956-57_33k_ES_PAN_21mic_H50_0406_fot_000-36185_R_tif
  0
INSERT
  8
FeatureAttribs
  2
FEATURE
  41
1
  42
1
  43
1
  50
0
  10
520660.771
  20
4578648.500
 66
1
  0
ATTRIB
  8
FeatureAttribs
 70
0
  1
PNOA-H_AMS_1956-57_33k_ES_PAN_21mic_H50_0406_fot_000-36184_R.tif
  2
NAME
  10
520660.771
  20
4578648.500
 40
33.55298
  0
SEQEND
  0
POLYLINE
  8
PNOA-H_AMS_1956-57_33k_ES_PAN_21mic_H50_0406_fot_000-36184_R_tif
  70
9
  66
1
  0
VERTEX
  8
PNOA-H_AMS_1956-57_33k_ES_PAN_21mic_H50_0406_fot_000-36184_R_tif
  70
32
  10
521632.638
  20
4576135.566
  30
1095.672
  0
VERTEX
  8
PNOA-H_AMS_1956-57_33k_ES_PAN_21mic_H50_0406_fot_000-36184_R_tif
  70
32
  10
521632.500
  20
4576135.500
  30
1095.671
  0
VERTEX
  8
PNOA-H_AMS_1956-57_33k_ES_PAN_21mic_H50_0406_fot_000-36184_R_tif
  70
32
  10
520840.500
  20
4576196.500
  30
1074.469
  0
VERTEX
  8
PNOA-H_AMS_1956-57_33k_ES_PAN_21mic_H50_0406_fot_000-36184_R_tif
  70
32
  10
519652.500
  20
4576288.000
  30
1042.666
  0
VERTEX
  8
PNOA-H_AMS_1956-57_33k_ES_PAN_21mic_H50_0406_fot_000-36184_R_tif
  70
32
  10
520331.000
  20
4581157.500
  30
1047.69
  0
VERTEX
  8
PNOA-H_AMS_1956-57_33k_ES_PAN_21mic_H50_0406_fot_000-36184_R_tif
  70
32
  10
520331.500
  20
4581161.500
  30
1047.32
  0
VERTEX
  8
PNOA-H_AMS_1956-57_33k_ES_PAN_21mic_H50_0406_fot_000-36184_R_tif
  70
32
  10
520332.205
  20
4581161.339
  30
1047.391
  0
VERTEX
  8
PNOA-H_AMS_1956-57_33k_ES_PAN_21mic_H50_0406_fot_000-36184_R_tif
  70
32
  10
521036.000
  20
4581001.000
  30
1118.67
  0
VERTEX
  8
PNOA-H_AMS_1956-57_33k_ES_PAN_21mic_H50_0406_fot_000-36184_R_tif
  70
32
  10
521041.500
  20
4580999.500
  30
1118.648
  0
VERTEX
  8
PNOA-H_AMS_1956-57_33k_ES_PAN_21mic_H50_0406_fot_000-36184_R_tif
  70
32
  10
521042.000
  20
4580998.000
  30
1118.636
  0
VERTEX
  8
PNOA-H_AMS_1956-57_33k_ES_PAN_21mic_H50_0406_fot_000-36184_R_tif
  70
32
  10
521657.373
  20
4576148.500
  30
1095.95
  0
VERTEX
  8
PNOA-H_AMS_1956-57_33k_ES_PAN_21mic_H50_0406_fot_000-36184_R_tif
  70
32
  10
521657.440
  20
4576147.969
  30
1095.948
  0
VERTEX
  8
PNOA-H_AMS_1956-57_33k_ES_PAN_21mic_H50_0406_fot_000-36184_R_tif
  70
32
  10
521657.500
  20
4576147.500
  30
1095.946
  0
VERTEX
  8
PNOA-H_AMS_1956-57_33k_ES_PAN_21mic_H50_0406_fot_000-36184_R_tif
  70
32
  10
521645.255
  20
4576141.622
  30
1095.811
  0
VERTEX
  8
PNOA-H_AMS_1956-57_33k_ES_PAN_21mic_H50_0406_fot_000-36184_R_tif
  70
32
  10
521632.638
  20
4576135.566
  30
1095.672
  0
SEQEND
  8
PNOA-H_AMS_1956-57_33k_ES_PAN_21mic_H50_0406_fot_000-36184_R_tif
  0
INSERT
  8
FeatureAttribs
  2
FEATURE
  41
1
  42
1
  43
1
  50
0
  10
522923.079
  20
4576031.341
 66
1
  0
ATTRIB
  8
FeatureAttribs
 70
0
  1
PNOA-H_AMS_1956-57_33k_ES_PAN_21mic_H50_0434_fot_46B-29777_E.tif
  2
NAME
  10
522923.079
  20
4576031.341
 40
33.55298
  0
SEQEND
  0
POLYLINE
  8
PNOA-H_AMS_1956-57_33k_ES_PAN_21mic_H50_0434_fot_46B-29777_E_tif
  70
9
  66
1
  0
VERTEX
  8
PNOA-H_AMS_1956-57_33k_ES_PAN_21mic_H50_0434_fot_46B-29777_E_tif
  70
32
  10
522374.350
  20
4576268.890
  30
1099.152
  0
VERTEX
  8
PNOA-H_AMS_1956-57_33k_ES_PAN_21mic_H50_0434_fot_46B-29777_E_tif
  70
32
  10
522698.000
  20
4576227.000
  30
1094.365
  0
VERTEX
  8
PNOA-H_AMS_1956-57_33k_ES_PAN_21mic_H50_0434_fot_46B-29777_E_tif
  70
32
  10
522699.630
  20
4576227.000
  30
1094.347
  0
VERTEX
  8
PNOA-H_AMS_1956-57_33k_ES_PAN_21mic_H50_0434_fot_46B-29777_E_tif
  70
32
  10
522700.000
  20
4576227.000
  30
1094.342
  0
VERTEX
  8
PNOA-H_AMS_1956-57_33k_ES_PAN_21mic_H50_0434_fot_46B-29777_E_tif
  70
32
  10
524291.500
  20
4576021.500
  30
1092.034
  0
VERTEX
  8
PNOA-H_AMS_1956-57_33k_ES_PAN_21mic_H50_0434_fot_46B-29777_E_tif
  70
32
  10
524289.566
  20
4575802.143
  30
1093.127
  0
VERTEX
  8
PNOA-H_AMS_1956-57_33k_ES_PAN_21mic_H50_0434_fot_46B-29777_E_tif
  70
32
  10
522662.370
  20
4575796.672
  30
0
  0
VERTEX
  8
PNOA-H_AMS_1956-57_33k_ES_PAN_21mic_H50_0434_fot_46B-29777_E_tif
  70
32
  10
521624.884
  20
4575793.683
  30
1097.693
  0
VERTEX
  8
PNOA-H_AMS_1956-57_33k_ES_PAN_21mic_H50_0434_fot_46B-29777_E_tif
  70
32
  10
521633.500
  20
4576135.500
  30
1095.639
  0
VERTEX
  8
PNOA-H_AMS_1956-57_33k_ES_PAN_21mic_H50_0434_fot_46B-29777_E_tif
  70
32
  10
521645.255
  20
4576141.622
  30
1095.795
  0
VERTEX
  8
PNOA-H_AMS_1956-57_33k_ES_PAN_21mic_H50_0434_fot_46B-29777_E_tif
  70
32
  10
521657.440
  20
4576147.969
  30
1095.957
  0
VERTEX
  8
PNOA-H_AMS_1956-57_33k_ES_PAN_21mic_H50_0434_fot_46B-29777_E_tif
  70
32
  10
521657.500
  20
4576148.000
  30
1095.958
  0
VERTEX
  8
PNOA-H_AMS_1956-57_33k_ES_PAN_21mic_H50_0434_fot_46B-29777_E_tif
  70
32
  10
521660.459
  20
4576148.500
  30
1095.971
  0
VERTEX
  8
PNOA-H_AMS_1956-57_33k_ES_PAN_21mic_H50_0434_fot_46B-29777_E_tif
  70
32
  10
522373.500
  20
4576269.000
  30
1099.165
  0
VERTEX
  8
PNOA-H_AMS_1956-57_33k_ES_PAN_21mic_H50_0434_fot_46B-29777_E_tif
  70
32
  10
522374.350
  20
4576268.890
  30
1099.152
  0
SEQEND
  8
PNOA-H_AMS_1956-57_33k_ES_PAN_21mic_H50_0434_fot_46B-29777_E_tif
  0
INSERT
  8
FeatureAttribs
  2
FEATURE
  41
1
  42
1
  43
1
  50
0
  10
525762.329
  20
4576120.571
 66
1
  0
ATTRIB
  8
FeatureAttribs
 70
0
  1
PNOA-H_AMS_1956-57_33k_ES_PAN_21mic_H50_0434_fot_46B-29776_E.tif
  2
NAME
  10
525762.329
  20
4576120.571
 40
33.55298
  0
SEQEND
  0
POLYLINE
  8
PNOA-H_AMS_1956-57_33k_ES_PAN_21mic_H50_0434_fot_46B-29776_E_tif
  70
9
  66
1
  0
VERTEX
  8
PNOA-H_AMS_1956-57_33k_ES_PAN_21mic_H50_0434_fot_46B-29776_E_tif
  70
32
  10
526148.893
  20
4575808.394
  30
0
  0
VERTEX
  8
PNOA-H_AMS_1956-57_33k_ES_PAN_21mic_H50_0434_fot_46B-29776_E_tif
  70
32
  10
524289.566
  20
4575802.143
  30
1093.127
  0
VERTEX
  8
PNOA-H_AMS_1956-57_33k_ES_PAN_21mic_H50_0434_fot_46B-29776_E_tif
  70
32
  10
524291.500
  20
4576021.500
  30
1092.034
  0
VERTEX
  8
PNOA-H_AMS_1956-57_33k_ES_PAN_21mic_H50_0434_fot_46B-29776_E_tif
  70
32
  10
524712.974
  20
4576215.029
  30
1089.739
  0
VERTEX
  8
PNOA-H_AMS_1956-57_33k_ES_PAN_21mic_H50_0434_fot_46B-29776_E_tif
  70
32
  10
524714.000
  20
4576215.500
  30
1089.734
  0
VERTEX
  8
PNOA-H_AMS_1956-57_33k_ES_PAN_21mic_H50_0434_fot_46B-29776_E_tif
  70
32
  10
524715.750
  20
4576215.750
  30
1089.668
  0
VERTEX
  8
PNOA-H_AMS_1956-57_33k_ES_PAN_21mic_H50_0434_fot_46B-29776_E_tif
  70
32
  10
524742.000
  20
4576219.500
  30
1088.676
  0
VERTEX
  8
PNOA-H_AMS_1956-57_33k_ES_PAN_21mic_H50_0434_fot_46B-29776_E_tif
  70
32
  10
524745.500
  20
4576220.000
  30
1088.75
  0
VERTEX
  8
PNOA-H_AMS_1956-57_33k_ES_PAN_21mic_H50_0434_fot_46B-29776_E_tif
  70
32
  10
525986.366
  20
4576394.422
  30
1100.657
  0
VERTEX
  8
PNOA-H_AMS_1956-57_33k_ES_PAN_21mic_H50_0434_fot_46B-29776_E_tif
  70
32
  10
526302.719
  20
4576438.890
  30
1103.693
  0
VERTEX
  8
PNOA-H_AMS_1956-57_33k_ES_PAN_21mic_H50_0434_fot_46B-29776_E_tif
  70
32
  10
526303.500
  20
4576439.000
  30
1103.701
  0
VERTEX
  8
PNOA-H_AMS_1956-57_33k_ES_PAN_21mic_H50_0434_fot_46B-29776_E_tif
  70
32
  10
527067.752
  20
4576098.111
  30
1115.444
  0
VERTEX
  8
PNOA-H_AMS_1956-57_33k_ES_PAN_21mic_H50_0434_fot_46B-29776_E_tif
  70
32
  10
527068.000
  20
4576098.000
  30
1115.448
  0
VERTEX
  8
PNOA-H_AMS_1956-57_33k_ES_PAN_21mic_H50_0434_fot_46B-29776_E_tif
  70
32
  10
527064.350
  20
4575811.912
  30
1113.393
  0
VERTEX
  8
PNOA-H_AMS_1956-57_33k_ES_PAN_21mic_H50_0434_fot_46B-29776_E_tif
  70
32
  10
526148.893
  20
4575808.394
  30
0
  0
SEQEND
  8
PNOA-H_AMS_1956-57_33k_ES_PAN_21mic_H50_0434_fot_46B-29776_E_tif
  0
INSERT
  8
FeatureAttribs
  2
FEATURE
  41
1
  42
1
  43
1
  50
0
  10
530813.561
  20
4587358.000
 66
1
  0
ATTRIB
  8
FeatureAttribs
 70
0
  1
PNOA-H_AMS_1956-57_33k_ES_PAN_21mic_H50_0406_fot_43B-29659_E.tif
  2
NAME
  10
530813.561
  20
4587358.000
 40
33.55298
  0
SEQEND
  0
POLYLINE
  8
PNOA-H_AMS_1956-57_33k_ES_PAN_21mic_H50_0406_fot_43B-29659_E_tif
  70
9
  66
1
  0
VERTEX
  8
PNOA-H_AMS_1956-57_33k_ES_PAN_21mic_H50_0406_fot_43B-29659_E_tif
  70
32
  10
531711.500
  20
4589628.500
  30
945.202
  0
VERTEX
  8
PNOA-H_AMS_1956-57_33k_ES_PAN_21mic_H50_0406_fot_43B-29659_E_tif
  70
32
  10
531715.000
  20
4589628.500
  30
945.224
  0
VERTEX
  8
PNOA-H_AMS_1956-57_33k_ES_PAN_21mic_H50_0406_fot_43B-29659_E_tif
  70
32
  10
531716.000
  20
4589628.500
  30
945.23
  0
VERTEX
  8
PNOA-H_AMS_1956-57_33k_ES_PAN_21mic_H50_0406_fot_43B-29659_E_tif
  70
32
  10
531719.000
  20
4589627.000
  30
945.315
  0
VERTEX
  8
PNOA-H_AMS_1956-57_33k_ES_PAN_21mic_H50_0406_fot_43B-29659_E_tif
  70
32
  10
532174.500
  20
4589380.000
  30
950.838
  0
VERTEX
  8
PNOA-H_AMS_1956-57_33k_ES_PAN_21mic_H50_0406_fot_43B-29659_E_tif
  70
32
  10
532249.490
  20
4585499.495
  30
999.225
  0
VERTEX
  8
PNOA-H_AMS_1956-57_33k_ES_PAN_21mic_H50_0406_fot_43B-29659_E_tif
  70
32
  10
532249.500
  20
4585499.000
  30
999.231
  0
VERTEX
  8
PNOA-H_AMS_1956-57_33k_ES_PAN_21mic_H50_0406_fot_43B-29659_E_tif
  70
32
  10
531375.000
  20
4585087.500
  30
1018.553
  0
VERTEX
  8
PNOA-H_AMS_1956-57_33k_ES_PAN_21mic_H50_0406_fot_43B-29659_E_tif
  70
32
  10
531374.664
  20
4585087.577
  30
1018.558
  0
VERTEX
  8
PNOA-H_AMS_1956-57_33k_ES_PAN_21mic_H50_0406_fot_43B-29659_E_tif
  70
32
  10
530888.750
  20
4585199.375
  30
1026.264
  0
VERTEX
  8
PNOA-H_AMS_1956-57_33k_ES_PAN_21mic_H50_0406_fot_43B-29659_E_tif
  70
32
  10
529430.945
  20
4585534.783
  30
1049.382
  0
VERTEX
  8
PNOA-H_AMS_1956-57_33k_ES_PAN_21mic_H50_0406_fot_43B-29659_E_tif
  70
32
  10
529430.000
  20
4585535.000
  30
1049.397
  0
VERTEX
  8
PNOA-H_AMS_1956-57_33k_ES_PAN_21mic_H50_0406_fot_43B-29659_E_tif
  70
32
  10
529396.000
  20
4589302.000
  30
982.742
  0
VERTEX
  8
PNOA-H_AMS_1956-57_33k_ES_PAN_21mic_H50_0406_fot_43B-29659_E_tif
  70
32
  10
529396.005
  20
4589302.001
  30
982.742
  0
VERTEX
  8
PNOA-H_AMS_1956-57_33k_ES_PAN_21mic_H50_0406_fot_43B-29659_E_tif
  70
32
  10
531708.000
  20
4589628.000
  30
945.196
  0
VERTEX
  8
PNOA-H_AMS_1956-57_33k_ES_PAN_21mic_H50_0406_fot_43B-29659_E_tif
  70
32
  10
531711.500
  20
4589628.500
  30
945.202
  0
SEQEND
  8
PNOA-H_AMS_1956-57_33k_ES_PAN_21mic_H50_0406_fot_43B-29659_E_tif
  0
INSERT
  8
FeatureAttribs
  2
FEATURE
  41
1
  42
1
  43
1
  50
0
  10
527965.464
  20
4587396.750
 66
1
  0
ATTRIB
  8
FeatureAttribs
 70
0
  1
PNOA-H_AMS_1956-57_33k_ES_PAN_21mic_H50_0406_fot_43B-29658_E.tif
  2
NAME
  10
527965.464
  20
4587396.750
 40
33.55298
  0
SEQEND
  0
POLYLINE
  8
PNOA-H_AMS_1956-57_33k_ES_PAN_21mic_H50_0406_fot_43B-29658_E_tif
  70
9
  66
1
  0
VERTEX
  8
PNOA-H_AMS_1956-57_33k_ES_PAN_21mic_H50_0406_fot_43B-29658_E_tif
  70
32
  10
529423.687
  20
4585531.943
  30
1050.025
  0
VERTEX
  8
PNOA-H_AMS_1956-57_33k_ES_PAN_21mic_H50_0406_fot_43B-29658_E_tif
  70
32
  10
528635.000
  20
4585150.000
  30
1128.492
  0
VERTEX
  8
PNOA-H_AMS_1956-57_33k_ES_PAN_21mic_H50_0406_fot_43B-29658_E_tif
  70
32
  10
528634.282
  20
4585150.137
  30
1128.491
  0
VERTEX
  8
PNOA-H_AMS_1956-57_33k_ES_PAN_21mic_H50_0406_fot_43B-29658_E_tif
  70
32
  10
526542.500
  20
4585548.500
  30
1125.753
  0
VERTEX
  8
PNOA-H_AMS_1956-57_33k_ES_PAN_21mic_H50_0406_fot_43B-29658_E_tif
  70
32
  10
526493.000
  20
4589242.000
  30
970.093
  0
VERTEX
  8
PNOA-H_AMS_1956-57_33k_ES_PAN_21mic_H50_0406_fot_43B-29658_E_tif
  70
32
  10
526793.000
  20
4589295.500
  30
967.71
  0
VERTEX
  8
PNOA-H_AMS_1956-57_33k_ES_PAN_21mic_H50_0406_fot_43B-29658_E_tif
  70
32
  10
526795.500
  20
4589296.000
  30
967.577
  0
VERTEX
  8
PNOA-H_AMS_1956-57_33k_ES_PAN_21mic_H50_0406_fot_43B-29658_E_tif
  70
32
  10
526809.175
  20
4589298.435
  30
967.409
  0
VERTEX
  8
PNOA-H_AMS_1956-57_33k_ES_PAN_21mic_H50_0406_fot_43B-29658_E_tif
  70
32
  10
528747.000
  20
4589643.500
  30
943.584
  0
VERTEX
  8
PNOA-H_AMS_1956-57_33k_ES_PAN_21mic_H50_0406_fot_43B-29658_E_tif
  70
32
  10
528747.775
  20
4589643.371
  30
943.582
  0
VERTEX
  8
PNOA-H_AMS_1956-57_33k_ES_PAN_21mic_H50_0406_fot_43B-29658_E_tif
  70
32
  10
528749.193
  20
4589643.134
  30
943.578
  0
VERTEX
  8
PNOA-H_AMS_1956-57_33k_ES_PAN_21mic_H50_0406_fot_43B-29658_E_tif
  70
32
  10
528750.000
  20
4589643.000
  30
943.575
  0
VERTEX
  8
PNOA-H_AMS_1956-57_33k_ES_PAN_21mic_H50_0406_fot_43B-29658_E_tif
  70
32
  10
529396.000
  20
4589302.500
  30
982.76
  0
VERTEX
  8
PNOA-H_AMS_1956-57_33k_ES_PAN_21mic_H50_0406_fot_43B-29658_E_tif
  70
32
  10
529396.005
  20
4589302.001
  30
982.769
  0
VERTEX
  8
PNOA-H_AMS_1956-57_33k_ES_PAN_21mic_H50_0406_fot_43B-29658_E_tif
  70
32
  10
529430.000
  20
4585535.000
  30
1049.397
  0
VERTEX
  8
PNOA-H_AMS_1956-57_33k_ES_PAN_21mic_H50_0406_fot_43B-29658_E_tif
  70
32
  10
529423.687
  20
4585531.943
  30
1050.025
  0
SEQEND
  8
PNOA-H_AMS_1956-57_33k_ES_PAN_21mic_H50_0406_fot_43B-29658_E_tif
  0
INSERT
  8
FeatureAttribs
  2
FEATURE
  41
1
  42
1
  43
1
  50
0
  10
532783.830
  20
4583112.500
 66
1
  0
ATTRIB
  8
FeatureAttribs
 70
0
  1
PNOA-H_AMS_1956-57_33k_ES_PAN_21mic_H50_0406_fot_44B-36255_W.tif
  2
NAME
  10
532783.830
  20
4583112.500
 40
33.55298
  0
SEQEND
  0
POLYLINE
  8
PNOA-H_AMS_1956-57_33k_ES_PAN_21mic_H50_0406_fot_44B-36255_W_tif
  70
9
  66
1
  0
VERTEX
  8
PNOA-H_AMS_1956-57_33k_ES_PAN_21mic_H50_0406_fot_44B-36255_W_tif
  70
32
  10
532164.214
  20
4580725.629
  30
1073.118
  0
VERTEX
  8
PNOA-H_AMS_1956-57_33k_ES_PAN_21mic_H50_0406_fot_44B-36255_W_tif
  70
32
  10
532163.500
  20
4580725.500
  30
1073.123
  0
VERTEX
  8
PNOA-H_AMS_1956-57_33k_ES_PAN_21mic_H50_0406_fot_44B-36255_W_tif
  70
32
  10
531304.130
  20
4581114.441
  30
1118.311
  0
VERTEX
  8
PNOA-H_AMS_1956-57_33k_ES_PAN_21mic_H50_0406_fot_44B-36255_W_tif
  70
32
  10
531304.000
  20
4581114.500
  30
1118.318
  0
VERTEX
  8
PNOA-H_AMS_1956-57_33k_ES_PAN_21mic_H50_0406_fot_44B-36255_W_tif
  70
32
  10
531304.009
  20
4581115.018
  30
1118.305
  0
VERTEX
  8
PNOA-H_AMS_1956-57_33k_ES_PAN_21mic_H50_0406_fot_44B-36255_W_tif
  70
32
  10
531374.500
  20
4585087.500
  30
1018.606
  0
VERTEX
  8
PNOA-H_AMS_1956-57_33k_ES_PAN_21mic_H50_0406_fot_44B-36255_W_tif
  70
32
  10
531374.664
  20
4585087.577
  30
1018.602
  0
VERTEX
  8
PNOA-H_AMS_1956-57_33k_ES_PAN_21mic_H50_0406_fot_44B-36255_W_tif
  70
32
  10
532248.500
  20
4585499.000
  30
999.601
  0
VERTEX
  8
PNOA-H_AMS_1956-57_33k_ES_PAN_21mic_H50_0406_fot_44B-36255_W_tif
  70
32
  10
532249.490
  20
4585499.495
  30
999.174
  0
VERTEX
  8
PNOA-H_AMS_1956-57_33k_ES_PAN_21mic_H50_0406_fot_44B-36255_W_tif
  70
32
  10
532249.500
  20
4585499.500
  30
999.169
  0
VERTEX
  8
PNOA-H_AMS_1956-57_33k_ES_PAN_21mic_H50_0406_fot_44B-36255_W_tif
  70
32
  10
534201.000
  20
4585114.500
  30
1038.047
  0
VERTEX
  8
PNOA-H_AMS_1956-57_33k_ES_PAN_21mic_H50_0406_fot_44B-36255_W_tif
  70
32
  10
534255.500
  20
4581104.000
  30
1059.486
  0
VERTEX
  8
PNOA-H_AMS_1956-57_33k_ES_PAN_21mic_H50_0406_fot_44B-36255_W_tif
  70
32
  10
532761.214
  20
4580833.643
  30
1069.227
  0
VERTEX
  8
PNOA-H_AMS_1956-57_33k_ES_PAN_21mic_H50_0406_fot_44B-36255_W_tif
  70
32
  10
532164.214
  20
4580725.629
  30
1073.118
  0
SEQEND
  8
PNOA-H_AMS_1956-57_33k_ES_PAN_21mic_H50_0406_fot_44B-36255_W_tif
  0
INSERT
  8
FeatureAttribs
  2
FEATURE
  41
1
  42
1
  43
1
  50
0
  10
529955.930
  20
4583162.250
 66
1
  0
ATTRIB
  8
FeatureAttribs
 70
0
  1
PNOA-H_AMS_1956-57_33k_ES_PAN_21mic_H50_0406_fot_44B-36256_W.tif
  2
NAME
  10
529955.930
  20
4583162.250
 40
33.55298
  0
SEQEND
  0
POLYLINE
  8
PNOA-H_AMS_1956-57_33k_ES_PAN_21mic_H50_0406_fot_44B-36256_W_tif
  70
9
  66
1
  0
VERTEX
  8
PNOA-H_AMS_1956-57_33k_ES_PAN_21mic_H50_0406_fot_44B-36256_W_tif
  70
32
  10
529257.746
  20
4580789.618
  30
1112.533
  0
VERTEX
  8
PNOA-H_AMS_1956-57_33k_ES_PAN_21mic_H50_0406_fot_44B-36256_W_tif
  70
32
  10
529257.000
  20
4580789.500
  30
1112.531
  0
VERTEX
  8
PNOA-H_AMS_1956-57_33k_ES_PAN_21mic_H50_0406_fot_44B-36256_W_tif
  70
32
  10
528938.029
  20
4580938.665
  30
1114.3
  0
VERTEX
  8
PNOA-H_AMS_1956-57_33k_ES_PAN_21mic_H50_0406_fot_44B-36256_W_tif
  70
32
  10
528781.633
  20
4581011.803
  30
1115.167
  0
VERTEX
  8
PNOA-H_AMS_1956-57_33k_ES_PAN_21mic_H50_0406_fot_44B-36256_W_tif
  70
32
  10
528507.500
  20
4581140.000
  30
1116.688
  0
VERTEX
  8
PNOA-H_AMS_1956-57_33k_ES_PAN_21mic_H50_0406_fot_44B-36256_W_tif
  70
32
  10
528634.000
  20
4585150.000
  30
1128.487
  0
VERTEX
  8
PNOA-H_AMS_1956-57_33k_ES_PAN_21mic_H50_0406_fot_44B-36256_W_tif
  70
32
  10
528634.282
  20
4585150.137
  30
1128.488
  0
VERTEX
  8
PNOA-H_AMS_1956-57_33k_ES_PAN_21mic_H50_0406_fot_44B-36256_W_tif
  70
32
  10
528841.500
  20
4585250.500
  30
1129.732
  0
VERTEX
  8
PNOA-H_AMS_1956-57_33k_ES_PAN_21mic_H50_0406_fot_44B-36256_W_tif
  70
32
  10
528842.500
  20
4585251.000
  30
1129.722
  0
VERTEX
  8
PNOA-H_AMS_1956-57_33k_ES_PAN_21mic_H50_0406_fot_44B-36256_W_tif
  70
32
  10
529420.000
  20
4585530.500
  30
1049.718
  0
VERTEX
  8
PNOA-H_AMS_1956-57_33k_ES_PAN_21mic_H50_0406_fot_44B-36256_W_tif
  70
32
  10
529423.687
  20
4585531.943
  30
1049.675
  0
VERTEX
  8
PNOA-H_AMS_1956-57_33k_ES_PAN_21mic_H50_0406_fot_44B-36256_W_tif
  70
32
  10
529430.945
  20
4585534.783
  30
1049.591
  0
VERTEX
  8
PNOA-H_AMS_1956-57_33k_ES_PAN_21mic_H50_0406_fot_44B-36256_W_tif
  70
32
  10
529431.500
  20
4585535.000
  30
1049.584
  0
VERTEX
  8
PNOA-H_AMS_1956-57_33k_ES_PAN_21mic_H50_0406_fot_44B-36256_W_tif
  70
32
  10
530888.750
  20
4585199.375
  30
1026.351
  0
VERTEX
  8
PNOA-H_AMS_1956-57_33k_ES_PAN_21mic_H50_0406_fot_44B-36256_W_tif
  70
32
  10
531374.500
  20
4585087.500
  30
1018.606
  0
VERTEX
  8
PNOA-H_AMS_1956-57_33k_ES_PAN_21mic_H50_0406_fot_44B-36256_W_tif
  70
32
  10
531304.500
  20
4581116.000
  30
1118.331
  0
VERTEX
  8
PNOA-H_AMS_1956-57_33k_ES_PAN_21mic_H50_0406_fot_44B-36256_W_tif
  70
32
  10
531304.009
  20
4581115.018
  30
1118.321
  0
VERTEX
  8
PNOA-H_AMS_1956-57_33k_ES_PAN_21mic_H50_0406_fot_44B-36256_W_tif
  70
32
  10
531303.685
  20
4581114.371
  30
1118.313
  0
VERTEX
  8
PNOA-H_AMS_1956-57_33k_ES_PAN_21mic_H50_0406_fot_44B-36256_W_tif
  70
32
  10
531303.500
  20
4581114.000
  30
1118.309
  0
VERTEX
  8
PNOA-H_AMS_1956-57_33k_ES_PAN_21mic_H50_0406_fot_44B-36256_W_tif
  70
32
  10
529735.163
  20
4580865.319
  30
1113.881
  0
VERTEX
  8
PNOA-H_AMS_1956-57_33k_ES_PAN_21mic_H50_0406_fot_44B-36256_W_tif
  70
32
  10
529257.746
  20
4580789.618
  30
1112.533
  0
SEQEND
  8
PNOA-H_AMS_1956-57_33k_ES_PAN_21mic_H50_0406_fot_44B-36256_W_tif
  0
INSERT
  8
FeatureAttribs
  2
FEATURE
  41
1
  42
1
  43
1
  50
0
  10
533619.612
  20
4587373.500
 66
1
  0
ATTRIB
  8
FeatureAttribs
 70
0
  1
PNOA-H_AMS_1956-57_33k_ES_PAN_21mic_H50_0406_fot_43B-29660_E.tif
  2
NAME
  10
533619.612
  20
4587373.500
 40
33.55298
  0
SEQEND
  0
POLYLINE
  8
PNOA-H_AMS_1956-57_33k_ES_PAN_21mic_H50_0406_fot_43B-29660_E_tif
  70
9
  66
1
  0
VERTEX
  8
PNOA-H_AMS_1956-57_33k_ES_PAN_21mic_H50_0406_fot_43B-29660_E_tif
  70
32
  10
535031.865
  20
4585541.930
  30
1016.85
  0
VERTEX
  8
PNOA-H_AMS_1956-57_33k_ES_PAN_21mic_H50_0406_fot_43B-29660_E_tif
  70
32
  10
534201.500
  20
4585114.500
  30
1038.022
  0
VERTEX
  8
PNOA-H_AMS_1956-57_33k_ES_PAN_21mic_H50_0406_fot_43B-29660_E_tif
  70
32
  10
534201.139
  20
4585114.571
  30
1038.015
  0
VERTEX
  8
PNOA-H_AMS_1956-57_33k_ES_PAN_21mic_H50_0406_fot_43B-29660_E_tif
  70
32
  10
532249.500
  20
4585499.500
  30
999.169
  0
VERTEX
  8
PNOA-H_AMS_1956-57_33k_ES_PAN_21mic_H50_0406_fot_43B-29660_E_tif
  70
32
  10
532174.500
  20
4589380.000
  30
950.838
  0
VERTEX
  8
PNOA-H_AMS_1956-57_33k_ES_PAN_21mic_H50_0406_fot_43B-29660_E_tif
  70
32
  10
532930.000
  20
4589454.000
  30
932.855
  0
VERTEX
  8
PNOA-H_AMS_1956-57_33k_ES_PAN_21mic_H50_0406_fot_43B-29660_E_tif
  70
32
  10
532935.000
  20
4589454.500
  30
933.01
  0
VERTEX
  8
PNOA-H_AMS_1956-57_33k_ES_PAN_21mic_H50_0406_fot_43B-29660_E_tif
  70
32
  10
534753.500
  20
4589632.500
  30
956.708
  0
VERTEX
  8
PNOA-H_AMS_1956-57_33k_ES_PAN_21mic_H50_0406_fot_43B-29660_E_tif
  70
32
  10
534756.391
  20
4589632.294
  30
956.704
  0
VERTEX
  8
PNOA-H_AMS_1956-57_33k_ES_PAN_21mic_H50_0406_fot_43B-29660_E_tif
  70
32
  10
534759.161
  20
4589632.096
  30
956.7
  0
VERTEX
  8
PNOA-H_AMS_1956-57_33k_ES_PAN_21mic_H50_0406_fot_43B-29660_E_tif
  70
32
  10
534760.500
  20
4589632.000
  30
956.698
  0
VERTEX
  8
PNOA-H_AMS_1956-57_33k_ES_PAN_21mic_H50_0406_fot_43B-29660_E_tif
  70
32
  10
535018.958
  20
4589473.526
  30
970
  0
VERTEX
  8
PNOA-H_AMS_1956-57_33k_ES_PAN_21mic_H50_0406_fot_43B-29660_E_tif
  70
32
  10
535019.000
  20
4589473.500
  30
970.002
  0
VERTEX
  8
PNOA-H_AMS_1956-57_33k_ES_PAN_21mic_H50_0406_fot_43B-29660_E_tif
  70
32
  10
535032.000
  20
4585542.000
  30
1016.846
  0
VERTEX
  8
PNOA-H_AMS_1956-57_33k_ES_PAN_21mic_H50_0406_fot_43B-29660_E_tif
  70
32
  10
535031.865
  20
4585541.930
  30
1016.85
  0
SEQEND
  8
PNOA-H_AMS_1956-57_33k_ES_PAN_21mic_H50_0406_fot_43B-29660_E_tif
  0
INSERT
  8
FeatureAttribs
  2
FEATURE
  41
1
  42
1
  43
1
  50
0
  10
530674.247
  20
4578607.750
 66
1
  0
ATTRIB
  8
FeatureAttribs
 70
0
  1
PNOA-H_AMS_1956-57_33k_ES_PAN_21mic_H50_0406_fot_45C-37439_E.tif
  2
NAME
  10
530674.247
  20
4578607.750
 40
33.55298
  0
SEQEND
  0
POLYLINE
  8
PNOA-H_AMS_1956-57_33k_ES_PAN_21mic_H50_0406_fot_45C-37439_E_tif
  70
9
  66
1
  0
VERTEX
  8
PNOA-H_AMS_1956-57_33k_ES_PAN_21mic_H50_0406_fot_45C-37439_E_tif
  70
32
  10
529820.312
  20
4576101.087
  30
1121.968
  0
VERTEX
  8
PNOA-H_AMS_1956-57_33k_ES_PAN_21mic_H50_0406_fot_45C-37439_E_tif
  70
32
  10
529819.500
  20
4576101.000
  30
1121.98
  0
VERTEX
  8
PNOA-H_AMS_1956-57_33k_ES_PAN_21mic_H50_0406_fot_45C-37439_E_tif
  70
32
  10
529161.370
  20
4576404.408
  30
1124.675
  0
VERTEX
  8
PNOA-H_AMS_1956-57_33k_ES_PAN_21mic_H50_0406_fot_45C-37439_E_tif
  70
32
  10
529159.000
  20
4576405.500
  30
1124.684
  0
VERTEX
  8
PNOA-H_AMS_1956-57_33k_ES_PAN_21mic_H50_0406_fot_45C-37439_E_tif
  70
32
  10
529258.000
  20
4580789.500
  30
1112.481
  0
VERTEX
  8
PNOA-H_AMS_1956-57_33k_ES_PAN_21mic_H50_0406_fot_45C-37439_E_tif
  70
32
  10
529735.163
  20
4580865.319
  30
1114.063
  0
VERTEX
  8
PNOA-H_AMS_1956-57_33k_ES_PAN_21mic_H50_0406_fot_45C-37439_E_tif
  70
32
  10
530888.000
  20
4581048.500
  30
1117.883
  0
VERTEX
  8
PNOA-H_AMS_1956-57_33k_ES_PAN_21mic_H50_0406_fot_45C-37439_E_tif
  70
32
  10
530891.000
  20
4581049.000
  30
1117.861
  0
VERTEX
  8
PNOA-H_AMS_1956-57_33k_ES_PAN_21mic_H50_0406_fot_45C-37439_E_tif
  70
32
  10
531303.685
  20
4581114.371
  30
1118.324
  0
VERTEX
  8
PNOA-H_AMS_1956-57_33k_ES_PAN_21mic_H50_0406_fot_45C-37439_E_tif
  70
32
  10
531304.130
  20
4581114.441
  30
1118.325
  0
VERTEX
  8
PNOA-H_AMS_1956-57_33k_ES_PAN_21mic_H50_0406_fot_45C-37439_E_tif
  70
32
  10
531304.500
  20
4581114.500
  30
1118.325
  0
VERTEX
  8
PNOA-H_AMS_1956-57_33k_ES_PAN_21mic_H50_0406_fot_45C-37439_E_tif
  70
32
  10
532164.214
  20
4580725.629
  30
1072.885
  0
VERTEX
  8
PNOA-H_AMS_1956-57_33k_ES_PAN_21mic_H50_0406_fot_45C-37439_E_tif
  70
32
  10
532164.500
  20
4580725.500
  30
1072.87
  0
VERTEX
  8
PNOA-H_AMS_1956-57_33k_ES_PAN_21mic_H50_0406_fot_45C-37439_E_tif
  70
32
  10
532113.500
  20
4576359.500
  30
1083.389
  0
VERTEX
  8
PNOA-H_AMS_1956-57_33k_ES_PAN_21mic_H50_0406_fot_45C-37439_E_tif
  70
32
  10
532113.099
  20
4576353.879
  30
1085.211
  0
VERTEX
  8
PNOA-H_AMS_1956-57_33k_ES_PAN_21mic_H50_0406_fot_45C-37439_E_tif
  70
32
  10
532112.534
  20
4576345.982
  30
1087.771
  0
VERTEX
  8
PNOA-H_AMS_1956-57_33k_ES_PAN_21mic_H50_0406_fot_45C-37439_E_tif
  70
32
  10
532112.500
  20
4576345.500
  30
1087.927
  0
VERTEX
  8
PNOA-H_AMS_1956-57_33k_ES_PAN_21mic_H50_0406_fot_45C-37439_E_tif
  70
32
  10
530236.409
  20
4576145.455
  30
1115.789
  0
VERTEX
  8
PNOA-H_AMS_1956-57_33k_ES_PAN_21mic_H50_0406_fot_45C-37439_E_tif
  70
32
  10
529820.312
  20
4576101.087
  30
1121.968
  0
SEQEND
  8
PNOA-H_AMS_1956-57_33k_ES_PAN_21mic_H50_0406_fot_45C-37439_E_tif
  0
INSERT
  8
FeatureAttribs
  2
FEATURE
  41
1
  42
1
  43
1
  50
0
  10
527774.510
  20
4578619.000
 66
1
  0
ATTRIB
  8
FeatureAttribs
 70
0
  1
PNOA-H_AMS_1956-57_33k_ES_PAN_21mic_H50_0406_fot_45C-37438_E.tif
  2
NAME
  10
527774.510
  20
4578619.000
 40
33.55298
  0
SEQEND
  0
POLYLINE
  8
PNOA-H_AMS_1956-57_33k_ES_PAN_21mic_H50_0406_fot_45C-37438_E_tif
  70
9
  66
1
  0
VERTEX
  8
PNOA-H_AMS_1956-57_33k_ES_PAN_21mic_H50_0406_fot_45C-37438_E_tif
  70
32
  10
527067.752
  20
4576098.111
  30
1115.402
  0
VERTEX
  8
PNOA-H_AMS_1956-57_33k_ES_PAN_21mic_H50_0406_fot_45C-37438_E_tif
  70
32
  10
527067.000
  20
4576098.000
  30
1115.399
  0
VERTEX
  8
PNOA-H_AMS_1956-57_33k_ES_PAN_21mic_H50_0406_fot_45C-37438_E_tif
  70
32
  10
526306.500
  20
4576437.000
  30
1103.519
  0
VERTEX
  8
PNOA-H_AMS_1956-57_33k_ES_PAN_21mic_H50_0406_fot_45C-37438_E_tif
  70
32
  10
526302.719
  20
4576438.890
  30
1103.74
  0
VERTEX
  8
PNOA-H_AMS_1956-57_33k_ES_PAN_21mic_H50_0406_fot_45C-37438_E_tif
  70
32
  10
526302.500
  20
4576439.000
  30
1103.753
  0
VERTEX
  8
PNOA-H_AMS_1956-57_33k_ES_PAN_21mic_H50_0406_fot_45C-37438_E_tif
  70
32
  10
526302.500
  20
4576444.000
  30
1103.811
  0
VERTEX
  8
PNOA-H_AMS_1956-57_33k_ES_PAN_21mic_H50_0406_fot_45C-37438_E_tif
  70
32
  10
526379.500
  20
4580906.000
  30
1118.457
  0
VERTEX
  8
PNOA-H_AMS_1956-57_33k_ES_PAN_21mic_H50_0406_fot_45C-37438_E_tif
  70
32
  10
526379.909
  20
4580906.045
  30
1118.456
  0
VERTEX
  8
PNOA-H_AMS_1956-57_33k_ES_PAN_21mic_H50_0406_fot_45C-37438_E_tif
  70
32
  10
528502.500
  20
4581140.000
  30
1116.785
  0
VERTEX
  8
PNOA-H_AMS_1956-57_33k_ES_PAN_21mic_H50_0406_fot_45C-37438_E_tif
  70
32
  10
528507.500
  20
4581140.000
  30
1116.699
  0
VERTEX
  8
PNOA-H_AMS_1956-57_33k_ES_PAN_21mic_H50_0406_fot_45C-37438_E_tif
  70
32
  10
528508.500
  20
4581140.000
  30
1116.682
  0
VERTEX
  8
PNOA-H_AMS_1956-57_33k_ES_PAN_21mic_H50_0406_fot_45C-37438_E_tif
  70
32
  10
528781.633
  20
4581011.803
  30
1118.272
  0
VERTEX
  8
PNOA-H_AMS_1956-57_33k_ES_PAN_21mic_H50_0406_fot_45C-37438_E_tif
  70
32
  10
528843.000
  20
4580983.000
  30
1118.63
  0
VERTEX
  8
PNOA-H_AMS_1956-57_33k_ES_PAN_21mic_H50_0406_fot_45C-37438_E_tif
  70
32
  10
528844.000
  20
4580982.500
  30
1118.622
  0
VERTEX
  8
PNOA-H_AMS_1956-57_33k_ES_PAN_21mic_H50_0406_fot_45C-37438_E_tif
  70
32
  10
528938.029
  20
4580938.665
  30
1117.227
  0
VERTEX
  8
PNOA-H_AMS_1956-57_33k_ES_PAN_21mic_H50_0406_fot_45C-37438_E_tif
  70
32
  10
529257.746
  20
4580789.618
  30
1112.485
  0
VERTEX
  8
PNOA-H_AMS_1956-57_33k_ES_PAN_21mic_H50_0406_fot_45C-37438_E_tif
  70
32
  10
529258.000
  20
4580789.500
  30
1112.481
  0
VERTEX
  8
PNOA-H_AMS_1956-57_33k_ES_PAN_21mic_H50_0406_fot_45C-37438_E_tif
  70
32
  10
529159.000
  20
4576405.500
  30
1124.684
  0
VERTEX
  8
PNOA-H_AMS_1956-57_33k_ES_PAN_21mic_H50_0406_fot_45C-37438_E_tif
  70
32
  10
529157.741
  20
4576405.315
  30
1124.679
  0
VERTEX
  8
PNOA-H_AMS_1956-57_33k_ES_PAN_21mic_H50_0406_fot_45C-37438_E_tif
  70
32
  10
527870.810
  20
4576216.151
  30
1118.967
  0
VERTEX
  8
PNOA-H_AMS_1956-57_33k_ES_PAN_21mic_H50_0406_fot_45C-37438_E_tif
  70
32
  10
527067.752
  20
4576098.111
  30
1115.402
  0
SEQEND
  8
PNOA-H_AMS_1956-57_33k_ES_PAN_21mic_H50_0406_fot_45C-37438_E_tif
  0
INSERT
  8
FeatureAttribs
  2
FEATURE
  41
1
  42
1
  43
1
  50
0
  10
533591.209
  20
4578603.750
 66
1
  0
ATTRIB
  8
FeatureAttribs
 70
0
  1
PNOA-H_AMS_1956-57_33k_ES_PAN_21mic_H50_0406_fot_45C-37440_E.tif
  2
NAME
  10
533591.209
  20
4578603.750
 40
33.55298
  0
SEQEND
  0
POLYLINE
  8
PNOA-H_AMS_1956-57_33k_ES_PAN_21mic_H50_0406_fot_45C-37440_E_tif
  70
9
  66
1
  0
VERTEX
  8
PNOA-H_AMS_1956-57_33k_ES_PAN_21mic_H50_0406_fot_45C-37440_E_tif
  70
32
  10
534253.000
  20
4581104.000
  30
1059.689
  0
VERTEX
  8
PNOA-H_AMS_1956-57_33k_ES_PAN_21mic_H50_0406_fot_45C-37440_E_tif
  70
32
  10
534255.500
  20
4581104.000
  30
1059.486
  0
VERTEX
  8
PNOA-H_AMS_1956-57_33k_ES_PAN_21mic_H50_0406_fot_45C-37440_E_tif
  70
32
  10
534256.500
  20
4581104.000
  30
1059.405
  0
VERTEX
  8
PNOA-H_AMS_1956-57_33k_ES_PAN_21mic_H50_0406_fot_45C-37440_E_tif
  70
32
  10
534263.500
  20
4581101.000
  30
1058.383
  0
VERTEX
  8
PNOA-H_AMS_1956-57_33k_ES_PAN_21mic_H50_0406_fot_45C-37440_E_tif
  70
32
  10
535082.728
  20
4580741.119
  30
1098.97
  0
VERTEX
  8
PNOA-H_AMS_1956-57_33k_ES_PAN_21mic_H50_0406_fot_45C-37440_E_tif
  70
32
  10
535083.000
  20
4580741.000
  30
1098.983
  0
VERTEX
  8
PNOA-H_AMS_1956-57_33k_ES_PAN_21mic_H50_0406_fot_45C-37440_E_tif
  70
32
  10
535009.500
  20
4576827.000
  30
1122.575
  0
VERTEX
  8
PNOA-H_AMS_1956-57_33k_ES_PAN_21mic_H50_0406_fot_45C-37440_E_tif
  70
32
  10
535009.500
  20
4576826.250
  30
1112.025
  0
VERTEX
  8
PNOA-H_AMS_1956-57_33k_ES_PAN_21mic_H50_0406_fot_45C-37440_E_tif
  70
32
  10
535009.500
  20
4576805.000
  30
1121.233
  0
VERTEX
  8
PNOA-H_AMS_1956-57_33k_ES_PAN_21mic_H50_0406_fot_45C-37440_E_tif
  70
32
  10
534999.000
  20
4576267.000
  30
1113.888
  0
VERTEX
  8
PNOA-H_AMS_1956-57_33k_ES_PAN_21mic_H50_0406_fot_45C-37440_E_tif
  70
32
  10
534592.409
  20
4576239.479
  30
1113.952
  0
VERTEX
  8
PNOA-H_AMS_1956-57_33k_ES_PAN_21mic_H50_0406_fot_45C-37440_E_tif
  70
32
  10
532620.577
  20
4576106.010
  30
1114.26
  0
VERTEX
  8
PNOA-H_AMS_1956-57_33k_ES_PAN_21mic_H50_0406_fot_45C-37440_E_tif
  70
32
  10
532583.942
  20
4576103.530
  30
1114.265
  0
VERTEX
  8
PNOA-H_AMS_1956-57_33k_ES_PAN_21mic_H50_0406_fot_45C-37440_E_tif
  70
32
  10
532583.500
  20
4576103.500
  30
1114.266
  0
VERTEX
  8
PNOA-H_AMS_1956-57_33k_ES_PAN_21mic_H50_0406_fot_45C-37440_E_tif
  70
32
  10
532113.000
  20
4576345.500
  30
1087.897
  0
VERTEX
  8
PNOA-H_AMS_1956-57_33k_ES_PAN_21mic_H50_0406_fot_45C-37440_E_tif
  70
32
  10
532113.003
  20
4576345.741
  30
1087.897
  0
VERTEX
  8
PNOA-H_AMS_1956-57_33k_ES_PAN_21mic_H50_0406_fot_45C-37440_E_tif
  70
32
  10
532113.099
  20
4576353.879
  30
1087.869
  0
VERTEX
  8
PNOA-H_AMS_1956-57_33k_ES_PAN_21mic_H50_0406_fot_45C-37440_E_tif
  70
32
  10
532164.500
  20
4580725.500
  30
1072.87
  0
VERTEX
  8
PNOA-H_AMS_1956-57_33k_ES_PAN_21mic_H50_0406_fot_45C-37440_E_tif
  70
32
  10
532761.214
  20
4580833.643
  30
1069.104
  0
VERTEX
  8
PNOA-H_AMS_1956-57_33k_ES_PAN_21mic_H50_0406_fot_45C-37440_E_tif
  70
32
  10
534253.000
  20
4581104.000
  30
1059.689
  0
SEQEND
  8
PNOA-H_AMS_1956-57_33k_ES_PAN_21mic_H50_0406_fot_45C-37440_E_tif
  0
INSERT
  8
FeatureAttribs
  2
FEATURE
  41
1
  42
1
  43
1
  50
0
  10
531202.133
  20
4576084.295
 66
1
  0
ATTRIB
  8
FeatureAttribs
 70
0
  1
PNOA-H_AMS_1956-57_33k_ES_PAN_21mic_H50_0434_fot_46B-29774_E.tif
  2
NAME
  10
531202.133
  20
4576084.295
 40
33.55298
  0
SEQEND
  0
POLYLINE
  8
PNOA-H_AMS_1956-57_33k_ES_PAN_21mic_H50_0434_fot_46B-29774_E_tif
  70
9
  66
1
  0
VERTEX
  8
PNOA-H_AMS_1956-57_33k_ES_PAN_21mic_H50_0434_fot_46B-29774_E_tif
  70
32
  10
532580.734
  20
4575834.522
  30
1113.925
  0
VERTEX
  8
PNOA-H_AMS_1956-57_33k_ES_PAN_21mic_H50_0434_fot_46B-29774_E_tif
  70
32
  10
529820.500
  20
4575822.590
  30
1121.369
  0
VERTEX
  8
PNOA-H_AMS_1956-57_33k_ES_PAN_21mic_H50_0434_fot_46B-29774_E_tif
  70
32
  10
529820.500
  20
4576101.000
  30
1121.98
  0
VERTEX
  8
PNOA-H_AMS_1956-57_33k_ES_PAN_21mic_H50_0434_fot_46B-29774_E_tif
  70
32
  10
530236.409
  20
4576145.455
  30
1115.833
  0
VERTEX
  8
PNOA-H_AMS_1956-57_33k_ES_PAN_21mic_H50_0434_fot_46B-29774_E_tif
  70
32
  10
532108.000
  20
4576345.500
  30
1088.17
  0
VERTEX
  8
PNOA-H_AMS_1956-57_33k_ES_PAN_21mic_H50_0434_fot_46B-29774_E_tif
  70
32
  10
532112.500
  20
4576346.000
  30
1087.763
  0
VERTEX
  8
PNOA-H_AMS_1956-57_33k_ES_PAN_21mic_H50_0434_fot_46B-29774_E_tif
  70
32
  10
532112.534
  20
4576345.982
  30
1087.765
  0
VERTEX
  8
PNOA-H_AMS_1956-57_33k_ES_PAN_21mic_H50_0434_fot_46B-29774_E_tif
  70
32
  10
532113.003
  20
4576345.741
  30
1087.791
  0
VERTEX
  8
PNOA-H_AMS_1956-57_33k_ES_PAN_21mic_H50_0434_fot_46B-29774_E_tif
  70
32
  10
532583.942
  20
4576103.530
  30
1114.193
  0
VERTEX
  8
PNOA-H_AMS_1956-57_33k_ES_PAN_21mic_H50_0434_fot_46B-29774_E_tif
  70
32
  10
532584.000
  20
4576103.500
  30
1114.197
  0
VERTEX
  8
PNOA-H_AMS_1956-57_33k_ES_PAN_21mic_H50_0434_fot_46B-29774_E_tif
  70
32
  10
532580.734
  20
4575834.522
  30
1113.925
  0
SEQEND
  8
PNOA-H_AMS_1956-57_33k_ES_PAN_21mic_H50_0434_fot_46B-29774_E_tif
  0
INSERT
  8
FeatureAttribs
  2
FEATURE
  41
1
  42
1
  43
1
  50
0
  10
528472.261
  20
4576108.706
 66
1
  0
ATTRIB
  8
FeatureAttribs
 70
0
  1
PNOA-H_AMS_1956-57_33k_ES_PAN_21mic_H50_0434_fot_46B-29775_E.tif
  2
NAME
  10
528472.261
  20
4576108.706
 40
33.55298
  0
SEQEND
  0
POLYLINE
  8
PNOA-H_AMS_1956-57_33k_ES_PAN_21mic_H50_0434_fot_46B-29775_E_tif
  70
9
  66
1
  0
VERTEX
  8
PNOA-H_AMS_1956-57_33k_ES_PAN_21mic_H50_0434_fot_46B-29775_E_tif
  70
32
  10
529635.417
  20
4575821.790
  30
0
  0
VERTEX
  8
PNOA-H_AMS_1956-57_33k_ES_PAN_21mic_H50_0434_fot_46B-29775_E_tif
  70
32
  10
527064.350
  20
4575811.912
  30
1113.393
  0
VERTEX
  8
PNOA-H_AMS_1956-57_33k_ES_PAN_21mic_H50_0434_fot_46B-29775_E_tif
  70
32
  10
527068.000
  20
4576098.000
  30
1115.448
  0
VERTEX
  8
PNOA-H_AMS_1956-57_33k_ES_PAN_21mic_H50_0434_fot_46B-29775_E_tif
  70
32
  10
527870.810
  20
4576216.151
  30
1118.987
  0
VERTEX
  8
PNOA-H_AMS_1956-57_33k_ES_PAN_21mic_H50_0434_fot_46B-29775_E_tif
  70
32
  10
529154.000
  20
4576405.000
  30
1124.643
  0
VERTEX
  8
PNOA-H_AMS_1956-57_33k_ES_PAN_21mic_H50_0434_fot_46B-29775_E_tif
  70
32
  10
529157.000
  20
4576405.500
  30
1124.663
  0
VERTEX
  8
PNOA-H_AMS_1956-57_33k_ES_PAN_21mic_H50_0434_fot_46B-29775_E_tif
  70
32
  10
529157.741
  20
4576405.315
  30
1124.673
  0
VERTEX
  8
PNOA-H_AMS_1956-57_33k_ES_PAN_21mic_H50_0434_fot_46B-29775_E_tif
  70
32
  10
529161.370
  20
4576404.408
  30
1124.722
  0
VERTEX
  8
PNOA-H_AMS_1956-57_33k_ES_PAN_21mic_H50_0434_fot_46B-29775_E_tif
  70
32
  10
529163.000
  20
4576404.000
  30
1124.745
  0
VERTEX
  8
PNOA-H_AMS_1956-57_33k_ES_PAN_21mic_H50_0434_fot_46B-29775_E_tif
  70
32
  10
529820.312
  20
4576101.087
  30
1121.981
  0
VERTEX
  8
PNOA-H_AMS_1956-57_33k_ES_PAN_21mic_H50_0434_fot_46B-29775_E_tif
  70
32
  10
529820.500
  20
4576101.000
  30
1121.98
  0
VERTEX
  8
PNOA-H_AMS_1956-57_33k_ES_PAN_21mic_H50_0434_fot_46B-29775_E_tif
  70
32
  10
529820.500
  20
4575822.590
  30
1121.369
  0
VERTEX
  8
PNOA-H_AMS_1956-57_33k_ES_PAN_21mic_H50_0434_fot_46B-29775_E_tif
  70
32
  10
529635.417
  20
4575821.790
  30
0
  0
SEQEND
  8
PNOA-H_AMS_1956-57_33k_ES_PAN_21mic_H50_0434_fot_46B-29775_E_tif
  0
INSERT
  8
FeatureAttribs
  2
FEATURE
  41
1
  42
1
  43
1
  50
0
  10
533929.051
  20
4576050.761
 66
1
  0
ATTRIB
  8
FeatureAttribs
 70
0
  1
PNOA-H_AMS_1956-57_33k_ES_PAN_21mic_H50_0434_fot_46B-29773_E.tif
  2
NAME
  10
533929.051
  20
4576050.761
 40
33.55298
  0
SEQEND
  0
POLYLINE
  8
PNOA-H_AMS_1956-57_33k_ES_PAN_21mic_H50_0434_fot_46B-29773_E_tif
  70
9
  66
1
  0
VERTEX
  8
PNOA-H_AMS_1956-57_33k_ES_PAN_21mic_H50_0434_fot_46B-29773_E_tif
  70
32
  10
533121.944
  20
4575836.861
  30
0
  0
VERTEX
  8
PNOA-H_AMS_1956-57_33k_ES_PAN_21mic_H50_0434_fot_46B-29773_E_tif
  70
32
  10
532580.734
  20
4575834.522
  30
1113.925
  0
VERTEX
  8
PNOA-H_AMS_1956-57_33k_ES_PAN_21mic_H50_0434_fot_46B-29773_E_tif
  70
32
  10
532584.000
  20
4576103.500
  30
1114.197
  0
VERTEX
  8
PNOA-H_AMS_1956-57_33k_ES_PAN_21mic_H50_0434_fot_46B-29773_E_tif
  70
32
  10
532620.577
  20
4576106.010
  30
1115.12
  0
VERTEX
  8
PNOA-H_AMS_1956-57_33k_ES_PAN_21mic_H50_0434_fot_46B-29773_E_tif
  70
32
  10
532926.500
  20
4576127.000
  30
1122.847
  0
VERTEX
  8
PNOA-H_AMS_1956-57_33k_ES_PAN_21mic_H50_0434_fot_46B-29773_E_tif
  70
32
  10
532934.000
  20
4576127.500
  30
1122.842
  0
VERTEX
  8
PNOA-H_AMS_1956-57_33k_ES_PAN_21mic_H50_0434_fot_46B-29773_E_tif
  70
32
  10
534592.409
  20
4576239.479
  30
1115.645
  0
VERTEX
  8
PNOA-H_AMS_1956-57_33k_ES_PAN_21mic_H50_0434_fot_46B-29773_E_tif
  70
32
  10
534999.112
  20
4576266.940
  30
1113.88
  0
VERTEX
  8
PNOA-H_AMS_1956-57_33k_ES_PAN_21mic_H50_0434_fot_46B-29773_E_tif
  70
32
  10
535000.000
  20
4576267.000
  30
1113.876
  0
VERTEX
  8
PNOA-H_AMS_1956-57_33k_ES_PAN_21mic_H50_0434_fot_46B-29773_E_tif
  70
32
  10
535222.606
  20
4576146.915
  30
1063.445
  0
VERTEX
  8
PNOA-H_AMS_1956-57_33k_ES_PAN_21mic_H50_0434_fot_46B-29773_E_tif
  70
32
  10
535272.008
  20
4576120.266
  30
1052.253
  0
VERTEX
  8
PNOA-H_AMS_1956-57_33k_ES_PAN_21mic_H50_0434_fot_46B-29773_E_tif
  70
32
  10
535272.500
  20
4576120.000
  30
1052.142
  0
VERTEX
  8
PNOA-H_AMS_1956-57_33k_ES_PAN_21mic_H50_0434_fot_46B-29773_E_tif
  70
32
  10
535281.335
  20
4575847.233
  30
1054.978
  0
VERTEX
  8
PNOA-H_AMS_1956-57_33k_ES_PAN_21mic_H50_0434_fot_46B-29773_E_tif
  70
32
  10
535280.885
  20
4575847.231
  30
0
  0
VERTEX
  8
PNOA-H_AMS_1956-57_33k_ES_PAN_21mic_H50_0434_fot_46B-29773_E_tif
  70
32
  10
533121.944
  20
4575836.861
  30
0
  0
SEQEND
  8
PNOA-H_AMS_1956-57_33k_ES_PAN_21mic_H50_0434_fot_46B-29773_E_tif
  0
INSERT
  8
FeatureAttribs
  2
FEATURE
  41
1
  42
1
  43
1
  50
0
  10
538883.710
  20
4591879.000
 66
1
  0
ATTRIB
  8
FeatureAttribs
 70
0
  1
PNOA-H_AMS_1956-57_33k_ES_PAN_21mic_H50_0406_fot_42B-36330_E.tif
  2
NAME
  10
538883.710
  20
4591879.000
 40
33.55298
  0
SEQEND
  0
POLYLINE
  8
PNOA-H_AMS_1956-57_33k_ES_PAN_21mic_H50_0406_fot_42B-36330_E_tif
  70
9
  66
1
  0
VERTEX
  8
PNOA-H_AMS_1956-57_33k_ES_PAN_21mic_H50_0406_fot_42B-36330_E_tif
  70
32
  10
537880.000
  20
4589545.000
  30
953.668
  0
VERTEX
  8
PNOA-H_AMS_1956-57_33k_ES_PAN_21mic_H50_0406_fot_42B-36330_E_tif
  70
32
  10
537879.500
  20
4589545.000
  30
953.669
  0
VERTEX
  8
PNOA-H_AMS_1956-57_33k_ES_PAN_21mic_H50_0406_fot_42B-36330_E_tif
  70
32
  10
537793.273
  20
4589601.576
  30
954.353
  0
VERTEX
  8
PNOA-H_AMS_1956-57_33k_ES_PAN_21mic_H50_0406_fot_42B-36330_E_tif
  70
32
  10
537753.000
  20
4589628.000
  30
954.673
  0
VERTEX
  8
PNOA-H_AMS_1956-57_33k_ES_PAN_21mic_H50_0406_fot_42B-36330_E_tif
  70
32
  10
537769.000
  20
4594154.500
  30
958.59
  0
VERTEX
  8
PNOA-H_AMS_1956-57_33k_ES_PAN_21mic_H50_0406_fot_42B-36330_E_tif
  70
32
  10
537769.037
  20
4594154.521
  30
958.592
  0
VERTEX
  8
PNOA-H_AMS_1956-57_33k_ES_PAN_21mic_H50_0406_fot_42B-36330_E_tif
  70
32
  10
537872.500
  20
4594213.000
  30
964.436
  0
VERTEX
  8
PNOA-H_AMS_1956-57_33k_ES_PAN_21mic_H50_0406_fot_42B-36330_E_tif
  70
32
  10
537872.992
  20
4594212.995
  30
964.427
  0
VERTEX
  8
PNOA-H_AMS_1956-57_33k_ES_PAN_21mic_H50_0406_fot_42B-36330_E_tif
  70
32
  10
539074.000
  20
4594201.500
  30
943.047
  0
VERTEX
  8
PNOA-H_AMS_1956-57_33k_ES_PAN_21mic_H50_0406_fot_42B-36330_E_tif
  70
32
  10
539084.000
  20
4594201.500
  30
940.909
  0
VERTEX
  8
PNOA-H_AMS_1956-57_33k_ES_PAN_21mic_H50_0406_fot_42B-36330_E_tif
  70
32
  10
539993.644
  20
4594192.910
  30
938.658
  0
VERTEX
  8
PNOA-H_AMS_1956-57_33k_ES_PAN_21mic_H50_0406_fot_42B-36330_E_tif
  70
32
  10
540005.450
  20
4592062.128
  30
0
  0
VERTEX
  8
PNOA-H_AMS_1956-57_33k_ES_PAN_21mic_H50_0406_fot_42B-36330_E_tif
  70
32
  10
540018.259
  20
4589749.232
  30
0
  0
VERTEX
  8
PNOA-H_AMS_1956-57_33k_ES_PAN_21mic_H50_0406_fot_42B-36330_E_tif
  70
32
  10
540019.355
  20
4589551.208
  30
0
  0
VERTEX
  8
PNOA-H_AMS_1956-57_33k_ES_PAN_21mic_H50_0406_fot_42B-36330_E_tif
  70
32
  10
540019.357
  20
4589551.012
  30
946.521
  0
VERTEX
  8
PNOA-H_AMS_1956-57_33k_ES_PAN_21mic_H50_0406_fot_42B-36330_E_tif
  70
32
  10
537971.000
  20
4589545.000
  30
953.562
  0
VERTEX
  8
PNOA-H_AMS_1956-57_33k_ES_PAN_21mic_H50_0406_fot_42B-36330_E_tif
  70
32
  10
537880.000
  20
4589545.000
  30
953.668
  0
SEQEND
  8
PNOA-H_AMS_1956-57_33k_ES_PAN_21mic_H50_0406_fot_42B-36330_E_tif
  0
INSERT
  8
FeatureAttribs
  2
FEATURE
  41
1
  42
1
  43
1
  50
0
  10
536457.275
  20
4587387.500
 66
1
  0
ATTRIB
  8
FeatureAttribs
 70
0
  1
PNOA-H_AMS_1956-57_33k_ES_PAN_21mic_H50_0406_fot_43B-29661_E.tif
  2
NAME
  10
536457.275
  20
4587387.500
 40
33.55298
  0
SEQEND
  0
POLYLINE
  8
PNOA-H_AMS_1956-57_33k_ES_PAN_21mic_H50_0406_fot_43B-29661_E_tif
  70
9
  66
1
  0
VERTEX
  8
PNOA-H_AMS_1956-57_33k_ES_PAN_21mic_H50_0406_fot_43B-29661_E_tif
  70
32
  10
537895.868
  20
4585554.932
  30
977.895
  0
VERTEX
  8
PNOA-H_AMS_1956-57_33k_ES_PAN_21mic_H50_0406_fot_43B-29661_E_tif
  70
32
  10
537100.000
  20
4585146.500
  30
978.46
  0
VERTEX
  8
PNOA-H_AMS_1956-57_33k_ES_PAN_21mic_H50_0406_fot_43B-29661_E_tif
  70
32
  10
537099.272
  20
4585146.639
  30
978.474
  0
VERTEX
  8
PNOA-H_AMS_1956-57_33k_ES_PAN_21mic_H50_0406_fot_43B-29661_E_tif
  70
32
  10
535032.000
  20
4585542.000
  30
1016.846
  0
VERTEX
  8
PNOA-H_AMS_1956-57_33k_ES_PAN_21mic_H50_0406_fot_43B-29661_E_tif
  70
32
  10
535019.000
  20
4589473.500
  30
970.002
  0
VERTEX
  8
PNOA-H_AMS_1956-57_33k_ES_PAN_21mic_H50_0406_fot_43B-29661_E_tif
  70
32
  10
535830.182
  20
4589519.509
  30
965.505
  0
VERTEX
  8
PNOA-H_AMS_1956-57_33k_ES_PAN_21mic_H50_0406_fot_43B-29661_E_tif
  70
32
  10
537743.000
  20
4589628.000
  30
954.901
  0
VERTEX
  8
PNOA-H_AMS_1956-57_33k_ES_PAN_21mic_H50_0406_fot_43B-29661_E_tif
  70
32
  10
537752.000
  20
4589628.500
  30
954.706
  0
VERTEX
  8
PNOA-H_AMS_1956-57_33k_ES_PAN_21mic_H50_0406_fot_43B-29661_E_tif
  70
32
  10
537752.080
  20
4589628.448
  30
954.705
  0
VERTEX
  8
PNOA-H_AMS_1956-57_33k_ES_PAN_21mic_H50_0406_fot_43B-29661_E_tif
  70
32
  10
537793.273
  20
4589601.576
  30
954.371
  0
VERTEX
  8
PNOA-H_AMS_1956-57_33k_ES_PAN_21mic_H50_0406_fot_43B-29661_E_tif
  70
32
  10
537880.000
  20
4589545.000
  30
953.668
  0
VERTEX
  8
PNOA-H_AMS_1956-57_33k_ES_PAN_21mic_H50_0406_fot_43B-29661_E_tif
  70
32
  10
537896.000
  20
4585555.000
  30
977.895
  0
VERTEX
  8
PNOA-H_AMS_1956-57_33k_ES_PAN_21mic_H50_0406_fot_43B-29661_E_tif
  70
32
  10
537895.868
  20
4585554.932
  30
977.895
  0
SEQEND
  8
PNOA-H_AMS_1956-57_33k_ES_PAN_21mic_H50_0406_fot_43B-29661_E_tif
  0
INSERT
  8
FeatureAttribs
  2
FEATURE
  41
1
  42
1
  43
1
  50
0
  10
538556.786
  20
4583136.750
 66
1
  0
ATTRIB
  8
FeatureAttribs
 70
0
  1
PNOA-H_AMS_1956-57_33k_ES_PAN_21mic_H50_0406_fot_44B-36253_W.tif
  2
NAME
  10
538556.786
  20
4583136.750
 40
33.55298
  0
SEQEND
  0
POLYLINE
  8
PNOA-H_AMS_1956-57_33k_ES_PAN_21mic_H50_0406_fot_44B-36253_W_tif
  70
9
  66
1
  0
VERTEX
  8
PNOA-H_AMS_1956-57_33k_ES_PAN_21mic_H50_0406_fot_44B-36253_W_tif
  70
32
  10
537980.360
  20
4580718.561
  30
1140.855
  0
VERTEX
  8
PNOA-H_AMS_1956-57_33k_ES_PAN_21mic_H50_0406_fot_44B-36253_W_tif
  70
32
  10
537980.000
  20
4580718.500
  30
1140.87
  0
VERTEX
  8
PNOA-H_AMS_1956-57_33k_ES_PAN_21mic_H50_0406_fot_44B-36253_W_tif
  70
32
  10
537147.636
  20
4581079.941
  30
1099.099
  0
VERTEX
  8
PNOA-H_AMS_1956-57_33k_ES_PAN_21mic_H50_0406_fot_44B-36253_W_tif
  70
32
  10
537147.500
  20
4581080.000
  30
1099.092
  0
VERTEX
  8
PNOA-H_AMS_1956-57_33k_ES_PAN_21mic_H50_0406_fot_44B-36253_W_tif
  70
32
  10
537099.000
  20
4585146.500
  30
978.487
  0
VERTEX
  8
PNOA-H_AMS_1956-57_33k_ES_PAN_21mic_H50_0406_fot_44B-36253_W_tif
  70
32
  10
537099.272
  20
4585146.639
  30
978.487
  0
VERTEX
  8
PNOA-H_AMS_1956-57_33k_ES_PAN_21mic_H50_0406_fot_44B-36253_W_tif
  70
32
  10
537895.500
  20
4585555.000
  30
977.896
  0
VERTEX
  8
PNOA-H_AMS_1956-57_33k_ES_PAN_21mic_H50_0406_fot_44B-36253_W_tif
  70
32
  10
537895.868
  20
4585554.932
  30
977.904
  0
VERTEX
  8
PNOA-H_AMS_1956-57_33k_ES_PAN_21mic_H50_0406_fot_44B-36253_W_tif
  70
32
  10
539953.500
  20
4585176.500
  30
1022.099
  0
VERTEX
  8
PNOA-H_AMS_1956-57_33k_ES_PAN_21mic_H50_0406_fot_44B-36253_W_tif
  70
32
  10
539993.500
  20
4582977.500
  30
1022.614
  0
VERTEX
  8
PNOA-H_AMS_1956-57_33k_ES_PAN_21mic_H50_0406_fot_44B-36253_W_tif
  70
32
  10
539994.000
  20
4582949.000
  30
1022.711
  0
VERTEX
  8
PNOA-H_AMS_1956-57_33k_ES_PAN_21mic_H50_0406_fot_44B-36253_W_tif
  70
32
  10
540027.500
  20
4581065.500
  30
1054.687
  0
VERTEX
  8
PNOA-H_AMS_1956-57_33k_ES_PAN_21mic_H50_0406_fot_44B-36253_W_tif
  70
32
  10
540022.840
  20
4581064.710
  30
1054.883
  0
VERTEX
  8
PNOA-H_AMS_1956-57_33k_ES_PAN_21mic_H50_0406_fot_44B-36253_W_tif
  70
32
  10
538203.898
  20
4580756.445
  30
1131.446
  0
VERTEX
  8
PNOA-H_AMS_1956-57_33k_ES_PAN_21mic_H50_0406_fot_44B-36253_W_tif
  70
32
  10
537980.360
  20
4580718.561
  30
1140.855
  0
SEQEND
  8
PNOA-H_AMS_1956-57_33k_ES_PAN_21mic_H50_0406_fot_44B-36253_W_tif
  0
INSERT
  8
FeatureAttribs
  2
FEATURE
  41
1
  42
1
  43
1
  50
0
  10
535675.362
  20
4583141.500
 66
1
  0
ATTRIB
  8
FeatureAttribs
 70
0
  1
PNOA-H_AMS_1956-57_33k_ES_PAN_21mic_H50_0406_fot_44B-36254_W.tif
  2
NAME
  10
535675.362
  20
4583141.500
 40
33.55298
  0
SEQEND
  0
POLYLINE
  8
PNOA-H_AMS_1956-57_33k_ES_PAN_21mic_H50_0406_fot_44B-36254_W_tif
  70
9
  66
1
  0
VERTEX
  8
PNOA-H_AMS_1956-57_33k_ES_PAN_21mic_H50_0406_fot_44B-36254_W_tif
  70
32
  10
535082.728
  20
4580741.119
  30
1098.745
  0
VERTEX
  8
PNOA-H_AMS_1956-57_33k_ES_PAN_21mic_H50_0406_fot_44B-36254_W_tif
  70
32
  10
535082.000
  20
4580741.000
  30
1098.745
  0
VERTEX
  8
PNOA-H_AMS_1956-57_33k_ES_PAN_21mic_H50_0406_fot_44B-36254_W_tif
  70
32
  10
534255.500
  20
4581104.000
  30
1059.486
  0
VERTEX
  8
PNOA-H_AMS_1956-57_33k_ES_PAN_21mic_H50_0406_fot_44B-36254_W_tif
  70
32
  10
534201.000
  20
4585114.500
  30
1038.047
  0
VERTEX
  8
PNOA-H_AMS_1956-57_33k_ES_PAN_21mic_H50_0406_fot_44B-36254_W_tif
  70
32
  10
534201.139
  20
4585114.571
  30
1038.043
  0
VERTEX
  8
PNOA-H_AMS_1956-57_33k_ES_PAN_21mic_H50_0406_fot_44B-36254_W_tif
  70
32
  10
535030.500
  20
4585541.500
  30
1016.883
  0
VERTEX
  8
PNOA-H_AMS_1956-57_33k_ES_PAN_21mic_H50_0406_fot_44B-36254_W_tif
  70
32
  10
535031.500
  20
4585542.000
  30
1016.88
  0
VERTEX
  8
PNOA-H_AMS_1956-57_33k_ES_PAN_21mic_H50_0406_fot_44B-36254_W_tif
  70
32
  10
535031.865
  20
4585541.930
  30
1016.873
  0
VERTEX
  8
PNOA-H_AMS_1956-57_33k_ES_PAN_21mic_H50_0406_fot_44B-36254_W_tif
  70
32
  10
537099.000
  20
4585146.500
  30
978.487
  0
VERTEX
  8
PNOA-H_AMS_1956-57_33k_ES_PAN_21mic_H50_0406_fot_44B-36254_W_tif
  70
32
  10
537147.500
  20
4581080.000
  30
1099.092
  0
VERTEX
  8
PNOA-H_AMS_1956-57_33k_ES_PAN_21mic_H50_0406_fot_44B-36254_W_tif
  70
32
  10
537103.503
  20
4581072.779
  30
1099.084
  0
VERTEX
  8
PNOA-H_AMS_1956-57_33k_ES_PAN_21mic_H50_0406_fot_44B-36254_W_tif
  70
32
  10
536206.082
  20
4580925.490
  30
1098.934
  0
VERTEX
  8
PNOA-H_AMS_1956-57_33k_ES_PAN_21mic_H50_0406_fot_44B-36254_W_tif
  70
32
  10
535082.728
  20
4580741.119
  30
1098.745
  0
SEQEND
  8
PNOA-H_AMS_1956-57_33k_ES_PAN_21mic_H50_0406_fot_44B-36254_W_tif
  0
INSERT
  8
FeatureAttribs
  2
FEATURE
  41
1
  42
1
  43
1
  50
0
  10
540022.537
  20
4583136.522
 66
1
  0
ATTRIB
  8
FeatureAttribs
 70
0
  1
PNOA-H_AMS_1956-57_33k_ES_PAN_21mic_H50_0407_fot_44B-36252_W.tif
  2
NAME
  10
540022.537
  20
4583136.522
 40
33.55298
  0
SEQEND
  0
POLYLINE
  8
PNOA-H_AMS_1956-57_33k_ES_PAN_21mic_H50_0407_fot_44B-36252_W_tif
  70
9
  66
1
  0
VERTEX
  8
PNOA-H_AMS_1956-57_33k_ES_PAN_21mic_H50_0407_fot_44B-36252_W_tif
  70
32
  10
540066.389
  20
4581050.076
  30
0
  0
VERTEX
  8
PNOA-H_AMS_1956-57_33k_ES_PAN_21mic_H50_0407_fot_44B-36252_W_tif
  70
32
  10
540066.393
  20
4581049.464
  30
1055.162
  0
VERTEX
  8
PNOA-H_AMS_1956-57_33k_ES_PAN_21mic_H50_0407_fot_44B-36252_W_tif
  70
32
  10
540027.856
  20
4581065.353
  30
1054.691
  0
VERTEX
  8
PNOA-H_AMS_1956-57_33k_ES_PAN_21mic_H50_0407_fot_44B-36252_W_tif
  70
32
  10
540027.500
  20
4581065.500
  30
1054.687
  0
VERTEX
  8
PNOA-H_AMS_1956-57_33k_ES_PAN_21mic_H50_0407_fot_44B-36252_W_tif
  70
32
  10
539953.500
  20
4585176.500
  30
1022.099
  0
VERTEX
  8
PNOA-H_AMS_1956-57_33k_ES_PAN_21mic_H50_0407_fot_44B-36252_W_tif
  70
32
  10
539953.760
  20
4585176.636
  30
1022.093
  0
VERTEX
  8
PNOA-H_AMS_1956-57_33k_ES_PAN_21mic_H50_0407_fot_44B-36252_W_tif
  70
32
  10
540043.308
  20
4585223.579
  30
1019.954
  0
VERTEX
  8
PNOA-H_AMS_1956-57_33k_ES_PAN_21mic_H50_0407_fot_44B-36252_W_tif
  70
32
  10
540043.311
  20
4585223.054
  30
0
  0
VERTEX
  8
PNOA-H_AMS_1956-57_33k_ES_PAN_21mic_H50_0407_fot_44B-36252_W_tif
  70
32
  10
540043.862
  20
4585123.464
  30
0
  0
VERTEX
  8
PNOA-H_AMS_1956-57_33k_ES_PAN_21mic_H50_0407_fot_44B-36252_W_tif
  70
32
  10
540056.655
  20
4582810.592
  30
0
  0
VERTEX
  8
PNOA-H_AMS_1956-57_33k_ES_PAN_21mic_H50_0407_fot_44B-36252_W_tif
  70
32
  10
540066.389
  20
4581050.076
  30
0
  0
SEQEND
  8
PNOA-H_AMS_1956-57_33k_ES_PAN_21mic_H50_0407_fot_44B-36252_W_tif
  0
INSERT
  8
FeatureAttribs
  2
FEATURE
  41
1
  42
1
  43
1
  50
0
  10
538960.105
  20
4587363.854
 66
1
  0
ATTRIB
  8
FeatureAttribs
 70
0
  1
PNOA-H_AMS_1956-57_33k_ES_PAN_21mic_H50_0406_fot_43B-29662_E.tif
  2
NAME
  10
538960.105
  20
4587363.854
 40
33.55298
  0
SEQEND
  0
POLYLINE
  8
PNOA-H_AMS_1956-57_33k_ES_PAN_21mic_H50_0406_fot_43B-29662_E_tif
  70
9
  66
1
  0
VERTEX
  8
PNOA-H_AMS_1956-57_33k_ES_PAN_21mic_H50_0406_fot_43B-29662_E_tif
  70
32
  10
540043.311
  20
4585223.054
  30
1019.857
  0
VERTEX
  8
PNOA-H_AMS_1956-57_33k_ES_PAN_21mic_H50_0406_fot_43B-29662_E_tif
  70
32
  10
539954.500
  20
4585176.500
  30
1022
  0
VERTEX
  8
PNOA-H_AMS_1956-57_33k_ES_PAN_21mic_H50_0406_fot_43B-29662_E_tif
  70
32
  10
539953.760
  20
4585176.636
  30
1021.984
  0
VERTEX
  8
PNOA-H_AMS_1956-57_33k_ES_PAN_21mic_H50_0406_fot_43B-29662_E_tif
  70
32
  10
537896.000
  20
4585555.000
  30
977.895
  0
VERTEX
  8
PNOA-H_AMS_1956-57_33k_ES_PAN_21mic_H50_0406_fot_43B-29662_E_tif
  70
32
  10
537880.000
  20
4589545.000
  30
953.668
  0
VERTEX
  8
PNOA-H_AMS_1956-57_33k_ES_PAN_21mic_H50_0406_fot_43B-29662_E_tif
  70
32
  10
540019.355
  20
4589551.208
  30
948.269
  0
VERTEX
  8
PNOA-H_AMS_1956-57_33k_ES_PAN_21mic_H50_0406_fot_43B-29662_E_tif
  70
32
  10
540019.357
  20
4589551.012
  30
0
  0
VERTEX
  8
PNOA-H_AMS_1956-57_33k_ES_PAN_21mic_H50_0406_fot_43B-29662_E_tif
  70
32
  10
540031.063
  20
4587436.344
  30
0
  0
VERTEX
  8
PNOA-H_AMS_1956-57_33k_ES_PAN_21mic_H50_0406_fot_43B-29662_E_tif
  70
32
  10
540043.308
  20
4585223.579
  30
0
  0
VERTEX
  8
PNOA-H_AMS_1956-57_33k_ES_PAN_21mic_H50_0406_fot_43B-29662_E_tif
  70
32
  10
540043.311
  20
4585223.054
  30
1019.857
  0
SEQEND
  8
PNOA-H_AMS_1956-57_33k_ES_PAN_21mic_H50_0406_fot_43B-29662_E_tif
  0
INSERT
  8
FeatureAttribs
  2
FEATURE
  41
1
  42
1
  43
1
  50
0
  10
536486.235
  20
4578600.250
 66
1
  0
ATTRIB
  8
FeatureAttribs
 70
0
  1
PNOA-H_AMS_1956-57_33k_ES_PAN_21mic_H50_0406_fot_45C-37441_E.tif
  2
NAME
  10
536486.235
  20
4578600.250
 40
33.55298
  0
SEQEND
  0
POLYLINE
  8
PNOA-H_AMS_1956-57_33k_ES_PAN_21mic_H50_0406_fot_45C-37441_E_tif
  70
9
  66
1
  0
VERTEX
  8
PNOA-H_AMS_1956-57_33k_ES_PAN_21mic_H50_0406_fot_45C-37441_E_tif
  70
32
  10
537874.000
  20
4576281.000
  30
1038.146
  0
VERTEX
  8
PNOA-H_AMS_1956-57_33k_ES_PAN_21mic_H50_0406_fot_45C-37441_E_tif
  70
32
  10
535274.500
  20
4576120.500
  30
1052.325
  0
VERTEX
  8
PNOA-H_AMS_1956-57_33k_ES_PAN_21mic_H50_0406_fot_45C-37441_E_tif
  70
32
  10
535274.038
  20
4576120.626
  30
1052.368
  0
VERTEX
  8
PNOA-H_AMS_1956-57_33k_ES_PAN_21mic_H50_0406_fot_45C-37441_E_tif
  70
32
  10
535269.000
  20
4576122.000
  30
1052.846
  0
VERTEX
  8
PNOA-H_AMS_1956-57_33k_ES_PAN_21mic_H50_0406_fot_45C-37441_E_tif
  70
32
  10
535222.606
  20
4576146.915
  30
1063.335
  0
VERTEX
  8
PNOA-H_AMS_1956-57_33k_ES_PAN_21mic_H50_0406_fot_45C-37441_E_tif
  70
32
  10
534999.112
  20
4576266.940
  30
1113.863
  0
VERTEX
  8
PNOA-H_AMS_1956-57_33k_ES_PAN_21mic_H50_0406_fot_45C-37441_E_tif
  70
32
  10
534999.000
  20
4576267.000
  30
1113.888
  0
VERTEX
  8
PNOA-H_AMS_1956-57_33k_ES_PAN_21mic_H50_0406_fot_45C-37441_E_tif
  70
32
  10
535009.500
  20
4576826.250
  30
1112.025
  0
VERTEX
  8
PNOA-H_AMS_1956-57_33k_ES_PAN_21mic_H50_0406_fot_45C-37441_E_tif
  70
32
  10
535083.000
  20
4580741.000
  30
1098.983
  0
VERTEX
  8
PNOA-H_AMS_1956-57_33k_ES_PAN_21mic_H50_0406_fot_45C-37441_E_tif
  70
32
  10
536206.082
  20
4580925.490
  30
1110.014
  0
VERTEX
  8
PNOA-H_AMS_1956-57_33k_ES_PAN_21mic_H50_0406_fot_45C-37441_E_tif
  70
32
  10
537031.000
  20
4581061.000
  30
1118.116
  0
VERTEX
  8
PNOA-H_AMS_1956-57_33k_ES_PAN_21mic_H50_0406_fot_45C-37441_E_tif
  70
32
  10
537034.000
  20
4581061.500
  30
1118.693
  0
VERTEX
  8
PNOA-H_AMS_1956-57_33k_ES_PAN_21mic_H50_0406_fot_45C-37441_E_tif
  70
32
  10
537103.503
  20
4581072.779
  30
1106.668
  0
VERTEX
  8
PNOA-H_AMS_1956-57_33k_ES_PAN_21mic_H50_0406_fot_45C-37441_E_tif
  70
32
  10
537147.636
  20
4581079.941
  30
1099.033
  0
VERTEX
  8
PNOA-H_AMS_1956-57_33k_ES_PAN_21mic_H50_0406_fot_45C-37441_E_tif
  70
32
  10
537148.000
  20
4581080.000
  30
1098.97
  0
VERTEX
  8
PNOA-H_AMS_1956-57_33k_ES_PAN_21mic_H50_0406_fot_45C-37441_E_tif
  70
32
  10
537980.360
  20
4580718.561
  30
1140.86
  0
VERTEX
  8
PNOA-H_AMS_1956-57_33k_ES_PAN_21mic_H50_0406_fot_45C-37441_E_tif
  70
32
  10
537980.500
  20
4580718.500
  30
1140.867
  0
VERTEX
  8
PNOA-H_AMS_1956-57_33k_ES_PAN_21mic_H50_0406_fot_45C-37441_E_tif
  70
32
  10
537874.000
  20
4576281.000
  30
1038.146
  0
SEQEND
  8
PNOA-H_AMS_1956-57_33k_ES_PAN_21mic_H50_0406_fot_45C-37441_E_tif
  0
INSERT
  8
FeatureAttribs
  2
FEATURE
  41
1
  42
1
  43
1
  50
0
  10
539005.048
  20
4578627.500
 66
1
  0
ATTRIB
  8
FeatureAttribs
 70
0
  1
PNOA-H_AMS_1956-57_33k_ES_PAN_21mic_H50_0406_fot_45C-37442_E.tif
  2
NAME
  10
539005.048
  20
4578627.500
 40
33.55298
  0
SEQEND
  0
POLYLINE
  8
PNOA-H_AMS_1956-57_33k_ES_PAN_21mic_H50_0406_fot_45C-37442_E_tif
  70
9
  66
1
  0
VERTEX
  8
PNOA-H_AMS_1956-57_33k_ES_PAN_21mic_H50_0406_fot_45C-37442_E_tif
  70
32
  10
538032.949
  20
4576189.529
  30
1044.812
  0
VERTEX
  8
PNOA-H_AMS_1956-57_33k_ES_PAN_21mic_H50_0406_fot_45C-37442_E_tif
  70
32
  10
538032.000
  20
4576189.500
  30
1044.803
  0
VERTEX
  8
PNOA-H_AMS_1956-57_33k_ES_PAN_21mic_H50_0406_fot_45C-37442_E_tif
  70
32
  10
537874.000
  20
4576281.000
  30
1038.146
  0
VERTEX
  8
PNOA-H_AMS_1956-57_33k_ES_PAN_21mic_H50_0406_fot_45C-37442_E_tif
  70
32
  10
537980.500
  20
4580718.500
  30
1140.867
  0
VERTEX
  8
PNOA-H_AMS_1956-57_33k_ES_PAN_21mic_H50_0406_fot_45C-37442_E_tif
  70
32
  10
538203.898
  20
4580756.445
  30
1127.314
  0
VERTEX
  8
PNOA-H_AMS_1956-57_33k_ES_PAN_21mic_H50_0406_fot_45C-37442_E_tif
  70
32
  10
539078.500
  20
4580905.000
  30
1074.255
  0
VERTEX
  8
PNOA-H_AMS_1956-57_33k_ES_PAN_21mic_H50_0406_fot_45C-37442_E_tif
  70
32
  10
539081.500
  20
4580905.500
  30
1074.124
  0
VERTEX
  8
PNOA-H_AMS_1956-57_33k_ES_PAN_21mic_H50_0406_fot_45C-37442_E_tif
  70
32
  10
540009.500
  20
4581063.000
  30
1058.887
  0
VERTEX
  8
PNOA-H_AMS_1956-57_33k_ES_PAN_21mic_H50_0406_fot_45C-37442_E_tif
  70
32
  10
540022.840
  20
4581064.710
  30
1055.788
  0
VERTEX
  8
PNOA-H_AMS_1956-57_33k_ES_PAN_21mic_H50_0406_fot_45C-37442_E_tif
  70
32
  10
540027.856
  20
4581065.353
  30
1054.623
  0
VERTEX
  8
PNOA-H_AMS_1956-57_33k_ES_PAN_21mic_H50_0406_fot_45C-37442_E_tif
  70
32
  10
540029.000
  20
4581065.500
  30
1054.357
  0
VERTEX
  8
PNOA-H_AMS_1956-57_33k_ES_PAN_21mic_H50_0406_fot_45C-37442_E_tif
  70
32
  10
540066.389
  20
4581050.076
  30
1054.844
  0
VERTEX
  8
PNOA-H_AMS_1956-57_33k_ES_PAN_21mic_H50_0406_fot_45C-37442_E_tif
  70
32
  10
540066.393
  20
4581049.464
  30
0
  0
VERTEX
  8
PNOA-H_AMS_1956-57_33k_ES_PAN_21mic_H50_0406_fot_45C-37442_E_tif
  70
32
  10
540069.443
  20
4580497.729
  30
0
  0
VERTEX
  8
PNOA-H_AMS_1956-57_33k_ES_PAN_21mic_H50_0406_fot_45C-37442_E_tif
  70
32
  10
540082.226
  20
4578184.874
  30
0
  0
VERTEX
  8
PNOA-H_AMS_1956-57_33k_ES_PAN_21mic_H50_0406_fot_45C-37442_E_tif
  70
32
  10
540092.898
  20
4576253.129
  30
0
  0
VERTEX
  8
PNOA-H_AMS_1956-57_33k_ES_PAN_21mic_H50_0406_fot_45C-37442_E_tif
  70
32
  10
540092.900
  20
4576252.836
  30
1063.715
  0
VERTEX
  8
PNOA-H_AMS_1956-57_33k_ES_PAN_21mic_H50_0406_fot_45C-37442_E_tif
  70
32
  10
538228.695
  20
4576195.545
  30
1046.608
  0
VERTEX
  8
PNOA-H_AMS_1956-57_33k_ES_PAN_21mic_H50_0406_fot_45C-37442_E_tif
  70
32
  10
538032.949
  20
4576189.529
  30
1044.812
  0
SEQEND
  8
PNOA-H_AMS_1956-57_33k_ES_PAN_21mic_H50_0406_fot_45C-37442_E_tif
  0
INSERT
  8
FeatureAttribs
  2
FEATURE
  41
1
  42
1
  43
1
  50
0
  10
539066.596
  20
4576057.172
 66
1
  0
ATTRIB
  8
FeatureAttribs
 70
0
  1
PNOA-H_AMS_1956-57_33k_ES_PAN_21mic_H50_0434_fot_46B-29771_E.tif
  2
NAME
  10
539066.596
  20
4576057.172
 40
33.55298
  0
SEQEND
  0
POLYLINE
  8
PNOA-H_AMS_1956-57_33k_ES_PAN_21mic_H50_0434_fot_46B-29771_E_tif
  70
9
  66
1
  0
VERTEX
  8
PNOA-H_AMS_1956-57_33k_ES_PAN_21mic_H50_0434_fot_46B-29771_E_tif
  70
32
  10
540095.004
  20
4575872.027
  30
0
  0
VERTEX
  8
PNOA-H_AMS_1956-57_33k_ES_PAN_21mic_H50_0434_fot_46B-29771_E_tif
  70
32
  10
538048.411
  20
4575861.214
  30
1051.044
  0
VERTEX
  8
PNOA-H_AMS_1956-57_33k_ES_PAN_21mic_H50_0434_fot_46B-29771_E_tif
  70
32
  10
538033.000
  20
4576189.500
  30
1045.025
  0
VERTEX
  8
PNOA-H_AMS_1956-57_33k_ES_PAN_21mic_H50_0434_fot_46B-29771_E_tif
  70
32
  10
538228.695
  20
4576195.545
  30
1046.889
  0
VERTEX
  8
PNOA-H_AMS_1956-57_33k_ES_PAN_21mic_H50_0434_fot_46B-29771_E_tif
  70
32
  10
540092.898
  20
4576253.129
  30
1064.638
  0
VERTEX
  8
PNOA-H_AMS_1956-57_33k_ES_PAN_21mic_H50_0434_fot_46B-29771_E_tif
  70
32
  10
540092.900
  20
4576252.836
  30
0
  0
VERTEX
  8
PNOA-H_AMS_1956-57_33k_ES_PAN_21mic_H50_0434_fot_46B-29771_E_tif
  70
32
  10
540095.004
  20
4575872.027
  30
0
  0
SEQEND
  8
PNOA-H_AMS_1956-57_33k_ES_PAN_21mic_H50_0434_fot_46B-29771_E_tif
  0
INSERT
  8
FeatureAttribs
  2
FEATURE
  41
1
  42
1
  43
1
  50
0
  10
536656.360
  20
4576064.115
 66
1
  0
ATTRIB
  8
FeatureAttribs
 70
0
  1
PNOA-H_AMS_1956-57_33k_ES_PAN_21mic_H50_0434_fot_46B-29772_E.tif
  2
NAME
  10
536656.360
  20
4576064.115
 40
33.55298
  0
SEQEND
  0
POLYLINE
  8
PNOA-H_AMS_1956-57_33k_ES_PAN_21mic_H50_0434_fot_46B-29772_E_tif
  70
9
  66
1
  0
VERTEX
  8
PNOA-H_AMS_1956-57_33k_ES_PAN_21mic_H50_0434_fot_46B-29772_E_tif
  70
32
  10
535281.335
  20
4575847.233
  30
0
  0
VERTEX
  8
PNOA-H_AMS_1956-57_33k_ES_PAN_21mic_H50_0434_fot_46B-29772_E_tif
  70
32
  10
535280.885
  20
4575847.231
  30
1055.143
  0
VERTEX
  8
PNOA-H_AMS_1956-57_33k_ES_PAN_21mic_H50_0434_fot_46B-29772_E_tif
  70
32
  10
535272.008
  20
4576120.266
  30
1052.322
  0
VERTEX
  8
PNOA-H_AMS_1956-57_33k_ES_PAN_21mic_H50_0434_fot_46B-29772_E_tif
  70
32
  10
535272.000
  20
4576120.500
  30
1052.32
  0
VERTEX
  8
PNOA-H_AMS_1956-57_33k_ES_PAN_21mic_H50_0434_fot_46B-29772_E_tif
  70
32
  10
535274.038
  20
4576120.626
  30
1052.308
  0
VERTEX
  8
PNOA-H_AMS_1956-57_33k_ES_PAN_21mic_H50_0434_fot_46B-29772_E_tif
  70
32
  10
537861.500
  20
4576280.500
  30
1037.441
  0
VERTEX
  8
PNOA-H_AMS_1956-57_33k_ES_PAN_21mic_H50_0434_fot_46B-29772_E_tif
  70
32
  10
537869.500
  20
4576281.000
  30
1037.717
  0
VERTEX
  8
PNOA-H_AMS_1956-57_33k_ES_PAN_21mic_H50_0434_fot_46B-29772_E_tif
  70
32
  10
537874.000
  20
4576281.000
  30
1038.153
  0
VERTEX
  8
PNOA-H_AMS_1956-57_33k_ES_PAN_21mic_H50_0434_fot_46B-29772_E_tif
  70
32
  10
537874.500
  20
4576281.000
  30
1038.202
  0
VERTEX
  8
PNOA-H_AMS_1956-57_33k_ES_PAN_21mic_H50_0434_fot_46B-29772_E_tif
  70
32
  10
538032.949
  20
4576189.529
  30
1045.023
  0
VERTEX
  8
PNOA-H_AMS_1956-57_33k_ES_PAN_21mic_H50_0434_fot_46B-29772_E_tif
  70
32
  10
538033.000
  20
4576189.500
  30
1045.025
  0
VERTEX
  8
PNOA-H_AMS_1956-57_33k_ES_PAN_21mic_H50_0434_fot_46B-29772_E_tif
  70
32
  10
538048.411
  20
4575861.214
  30
1051.044
  0
VERTEX
  8
PNOA-H_AMS_1956-57_33k_ES_PAN_21mic_H50_0434_fot_46B-29772_E_tif
  70
32
  10
536608.472
  20
4575853.607
  30
0
  0
VERTEX
  8
PNOA-H_AMS_1956-57_33k_ES_PAN_21mic_H50_0434_fot_46B-29772_E_tif
  70
32
  10
535281.335
  20
4575847.233
  30
0
  0
SEQEND
  8
PNOA-H_AMS_1956-57_33k_ES_PAN_21mic_H50_0434_fot_46B-29772_E_tif
  0
ENDSEC
  0
EOF
