  0
SECTION
  2
HEADER
  9
$ACADVER
  1
AC1009
  9
$LUNITS
  70
2
  9
$LIMMIN
  10
484310.671
  20
4575761.507
  9
$LIMMAX
  10
512202.810
  20
4594281.189
  9
$EXTMIN
  10
484310.671
  20
4575761.507
  9
$EXTMAX
  10
512202.810
  20
4594281.189
  999
Created by Global Mapper
  999
Projection: UTM
  999
Datum: ETRS89
  999
Ground Units: meters
  999
ZONE: 30
  0
ENDSEC
  0
SECTION
  2
TABLES
  0
ENDSEC
  0
SECTION
  2
BLOCKS
  0
BLOCK
  8
FeatureAttribs
  70
0
  2
FEATURE
  3
FEATURE
  10
0.00000000
  20
0.00000000
  0
ATTDEF
  8
FeatureAttribs
  70
0
  1
 
  2
NAME
  3
NAME
  10
0.00000000
  20
0.00000000
  40
1.00000000
  0
ENDBLK
  0
ENDSEC
  0
SECTION
  2
ENTITIES
  0
INSERT
  8
FeatureAttribs
  2
FEATURE
  41
1
  42
1
  43
1
  50
0
  10
493941.702
  20
4594033.586
 66
1
  0
ATTRIB
  8
FeatureAttribs
 70
0
  1
PNOA-H_AMS_1956-57_33k_ES_PAN_21mic_H50_0377_fot_41B-37403_W.tif
  2
NAME
  10
493941.702
  20
4594033.586
 40
33.48059
  0
SEQEND
  0
POLYLINE
  8
PNOA-H_AMS_1956-57_33k_ES_PAN_21mic_H50_0377_fot_41B-37403_W_tif
  70
9
  66
1
  0
VERTEX
  8
PNOA-H_AMS_1956-57_33k_ES_PAN_21mic_H50_0377_fot_41B-37403_W_tif
  70
32
  10
494974.552
  20
4594085.078
  30
912.201
  0
VERTEX
  8
PNOA-H_AMS_1956-57_33k_ES_PAN_21mic_H50_0377_fot_41B-37403_W_tif
  70
32
  10
493764.000
  20
4593799.000
  30
976.781
  0
VERTEX
  8
PNOA-H_AMS_1956-57_33k_ES_PAN_21mic_H50_0377_fot_41B-37403_W_tif
  70
32
  10
493762.916
  20
4593799.217
  30
976.565
  0
VERTEX
  8
PNOA-H_AMS_1956-57_33k_ES_PAN_21mic_H50_0377_fot_41B-37403_W_tif
  70
32
  10
493759.640
  20
4593799.872
  30
975.91
  0
VERTEX
  8
PNOA-H_AMS_1956-57_33k_ES_PAN_21mic_H50_0377_fot_41B-37403_W_tif
  70
32
  10
493756.500
  20
4593800.500
  30
975.284
  0
VERTEX
  8
PNOA-H_AMS_1956-57_33k_ES_PAN_21mic_H50_0377_fot_41B-37403_W_tif
  70
32
  10
492929.210
  20
4594106.697
  30
966.88
  0
VERTEX
  8
PNOA-H_AMS_1956-57_33k_ES_PAN_21mic_H50_0377_fot_41B-37403_W_tif
  70
32
  10
492642.000
  20
4594213.000
  30
963.962
  0
VERTEX
  8
PNOA-H_AMS_1956-57_33k_ES_PAN_21mic_H50_0377_fot_41B-37403_W_tif
  70
32
  10
492640.665
  20
4594268.173
  30
963.174
  0
VERTEX
  8
PNOA-H_AMS_1956-57_33k_ES_PAN_21mic_H50_0377_fot_41B-37403_W_tif
  70
32
  10
494783.577
  20
4594266.107
  30
0
  0
VERTEX
  8
PNOA-H_AMS_1956-57_33k_ES_PAN_21mic_H50_0377_fot_41B-37403_W_tif
  70
32
  10
495454.285
  20
4594265.784
  30
0
  0
VERTEX
  8
PNOA-H_AMS_1956-57_33k_ES_PAN_21mic_H50_0377_fot_41B-37403_W_tif
  70
32
  10
495454.292
  20
4594265.784
  30
887.525
  0
VERTEX
  8
PNOA-H_AMS_1956-57_33k_ES_PAN_21mic_H50_0377_fot_41B-37403_W_tif
  70
32
  10
495454.500
  20
4594198.500
  30
886.598
  0
VERTEX
  8
PNOA-H_AMS_1956-57_33k_ES_PAN_21mic_H50_0377_fot_41B-37403_W_tif
  70
32
  10
494974.552
  20
4594085.078
  30
912.201
  0
SEQEND
  8
PNOA-H_AMS_1956-57_33k_ES_PAN_21mic_H50_0377_fot_41B-37403_W_tif
  0
INSERT
  8
FeatureAttribs
  2
FEATURE
  41
1
  42
1
  43
1
  50
0
  10
496756.550
  20
4594028.642
 66
1
  0
ATTRIB
  8
FeatureAttribs
 70
0
  1
PNOA-H_AMS_1956-57_33k_ES_PAN_21mic_H50_0377_fot_41B-37402_W.tif
  2
NAME
  10
496756.550
  20
4594028.642
 40
33.48059
  0
SEQEND
  0
POLYLINE
  8
PNOA-H_AMS_1956-57_33k_ES_PAN_21mic_H50_0377_fot_41B-37402_W_tif
  70
9
  66
1
  0
VERTEX
  8
PNOA-H_AMS_1956-57_33k_ES_PAN_21mic_H50_0377_fot_41B-37402_W_tif
  70
32
  10
498288.656
  20
4594205.791
  30
886.131
  0
VERTEX
  8
PNOA-H_AMS_1956-57_33k_ES_PAN_21mic_H50_0377_fot_41B-37402_W_tif
  70
32
  10
496616.500
  20
4593791.500
  30
927.25
  0
VERTEX
  8
PNOA-H_AMS_1956-57_33k_ES_PAN_21mic_H50_0377_fot_41B-37402_W_tif
  70
32
  10
496616.086
  20
4593791.645
  30
927.236
  0
VERTEX
  8
PNOA-H_AMS_1956-57_33k_ES_PAN_21mic_H50_0377_fot_41B-37402_W_tif
  70
32
  10
496035.500
  20
4593995.000
  30
906.924
  0
VERTEX
  8
PNOA-H_AMS_1956-57_33k_ES_PAN_21mic_H50_0377_fot_41B-37402_W_tif
  70
32
  10
495454.902
  20
4594198.359
  30
886.612
  0
VERTEX
  8
PNOA-H_AMS_1956-57_33k_ES_PAN_21mic_H50_0377_fot_41B-37402_W_tif
  70
32
  10
495454.500
  20
4594198.500
  30
886.598
  0
VERTEX
  8
PNOA-H_AMS_1956-57_33k_ES_PAN_21mic_H50_0377_fot_41B-37402_W_tif
  70
32
  10
495454.285
  20
4594265.784
  30
887.524
  0
VERTEX
  8
PNOA-H_AMS_1956-57_33k_ES_PAN_21mic_H50_0377_fot_41B-37402_W_tif
  70
32
  10
495454.292
  20
4594265.784
  30
0
  0
VERTEX
  8
PNOA-H_AMS_1956-57_33k_ES_PAN_21mic_H50_0377_fot_41B-37402_W_tif
  70
32
  10
498261.192
  20
4594264.432
  30
0
  0
VERTEX
  8
PNOA-H_AMS_1956-57_33k_ES_PAN_21mic_H50_0377_fot_41B-37402_W_tif
  70
32
  10
498289.200
  20
4594264.432
  30
886.437
  0
VERTEX
  8
PNOA-H_AMS_1956-57_33k_ES_PAN_21mic_H50_0377_fot_41B-37402_W_tif
  70
32
  10
498289.500
  20
4594206.000
  30
886.11
  0
VERTEX
  8
PNOA-H_AMS_1956-57_33k_ES_PAN_21mic_H50_0377_fot_41B-37402_W_tif
  70
32
  10
498288.656
  20
4594205.791
  30
886.131
  0
SEQEND
  8
PNOA-H_AMS_1956-57_33k_ES_PAN_21mic_H50_0377_fot_41B-37402_W_tif
  0
INSERT
  8
FeatureAttribs
  2
FEATURE
  41
1
  42
1
  43
1
  50
0
  10
492333.793
  20
4591717.750
 66
1
  0
ATTRIB
  8
FeatureAttribs
 70
0
  1
PNOA-H_AMS_1956-57_33k_ES_PAN_21mic_H50_0405_fot_42B-36314_E.tif
  2
NAME
  10
492333.793
  20
4591717.750
 40
33.48059
  0
SEQEND
  0
POLYLINE
  8
PNOA-H_AMS_1956-57_33k_ES_PAN_21mic_H50_0405_fot_42B-36314_E_tif
  70
9
  66
1
  0
VERTEX
  8
PNOA-H_AMS_1956-57_33k_ES_PAN_21mic_H50_0405_fot_42B-36314_E_tif
  70
32
  10
493728.894
  20
4589493.948
  30
1004.929
  0
VERTEX
  8
PNOA-H_AMS_1956-57_33k_ES_PAN_21mic_H50_0405_fot_42B-36314_E_tif
  70
32
  10
493175.000
  20
4589222.500
  30
1000.409
  0
VERTEX
  8
PNOA-H_AMS_1956-57_33k_ES_PAN_21mic_H50_0405_fot_42B-36314_E_tif
  70
32
  10
493174.597
  20
4589222.548
  30
1000.412
  0
VERTEX
  8
PNOA-H_AMS_1956-57_33k_ES_PAN_21mic_H50_0405_fot_42B-36314_E_tif
  70
32
  10
490871.000
  20
4589494.500
  30
1013.74
  0
VERTEX
  8
PNOA-H_AMS_1956-57_33k_ES_PAN_21mic_H50_0405_fot_42B-36314_E_tif
  70
32
  10
490968.500
  20
4593783.500
  30
940.993
  0
VERTEX
  8
PNOA-H_AMS_1956-57_33k_ES_PAN_21mic_H50_0405_fot_42B-36314_E_tif
  70
32
  10
491525.500
  20
4593926.500
  30
948.313
  0
VERTEX
  8
PNOA-H_AMS_1956-57_33k_ES_PAN_21mic_H50_0405_fot_42B-36314_E_tif
  70
32
  10
492639.500
  20
4594212.500
  30
962.954
  0
VERTEX
  8
PNOA-H_AMS_1956-57_33k_ES_PAN_21mic_H50_0405_fot_42B-36314_E_tif
  70
32
  10
492641.488
  20
4594212.997
  30
963.734
  0
VERTEX
  8
PNOA-H_AMS_1956-57_33k_ES_PAN_21mic_H50_0405_fot_42B-36314_E_tif
  70
32
  10
492641.500
  20
4594213.000
  30
963.738
  0
VERTEX
  8
PNOA-H_AMS_1956-57_33k_ES_PAN_21mic_H50_0405_fot_42B-36314_E_tif
  70
32
  10
492929.210
  20
4594106.697
  30
967.023
  0
VERTEX
  8
PNOA-H_AMS_1956-57_33k_ES_PAN_21mic_H50_0405_fot_42B-36314_E_tif
  70
32
  10
493759.640
  20
4593799.872
  30
976.503
  0
VERTEX
  8
PNOA-H_AMS_1956-57_33k_ES_PAN_21mic_H50_0405_fot_42B-36314_E_tif
  70
32
  10
493762.000
  20
4593799.000
  30
976.53
  0
VERTEX
  8
PNOA-H_AMS_1956-57_33k_ES_PAN_21mic_H50_0405_fot_42B-36314_E_tif
  70
32
  10
493729.000
  20
4589494.000
  30
1004.93
  0
VERTEX
  8
PNOA-H_AMS_1956-57_33k_ES_PAN_21mic_H50_0405_fot_42B-36314_E_tif
  70
32
  10
493728.894
  20
4589493.948
  30
1004.929
  0
SEQEND
  8
PNOA-H_AMS_1956-57_33k_ES_PAN_21mic_H50_0405_fot_42B-36314_E_tif
  0
INSERT
  8
FeatureAttribs
  2
FEATURE
  41
1
  42
1
  43
1
  50
0
  10
498034.674
  20
4591697.000
 66
1
  0
ATTRIB
  8
FeatureAttribs
 70
0
  1
PNOA-H_AMS_1956-57_33k_ES_PAN_21mic_H50_0405_fot_42B-36316_E.tif
  2
NAME
  10
498034.674
  20
4591697.000
 40
33.48059
  0
SEQEND
  0
POLYLINE
  8
PNOA-H_AMS_1956-57_33k_ES_PAN_21mic_H50_0405_fot_42B-36316_E_tif
  70
9
  66
1
  0
VERTEX
  8
PNOA-H_AMS_1956-57_33k_ES_PAN_21mic_H50_0405_fot_42B-36316_E_tif
  70
32
  10
498605.505
  20
4589188.002
  30
948.373
  0
VERTEX
  8
PNOA-H_AMS_1956-57_33k_ES_PAN_21mic_H50_0405_fot_42B-36316_E_tif
  70
32
  10
498605.500
  20
4589188.000
  30
948.373
  0
VERTEX
  8
PNOA-H_AMS_1956-57_33k_ES_PAN_21mic_H50_0405_fot_42B-36316_E_tif
  70
32
  10
496579.000
  20
4589522.500
  30
964.241
  0
VERTEX
  8
PNOA-H_AMS_1956-57_33k_ES_PAN_21mic_H50_0405_fot_42B-36316_E_tif
  70
32
  10
496615.500
  20
4593791.500
  30
927.304
  0
VERTEX
  8
PNOA-H_AMS_1956-57_33k_ES_PAN_21mic_H50_0405_fot_42B-36316_E_tif
  70
32
  10
496616.086
  20
4593791.645
  30
927.289
  0
VERTEX
  8
PNOA-H_AMS_1956-57_33k_ES_PAN_21mic_H50_0405_fot_42B-36316_E_tif
  70
32
  10
498286.000
  20
4594205.500
  30
886.001
  0
VERTEX
  8
PNOA-H_AMS_1956-57_33k_ES_PAN_21mic_H50_0405_fot_42B-36316_E_tif
  70
32
  10
498288.000
  20
4594206.000
  30
886.078
  0
VERTEX
  8
PNOA-H_AMS_1956-57_33k_ES_PAN_21mic_H50_0405_fot_42B-36316_E_tif
  70
32
  10
498288.656
  20
4594205.791
  30
886.073
  0
VERTEX
  8
PNOA-H_AMS_1956-57_33k_ES_PAN_21mic_H50_0405_fot_42B-36316_E_tif
  70
32
  10
498302.535
  20
4594201.361
  30
885.964
  0
VERTEX
  8
PNOA-H_AMS_1956-57_33k_ES_PAN_21mic_H50_0405_fot_42B-36316_E_tif
  70
32
  10
498311.500
  20
4594198.500
  30
885.894
  0
VERTEX
  8
PNOA-H_AMS_1956-57_33k_ES_PAN_21mic_H50_0405_fot_42B-36316_E_tif
  70
32
  10
499480.908
  20
4593782.413
  30
958.029
  0
VERTEX
  8
PNOA-H_AMS_1956-57_33k_ES_PAN_21mic_H50_0405_fot_42B-36316_E_tif
  70
32
  10
499490.500
  20
4593779.000
  30
958.62
  0
VERTEX
  8
PNOA-H_AMS_1956-57_33k_ES_PAN_21mic_H50_0405_fot_42B-36316_E_tif
  70
32
  10
499452.500
  20
4589558.000
  30
919.542
  0
VERTEX
  8
PNOA-H_AMS_1956-57_33k_ES_PAN_21mic_H50_0405_fot_42B-36316_E_tif
  70
32
  10
499452.062
  20
4589557.809
  30
919.557
  0
VERTEX
  8
PNOA-H_AMS_1956-57_33k_ES_PAN_21mic_H50_0405_fot_42B-36316_E_tif
  70
32
  10
498605.505
  20
4589188.002
  30
948.373
  0
SEQEND
  8
PNOA-H_AMS_1956-57_33k_ES_PAN_21mic_H50_0405_fot_42B-36316_E_tif
  0
INSERT
  8
FeatureAttribs
  2
FEATURE
  41
1
  42
1
  43
1
  50
0
  10
495171.790
  20
4591703.250
 66
1
  0
ATTRIB
  8
FeatureAttribs
 70
0
  1
PNOA-H_AMS_1956-57_33k_ES_PAN_21mic_H50_0405_fot_42B-36315_E.tif
  2
NAME
  10
495171.790
  20
4591703.250
 40
33.48059
  0
SEQEND
  0
POLYLINE
  8
PNOA-H_AMS_1956-57_33k_ES_PAN_21mic_H50_0405_fot_42B-36315_E_tif
  70
9
  66
1
  0
VERTEX
  8
PNOA-H_AMS_1956-57_33k_ES_PAN_21mic_H50_0405_fot_42B-36315_E_tif
  70
32
  10
496579.000
  20
4589522.500
  30
964.241
  0
VERTEX
  8
PNOA-H_AMS_1956-57_33k_ES_PAN_21mic_H50_0405_fot_42B-36315_E_tif
  70
32
  10
495896.500
  20
4589208.000
  30
1013.721
  0
VERTEX
  8
PNOA-H_AMS_1956-57_33k_ES_PAN_21mic_H50_0405_fot_42B-36315_E_tif
  70
32
  10
495896.111
  20
4589208.051
  30
1013.72
  0
VERTEX
  8
PNOA-H_AMS_1956-57_33k_ES_PAN_21mic_H50_0405_fot_42B-36315_E_tif
  70
32
  10
493729.000
  20
4589494.000
  30
1004.93
  0
VERTEX
  8
PNOA-H_AMS_1956-57_33k_ES_PAN_21mic_H50_0405_fot_42B-36315_E_tif
  70
32
  10
493762.000
  20
4593799.000
  30
976.53
  0
VERTEX
  8
PNOA-H_AMS_1956-57_33k_ES_PAN_21mic_H50_0405_fot_42B-36315_E_tif
  70
32
  10
493762.916
  20
4593799.217
  30
976.542
  0
VERTEX
  8
PNOA-H_AMS_1956-57_33k_ES_PAN_21mic_H50_0405_fot_42B-36315_E_tif
  70
32
  10
494024.000
  20
4593861.000
  30
979.953
  0
VERTEX
  8
PNOA-H_AMS_1956-57_33k_ES_PAN_21mic_H50_0405_fot_42B-36315_E_tif
  70
32
  10
494026.500
  20
4593861.500
  30
979.812
  0
VERTEX
  8
PNOA-H_AMS_1956-57_33k_ES_PAN_21mic_H50_0405_fot_42B-36315_E_tif
  70
32
  10
494974.552
  20
4594085.078
  30
918.033
  0
VERTEX
  8
PNOA-H_AMS_1956-57_33k_ES_PAN_21mic_H50_0405_fot_42B-36315_E_tif
  70
32
  10
495454.902
  20
4594198.359
  30
886.732
  0
VERTEX
  8
PNOA-H_AMS_1956-57_33k_ES_PAN_21mic_H50_0405_fot_42B-36315_E_tif
  70
32
  10
495455.500
  20
4594198.500
  30
886.693
  0
VERTEX
  8
PNOA-H_AMS_1956-57_33k_ES_PAN_21mic_H50_0405_fot_42B-36315_E_tif
  70
32
  10
496035.500
  20
4593995.000
  30
906.998
  0
VERTEX
  8
PNOA-H_AMS_1956-57_33k_ES_PAN_21mic_H50_0405_fot_42B-36315_E_tif
  70
32
  10
496615.500
  20
4593791.500
  30
927.304
  0
VERTEX
  8
PNOA-H_AMS_1956-57_33k_ES_PAN_21mic_H50_0405_fot_42B-36315_E_tif
  70
32
  10
496579.000
  20
4589522.500
  30
964.241
  0
SEQEND
  8
PNOA-H_AMS_1956-57_33k_ES_PAN_21mic_H50_0405_fot_42B-36315_E_tif
  0
INSERT
  8
FeatureAttribs
  2
FEATURE
  41
1
  42
1
  43
1
  50
0
  10
499633.525
  20
4594021.716
 66
1
  0
ATTRIB
  8
FeatureAttribs
 70
0
  1
PNOA-H_AMS_1956-57_33k_ES_PAN_21mic_H50_0377_fot_41B-37401_W.tif
  2
NAME
  10
499633.525
  20
4594021.716
 40
33.48059
  0
SEQEND
  0
POLYLINE
  8
PNOA-H_AMS_1956-57_33k_ES_PAN_21mic_H50_0377_fot_41B-37401_W_tif
  70
9
  66
1
  0
VERTEX
  8
PNOA-H_AMS_1956-57_33k_ES_PAN_21mic_H50_0377_fot_41B-37401_W_tif
  70
32
  10
500820.020
  20
4594112.085
  30
910.668
  0
VERTEX
  8
PNOA-H_AMS_1956-57_33k_ES_PAN_21mic_H50_0377_fot_41B-37401_W_tif
  70
32
  10
499492.000
  20
4593779.000
  30
958.662
  0
VERTEX
  8
PNOA-H_AMS_1956-57_33k_ES_PAN_21mic_H50_0377_fot_41B-37401_W_tif
  70
32
  10
499491.326
  20
4593779.207
  30
958.594
  0
VERTEX
  8
PNOA-H_AMS_1956-57_33k_ES_PAN_21mic_H50_0377_fot_41B-37401_W_tif
  70
32
  10
499480.908
  20
4593782.413
  30
957.529
  0
VERTEX
  8
PNOA-H_AMS_1956-57_33k_ES_PAN_21mic_H50_0377_fot_41B-37401_W_tif
  70
32
  10
499472.500
  20
4593785.000
  30
956.67
  0
VERTEX
  8
PNOA-H_AMS_1956-57_33k_ES_PAN_21mic_H50_0377_fot_41B-37401_W_tif
  70
32
  10
498302.535
  20
4594201.361
  30
886.888
  0
VERTEX
  8
PNOA-H_AMS_1956-57_33k_ES_PAN_21mic_H50_0377_fot_41B-37401_W_tif
  70
32
  10
498289.500
  20
4594206.000
  30
886.11
  0
VERTEX
  8
PNOA-H_AMS_1956-57_33k_ES_PAN_21mic_H50_0377_fot_41B-37401_W_tif
  70
32
  10
498289.200
  20
4594264.432
  30
886.437
  0
VERTEX
  8
PNOA-H_AMS_1956-57_33k_ES_PAN_21mic_H50_0377_fot_41B-37401_W_tif
  70
32
  10
501181.753
  20
4594264.432
  30
898.512
  0
VERTEX
  8
PNOA-H_AMS_1956-57_33k_ES_PAN_21mic_H50_0377_fot_41B-37401_W_tif
  70
32
  10
501182.500
  20
4594203.000
  30
897.568
  0
VERTEX
  8
PNOA-H_AMS_1956-57_33k_ES_PAN_21mic_H50_0377_fot_41B-37401_W_tif
  70
32
  10
500820.020
  20
4594112.085
  30
910.668
  0
SEQEND
  8
PNOA-H_AMS_1956-57_33k_ES_PAN_21mic_H50_0377_fot_41B-37401_W_tif
  0
INSERT
  8
FeatureAttribs
  2
FEATURE
  41
1
  42
1
  43
1
  50
0
  10
491094.336
  20
4594027.616
 66
1
  0
ATTRIB
  8
FeatureAttribs
 70
0
  1
PNOA-H_AMS_1956-57_33k_ES_PAN_21mic_H50_0377_fot_41B-37404_W.tif
  2
NAME
  10
491094.336
  20
4594027.616
 40
33.48059
  0
SEQEND
  0
POLYLINE
  8
PNOA-H_AMS_1956-57_33k_ES_PAN_21mic_H50_0377_fot_41B-37404_W_tif
  70
9
  66
1
  0
VERTEX
  8
PNOA-H_AMS_1956-57_33k_ES_PAN_21mic_H50_0377_fot_41B-37404_W_tif
  70
32
  10
490968.076
  20
4593783.648
  30
940.868
  0
VERTEX
  8
PNOA-H_AMS_1956-57_33k_ES_PAN_21mic_H50_0377_fot_41B-37404_W_tif
  70
32
  10
490967.500
  20
4593783.500
  30
940.86
  0
VERTEX
  8
PNOA-H_AMS_1956-57_33k_ES_PAN_21mic_H50_0377_fot_41B-37404_W_tif
  70
32
  10
490296.998
  20
4594017.700
  30
959.744
  0
VERTEX
  8
PNOA-H_AMS_1956-57_33k_ES_PAN_21mic_H50_0377_fot_41B-37404_W_tif
  70
32
  10
489916.554
  20
4594150.585
  30
970.458
  0
VERTEX
  8
PNOA-H_AMS_1956-57_33k_ES_PAN_21mic_H50_0377_fot_41B-37404_W_tif
  70
32
  10
489738.777
  20
4594212.681
  30
975.465
  0
VERTEX
  8
PNOA-H_AMS_1956-57_33k_ES_PAN_21mic_H50_0377_fot_41B-37404_W_tif
  70
32
  10
489735.000
  20
4594214.000
  30
975.571
  0
VERTEX
  8
PNOA-H_AMS_1956-57_33k_ES_PAN_21mic_H50_0377_fot_41B-37404_W_tif
  70
32
  10
489733.822
  20
4594271.732
  30
974.055
  0
VERTEX
  8
PNOA-H_AMS_1956-57_33k_ES_PAN_21mic_H50_0377_fot_41B-37404_W_tif
  70
32
  10
491305.961
  20
4594269.459
  30
0
  0
VERTEX
  8
PNOA-H_AMS_1956-57_33k_ES_PAN_21mic_H50_0377_fot_41B-37404_W_tif
  70
32
  10
492640.159
  20
4594268.173
  30
963.057
  0
VERTEX
  8
PNOA-H_AMS_1956-57_33k_ES_PAN_21mic_H50_0377_fot_41B-37404_W_tif
  70
32
  10
492641.488
  20
4594212.997
  30
963.844
  0
VERTEX
  8
PNOA-H_AMS_1956-57_33k_ES_PAN_21mic_H50_0377_fot_41B-37404_W_tif
  70
32
  10
492641.500
  20
4594212.500
  30
963.851
  0
VERTEX
  8
PNOA-H_AMS_1956-57_33k_ES_PAN_21mic_H50_0377_fot_41B-37404_W_tif
  70
32
  10
491525.500
  20
4593926.500
  30
948.524
  0
VERTEX
  8
PNOA-H_AMS_1956-57_33k_ES_PAN_21mic_H50_0377_fot_41B-37404_W_tif
  70
32
  10
490968.076
  20
4593783.648
  30
940.868
  0
SEQEND
  8
PNOA-H_AMS_1956-57_33k_ES_PAN_21mic_H50_0377_fot_41B-37404_W_tif
  0
INSERT
  8
FeatureAttribs
  2
FEATURE
  41
1
  42
1
  43
1
  50
0
  10
502510.778
  20
4594025.253
 66
1
  0
ATTRIB
  8
FeatureAttribs
 70
0
  1
PNOA-H_AMS_1956-57_33k_ES_PAN_21mic_H50_0377_fot_41B-37400_W.tif
  2
NAME
  10
502510.778
  20
4594025.253
 40
33.48059
  0
SEQEND
  0
POLYLINE
  8
PNOA-H_AMS_1956-57_33k_ES_PAN_21mic_H50_0377_fot_41B-37400_W_tif
  70
9
  66
1
  0
VERTEX
  8
PNOA-H_AMS_1956-57_33k_ES_PAN_21mic_H50_0377_fot_41B-37400_W_tif
  70
32
  10
503969.964
  20
4594192.361
  30
899.569
  0
VERTEX
  8
PNOA-H_AMS_1956-57_33k_ES_PAN_21mic_H50_0377_fot_41B-37400_W_tif
  70
32
  10
502394.500
  20
4593785.000
  30
892.06
  0
VERTEX
  8
PNOA-H_AMS_1956-57_33k_ES_PAN_21mic_H50_0377_fot_41B-37400_W_tif
  70
32
  10
502394.286
  20
4593785.074
  30
892.061
  0
VERTEX
  8
PNOA-H_AMS_1956-57_33k_ES_PAN_21mic_H50_0377_fot_41B-37400_W_tif
  70
32
  10
502393.999
  20
4593785.173
  30
892.062
  0
VERTEX
  8
PNOA-H_AMS_1956-57_33k_ES_PAN_21mic_H50_0377_fot_41B-37400_W_tif
  70
32
  10
501182.920
  20
4594202.855
  30
897.566
  0
VERTEX
  8
PNOA-H_AMS_1956-57_33k_ES_PAN_21mic_H50_0377_fot_41B-37400_W_tif
  70
32
  10
501182.500
  20
4594203.000
  30
897.568
  0
VERTEX
  8
PNOA-H_AMS_1956-57_33k_ES_PAN_21mic_H50_0377_fot_41B-37400_W_tif
  70
32
  10
501181.753
  20
4594264.432
  30
898.512
  0
VERTEX
  8
PNOA-H_AMS_1956-57_33k_ES_PAN_21mic_H50_0377_fot_41B-37400_W_tif
  70
32
  10
501738.808
  20
4594264.432
  30
0
  0
VERTEX
  8
PNOA-H_AMS_1956-57_33k_ES_PAN_21mic_H50_0377_fot_41B-37400_W_tif
  70
32
  10
503969.841
  20
4594265.507
  30
901.148
  0
VERTEX
  8
PNOA-H_AMS_1956-57_33k_ES_PAN_21mic_H50_0377_fot_41B-37400_W_tif
  70
32
  10
503970.500
  20
4594192.500
  30
899.572
  0
VERTEX
  8
PNOA-H_AMS_1956-57_33k_ES_PAN_21mic_H50_0377_fot_41B-37400_W_tif
  70
32
  10
503969.964
  20
4594192.361
  30
899.569
  0
SEQEND
  8
PNOA-H_AMS_1956-57_33k_ES_PAN_21mic_H50_0377_fot_41B-37400_W_tif
  0
INSERT
  8
FeatureAttribs
  2
FEATURE
  41
1
  42
1
  43
1
  50
0
  10
505325.208
  20
4594028.044
 66
1
  0
ATTRIB
  8
FeatureAttribs
 70
0
  1
PNOA-H_AMS_1956-57_33k_ES_PAN_21mic_H50_0377_fot_41B-37399_W.tif
  2
NAME
  10
505325.208
  20
4594028.044
 40
33.48059
  0
SEQEND
  0
POLYLINE
  8
PNOA-H_AMS_1956-57_33k_ES_PAN_21mic_H50_0377_fot_41B-37399_W_tif
  70
9
  66
1
  0
VERTEX
  8
PNOA-H_AMS_1956-57_33k_ES_PAN_21mic_H50_0377_fot_41B-37399_W_tif
  70
32
  10
506754.000
  20
4594212.500
  30
890.153
  0
VERTEX
  8
PNOA-H_AMS_1956-57_33k_ES_PAN_21mic_H50_0377_fot_41B-37399_W_tif
  70
32
  10
505320.500
  20
4593788.500
  30
887.861
  0
VERTEX
  8
PNOA-H_AMS_1956-57_33k_ES_PAN_21mic_H50_0377_fot_41B-37399_W_tif
  70
32
  10
505320.251
  20
4593788.574
  30
887.864
  0
VERTEX
  8
PNOA-H_AMS_1956-57_33k_ES_PAN_21mic_H50_0377_fot_41B-37399_W_tif
  70
32
  10
504441.884
  20
4594051.434
  30
895.483
  0
VERTEX
  8
PNOA-H_AMS_1956-57_33k_ES_PAN_21mic_H50_0377_fot_41B-37399_W_tif
  70
32
  10
504267.901
  20
4594103.500
  30
896.992
  0
VERTEX
  8
PNOA-H_AMS_1956-57_33k_ES_PAN_21mic_H50_0377_fot_41B-37399_W_tif
  70
32
  10
503970.500
  20
4594192.500
  30
899.572
  0
VERTEX
  8
PNOA-H_AMS_1956-57_33k_ES_PAN_21mic_H50_0377_fot_41B-37399_W_tif
  70
32
  10
503969.841
  20
4594265.507
  30
901.148
  0
VERTEX
  8
PNOA-H_AMS_1956-57_33k_ES_PAN_21mic_H50_0377_fot_41B-37399_W_tif
  70
32
  10
505216.423
  20
4594266.107
  30
0
  0
VERTEX
  8
PNOA-H_AMS_1956-57_33k_ES_PAN_21mic_H50_0377_fot_41B-37399_W_tif
  70
32
  10
506753.028
  20
4594267.588
  30
891.189
  0
VERTEX
  8
PNOA-H_AMS_1956-57_33k_ES_PAN_21mic_H50_0377_fot_41B-37399_W_tif
  70
32
  10
506753.991
  20
4594212.997
  30
890.162
  0
VERTEX
  8
PNOA-H_AMS_1956-57_33k_ES_PAN_21mic_H50_0377_fot_41B-37399_W_tif
  70
32
  10
506754.000
  20
4594212.500
  30
890.153
  0
SEQEND
  8
PNOA-H_AMS_1956-57_33k_ES_PAN_21mic_H50_0377_fot_41B-37399_W_tif
  0
INSERT
  8
FeatureAttribs
  2
FEATURE
  41
1
  42
1
  43
1
  50
0
  10
503844.322
  20
4591668.750
 66
1
  0
ATTRIB
  8
FeatureAttribs
 70
0
  1
PNOA-H_AMS_1956-57_33k_ES_PAN_21mic_H50_0405_fot_42B-36318_E.tif
  2
NAME
  10
503844.322
  20
4591668.750
 40
33.48059
  0
SEQEND
  0
POLYLINE
  8
PNOA-H_AMS_1956-57_33k_ES_PAN_21mic_H50_0405_fot_42B-36318_E_tif
  70
9
  66
1
  0
VERTEX
  8
PNOA-H_AMS_1956-57_33k_ES_PAN_21mic_H50_0405_fot_42B-36318_E_tif
  70
32
  10
503969.964
  20
4594192.361
  30
899.568
  0
VERTEX
  8
PNOA-H_AMS_1956-57_33k_ES_PAN_21mic_H50_0405_fot_42B-36318_E_tif
  70
32
  10
504267.000
  20
4594103.500
  30
893.203
  0
VERTEX
  8
PNOA-H_AMS_1956-57_33k_ES_PAN_21mic_H50_0405_fot_42B-36318_E_tif
  70
32
  10
504267.901
  20
4594103.500
  30
893.149
  0
VERTEX
  8
PNOA-H_AMS_1956-57_33k_ES_PAN_21mic_H50_0405_fot_42B-36318_E_tif
  70
32
  10
504268.000
  20
4594103.500
  30
893.143
  0
VERTEX
  8
PNOA-H_AMS_1956-57_33k_ES_PAN_21mic_H50_0405_fot_42B-36318_E_tif
  70
32
  10
504441.884
  20
4594051.434
  30
892.27
  0
VERTEX
  8
PNOA-H_AMS_1956-57_33k_ES_PAN_21mic_H50_0405_fot_42B-36318_E_tif
  70
32
  10
505320.000
  20
4593788.500
  30
887.859
  0
VERTEX
  8
PNOA-H_AMS_1956-57_33k_ES_PAN_21mic_H50_0405_fot_42B-36318_E_tif
  70
32
  10
505286.000
  20
4589568.500
  30
928.067
  0
VERTEX
  8
PNOA-H_AMS_1956-57_33k_ES_PAN_21mic_H50_0405_fot_42B-36318_E_tif
  70
32
  10
505285.652
  20
4589567.456
  30
928.139
  0
VERTEX
  8
PNOA-H_AMS_1956-57_33k_ES_PAN_21mic_H50_0405_fot_42B-36318_E_tif
  70
32
  10
505285.621
  20
4589567.363
  30
928.146
  0
VERTEX
  8
PNOA-H_AMS_1956-57_33k_ES_PAN_21mic_H50_0405_fot_42B-36318_E_tif
  70
32
  10
505285.500
  20
4589567.000
  30
928.171
  0
VERTEX
  8
PNOA-H_AMS_1956-57_33k_ES_PAN_21mic_H50_0405_fot_42B-36318_E_tif
  70
32
  10
505283.000
  20
4589566.000
  30
928.247
  0
VERTEX
  8
PNOA-H_AMS_1956-57_33k_ES_PAN_21mic_H50_0405_fot_42B-36318_E_tif
  70
32
  10
504119.000
  20
4589145.000
  30
951.131
  0
VERTEX
  8
PNOA-H_AMS_1956-57_33k_ES_PAN_21mic_H50_0405_fot_42B-36318_E_tif
  70
32
  10
504118.700
  20
4589145.073
  30
951.133
  0
VERTEX
  8
PNOA-H_AMS_1956-57_33k_ES_PAN_21mic_H50_0405_fot_42B-36318_E_tif
  70
32
  10
503699.053
  20
4589246.761
  30
953.754
  0
VERTEX
  8
PNOA-H_AMS_1956-57_33k_ES_PAN_21mic_H50_0405_fot_42B-36318_E_tif
  70
32
  10
502378.010
  20
4589566.876
  30
962.005
  0
VERTEX
  8
PNOA-H_AMS_1956-57_33k_ES_PAN_21mic_H50_0405_fot_42B-36318_E_tif
  70
32
  10
502377.500
  20
4589567.000
  30
962.008
  0
VERTEX
  8
PNOA-H_AMS_1956-57_33k_ES_PAN_21mic_H50_0405_fot_42B-36318_E_tif
  70
32
  10
502394.000
  20
4593785.000
  30
892.059
  0
VERTEX
  8
PNOA-H_AMS_1956-57_33k_ES_PAN_21mic_H50_0405_fot_42B-36318_E_tif
  70
32
  10
502394.286
  20
4593785.074
  30
892.061
  0
VERTEX
  8
PNOA-H_AMS_1956-57_33k_ES_PAN_21mic_H50_0405_fot_42B-36318_E_tif
  70
32
  10
503969.500
  20
4594192.500
  30
899.578
  0
VERTEX
  8
PNOA-H_AMS_1956-57_33k_ES_PAN_21mic_H50_0405_fot_42B-36318_E_tif
  70
32
  10
503969.964
  20
4594192.361
  30
899.568
  0
SEQEND
  8
PNOA-H_AMS_1956-57_33k_ES_PAN_21mic_H50_0405_fot_42B-36318_E_tif
  0
INSERT
  8
FeatureAttribs
  2
FEATURE
  41
1
  42
1
  43
1
  50
0
  10
500928.676
  20
4591678.750
 66
1
  0
ATTRIB
  8
FeatureAttribs
 70
0
  1
PNOA-H_AMS_1956-57_33k_ES_PAN_21mic_H50_0405_fot_42B-36317_E.tif
  2
NAME
  10
500928.676
  20
4591678.750
 40
33.48059
  0
SEQEND
  0
POLYLINE
  8
PNOA-H_AMS_1956-57_33k_ES_PAN_21mic_H50_0405_fot_42B-36317_E_tif
  70
9
  66
1
  0
VERTEX
  8
PNOA-H_AMS_1956-57_33k_ES_PAN_21mic_H50_0405_fot_42B-36317_E_tif
  70
32
  10
502376.847
  20
4589566.731
  30
961.994
  0
VERTEX
  8
PNOA-H_AMS_1956-57_33k_ES_PAN_21mic_H50_0405_fot_42B-36317_E_tif
  70
32
  10
501376.500
  20
4589154.500
  30
940.343
  0
VERTEX
  8
PNOA-H_AMS_1956-57_33k_ES_PAN_21mic_H50_0405_fot_42B-36317_E_tif
  70
32
  10
501375.837
  20
4589154.639
  30
940.336
  0
VERTEX
  8
PNOA-H_AMS_1956-57_33k_ES_PAN_21mic_H50_0405_fot_42B-36317_E_tif
  70
32
  10
500873.708
  20
4589259.945
  30
934.907
  0
VERTEX
  8
PNOA-H_AMS_1956-57_33k_ES_PAN_21mic_H50_0405_fot_42B-36317_E_tif
  70
32
  10
499461.703
  20
4589556.070
  30
919.641
  0
VERTEX
  8
PNOA-H_AMS_1956-57_33k_ES_PAN_21mic_H50_0405_fot_42B-36317_E_tif
  70
32
  10
499452.500
  20
4589558.000
  30
919.542
  0
VERTEX
  8
PNOA-H_AMS_1956-57_33k_ES_PAN_21mic_H50_0405_fot_42B-36317_E_tif
  70
32
  10
499490.500
  20
4593779.000
  30
958.62
  0
VERTEX
  8
PNOA-H_AMS_1956-57_33k_ES_PAN_21mic_H50_0405_fot_42B-36317_E_tif
  70
32
  10
499491.326
  20
4593779.207
  30
958.599
  0
VERTEX
  8
PNOA-H_AMS_1956-57_33k_ES_PAN_21mic_H50_0405_fot_42B-36317_E_tif
  70
32
  10
500168.000
  20
4593949.000
  30
940.92
  0
VERTEX
  8
PNOA-H_AMS_1956-57_33k_ES_PAN_21mic_H50_0405_fot_42B-36317_E_tif
  70
32
  10
500170.000
  20
4593949.500
  30
940.925
  0
VERTEX
  8
PNOA-H_AMS_1956-57_33k_ES_PAN_21mic_H50_0405_fot_42B-36317_E_tif
  70
32
  10
500820.020
  20
4594112.085
  30
913.115
  0
VERTEX
  8
PNOA-H_AMS_1956-57_33k_ES_PAN_21mic_H50_0405_fot_42B-36317_E_tif
  70
32
  10
501182.920
  20
4594202.855
  30
897.589
  0
VERTEX
  8
PNOA-H_AMS_1956-57_33k_ES_PAN_21mic_H50_0405_fot_42B-36317_E_tif
  70
32
  10
501183.500
  20
4594203.000
  30
897.564
  0
VERTEX
  8
PNOA-H_AMS_1956-57_33k_ES_PAN_21mic_H50_0405_fot_42B-36317_E_tif
  70
32
  10
502394.000
  20
4593785.500
  30
892.066
  0
VERTEX
  8
PNOA-H_AMS_1956-57_33k_ES_PAN_21mic_H50_0405_fot_42B-36317_E_tif
  70
32
  10
502393.999
  20
4593785.173
  30
892.072
  0
VERTEX
  8
PNOA-H_AMS_1956-57_33k_ES_PAN_21mic_H50_0405_fot_42B-36317_E_tif
  70
32
  10
502377.500
  20
4589567.000
  30
962.008
  0
VERTEX
  8
PNOA-H_AMS_1956-57_33k_ES_PAN_21mic_H50_0405_fot_42B-36317_E_tif
  70
32
  10
502376.847
  20
4589566.731
  30
961.994
  0
SEQEND
  8
PNOA-H_AMS_1956-57_33k_ES_PAN_21mic_H50_0405_fot_42B-36317_E_tif
  0
INSERT
  8
FeatureAttribs
  2
FEATURE
  41
1
  42
1
  43
1
  50
0
  10
508195.789
  20
4594034.888
 66
1
  0
ATTRIB
  8
FeatureAttribs
 70
0
  1
PNOA-H_AMS_1956-57_33k_ES_PAN_21mic_H50_0377_fot_41B-37398_W.tif
  2
NAME
  10
508195.789
  20
4594034.888
 40
33.48059
  0
SEQEND
  0
POLYLINE
  8
PNOA-H_AMS_1956-57_33k_ES_PAN_21mic_H50_0377_fot_41B-37398_W_tif
  70
9
  66
1
  0
VERTEX
  8
PNOA-H_AMS_1956-57_33k_ES_PAN_21mic_H50_0377_fot_41B-37398_W_tif
  70
32
  10
508254.963
  20
4593799.148
  30
890.693
  0
VERTEX
  8
PNOA-H_AMS_1956-57_33k_ES_PAN_21mic_H50_0377_fot_41B-37398_W_tif
  70
32
  10
508254.500
  20
4593799.000
  30
890.693
  0
VERTEX
  8
PNOA-H_AMS_1956-57_33k_ES_PAN_21mic_H50_0377_fot_41B-37398_W_tif
  70
32
  10
506754.500
  20
4594212.500
  30
890.156
  0
VERTEX
  8
PNOA-H_AMS_1956-57_33k_ES_PAN_21mic_H50_0377_fot_41B-37398_W_tif
  70
32
  10
506754.494
  20
4594212.864
  30
890.163
  0
VERTEX
  8
PNOA-H_AMS_1956-57_33k_ES_PAN_21mic_H50_0377_fot_41B-37398_W_tif
  70
32
  10
506753.522
  20
4594267.589
  30
891.192
  0
VERTEX
  8
PNOA-H_AMS_1956-57_33k_ES_PAN_21mic_H50_0377_fot_41B-37398_W_tif
  70
32
  10
508694.039
  20
4594269.459
  30
0
  0
VERTEX
  8
PNOA-H_AMS_1956-57_33k_ES_PAN_21mic_H50_0377_fot_41B-37398_W_tif
  70
32
  10
509604.586
  20
4594270.775
  30
893.129
  0
VERTEX
  8
PNOA-H_AMS_1956-57_33k_ES_PAN_21mic_H50_0377_fot_41B-37398_W_tif
  70
32
  10
509605.000
  20
4594230.500
  30
892.624
  0
VERTEX
  8
PNOA-H_AMS_1956-57_33k_ES_PAN_21mic_H50_0377_fot_41B-37398_W_tif
  70
32
  10
508254.963
  20
4593799.148
  30
890.693
  0
SEQEND
  8
PNOA-H_AMS_1956-57_33k_ES_PAN_21mic_H50_0377_fot_41B-37398_W_tif
  0
INSERT
  8
FeatureAttribs
  2
FEATURE
  41
1
  42
1
  43
1
  50
0
  10
511086.487
  20
4594048.743
 66
1
  0
ATTRIB
  8
FeatureAttribs
 70
0
  1
PNOA-H_AMS_1956-57_33k_ES_PAN_21mic_H50_0377_fot_41B-37397_W.tif
  2
NAME
  10
511086.487
  20
4594048.743
 40
33.48059
  0
SEQEND
  0
POLYLINE
  8
PNOA-H_AMS_1956-57_33k_ES_PAN_21mic_H50_0377_fot_41B-37397_W_tif
  70
9
  66
1
  0
VERTEX
  8
PNOA-H_AMS_1956-57_33k_ES_PAN_21mic_H50_0377_fot_41B-37397_W_tif
  70
32
  10
512171.888
  20
4594136.841
  30
921.561
  0
VERTEX
  8
PNOA-H_AMS_1956-57_33k_ES_PAN_21mic_H50_0377_fot_41B-37397_W_tif
  70
32
  10
511141.500
  20
4593823.000
  30
898.259
  0
VERTEX
  8
PNOA-H_AMS_1956-57_33k_ES_PAN_21mic_H50_0377_fot_41B-37397_W_tif
  70
32
  10
511141.233
  20
4593823.071
  30
898.258
  0
VERTEX
  8
PNOA-H_AMS_1956-57_33k_ES_PAN_21mic_H50_0377_fot_41B-37397_W_tif
  70
32
  10
510373.250
  20
4594026.750
  30
895.442
  0
VERTEX
  8
PNOA-H_AMS_1956-57_33k_ES_PAN_21mic_H50_0377_fot_41B-37397_W_tif
  70
32
  10
509605.273
  20
4594230.428
  30
892.625
  0
VERTEX
  8
PNOA-H_AMS_1956-57_33k_ES_PAN_21mic_H50_0377_fot_41B-37397_W_tif
  70
32
  10
509605.000
  20
4594230.500
  30
892.624
  0
VERTEX
  8
PNOA-H_AMS_1956-57_33k_ES_PAN_21mic_H50_0377_fot_41B-37397_W_tif
  70
32
  10
509604.586
  20
4594270.775
  30
893.129
  0
VERTEX
  8
PNOA-H_AMS_1956-57_33k_ES_PAN_21mic_H50_0377_fot_41B-37397_W_tif
  70
32
  10
512171.656
  20
4594274.486
  30
0
  0
VERTEX
  8
PNOA-H_AMS_1956-57_33k_ES_PAN_21mic_H50_0377_fot_41B-37397_W_tif
  70
32
  10
512171.887
  20
4594137.222
  30
0
  0
VERTEX
  8
PNOA-H_AMS_1956-57_33k_ES_PAN_21mic_H50_0377_fot_41B-37397_W_tif
  70
32
  10
512171.888
  20
4594136.841
  30
921.561
  0
SEQEND
  8
PNOA-H_AMS_1956-57_33k_ES_PAN_21mic_H50_0377_fot_41B-37397_W_tif
  0
INSERT
  8
FeatureAttribs
  2
FEATURE
  41
1
  42
1
  43
1
  50
0
  10
506769.297
  20
4591658.750
 66
1
  0
ATTRIB
  8
FeatureAttribs
 70
0
  1
PNOA-H_AMS_1956-57_33k_ES_PAN_21mic_H50_0405_fot_42B-36319_E.tif
  2
NAME
  10
506769.297
  20
4591658.750
 40
33.48059
  0
SEQEND
  0
POLYLINE
  8
PNOA-H_AMS_1956-57_33k_ES_PAN_21mic_H50_0405_fot_42B-36319_E_tif
  70
9
  66
1
  0
VERTEX
  8
PNOA-H_AMS_1956-57_33k_ES_PAN_21mic_H50_0405_fot_42B-36319_E_tif
  70
32
  10
506874.593
  20
4589104.619
  30
997.18
  0
VERTEX
  8
PNOA-H_AMS_1956-57_33k_ES_PAN_21mic_H50_0405_fot_42B-36319_E_tif
  70
32
  10
506874.000
  20
4589104.500
  30
997.172
  0
VERTEX
  8
PNOA-H_AMS_1956-57_33k_ES_PAN_21mic_H50_0405_fot_42B-36319_E_tif
  70
32
  10
506863.500
  20
4589107.500
  30
996.573
  0
VERTEX
  8
PNOA-H_AMS_1956-57_33k_ES_PAN_21mic_H50_0405_fot_42B-36319_E_tif
  70
32
  10
505285.777
  20
4589567.419
  30
928.156
  0
VERTEX
  8
PNOA-H_AMS_1956-57_33k_ES_PAN_21mic_H50_0405_fot_42B-36319_E_tif
  70
32
  10
505285.652
  20
4589567.456
  30
928.151
  0
VERTEX
  8
PNOA-H_AMS_1956-57_33k_ES_PAN_21mic_H50_0405_fot_42B-36319_E_tif
  70
32
  10
505285.500
  20
4589567.500
  30
928.144
  0
VERTEX
  8
PNOA-H_AMS_1956-57_33k_ES_PAN_21mic_H50_0405_fot_42B-36319_E_tif
  70
32
  10
505320.000
  20
4593788.500
  30
887.859
  0
VERTEX
  8
PNOA-H_AMS_1956-57_33k_ES_PAN_21mic_H50_0405_fot_42B-36319_E_tif
  70
32
  10
505320.251
  20
4593788.574
  30
887.86
  0
VERTEX
  8
PNOA-H_AMS_1956-57_33k_ES_PAN_21mic_H50_0405_fot_42B-36319_E_tif
  70
32
  10
506752.500
  20
4594212.500
  30
890.143
  0
VERTEX
  8
PNOA-H_AMS_1956-57_33k_ES_PAN_21mic_H50_0405_fot_42B-36319_E_tif
  70
32
  10
506753.991
  20
4594212.997
  30
890.158
  0
VERTEX
  8
PNOA-H_AMS_1956-57_33k_ES_PAN_21mic_H50_0405_fot_42B-36319_E_tif
  70
32
  10
506754.000
  20
4594213.000
  30
890.158
  0
VERTEX
  8
PNOA-H_AMS_1956-57_33k_ES_PAN_21mic_H50_0405_fot_42B-36319_E_tif
  70
32
  10
506754.494
  20
4594212.864
  30
890.158
  0
VERTEX
  8
PNOA-H_AMS_1956-57_33k_ES_PAN_21mic_H50_0405_fot_42B-36319_E_tif
  70
32
  10
508254.963
  20
4593799.148
  30
890.695
  0
VERTEX
  8
PNOA-H_AMS_1956-57_33k_ES_PAN_21mic_H50_0405_fot_42B-36319_E_tif
  70
32
  10
508255.500
  20
4593799.000
  30
890.695
  0
VERTEX
  8
PNOA-H_AMS_1956-57_33k_ES_PAN_21mic_H50_0405_fot_42B-36319_E_tif
  70
32
  10
508217.000
  20
4589573.000
  30
1000.149
  0
VERTEX
  8
PNOA-H_AMS_1956-57_33k_ES_PAN_21mic_H50_0405_fot_42B-36319_E_tif
  70
32
  10
508216.760
  20
4589572.916
  30
1000.149
  0
VERTEX
  8
PNOA-H_AMS_1956-57_33k_ES_PAN_21mic_H50_0405_fot_42B-36319_E_tif
  70
32
  10
506879.000
  20
4589105.500
  30
997.24
  0
VERTEX
  8
PNOA-H_AMS_1956-57_33k_ES_PAN_21mic_H50_0405_fot_42B-36319_E_tif
  70
32
  10
506876.340
  20
4589104.968
  30
997.204
  0
VERTEX
  8
PNOA-H_AMS_1956-57_33k_ES_PAN_21mic_H50_0405_fot_42B-36319_E_tif
  70
32
  10
506874.593
  20
4589104.619
  30
997.18
  0
SEQEND
  8
PNOA-H_AMS_1956-57_33k_ES_PAN_21mic_H50_0405_fot_42B-36319_E_tif
  0
INSERT
  8
FeatureAttribs
  2
FEATURE
  41
1
  42
1
  43
1
  50
0
  10
511658.143
  20
4591673.674
 66
1
  0
ATTRIB
  8
FeatureAttribs
 70
0
  1
PNOA-H_AMS_1956-57_33k_ES_PAN_21mic_H50_0406_fot_42B-36321_E.tif
  2
NAME
  10
511658.143
  20
4591673.674
 40
33.48059
  0
SEQEND
  0
POLYLINE
  8
PNOA-H_AMS_1956-57_33k_ES_PAN_21mic_H50_0406_fot_42B-36321_E_tif
  70
9
  66
1
  0
VERTEX
  8
PNOA-H_AMS_1956-57_33k_ES_PAN_21mic_H50_0406_fot_42B-36321_E_tif
  70
32
  10
512180.192
  20
4589210.632
  30
0
  0
VERTEX
  8
PNOA-H_AMS_1956-57_33k_ES_PAN_21mic_H50_0406_fot_42B-36321_E_tif
  70
32
  10
512180.193
  20
4589210.127
  30
951.422
  0
VERTEX
  8
PNOA-H_AMS_1956-57_33k_ES_PAN_21mic_H50_0406_fot_42B-36321_E_tif
  70
32
  10
511139.996
  20
4589549.838
  30
1002.652
  0
VERTEX
  8
PNOA-H_AMS_1956-57_33k_ES_PAN_21mic_H50_0406_fot_42B-36321_E_tif
  70
32
  10
511139.500
  20
4589550.000
  30
1002.677
  0
VERTEX
  8
PNOA-H_AMS_1956-57_33k_ES_PAN_21mic_H50_0406_fot_42B-36321_E_tif
  70
32
  10
511139.536
  20
4589651.540
  30
1000.195
  0
VERTEX
  8
PNOA-H_AMS_1956-57_33k_ES_PAN_21mic_H50_0406_fot_42B-36321_E_tif
  70
32
  10
511141.000
  20
4593823.000
  30
898.259
  0
VERTEX
  8
PNOA-H_AMS_1956-57_33k_ES_PAN_21mic_H50_0406_fot_42B-36321_E_tif
  70
32
  10
511141.233
  20
4593823.071
  30
898.264
  0
VERTEX
  8
PNOA-H_AMS_1956-57_33k_ES_PAN_21mic_H50_0406_fot_42B-36321_E_tif
  70
32
  10
512171.887
  20
4594137.222
  30
921.584
  0
VERTEX
  8
PNOA-H_AMS_1956-57_33k_ES_PAN_21mic_H50_0406_fot_42B-36321_E_tif
  70
32
  10
512171.888
  20
4594136.841
  30
0
  0
VERTEX
  8
PNOA-H_AMS_1956-57_33k_ES_PAN_21mic_H50_0406_fot_42B-36321_E_tif
  70
32
  10
512175.556
  20
4591961.590
  30
0
  0
VERTEX
  8
PNOA-H_AMS_1956-57_33k_ES_PAN_21mic_H50_0406_fot_42B-36321_E_tif
  70
32
  10
512179.454
  20
4589648.703
  30
0
  0
VERTEX
  8
PNOA-H_AMS_1956-57_33k_ES_PAN_21mic_H50_0406_fot_42B-36321_E_tif
  70
32
  10
512180.192
  20
4589210.632
  30
0
  0
SEQEND
  8
PNOA-H_AMS_1956-57_33k_ES_PAN_21mic_H50_0406_fot_42B-36321_E_tif
  0
INSERT
  8
FeatureAttribs
  2
FEATURE
  41
1
  42
1
  43
1
  50
0
  10
509688.249
  20
4591661.500
 66
1
  0
ATTRIB
  8
FeatureAttribs
 70
0
  1
PNOA-H_AMS_1956-57_33k_ES_PAN_21mic_H50_0405_fot_42B-36320_E.tif
  2
NAME
  10
509688.249
  20
4591661.500
 40
33.48059
  0
SEQEND
  0
POLYLINE
  8
PNOA-H_AMS_1956-57_33k_ES_PAN_21mic_H50_0405_fot_42B-36320_E_tif
  70
9
  66
1
  0
VERTEX
  8
PNOA-H_AMS_1956-57_33k_ES_PAN_21mic_H50_0405_fot_42B-36320_E_tif
  70
32
  10
509716.750
  20
4589092.580
  30
960.98
  0
VERTEX
  8
PNOA-H_AMS_1956-57_33k_ES_PAN_21mic_H50_0405_fot_42B-36320_E_tif
  70
32
  10
509716.500
  20
4589092.500
  30
960.973
  0
VERTEX
  8
PNOA-H_AMS_1956-57_33k_ES_PAN_21mic_H50_0405_fot_42B-36320_E_tif
  70
32
  10
508363.673
  20
4589526.000
  30
996.317
  0
VERTEX
  8
PNOA-H_AMS_1956-57_33k_ES_PAN_21mic_H50_0405_fot_42B-36320_E_tif
  70
32
  10
508217.000
  20
4589573.000
  30
1000.149
  0
VERTEX
  8
PNOA-H_AMS_1956-57_33k_ES_PAN_21mic_H50_0405_fot_42B-36320_E_tif
  70
32
  10
508255.500
  20
4593799.000
  30
890.695
  0
VERTEX
  8
PNOA-H_AMS_1956-57_33k_ES_PAN_21mic_H50_0405_fot_42B-36320_E_tif
  70
32
  10
508361.500
  20
4593833.000
  30
890.396
  0
VERTEX
  8
PNOA-H_AMS_1956-57_33k_ES_PAN_21mic_H50_0405_fot_42B-36320_E_tif
  70
32
  10
508363.000
  20
4593833.500
  30
890.375
  0
VERTEX
  8
PNOA-H_AMS_1956-57_33k_ES_PAN_21mic_H50_0405_fot_42B-36320_E_tif
  70
32
  10
509605.273
  20
4594230.428
  30
892.627
  0
VERTEX
  8
PNOA-H_AMS_1956-57_33k_ES_PAN_21mic_H50_0405_fot_42B-36320_E_tif
  70
32
  10
509605.500
  20
4594230.500
  30
892.628
  0
VERTEX
  8
PNOA-H_AMS_1956-57_33k_ES_PAN_21mic_H50_0405_fot_42B-36320_E_tif
  70
32
  10
510373.250
  20
4594026.750
  30
895.443
  0
VERTEX
  8
PNOA-H_AMS_1956-57_33k_ES_PAN_21mic_H50_0405_fot_42B-36320_E_tif
  70
32
  10
511141.000
  20
4593823.000
  30
898.259
  0
VERTEX
  8
PNOA-H_AMS_1956-57_33k_ES_PAN_21mic_H50_0405_fot_42B-36320_E_tif
  70
32
  10
511140.000
  20
4589740.000
  30
982.229
  0
VERTEX
  8
PNOA-H_AMS_1956-57_33k_ES_PAN_21mic_H50_0405_fot_42B-36320_E_tif
  70
32
  10
511139.536
  20
4589651.540
  30
991.738
  0
VERTEX
  8
PNOA-H_AMS_1956-57_33k_ES_PAN_21mic_H50_0405_fot_42B-36320_E_tif
  70
32
  10
511139.000
  20
4589549.519
  30
1002.704
  0
VERTEX
  8
PNOA-H_AMS_1956-57_33k_ES_PAN_21mic_H50_0405_fot_42B-36320_E_tif
  70
32
  10
511139.000
  20
4589549.500
  30
1002.706
  0
VERTEX
  8
PNOA-H_AMS_1956-57_33k_ES_PAN_21mic_H50_0405_fot_42B-36320_E_tif
  70
32
  10
509929.398
  20
4589160.897
  30
967.219
  0
VERTEX
  8
PNOA-H_AMS_1956-57_33k_ES_PAN_21mic_H50_0405_fot_42B-36320_E_tif
  70
32
  10
509716.750
  20
4589092.580
  30
960.98
  0
SEQEND
  8
PNOA-H_AMS_1956-57_33k_ES_PAN_21mic_H50_0405_fot_42B-36320_E_tif
  0
INSERT
  8
FeatureAttribs
  2
FEATURE
  41
1
  42
1
  43
1
  50
0
  10
496024.085
  20
4582938.750
 66
1
  0
ATTRIB
  8
FeatureAttribs
 70
0
  1
PNOA-H_AMS_1956-57_33k_ES_PAN_21mic_H50_0405_fot_44B-36268_W.tif
  2
NAME
  10
496024.085
  20
4582938.750
 40
33.48059
  0
SEQEND
  0
POLYLINE
  8
PNOA-H_AMS_1956-57_33k_ES_PAN_21mic_H50_0405_fot_44B-36268_W_tif
  70
9
  66
1
  0
VERTEX
  8
PNOA-H_AMS_1956-57_33k_ES_PAN_21mic_H50_0405_fot_44B-36268_W_tif
  70
32
  10
496454.730
  20
4580579.646
  30
1211.106
  0
VERTEX
  8
PNOA-H_AMS_1956-57_33k_ES_PAN_21mic_H50_0405_fot_44B-36268_W_tif
  70
32
  10
496454.000
  20
4580579.500
  30
1211.16
  0
VERTEX
  8
PNOA-H_AMS_1956-57_33k_ES_PAN_21mic_H50_0405_fot_44B-36268_W_tif
  70
32
  10
496446.000
  20
4580581.000
  30
1211.456
  0
VERTEX
  8
PNOA-H_AMS_1956-57_33k_ES_PAN_21mic_H50_0405_fot_44B-36268_W_tif
  70
32
  10
494460.500
  20
4580957.000
  30
1193.657
  0
VERTEX
  8
PNOA-H_AMS_1956-57_33k_ES_PAN_21mic_H50_0405_fot_44B-36268_W_tif
  70
32
  10
494515.500
  20
4584788.000
  30
1120.711
  0
VERTEX
  8
PNOA-H_AMS_1956-57_33k_ES_PAN_21mic_H50_0405_fot_44B-36268_W_tif
  70
32
  10
494516.037
  20
4584788.192
  30
1120.698
  0
VERTEX
  8
PNOA-H_AMS_1956-57_33k_ES_PAN_21mic_H50_0405_fot_44B-36268_W_tif
  70
32
  10
495940.000
  20
4585297.500
  30
1087.502
  0
VERTEX
  8
PNOA-H_AMS_1956-57_33k_ES_PAN_21mic_H50_0405_fot_44B-36268_W_tif
  70
32
  10
495941.494
  20
4585297.998
  30
1087.392
  0
VERTEX
  8
PNOA-H_AMS_1956-57_33k_ES_PAN_21mic_H50_0405_fot_44B-36268_W_tif
  70
32
  10
495941.500
  20
4585298.000
  30
1087.392
  0
VERTEX
  8
PNOA-H_AMS_1956-57_33k_ES_PAN_21mic_H50_0405_fot_44B-36268_W_tif
  70
32
  10
496749.750
  20
4585040.500
  30
1076.361
  0
VERTEX
  8
PNOA-H_AMS_1956-57_33k_ES_PAN_21mic_H50_0405_fot_44B-36268_W_tif
  70
32
  10
497557.704
  20
4584783.094
  30
1065.334
  0
VERTEX
  8
PNOA-H_AMS_1956-57_33k_ES_PAN_21mic_H50_0405_fot_44B-36268_W_tif
  70
32
  10
497558.000
  20
4584783.000
  30
1065.33
  0
VERTEX
  8
PNOA-H_AMS_1956-57_33k_ES_PAN_21mic_H50_0405_fot_44B-36268_W_tif
  70
32
  10
497560.500
  20
4581003.500
  30
1186.465
  0
VERTEX
  8
PNOA-H_AMS_1956-57_33k_ES_PAN_21mic_H50_0405_fot_44B-36268_W_tif
  70
32
  10
497560.500
  20
4581003.000
  30
1186.481
  0
VERTEX
  8
PNOA-H_AMS_1956-57_33k_ES_PAN_21mic_H50_0405_fot_44B-36268_W_tif
  70
32
  10
496459.000
  20
4580580.500
  30
1210.791
  0
VERTEX
  8
PNOA-H_AMS_1956-57_33k_ES_PAN_21mic_H50_0405_fot_44B-36268_W_tif
  70
32
  10
496457.133
  20
4580580.127
  30
1210.929
  0
VERTEX
  8
PNOA-H_AMS_1956-57_33k_ES_PAN_21mic_H50_0405_fot_44B-36268_W_tif
  70
32
  10
496454.730
  20
4580579.646
  30
1211.106
  0
SEQEND
  8
PNOA-H_AMS_1956-57_33k_ES_PAN_21mic_H50_0405_fot_44B-36268_W_tif
  0
INSERT
  8
FeatureAttribs
  2
FEATURE
  41
1
  42
1
  43
1
  50
0
  10
490033.695
  20
4583081.000
 66
1
  0
ATTRIB
  8
FeatureAttribs
 70
0
  1
PNOA-H_AMS_1956-57_33k_ES_PAN_21mic_H50_0405_fot_44B-36270_W.tif
  2
NAME
  10
490033.695
  20
4583081.000
 40
33.48059
  0
SEQEND
  0
POLYLINE
  8
PNOA-H_AMS_1956-57_33k_ES_PAN_21mic_H50_0405_fot_44B-36270_W_tif
  70
9
  66
1
  0
VERTEX
  8
PNOA-H_AMS_1956-57_33k_ES_PAN_21mic_H50_0405_fot_44B-36270_W_tif
  70
32
  10
491446.313
  20
4580929.906
  30
1191.255
  0
VERTEX
  8
PNOA-H_AMS_1956-57_33k_ES_PAN_21mic_H50_0405_fot_44B-36270_W_tif
  70
32
  10
491129.500
  20
4580771.000
  30
1197.221
  0
VERTEX
  8
PNOA-H_AMS_1956-57_33k_ES_PAN_21mic_H50_0405_fot_44B-36270_W_tif
  70
32
  10
491129.377
  20
4580771.008
  30
1197.221
  0
VERTEX
  8
PNOA-H_AMS_1956-57_33k_ES_PAN_21mic_H50_0405_fot_44B-36270_W_tif
  70
32
  10
488483.515
  20
4580947.999
  30
1196.166
  0
VERTEX
  8
PNOA-H_AMS_1956-57_33k_ES_PAN_21mic_H50_0405_fot_44B-36270_W_tif
  70
32
  10
488483.500
  20
4580948.000
  30
1196.166
  0
VERTEX
  8
PNOA-H_AMS_1956-57_33k_ES_PAN_21mic_H50_0405_fot_44B-36270_W_tif
  70
32
  10
488542.000
  20
4582933.750
  30
1156.486
  0
VERTEX
  8
PNOA-H_AMS_1956-57_33k_ES_PAN_21mic_H50_0405_fot_44B-36270_W_tif
  70
32
  10
488600.500
  20
4584919.500
  30
1116.805
  0
VERTEX
  8
PNOA-H_AMS_1956-57_33k_ES_PAN_21mic_H50_0405_fot_44B-36270_W_tif
  70
32
  10
489929.000
  20
4585279.000
  30
1059.457
  0
VERTEX
  8
PNOA-H_AMS_1956-57_33k_ES_PAN_21mic_H50_0405_fot_44B-36270_W_tif
  70
32
  10
489931.000
  20
4585279.500
  30
1058.79
  0
VERTEX
  8
PNOA-H_AMS_1956-57_33k_ES_PAN_21mic_H50_0405_fot_44B-36270_W_tif
  70
32
  10
490177.426
  20
4585345.708
  30
1074.119
  0
VERTEX
  8
PNOA-H_AMS_1956-57_33k_ES_PAN_21mic_H50_0405_fot_44B-36270_W_tif
  70
32
  10
490345.376
  20
4585390.832
  30
1084.566
  0
VERTEX
  8
PNOA-H_AMS_1956-57_33k_ES_PAN_21mic_H50_0405_fot_44B-36270_W_tif
  70
32
  10
490346.000
  20
4585391.000
  30
1084.605
  0
VERTEX
  8
PNOA-H_AMS_1956-57_33k_ES_PAN_21mic_H50_0405_fot_44B-36270_W_tif
  70
32
  10
491581.591
  20
4584839.682
  30
1086.278
  0
VERTEX
  8
PNOA-H_AMS_1956-57_33k_ES_PAN_21mic_H50_0405_fot_44B-36270_W_tif
  70
32
  10
491582.000
  20
4584839.500
  30
1086.278
  0
VERTEX
  8
PNOA-H_AMS_1956-57_33k_ES_PAN_21mic_H50_0405_fot_44B-36270_W_tif
  70
32
  10
491446.500
  20
4580930.000
  30
1191.251
  0
VERTEX
  8
PNOA-H_AMS_1956-57_33k_ES_PAN_21mic_H50_0405_fot_44B-36270_W_tif
  70
32
  10
491446.313
  20
4580929.906
  30
1191.255
  0
SEQEND
  8
PNOA-H_AMS_1956-57_33k_ES_PAN_21mic_H50_0405_fot_44B-36270_W_tif
  0
INSERT
  8
FeatureAttribs
  2
FEATURE
  41
1
  42
1
  43
1
  50
0
  10
499102.377
  20
4582918.750
 66
1
  0
ATTRIB
  8
FeatureAttribs
 70
0
  1
PNOA-H_AMS_1956-57_33k_ES_PAN_21mic_H50_0405_fot_44B-36267_W.tif
  2
NAME
  10
499102.377
  20
4582918.750
 40
33.48059
  0
SEQEND
  0
POLYLINE
  8
PNOA-H_AMS_1956-57_33k_ES_PAN_21mic_H50_0405_fot_44B-36267_W_tif
  70
9
  66
1
  0
VERTEX
  8
PNOA-H_AMS_1956-57_33k_ES_PAN_21mic_H50_0405_fot_44B-36267_W_tif
  70
32
  10
499125.998
  20
4580551.145
  30
1210.211
  0
VERTEX
  8
PNOA-H_AMS_1956-57_33k_ES_PAN_21mic_H50_0405_fot_44B-36267_W_tif
  70
32
  10
499125.500
  20
4580551.000
  30
1210.21
  0
VERTEX
  8
PNOA-H_AMS_1956-57_33k_ES_PAN_21mic_H50_0405_fot_44B-36267_W_tif
  70
32
  10
497560.500
  20
4581003.500
  30
1186.478
  0
VERTEX
  8
PNOA-H_AMS_1956-57_33k_ES_PAN_21mic_H50_0405_fot_44B-36267_W_tif
  70
32
  10
497558.000
  20
4584783.000
  30
1065.33
  0
VERTEX
  8
PNOA-H_AMS_1956-57_33k_ES_PAN_21mic_H50_0405_fot_44B-36267_W_tif
  70
32
  10
497920.500
  20
4584950.667
  30
1084.623
  0
VERTEX
  8
PNOA-H_AMS_1956-57_33k_ES_PAN_21mic_H50_0405_fot_44B-36267_W_tif
  70
32
  10
498645.500
  20
4585286.000
  30
1123.208
  0
VERTEX
  8
PNOA-H_AMS_1956-57_33k_ES_PAN_21mic_H50_0405_fot_44B-36267_W_tif
  70
32
  10
498646.500
  20
4585286.500
  30
1123.207
  0
VERTEX
  8
PNOA-H_AMS_1956-57_33k_ES_PAN_21mic_H50_0405_fot_44B-36267_W_tif
  70
32
  10
498646.510
  20
4585286.498
  30
1123.207
  0
VERTEX
  8
PNOA-H_AMS_1956-57_33k_ES_PAN_21mic_H50_0405_fot_44B-36267_W_tif
  70
32
  10
499199.253
  20
4585168.884
  30
1128.85
  0
VERTEX
  8
PNOA-H_AMS_1956-57_33k_ES_PAN_21mic_H50_0405_fot_44B-36267_W_tif
  70
32
  10
500641.500
  20
4584862.000
  30
1143.574
  0
VERTEX
  8
PNOA-H_AMS_1956-57_33k_ES_PAN_21mic_H50_0405_fot_44B-36267_W_tif
  70
32
  10
500649.500
  20
4580995.000
  30
1212.257
  0
VERTEX
  8
PNOA-H_AMS_1956-57_33k_ES_PAN_21mic_H50_0405_fot_44B-36267_W_tif
  70
32
  10
500648.830
  20
4580994.805
  30
1212.256
  0
VERTEX
  8
PNOA-H_AMS_1956-57_33k_ES_PAN_21mic_H50_0405_fot_44B-36267_W_tif
  70
32
  10
499792.062
  20
4580745.195
  30
1211.105
  0
VERTEX
  8
PNOA-H_AMS_1956-57_33k_ES_PAN_21mic_H50_0405_fot_44B-36267_W_tif
  70
32
  10
499125.998
  20
4580551.145
  30
1210.211
  0
SEQEND
  8
PNOA-H_AMS_1956-57_33k_ES_PAN_21mic_H50_0405_fot_44B-36267_W_tif
  0
INSERT
  8
FeatureAttribs
  2
FEATURE
  41
1
  42
1
  43
1
  50
0
  10
493003.884
  20
4582993.750
 66
1
  0
ATTRIB
  8
FeatureAttribs
 70
0
  1
PNOA-H_AMS_1956-57_33k_ES_PAN_21mic_H50_0405_fot_44B-36269_W.tif
  2
NAME
  10
493003.884
  20
4582993.750
 40
33.48059
  0
SEQEND
  0
POLYLINE
  8
PNOA-H_AMS_1956-57_33k_ES_PAN_21mic_H50_0405_fot_44B-36269_W_tif
  70
9
  66
1
  0
VERTEX
  8
PNOA-H_AMS_1956-57_33k_ES_PAN_21mic_H50_0405_fot_44B-36269_W_tif
  70
32
  10
493801.213
  20
4580658.591
  30
1206.405
  0
VERTEX
  8
PNOA-H_AMS_1956-57_33k_ES_PAN_21mic_H50_0405_fot_44B-36269_W_tif
  70
32
  10
493801.000
  20
4580658.500
  30
1206.408
  0
VERTEX
  8
PNOA-H_AMS_1956-57_33k_ES_PAN_21mic_H50_0405_fot_44B-36269_W_tif
  70
32
  10
492623.750
  20
4580794.250
  30
1198.83
  0
VERTEX
  8
PNOA-H_AMS_1956-57_33k_ES_PAN_21mic_H50_0405_fot_44B-36269_W_tif
  70
32
  10
491446.500
  20
4580930.000
  30
1191.251
  0
VERTEX
  8
PNOA-H_AMS_1956-57_33k_ES_PAN_21mic_H50_0405_fot_44B-36269_W_tif
  70
32
  10
491582.000
  20
4584839.500
  30
1086.278
  0
VERTEX
  8
PNOA-H_AMS_1956-57_33k_ES_PAN_21mic_H50_0405_fot_44B-36269_W_tif
  70
32
  10
492216.000
  20
4585035.300
  30
1061.946
  0
VERTEX
  8
PNOA-H_AMS_1956-57_33k_ES_PAN_21mic_H50_0405_fot_44B-36269_W_tif
  70
32
  10
493167.000
  20
4585329.000
  30
1025.448
  0
VERTEX
  8
PNOA-H_AMS_1956-57_33k_ES_PAN_21mic_H50_0405_fot_44B-36269_W_tif
  70
32
  10
493168.500
  20
4585329.000
  30
1025.942
  0
VERTEX
  8
PNOA-H_AMS_1956-57_33k_ES_PAN_21mic_H50_0405_fot_44B-36269_W_tif
  70
32
  10
493170.000
  20
4585329.000
  30
1026.435
  0
VERTEX
  8
PNOA-H_AMS_1956-57_33k_ES_PAN_21mic_H50_0405_fot_44B-36269_W_tif
  70
32
  10
493192.500
  20
4585320.000
  30
1029.676
  0
VERTEX
  8
PNOA-H_AMS_1956-57_33k_ES_PAN_21mic_H50_0405_fot_44B-36269_W_tif
  70
32
  10
494515.263
  20
4584788.095
  30
1120.694
  0
VERTEX
  8
PNOA-H_AMS_1956-57_33k_ES_PAN_21mic_H50_0405_fot_44B-36269_W_tif
  70
32
  10
494515.500
  20
4584788.000
  30
1120.711
  0
VERTEX
  8
PNOA-H_AMS_1956-57_33k_ES_PAN_21mic_H50_0405_fot_44B-36269_W_tif
  70
32
  10
494460.500
  20
4580957.000
  30
1193.657
  0
VERTEX
  8
PNOA-H_AMS_1956-57_33k_ES_PAN_21mic_H50_0405_fot_44B-36269_W_tif
  70
32
  10
494337.500
  20
4580901.000
  30
1195.281
  0
VERTEX
  8
PNOA-H_AMS_1956-57_33k_ES_PAN_21mic_H50_0405_fot_44B-36269_W_tif
  70
32
  10
494336.071
  20
4580901.000
  30
1195.343
  0
VERTEX
  8
PNOA-H_AMS_1956-57_33k_ES_PAN_21mic_H50_0405_fot_44B-36269_W_tif
  70
32
  10
494336.000
  20
4580901.000
  30
1195.346
  0
VERTEX
  8
PNOA-H_AMS_1956-57_33k_ES_PAN_21mic_H50_0405_fot_44B-36269_W_tif
  70
32
  10
494309.042
  20
4580888.737
  30
1195.918
  0
VERTEX
  8
PNOA-H_AMS_1956-57_33k_ES_PAN_21mic_H50_0405_fot_44B-36269_W_tif
  70
32
  10
493831.500
  20
4580671.500
  30
1206.055
  0
VERTEX
  8
PNOA-H_AMS_1956-57_33k_ES_PAN_21mic_H50_0405_fot_44B-36269_W_tif
  70
32
  10
493817.161
  20
4580665.388
  30
1206.221
  0
VERTEX
  8
PNOA-H_AMS_1956-57_33k_ES_PAN_21mic_H50_0405_fot_44B-36269_W_tif
  70
32
  10
493801.213
  20
4580658.591
  30
1206.405
  0
SEQEND
  8
PNOA-H_AMS_1956-57_33k_ES_PAN_21mic_H50_0405_fot_44B-36269_W_tif
  0
INSERT
  8
FeatureAttribs
  2
FEATURE
  41
1
  42
1
  43
1
  50
0
  10
491780.380
  20
4587167.000
 66
1
  0
ATTRIB
  8
FeatureAttribs
 70
0
  1
PNOA-H_AMS_1956-57_33k_ES_PAN_21mic_H50_0405_fot_43B-29645_E.tif
  2
NAME
  10
491780.380
  20
4587167.000
 40
33.48059
  0
SEQEND
  0
POLYLINE
  8
PNOA-H_AMS_1956-57_33k_ES_PAN_21mic_H50_0405_fot_43B-29645_E_tif
  70
9
  66
1
  0
VERTEX
  8
PNOA-H_AMS_1956-57_33k_ES_PAN_21mic_H50_0405_fot_43B-29645_E_tif
  70
32
  10
491581.591
  20
4584839.682
  30
1086.2
  0
VERTEX
  8
PNOA-H_AMS_1956-57_33k_ES_PAN_21mic_H50_0405_fot_43B-29645_E_tif
  70
32
  10
491581.000
  20
4584839.500
  30
1086.223
  0
VERTEX
  8
PNOA-H_AMS_1956-57_33k_ES_PAN_21mic_H50_0405_fot_43B-29645_E_tif
  70
32
  10
490345.376
  20
4585390.832
  30
1084.369
  0
VERTEX
  8
PNOA-H_AMS_1956-57_33k_ES_PAN_21mic_H50_0405_fot_43B-29645_E_tif
  70
32
  10
490345.000
  20
4585391.000
  30
1084.369
  0
VERTEX
  8
PNOA-H_AMS_1956-57_33k_ES_PAN_21mic_H50_0405_fot_43B-29645_E_tif
  70
32
  10
490442.500
  20
4589288.500
  30
1035.675
  0
VERTEX
  8
PNOA-H_AMS_1956-57_33k_ES_PAN_21mic_H50_0405_fot_43B-29645_E_tif
  70
32
  10
490869.000
  20
4589494.000
  30
1013.539
  0
VERTEX
  8
PNOA-H_AMS_1956-57_33k_ES_PAN_21mic_H50_0405_fot_43B-29645_E_tif
  70
32
  10
490870.000
  20
4589494.500
  30
1013.614
  0
VERTEX
  8
PNOA-H_AMS_1956-57_33k_ES_PAN_21mic_H50_0405_fot_43B-29645_E_tif
  70
32
  10
490870.803
  20
4589494.405
  30
1013.61
  0
VERTEX
  8
PNOA-H_AMS_1956-57_33k_ES_PAN_21mic_H50_0405_fot_43B-29645_E_tif
  70
32
  10
493174.500
  20
4589222.500
  30
1000.477
  0
VERTEX
  8
PNOA-H_AMS_1956-57_33k_ES_PAN_21mic_H50_0405_fot_43B-29645_E_tif
  70
32
  10
493168.500
  20
4585329.000
  30
1025.942
  0
VERTEX
  8
PNOA-H_AMS_1956-57_33k_ES_PAN_21mic_H50_0405_fot_43B-29645_E_tif
  70
32
  10
492216.000
  20
4585035.300
  30
1062.11
  0
VERTEX
  8
PNOA-H_AMS_1956-57_33k_ES_PAN_21mic_H50_0405_fot_43B-29645_E_tif
  70
32
  10
491581.591
  20
4584839.682
  30
1086.2
  0
SEQEND
  8
PNOA-H_AMS_1956-57_33k_ES_PAN_21mic_H50_0405_fot_43B-29645_E_tif
  0
INSERT
  8
FeatureAttribs
  2
FEATURE
  41
1
  42
1
  43
1
  50
0
  10
494545.671
  20
4587141.000
 66
1
  0
ATTRIB
  8
FeatureAttribs
 70
0
  1
PNOA-H_AMS_1956-57_33k_ES_PAN_21mic_H50_0405_fot_43B-29646_E.tif
  2
NAME
  10
494545.671
  20
4587141.000
 40
33.48059
  0
SEQEND
  0
POLYLINE
  8
PNOA-H_AMS_1956-57_33k_ES_PAN_21mic_H50_0405_fot_43B-29646_E_tif
  70
9
  66
1
  0
VERTEX
  8
PNOA-H_AMS_1956-57_33k_ES_PAN_21mic_H50_0405_fot_43B-29646_E_tif
  70
32
  10
494515.263
  20
4584788.095
  30
1120.648
  0
VERTEX
  8
PNOA-H_AMS_1956-57_33k_ES_PAN_21mic_H50_0405_fot_43B-29646_E_tif
  70
32
  10
494514.500
  20
4584788.000
  30
1120.55
  0
VERTEX
  8
PNOA-H_AMS_1956-57_33k_ES_PAN_21mic_H50_0405_fot_43B-29646_E_tif
  70
32
  10
493168.500
  20
4585329.000
  30
1025.942
  0
VERTEX
  8
PNOA-H_AMS_1956-57_33k_ES_PAN_21mic_H50_0405_fot_43B-29646_E_tif
  70
32
  10
493174.500
  20
4589222.500
  30
1000.477
  0
VERTEX
  8
PNOA-H_AMS_1956-57_33k_ES_PAN_21mic_H50_0405_fot_43B-29646_E_tif
  70
32
  10
493174.597
  20
4589222.548
  30
1000.478
  0
VERTEX
  8
PNOA-H_AMS_1956-57_33k_ES_PAN_21mic_H50_0405_fot_43B-29646_E_tif
  70
32
  10
493727.500
  20
4589493.500
  30
1004.815
  0
VERTEX
  8
PNOA-H_AMS_1956-57_33k_ES_PAN_21mic_H50_0405_fot_43B-29646_E_tif
  70
32
  10
493728.500
  20
4589494.000
  30
1004.894
  0
VERTEX
  8
PNOA-H_AMS_1956-57_33k_ES_PAN_21mic_H50_0405_fot_43B-29646_E_tif
  70
32
  10
493728.894
  20
4589493.948
  30
1004.896
  0
VERTEX
  8
PNOA-H_AMS_1956-57_33k_ES_PAN_21mic_H50_0405_fot_43B-29646_E_tif
  70
32
  10
495896.000
  20
4589208.000
  30
1013.702
  0
VERTEX
  8
PNOA-H_AMS_1956-57_33k_ES_PAN_21mic_H50_0405_fot_43B-29646_E_tif
  70
32
  10
495941.494
  20
4585297.998
  30
1087.353
  0
VERTEX
  8
PNOA-H_AMS_1956-57_33k_ES_PAN_21mic_H50_0405_fot_43B-29646_E_tif
  70
32
  10
495941.500
  20
4585297.500
  30
1087.362
  0
VERTEX
  8
PNOA-H_AMS_1956-57_33k_ES_PAN_21mic_H50_0405_fot_43B-29646_E_tif
  70
32
  10
494518.500
  20
4584788.500
  30
1121.064
  0
VERTEX
  8
PNOA-H_AMS_1956-57_33k_ES_PAN_21mic_H50_0405_fot_43B-29646_E_tif
  70
32
  10
494516.037
  20
4584788.192
  30
1120.748
  0
VERTEX
  8
PNOA-H_AMS_1956-57_33k_ES_PAN_21mic_H50_0405_fot_43B-29646_E_tif
  70
32
  10
494515.263
  20
4584788.095
  30
1120.648
  0
SEQEND
  8
PNOA-H_AMS_1956-57_33k_ES_PAN_21mic_H50_0405_fot_43B-29646_E_tif
  0
INSERT
  8
FeatureAttribs
  2
FEATURE
  41
1
  42
1
  43
1
  50
0
  10
497273.735
  20
4587152.750
 66
1
  0
ATTRIB
  8
FeatureAttribs
 70
0
  1
PNOA-H_AMS_1956-57_33k_ES_PAN_21mic_H50_0405_fot_43B-29647_E.tif
  2
NAME
  10
497273.735
  20
4587152.750
 40
33.48059
  0
SEQEND
  0
POLYLINE
  8
PNOA-H_AMS_1956-57_33k_ES_PAN_21mic_H50_0405_fot_43B-29647_E_tif
  70
9
  66
1
  0
VERTEX
  8
PNOA-H_AMS_1956-57_33k_ES_PAN_21mic_H50_0405_fot_43B-29647_E_tif
  70
32
  10
497557.704
  20
4584783.094
  30
1065.435
  0
VERTEX
  8
PNOA-H_AMS_1956-57_33k_ES_PAN_21mic_H50_0405_fot_43B-29647_E_tif
  70
32
  10
497557.500
  20
4584783.000
  30
1065.424
  0
VERTEX
  8
PNOA-H_AMS_1956-57_33k_ES_PAN_21mic_H50_0405_fot_43B-29647_E_tif
  70
32
  10
496749.750
  20
4585040.500
  30
1076.384
  0
VERTEX
  8
PNOA-H_AMS_1956-57_33k_ES_PAN_21mic_H50_0405_fot_43B-29647_E_tif
  70
32
  10
495942.000
  20
4585298.000
  30
1087.345
  0
VERTEX
  8
PNOA-H_AMS_1956-57_33k_ES_PAN_21mic_H50_0405_fot_43B-29647_E_tif
  70
32
  10
495896.000
  20
4589208.000
  30
1013.702
  0
VERTEX
  8
PNOA-H_AMS_1956-57_33k_ES_PAN_21mic_H50_0405_fot_43B-29647_E_tif
  70
32
  10
495896.111
  20
4589208.051
  30
1013.685
  0
VERTEX
  8
PNOA-H_AMS_1956-57_33k_ES_PAN_21mic_H50_0405_fot_43B-29647_E_tif
  70
32
  10
496074.500
  20
4589290.500
  30
986.401
  0
VERTEX
  8
PNOA-H_AMS_1956-57_33k_ES_PAN_21mic_H50_0405_fot_43B-29647_E_tif
  70
32
  10
496075.500
  20
4589291.000
  30
986.297
  0
VERTEX
  8
PNOA-H_AMS_1956-57_33k_ES_PAN_21mic_H50_0405_fot_43B-29647_E_tif
  70
32
  10
496572.500
  20
4589520.000
  30
963.702
  0
VERTEX
  8
PNOA-H_AMS_1956-57_33k_ES_PAN_21mic_H50_0405_fot_43B-29647_E_tif
  70
32
  10
496578.000
  20
4589522.500
  30
964.063
  0
VERTEX
  8
PNOA-H_AMS_1956-57_33k_ES_PAN_21mic_H50_0405_fot_43B-29647_E_tif
  70
32
  10
496579.000
  20
4589522.500
  30
964.241
  0
VERTEX
  8
PNOA-H_AMS_1956-57_33k_ES_PAN_21mic_H50_0405_fot_43B-29647_E_tif
  70
32
  10
496581.000
  20
4589522.500
  30
964.597
  0
VERTEX
  8
PNOA-H_AMS_1956-57_33k_ES_PAN_21mic_H50_0405_fot_43B-29647_E_tif
  70
32
  10
498605.500
  20
4589188.000
  30
948.373
  0
VERTEX
  8
PNOA-H_AMS_1956-57_33k_ES_PAN_21mic_H50_0405_fot_43B-29647_E_tif
  70
32
  10
498606.298
  20
4589113.462
  30
951.726
  0
VERTEX
  8
PNOA-H_AMS_1956-57_33k_ES_PAN_21mic_H50_0405_fot_43B-29647_E_tif
  70
32
  10
498647.000
  20
4585312.000
  30
1122.693
  0
VERTEX
  8
PNOA-H_AMS_1956-57_33k_ES_PAN_21mic_H50_0405_fot_43B-29647_E_tif
  70
32
  10
498646.825
  20
4585302.919
  30
1122.875
  0
VERTEX
  8
PNOA-H_AMS_1956-57_33k_ES_PAN_21mic_H50_0405_fot_43B-29647_E_tif
  70
32
  10
498646.510
  20
4585286.498
  30
1123.205
  0
VERTEX
  8
PNOA-H_AMS_1956-57_33k_ES_PAN_21mic_H50_0405_fot_43B-29647_E_tif
  70
32
  10
498646.500
  20
4585286.000
  30
1123.215
  0
VERTEX
  8
PNOA-H_AMS_1956-57_33k_ES_PAN_21mic_H50_0405_fot_43B-29647_E_tif
  70
32
  10
497920.500
  20
4584950.667
  30
1084.688
  0
VERTEX
  8
PNOA-H_AMS_1956-57_33k_ES_PAN_21mic_H50_0405_fot_43B-29647_E_tif
  70
32
  10
497557.704
  20
4584783.094
  30
1065.435
  0
SEQEND
  8
PNOA-H_AMS_1956-57_33k_ES_PAN_21mic_H50_0405_fot_43B-29647_E_tif
  0
INSERT
  8
FeatureAttribs
  2
FEATURE
  41
1
  42
1
  43
1
  50
0
  10
492442.363
  20
4578693.500
 66
1
  0
ATTRIB
  8
FeatureAttribs
 70
0
  1
PNOA-H_AMS_1956-57_33k_ES_PAN_21mic_H50_0405_fot_45B-36174_E.tif
  2
NAME
  10
492442.363
  20
4578693.500
 40
33.48059
  0
SEQEND
  0
POLYLINE
  8
PNOA-H_AMS_1956-57_33k_ES_PAN_21mic_H50_0405_fot_45B-36174_E_tif
  70
9
  66
1
  0
VERTEX
  8
PNOA-H_AMS_1956-57_33k_ES_PAN_21mic_H50_0405_fot_45B-36174_E_tif
  70
32
  10
493769.714
  20
4576972.405
  30
1312.828
  0
VERTEX
  8
PNOA-H_AMS_1956-57_33k_ES_PAN_21mic_H50_0405_fot_45B-36174_E_tif
  70
32
  10
493264.000
  20
4576805.000
  30
1330.643
  0
VERTEX
  8
PNOA-H_AMS_1956-57_33k_ES_PAN_21mic_H50_0405_fot_45B-36174_E_tif
  70
32
  10
493262.776
  20
4576805.000
  30
1330.863
  0
VERTEX
  8
PNOA-H_AMS_1956-57_33k_ES_PAN_21mic_H50_0405_fot_45B-36174_E_tif
  70
32
  10
493262.500
  20
4576805.000
  30
1330.912
  0
VERTEX
  8
PNOA-H_AMS_1956-57_33k_ES_PAN_21mic_H50_0405_fot_45B-36174_E_tif
  70
32
  10
493113.192
  20
4576755.554
  30
1323.264
  0
VERTEX
  8
PNOA-H_AMS_1956-57_33k_ES_PAN_21mic_H50_0405_fot_45B-36174_E_tif
  70
32
  10
492263.000
  20
4576474.000
  30
1279.713
  0
VERTEX
  8
PNOA-H_AMS_1956-57_33k_ES_PAN_21mic_H50_0405_fot_45B-36174_E_tif
  70
32
  10
492211.500
  20
4576457.000
  30
1288.667
  0
VERTEX
  8
PNOA-H_AMS_1956-57_33k_ES_PAN_21mic_H50_0405_fot_45B-36174_E_tif
  70
32
  10
492210.000
  20
4576457.000
  30
1288.847
  0
VERTEX
  8
PNOA-H_AMS_1956-57_33k_ES_PAN_21mic_H50_0405_fot_45B-36174_E_tif
  70
32
  10
492209.000
  20
4576457.000
  30
1288.967
  0
VERTEX
  8
PNOA-H_AMS_1956-57_33k_ES_PAN_21mic_H50_0405_fot_45B-36174_E_tif
  70
32
  10
491075.720
  20
4576939.407
  30
1240.761
  0
VERTEX
  8
PNOA-H_AMS_1956-57_33k_ES_PAN_21mic_H50_0405_fot_45B-36174_E_tif
  70
32
  10
491075.507
  20
4576939.497
  30
1240.752
  0
VERTEX
  8
PNOA-H_AMS_1956-57_33k_ES_PAN_21mic_H50_0405_fot_45B-36174_E_tif
  70
32
  10
491075.500
  20
4576939.500
  30
1240.752
  0
VERTEX
  8
PNOA-H_AMS_1956-57_33k_ES_PAN_21mic_H50_0405_fot_45B-36174_E_tif
  70
32
  10
491128.500
  20
4580767.500
  30
1197.177
  0
VERTEX
  8
PNOA-H_AMS_1956-57_33k_ES_PAN_21mic_H50_0405_fot_45B-36174_E_tif
  70
32
  10
491128.978
  20
4580769.411
  30
1197.204
  0
VERTEX
  8
PNOA-H_AMS_1956-57_33k_ES_PAN_21mic_H50_0405_fot_45B-36174_E_tif
  70
32
  10
491129.377
  20
4580771.008
  30
1197.227
  0
VERTEX
  8
PNOA-H_AMS_1956-57_33k_ES_PAN_21mic_H50_0405_fot_45B-36174_E_tif
  70
32
  10
491129.500
  20
4580771.500
  30
1197.234
  0
VERTEX
  8
PNOA-H_AMS_1956-57_33k_ES_PAN_21mic_H50_0405_fot_45B-36174_E_tif
  70
32
  10
491445.500
  20
4580930.000
  30
1191.211
  0
VERTEX
  8
PNOA-H_AMS_1956-57_33k_ES_PAN_21mic_H50_0405_fot_45B-36174_E_tif
  70
32
  10
491446.313
  20
4580929.906
  30
1191.216
  0
VERTEX
  8
PNOA-H_AMS_1956-57_33k_ES_PAN_21mic_H50_0405_fot_45B-36174_E_tif
  70
32
  10
492623.750
  20
4580794.250
  30
1198.811
  0
VERTEX
  8
PNOA-H_AMS_1956-57_33k_ES_PAN_21mic_H50_0405_fot_45B-36174_E_tif
  70
32
  10
493801.213
  20
4580658.591
  30
1206.406
  0
VERTEX
  8
PNOA-H_AMS_1956-57_33k_ES_PAN_21mic_H50_0405_fot_45B-36174_E_tif
  70
32
  10
493802.000
  20
4580658.500
  30
1206.411
  0
VERTEX
  8
PNOA-H_AMS_1956-57_33k_ES_PAN_21mic_H50_0405_fot_45B-36174_E_tif
  70
32
  10
493770.000
  20
4576972.500
  30
1312.818
  0
VERTEX
  8
PNOA-H_AMS_1956-57_33k_ES_PAN_21mic_H50_0405_fot_45B-36174_E_tif
  70
32
  10
493769.714
  20
4576972.405
  30
1312.828
  0
SEQEND
  8
PNOA-H_AMS_1956-57_33k_ES_PAN_21mic_H50_0405_fot_45B-36174_E_tif
  0
INSERT
  8
FeatureAttribs
  2
FEATURE
  41
1
  42
1
  43
1
  50
0
  10
497788.941
  20
4578737.250
 66
1
  0
ATTRIB
  8
FeatureAttribs
 70
0
  1
PNOA-H_AMS_1956-57_33k_ES_PAN_21mic_H50_0405_fot_45B-36176_E.tif
  2
NAME
  10
497788.941
  20
4578737.250
 40
33.48059
  0
SEQEND
  0
POLYLINE
  8
PNOA-H_AMS_1956-57_33k_ES_PAN_21mic_H50_0405_fot_45B-36176_E_tif
  70
9
  66
1
  0
VERTEX
  8
PNOA-H_AMS_1956-57_33k_ES_PAN_21mic_H50_0405_fot_45B-36176_E_tif
  70
32
  10
498973.085
  20
4576920.194
  30
1333.266
  0
VERTEX
  8
PNOA-H_AMS_1956-57_33k_ES_PAN_21mic_H50_0405_fot_45B-36176_E_tif
  70
32
  10
498617.500
  20
4576805.000
  30
1326.416
  0
VERTEX
  8
PNOA-H_AMS_1956-57_33k_ES_PAN_21mic_H50_0405_fot_45B-36176_E_tif
  70
32
  10
498616.388
  20
4576805.000
  30
1326.314
  0
VERTEX
  8
PNOA-H_AMS_1956-57_33k_ES_PAN_21mic_H50_0405_fot_45B-36176_E_tif
  70
32
  10
498616.000
  20
4576805.000
  30
1326.278
  0
VERTEX
  8
PNOA-H_AMS_1956-57_33k_ES_PAN_21mic_H50_0405_fot_45B-36176_E_tif
  70
32
  10
498435.826
  20
4576746.688
  30
1324.188
  0
VERTEX
  8
PNOA-H_AMS_1956-57_33k_ES_PAN_21mic_H50_0405_fot_45B-36176_E_tif
  70
32
  10
497583.999
  20
4576471.000
  30
1314.309
  0
VERTEX
  8
PNOA-H_AMS_1956-57_33k_ES_PAN_21mic_H50_0405_fot_45B-36176_E_tif
  70
32
  10
496441.218
  20
4576975.904
  30
1304.149
  0
VERTEX
  8
PNOA-H_AMS_1956-57_33k_ES_PAN_21mic_H50_0405_fot_45B-36176_E_tif
  70
32
  10
496441.002
  20
4576975.999
  30
1304.147
  0
VERTEX
  8
PNOA-H_AMS_1956-57_33k_ES_PAN_21mic_H50_0405_fot_45B-36176_E_tif
  70
32
  10
496441.000
  20
4576976.000
  30
1304.147
  0
VERTEX
  8
PNOA-H_AMS_1956-57_33k_ES_PAN_21mic_H50_0405_fot_45B-36176_E_tif
  70
32
  10
496455.500
  20
4580579.500
  30
1211.073
  0
VERTEX
  8
PNOA-H_AMS_1956-57_33k_ES_PAN_21mic_H50_0405_fot_45B-36176_E_tif
  70
32
  10
496457.133
  20
4580580.127
  30
1211.036
  0
VERTEX
  8
PNOA-H_AMS_1956-57_33k_ES_PAN_21mic_H50_0405_fot_45B-36176_E_tif
  70
32
  10
497560.500
  20
4581003.500
  30
1186.478
  0
VERTEX
  8
PNOA-H_AMS_1956-57_33k_ES_PAN_21mic_H50_0405_fot_45B-36176_E_tif
  70
32
  10
499125.998
  20
4580551.145
  30
1209.906
  0
VERTEX
  8
PNOA-H_AMS_1956-57_33k_ES_PAN_21mic_H50_0405_fot_45B-36176_E_tif
  70
32
  10
499126.500
  20
4580551.000
  30
1209.914
  0
VERTEX
  8
PNOA-H_AMS_1956-57_33k_ES_PAN_21mic_H50_0405_fot_45B-36176_E_tif
  70
32
  10
499133.000
  20
4576972.000
  30
1336.347
  0
VERTEX
  8
PNOA-H_AMS_1956-57_33k_ES_PAN_21mic_H50_0405_fot_45B-36176_E_tif
  70
32
  10
498973.085
  20
4576920.194
  30
1333.266
  0
SEQEND
  8
PNOA-H_AMS_1956-57_33k_ES_PAN_21mic_H50_0405_fot_45B-36176_E_tif
  0
INSERT
  8
FeatureAttribs
  2
FEATURE
  41
1
  42
1
  43
1
  50
0
  10
495116.521
  20
4578708.250
 66
1
  0
ATTRIB
  8
FeatureAttribs
 70
0
  1
PNOA-H_AMS_1956-57_33k_ES_PAN_21mic_H50_0405_fot_45B-36175_E.tif
  2
NAME
  10
495116.521
  20
4578708.250
 40
33.48059
  0
SEQEND
  0
POLYLINE
  8
PNOA-H_AMS_1956-57_33k_ES_PAN_21mic_H50_0405_fot_45B-36175_E_tif
  70
9
  66
1
  0
VERTEX
  8
PNOA-H_AMS_1956-57_33k_ES_PAN_21mic_H50_0405_fot_45B-36175_E_tif
  70
32
  10
496441.000
  20
4576975.500
  30
1304.238
  0
VERTEX
  8
PNOA-H_AMS_1956-57_33k_ES_PAN_21mic_H50_0405_fot_45B-36175_E_tif
  70
32
  10
494926.500
  20
4576459.500
  30
1131.862
  0
VERTEX
  8
PNOA-H_AMS_1956-57_33k_ES_PAN_21mic_H50_0405_fot_45B-36175_E_tif
  70
32
  10
494925.555
  20
4576459.689
  30
1131.799
  0
VERTEX
  8
PNOA-H_AMS_1956-57_33k_ES_PAN_21mic_H50_0405_fot_45B-36175_E_tif
  70
32
  10
494923.770
  20
4576460.046
  30
1131.682
  0
VERTEX
  8
PNOA-H_AMS_1956-57_33k_ES_PAN_21mic_H50_0405_fot_45B-36175_E_tif
  70
32
  10
494921.500
  20
4576460.500
  30
1131.533
  0
VERTEX
  8
PNOA-H_AMS_1956-57_33k_ES_PAN_21mic_H50_0405_fot_45B-36175_E_tif
  70
32
  10
493770.000
  20
4576972.000
  30
1312.81
  0
VERTEX
  8
PNOA-H_AMS_1956-57_33k_ES_PAN_21mic_H50_0405_fot_45B-36175_E_tif
  70
32
  10
493770.002
  20
4576972.277
  30
1312.802
  0
VERTEX
  8
PNOA-H_AMS_1956-57_33k_ES_PAN_21mic_H50_0405_fot_45B-36175_E_tif
  70
32
  10
493802.000
  20
4580658.500
  30
1206.411
  0
VERTEX
  8
PNOA-H_AMS_1956-57_33k_ES_PAN_21mic_H50_0405_fot_45B-36175_E_tif
  70
32
  10
493817.161
  20
4580665.388
  30
1206.101
  0
VERTEX
  8
PNOA-H_AMS_1956-57_33k_ES_PAN_21mic_H50_0405_fot_45B-36175_E_tif
  70
32
  10
494026.500
  20
4580760.500
  30
1201.813
  0
VERTEX
  8
PNOA-H_AMS_1956-57_33k_ES_PAN_21mic_H50_0405_fot_45B-36175_E_tif
  70
32
  10
494027.500
  20
4580761.000
  30
1201.803
  0
VERTEX
  8
PNOA-H_AMS_1956-57_33k_ES_PAN_21mic_H50_0405_fot_45B-36175_E_tif
  70
32
  10
494309.042
  20
4580888.737
  30
1196.495
  0
VERTEX
  8
PNOA-H_AMS_1956-57_33k_ES_PAN_21mic_H50_0405_fot_45B-36175_E_tif
  70
32
  10
494336.071
  20
4580901.000
  30
1195.985
  0
VERTEX
  8
PNOA-H_AMS_1956-57_33k_ES_PAN_21mic_H50_0405_fot_45B-36175_E_tif
  70
32
  10
494459.500
  20
4580957.000
  30
1193.658
  0
VERTEX
  8
PNOA-H_AMS_1956-57_33k_ES_PAN_21mic_H50_0405_fot_45B-36175_E_tif
  70
32
  10
494460.500
  20
4580957.000
  30
1193.657
  0
VERTEX
  8
PNOA-H_AMS_1956-57_33k_ES_PAN_21mic_H50_0405_fot_45B-36175_E_tif
  70
32
  10
494462.500
  20
4580957.000
  30
1193.656
  0
VERTEX
  8
PNOA-H_AMS_1956-57_33k_ES_PAN_21mic_H50_0405_fot_45B-36175_E_tif
  70
32
  10
496454.730
  20
4580579.646
  30
1211.066
  0
VERTEX
  8
PNOA-H_AMS_1956-57_33k_ES_PAN_21mic_H50_0405_fot_45B-36175_E_tif
  70
32
  10
496455.500
  20
4580579.500
  30
1211.073
  0
VERTEX
  8
PNOA-H_AMS_1956-57_33k_ES_PAN_21mic_H50_0405_fot_45B-36175_E_tif
  70
32
  10
496441.002
  20
4576975.999
  30
1304.225
  0
VERTEX
  8
PNOA-H_AMS_1956-57_33k_ES_PAN_21mic_H50_0405_fot_45B-36175_E_tif
  70
32
  10
496441.001
  20
4576975.830
  30
1304.229
  0
VERTEX
  8
PNOA-H_AMS_1956-57_33k_ES_PAN_21mic_H50_0405_fot_45B-36175_E_tif
  70
32
  10
496441.000
  20
4576975.500
  30
1304.238
  0
SEQEND
  8
PNOA-H_AMS_1956-57_33k_ES_PAN_21mic_H50_0405_fot_45B-36175_E_tif
  0
INSERT
  8
FeatureAttribs
  2
FEATURE
  41
1
  42
1
  43
1
  50
0
  10
496254.632
  20
4576368.916
 66
1
  0
ATTRIB
  8
FeatureAttribs
 70
0
  1
PNOA-H_AMS_1956-57_33k_ES_PAN_21mic_H50_0433_fot_46B-29787_E.tif
  2
NAME
  10
496254.632
  20
4576368.916
 40
33.48059
  0
SEQEND
  0
POLYLINE
  8
PNOA-H_AMS_1956-57_33k_ES_PAN_21mic_H50_0433_fot_46B-29787_E_tif
  70
9
  66
1
  0
VERTEX
  8
PNOA-H_AMS_1956-57_33k_ES_PAN_21mic_H50_0433_fot_46B-29787_E_tif
  70
32
  10
497583.999
  20
4576471.000
  30
1314.285
  0
VERTEX
  8
PNOA-H_AMS_1956-57_33k_ES_PAN_21mic_H50_0433_fot_46B-29787_E_tif
  70
32
  10
497581.723
  20
4575761.831
  30
1303.811
  0
VERTEX
  8
PNOA-H_AMS_1956-57_33k_ES_PAN_21mic_H50_0433_fot_46B-29787_E_tif
  70
32
  10
494929.647
  20
4575763.105
  30
1147.066
  0
VERTEX
  8
PNOA-H_AMS_1956-57_33k_ES_PAN_21mic_H50_0433_fot_46B-29787_E_tif
  70
32
  10
494929.548
  20
4575763.105
  30
1147.061
  0
VERTEX
  8
PNOA-H_AMS_1956-57_33k_ES_PAN_21mic_H50_0433_fot_46B-29787_E_tif
  70
32
  10
494925.000
  20
4576459.500
  30
1131.78
  0
VERTEX
  8
PNOA-H_AMS_1956-57_33k_ES_PAN_21mic_H50_0433_fot_46B-29787_E_tif
  70
32
  10
494925.555
  20
4576459.689
  30
1131.887
  0
VERTEX
  8
PNOA-H_AMS_1956-57_33k_ES_PAN_21mic_H50_0433_fot_46B-29787_E_tif
  70
32
  10
496074.000
  20
4576851.000
  30
1354.387
  0
VERTEX
  8
PNOA-H_AMS_1956-57_33k_ES_PAN_21mic_H50_0433_fot_46B-29787_E_tif
  70
32
  10
496075.500
  20
4576851.500
  30
1354.064
  0
VERTEX
  8
PNOA-H_AMS_1956-57_33k_ES_PAN_21mic_H50_0433_fot_46B-29787_E_tif
  70
32
  10
496441.001
  20
4576975.830
  30
1304.252
  0
VERTEX
  8
PNOA-H_AMS_1956-57_33k_ES_PAN_21mic_H50_0433_fot_46B-29787_E_tif
  70
32
  10
496441.218
  20
4576975.904
  30
1304.223
  0
VERTEX
  8
PNOA-H_AMS_1956-57_33k_ES_PAN_21mic_H50_0433_fot_46B-29787_E_tif
  70
32
  10
496441.500
  20
4576976.000
  30
1304.184
  0
VERTEX
  8
PNOA-H_AMS_1956-57_33k_ES_PAN_21mic_H50_0433_fot_46B-29787_E_tif
  70
32
  10
497584.000
  20
4576471.500
  30
1314.292
  0
VERTEX
  8
PNOA-H_AMS_1956-57_33k_ES_PAN_21mic_H50_0433_fot_46B-29787_E_tif
  70
32
  10
497583.999
  20
4576471.000
  30
1314.285
  0
SEQEND
  8
PNOA-H_AMS_1956-57_33k_ES_PAN_21mic_H50_0433_fot_46B-29787_E_tif
  0
INSERT
  8
FeatureAttribs
  2
FEATURE
  41
1
  42
1
  43
1
  50
0
  10
498932.234
  20
4576366.754
 66
1
  0
ATTRIB
  8
FeatureAttribs
 70
0
  1
PNOA-H_AMS_1956-57_33k_ES_PAN_21mic_H50_0433_fot_46B-29786_E.tif
  2
NAME
  10
498932.234
  20
4576366.754
 40
33.48059
  0
SEQEND
  0
POLYLINE
  8
PNOA-H_AMS_1956-57_33k_ES_PAN_21mic_H50_0433_fot_46B-29786_E_tif
  70
9
  66
1
  0
VERTEX
  8
PNOA-H_AMS_1956-57_33k_ES_PAN_21mic_H50_0433_fot_46B-29786_E_tif
  70
32
  10
500269.859
  20
4575761.507
  30
1281.207
  0
VERTEX
  8
PNOA-H_AMS_1956-57_33k_ES_PAN_21mic_H50_0433_fot_46B-29786_E_tif
  70
32
  10
498256.742
  20
4575761.507
  30
0
  0
VERTEX
  8
PNOA-H_AMS_1956-57_33k_ES_PAN_21mic_H50_0433_fot_46B-29786_E_tif
  70
32
  10
497581.723
  20
4575761.831
  30
1303.838
  0
VERTEX
  8
PNOA-H_AMS_1956-57_33k_ES_PAN_21mic_H50_0433_fot_46B-29786_E_tif
  70
32
  10
497583.999
  20
4576471.000
  30
1314.309
  0
VERTEX
  8
PNOA-H_AMS_1956-57_33k_ES_PAN_21mic_H50_0433_fot_46B-29786_E_tif
  70
32
  10
498121.000
  20
4576645.000
  30
1310.087
  0
VERTEX
  8
PNOA-H_AMS_1956-57_33k_ES_PAN_21mic_H50_0433_fot_46B-29786_E_tif
  70
32
  10
498122.500
  20
4576645.500
  30
1310.134
  0
VERTEX
  8
PNOA-H_AMS_1956-57_33k_ES_PAN_21mic_H50_0433_fot_46B-29786_E_tif
  70
32
  10
498435.826
  20
4576746.688
  30
1318.269
  0
VERTEX
  8
PNOA-H_AMS_1956-57_33k_ES_PAN_21mic_H50_0433_fot_46B-29786_E_tif
  70
32
  10
498616.388
  20
4576805.000
  30
1322.957
  0
VERTEX
  8
PNOA-H_AMS_1956-57_33k_ES_PAN_21mic_H50_0433_fot_46B-29786_E_tif
  70
32
  10
498973.085
  20
4576920.194
  30
1332.218
  0
VERTEX
  8
PNOA-H_AMS_1956-57_33k_ES_PAN_21mic_H50_0433_fot_46B-29786_E_tif
  70
32
  10
499133.204
  20
4576971.904
  30
1336.375
  0
VERTEX
  8
PNOA-H_AMS_1956-57_33k_ES_PAN_21mic_H50_0433_fot_46B-29786_E_tif
  70
32
  10
499133.500
  20
4576972.000
  30
1336.383
  0
VERTEX
  8
PNOA-H_AMS_1956-57_33k_ES_PAN_21mic_H50_0433_fot_46B-29786_E_tif
  70
32
  10
500281.793
  20
4576433.597
  30
1288.463
  0
VERTEX
  8
PNOA-H_AMS_1956-57_33k_ES_PAN_21mic_H50_0433_fot_46B-29786_E_tif
  70
32
  10
500282.000
  20
4576433.500
  30
1288.454
  0
VERTEX
  8
PNOA-H_AMS_1956-57_33k_ES_PAN_21mic_H50_0433_fot_46B-29786_E_tif
  70
32
  10
500269.960
  20
4575761.507
  30
1281.206
  0
VERTEX
  8
PNOA-H_AMS_1956-57_33k_ES_PAN_21mic_H50_0433_fot_46B-29786_E_tif
  70
32
  10
500269.859
  20
4575761.507
  30
1281.207
  0
SEQEND
  8
PNOA-H_AMS_1956-57_33k_ES_PAN_21mic_H50_0433_fot_46B-29786_E_tif
  0
INSERT
  8
FeatureAttribs
  2
FEATURE
  41
1
  42
1
  43
1
  50
0
  10
493569.328
  20
4576367.803
 66
1
  0
ATTRIB
  8
FeatureAttribs
 70
0
  1
PNOA-H_AMS_1956-57_33k_ES_PAN_21mic_H50_0433_fot_46B-29788_E.tif
  2
NAME
  10
493569.328
  20
4576367.803
 40
33.48059
  0
SEQEND
  0
POLYLINE
  8
PNOA-H_AMS_1956-57_33k_ES_PAN_21mic_H50_0433_fot_46B-29788_E_tif
  70
9
  66
1
  0
VERTEX
  8
PNOA-H_AMS_1956-57_33k_ES_PAN_21mic_H50_0433_fot_46B-29788_E_tif
  70
32
  10
494925.000
  20
4576459.500
  30
1131.78
  0
VERTEX
  8
PNOA-H_AMS_1956-57_33k_ES_PAN_21mic_H50_0433_fot_46B-29788_E_tif
  70
32
  10
494929.647
  20
4575763.105
  30
1131.203
  0
VERTEX
  8
PNOA-H_AMS_1956-57_33k_ES_PAN_21mic_H50_0433_fot_46B-29788_E_tif
  70
32
  10
494929.548
  20
4575763.105
  30
1131.208
  0
VERTEX
  8
PNOA-H_AMS_1956-57_33k_ES_PAN_21mic_H50_0433_fot_46B-29788_E_tif
  70
32
  10
494770.225
  20
4575763.182
  30
0
  0
VERTEX
  8
PNOA-H_AMS_1956-57_33k_ES_PAN_21mic_H50_0433_fot_46B-29788_E_tif
  70
32
  10
492235.705
  20
4575765.616
  30
1273.033
  0
VERTEX
  8
PNOA-H_AMS_1956-57_33k_ES_PAN_21mic_H50_0433_fot_46B-29788_E_tif
  70
32
  10
492235.481
  20
4575765.617
  30
1273.38
  0
VERTEX
  8
PNOA-H_AMS_1956-57_33k_ES_PAN_21mic_H50_0433_fot_46B-29788_E_tif
  70
32
  10
492210.000
  20
4576449.500
  30
1291.199
  0
VERTEX
  8
PNOA-H_AMS_1956-57_33k_ES_PAN_21mic_H50_0433_fot_46B-29788_E_tif
  70
32
  10
492210.000
  20
4576457.000
  30
1288.847
  0
VERTEX
  8
PNOA-H_AMS_1956-57_33k_ES_PAN_21mic_H50_0433_fot_46B-29788_E_tif
  70
32
  10
493113.192
  20
4576755.554
  30
1302.75
  0
VERTEX
  8
PNOA-H_AMS_1956-57_33k_ES_PAN_21mic_H50_0433_fot_46B-29788_E_tif
  70
32
  10
493262.776
  20
4576805.000
  30
1305.052
  0
VERTEX
  8
PNOA-H_AMS_1956-57_33k_ES_PAN_21mic_H50_0433_fot_46B-29788_E_tif
  70
32
  10
493769.500
  20
4576972.500
  30
1312.852
  0
VERTEX
  8
PNOA-H_AMS_1956-57_33k_ES_PAN_21mic_H50_0433_fot_46B-29788_E_tif
  70
32
  10
493769.714
  20
4576972.405
  30
1312.819
  0
VERTEX
  8
PNOA-H_AMS_1956-57_33k_ES_PAN_21mic_H50_0433_fot_46B-29788_E_tif
  70
32
  10
493770.002
  20
4576972.277
  30
1312.773
  0
VERTEX
  8
PNOA-H_AMS_1956-57_33k_ES_PAN_21mic_H50_0433_fot_46B-29788_E_tif
  70
32
  10
494923.770
  20
4576460.046
  30
1131.972
  0
VERTEX
  8
PNOA-H_AMS_1956-57_33k_ES_PAN_21mic_H50_0433_fot_46B-29788_E_tif
  70
32
  10
494925.000
  20
4576459.500
  30
1131.78
  0
SEQEND
  8
PNOA-H_AMS_1956-57_33k_ES_PAN_21mic_H50_0433_fot_46B-29788_E_tif
  0
INSERT
  8
FeatureAttribs
  2
FEATURE
  41
1
  42
1
  43
1
  50
0
  10
490900.172
  20
4576352.558
 66
1
  0
ATTRIB
  8
FeatureAttribs
 70
0
  1
PNOA-H_AMS_1956-57_33k_ES_PAN_21mic_H50_0433_fot_46B-29789_E.tif
  2
NAME
  10
490900.172
  20
4576352.558
 40
33.48059
  0
SEQEND
  0
POLYLINE
  8
PNOA-H_AMS_1956-57_33k_ES_PAN_21mic_H50_0433_fot_46B-29789_E_tif
  70
9
  66
1
  0
VERTEX
  8
PNOA-H_AMS_1956-57_33k_ES_PAN_21mic_H50_0433_fot_46B-29789_E_tif
  70
32
  10
492210.000
  20
4576457.000
  30
1288.847
  0
VERTEX
  8
PNOA-H_AMS_1956-57_33k_ES_PAN_21mic_H50_0433_fot_46B-29789_E_tif
  70
32
  10
492235.705
  20
4575765.616
  30
1271.334
  0
VERTEX
  8
PNOA-H_AMS_1956-57_33k_ES_PAN_21mic_H50_0433_fot_46B-29789_E_tif
  70
32
  10
492235.481
  20
4575765.617
  30
0
  0
VERTEX
  8
PNOA-H_AMS_1956-57_33k_ES_PAN_21mic_H50_0433_fot_46B-29789_E_tif
  70
32
  10
491283.707
  20
4575766.531
  30
0
  0
VERTEX
  8
PNOA-H_AMS_1956-57_33k_ES_PAN_21mic_H50_0433_fot_46B-29789_E_tif
  70
32
  10
489599.253
  20
4575768.958
  30
1203.796
  0
VERTEX
  8
PNOA-H_AMS_1956-57_33k_ES_PAN_21mic_H50_0433_fot_46B-29789_E_tif
  70
32
  10
489584.500
  20
4576442.000
  30
1179.529
  0
VERTEX
  8
PNOA-H_AMS_1956-57_33k_ES_PAN_21mic_H50_0433_fot_46B-29789_E_tif
  70
32
  10
489929.000
  20
4576557.000
  30
1176.47
  0
VERTEX
  8
PNOA-H_AMS_1956-57_33k_ES_PAN_21mic_H50_0433_fot_46B-29789_E_tif
  70
32
  10
489930.500
  20
4576557.500
  30
1176.373
  0
VERTEX
  8
PNOA-H_AMS_1956-57_33k_ES_PAN_21mic_H50_0433_fot_46B-29789_E_tif
  70
32
  10
490605.271
  20
4576782.522
  30
1214.362
  0
VERTEX
  8
PNOA-H_AMS_1956-57_33k_ES_PAN_21mic_H50_0433_fot_46B-29789_E_tif
  70
32
  10
490672.676
  20
4576805.000
  30
1218.157
  0
VERTEX
  8
PNOA-H_AMS_1956-57_33k_ES_PAN_21mic_H50_0433_fot_46B-29789_E_tif
  70
32
  10
491075.505
  20
4576939.335
  30
1240.836
  0
VERTEX
  8
PNOA-H_AMS_1956-57_33k_ES_PAN_21mic_H50_0433_fot_46B-29789_E_tif
  70
32
  10
491075.720
  20
4576939.407
  30
1240.848
  0
VERTEX
  8
PNOA-H_AMS_1956-57_33k_ES_PAN_21mic_H50_0433_fot_46B-29789_E_tif
  70
32
  10
491076.000
  20
4576939.500
  30
1240.864
  0
VERTEX
  8
PNOA-H_AMS_1956-57_33k_ES_PAN_21mic_H50_0433_fot_46B-29789_E_tif
  70
32
  10
492210.000
  20
4576457.000
  30
1288.847
  0
SEQEND
  8
PNOA-H_AMS_1956-57_33k_ES_PAN_21mic_H50_0433_fot_46B-29789_E_tif
  0
INSERT
  8
FeatureAttribs
  2
FEATURE
  41
1
  42
1
  43
1
  50
0
  10
500000.896
  20
4587210.000
 66
1
  0
ATTRIB
  8
FeatureAttribs
 70
0
  1
PNOA-H_AMS_1956-57_33k_ES_PAN_21mic_H50_0405_fot_43B-29648_E.tif
  2
NAME
  10
500000.896
  20
4587210.000
 40
33.48059
  0
SEQEND
  0
POLYLINE
  8
PNOA-H_AMS_1956-57_33k_ES_PAN_21mic_H50_0405_fot_43B-29648_E_tif
  70
9
  66
1
  0
VERTEX
  8
PNOA-H_AMS_1956-57_33k_ES_PAN_21mic_H50_0405_fot_43B-29648_E_tif
  70
32
  10
500647.500
  20
4584865.000
  30
1143.337
  0
VERTEX
  8
PNOA-H_AMS_1956-57_33k_ES_PAN_21mic_H50_0405_fot_43B-29648_E_tif
  70
32
  10
500641.500
  20
4584862.000
  30
1143.574
  0
VERTEX
  8
PNOA-H_AMS_1956-57_33k_ES_PAN_21mic_H50_0405_fot_43B-29648_E_tif
  70
32
  10
500635.500
  20
4584863.000
  30
1143.542
  0
VERTEX
  8
PNOA-H_AMS_1956-57_33k_ES_PAN_21mic_H50_0405_fot_43B-29648_E_tif
  70
32
  10
499199.253
  20
4585168.884
  30
1128.857
  0
VERTEX
  8
PNOA-H_AMS_1956-57_33k_ES_PAN_21mic_H50_0405_fot_43B-29648_E_tif
  70
32
  10
498647.000
  20
4585286.500
  30
1123.21
  0
VERTEX
  8
PNOA-H_AMS_1956-57_33k_ES_PAN_21mic_H50_0405_fot_43B-29648_E_tif
  70
32
  10
498646.825
  20
4585302.919
  30
1122.474
  0
VERTEX
  8
PNOA-H_AMS_1956-57_33k_ES_PAN_21mic_H50_0405_fot_43B-29648_E_tif
  70
32
  10
498606.298
  20
4589113.462
  30
951.738
  0
VERTEX
  8
PNOA-H_AMS_1956-57_33k_ES_PAN_21mic_H50_0405_fot_43B-29648_E_tif
  70
32
  10
498605.505
  20
4589188.002
  30
948.398
  0
VERTEX
  8
PNOA-H_AMS_1956-57_33k_ES_PAN_21mic_H50_0405_fot_43B-29648_E_tif
  70
32
  10
498605.500
  20
4589188.500
  30
948.376
  0
VERTEX
  8
PNOA-H_AMS_1956-57_33k_ES_PAN_21mic_H50_0405_fot_43B-29648_E_tif
  70
32
  10
499450.000
  20
4589557.500
  30
919.438
  0
VERTEX
  8
PNOA-H_AMS_1956-57_33k_ES_PAN_21mic_H50_0405_fot_43B-29648_E_tif
  70
32
  10
499451.000
  20
4589558.000
  30
919.436
  0
VERTEX
  8
PNOA-H_AMS_1956-57_33k_ES_PAN_21mic_H50_0405_fot_43B-29648_E_tif
  70
32
  10
499452.062
  20
4589557.809
  30
919.543
  0
VERTEX
  8
PNOA-H_AMS_1956-57_33k_ES_PAN_21mic_H50_0405_fot_43B-29648_E_tif
  70
32
  10
499461.703
  20
4589556.070
  30
920.513
  0
VERTEX
  8
PNOA-H_AMS_1956-57_33k_ES_PAN_21mic_H50_0405_fot_43B-29648_E_tif
  70
32
  10
499481.500
  20
4589552.500
  30
922.507
  0
VERTEX
  8
PNOA-H_AMS_1956-57_33k_ES_PAN_21mic_H50_0405_fot_43B-29648_E_tif
  70
32
  10
500873.708
  20
4589259.945
  30
935.616
  0
VERTEX
  8
PNOA-H_AMS_1956-57_33k_ES_PAN_21mic_H50_0405_fot_43B-29648_E_tif
  70
32
  10
501375.500
  20
4589154.500
  30
940.341
  0
VERTEX
  8
PNOA-H_AMS_1956-57_33k_ES_PAN_21mic_H50_0405_fot_43B-29648_E_tif
  70
32
  10
501375.000
  20
4585259.000
  30
1139.814
  0
VERTEX
  8
PNOA-H_AMS_1956-57_33k_ES_PAN_21mic_H50_0405_fot_43B-29648_E_tif
  70
32
  10
501374.892
  20
4585258.942
  30
1139.815
  0
VERTEX
  8
PNOA-H_AMS_1956-57_33k_ES_PAN_21mic_H50_0405_fot_43B-29648_E_tif
  70
32
  10
500647.500
  20
4584865.000
  30
1143.337
  0
SEQEND
  8
PNOA-H_AMS_1956-57_33k_ES_PAN_21mic_H50_0405_fot_43B-29648_E_tif
  0
INSERT
  8
FeatureAttribs
  2
FEATURE
  41
1
  42
1
  43
1
  50
0
  10
505498.526
  20
4587310.000
 66
1
  0
ATTRIB
  8
FeatureAttribs
 70
0
  1
PNOA-H_AMS_1956-57_33k_ES_PAN_21mic_H50_0405_fot_43B-29650_E.tif
  2
NAME
  10
505498.526
  20
4587310.000
 40
33.48059
  0
SEQEND
  0
POLYLINE
  8
PNOA-H_AMS_1956-57_33k_ES_PAN_21mic_H50_0405_fot_43B-29650_E_tif
  70
9
  66
1
  0
VERTEX
  8
PNOA-H_AMS_1956-57_33k_ES_PAN_21mic_H50_0405_fot_43B-29650_E_tif
  70
32
  10
506890.391
  20
4585272.929
  30
1086.32
  0
VERTEX
  8
PNOA-H_AMS_1956-57_33k_ES_PAN_21mic_H50_0405_fot_43B-29650_E_tif
  70
32
  10
506552.500
  20
4585052.500
  30
1081.507
  0
VERTEX
  8
PNOA-H_AMS_1956-57_33k_ES_PAN_21mic_H50_0405_fot_43B-29650_E_tif
  70
32
  10
506552.039
  20
4585052.525
  30
1081.517
  0
VERTEX
  8
PNOA-H_AMS_1956-57_33k_ES_PAN_21mic_H50_0405_fot_43B-29650_E_tif
  70
32
  10
506098.259
  20
4585077.333
  30
1091.299
  0
VERTEX
  8
PNOA-H_AMS_1956-57_33k_ES_PAN_21mic_H50_0405_fot_43B-29650_E_tif
  70
32
  10
504266.000
  20
4585177.499
  30
1130.793
  0
VERTEX
  8
PNOA-H_AMS_1956-57_33k_ES_PAN_21mic_H50_0405_fot_43B-29650_E_tif
  70
32
  10
504110.500
  20
4585186.000
  30
1134.145
  0
VERTEX
  8
PNOA-H_AMS_1956-57_33k_ES_PAN_21mic_H50_0405_fot_43B-29650_E_tif
  70
32
  10
504118.500
  20
4589145.000
  30
951.139
  0
VERTEX
  8
PNOA-H_AMS_1956-57_33k_ES_PAN_21mic_H50_0405_fot_43B-29650_E_tif
  70
32
  10
504118.700
  20
4589145.073
  30
951.174
  0
VERTEX
  8
PNOA-H_AMS_1956-57_33k_ES_PAN_21mic_H50_0405_fot_43B-29650_E_tif
  70
32
  10
504265.500
  20
4589198.500
  30
976.787
  0
VERTEX
  8
PNOA-H_AMS_1956-57_33k_ES_PAN_21mic_H50_0405_fot_43B-29650_E_tif
  70
32
  10
504267.000
  20
4589199.000
  30
976.942
  0
VERTEX
  8
PNOA-H_AMS_1956-57_33k_ES_PAN_21mic_H50_0405_fot_43B-29650_E_tif
  70
32
  10
505285.621
  20
4589567.363
  30
928.155
  0
VERTEX
  8
PNOA-H_AMS_1956-57_33k_ES_PAN_21mic_H50_0405_fot_43B-29650_E_tif
  70
32
  10
505285.777
  20
4589567.419
  30
928.148
  0
VERTEX
  8
PNOA-H_AMS_1956-57_33k_ES_PAN_21mic_H50_0405_fot_43B-29650_E_tif
  70
32
  10
505286.000
  20
4589567.500
  30
928.137
  0
VERTEX
  8
PNOA-H_AMS_1956-57_33k_ES_PAN_21mic_H50_0405_fot_43B-29650_E_tif
  70
32
  10
506874.593
  20
4589104.619
  30
997.187
  0
VERTEX
  8
PNOA-H_AMS_1956-57_33k_ES_PAN_21mic_H50_0405_fot_43B-29650_E_tif
  70
32
  10
506875.000
  20
4589104.500
  30
997.205
  0
VERTEX
  8
PNOA-H_AMS_1956-57_33k_ES_PAN_21mic_H50_0405_fot_43B-29650_E_tif
  70
32
  10
506890.500
  20
4585273.000
  30
1086.321
  0
VERTEX
  8
PNOA-H_AMS_1956-57_33k_ES_PAN_21mic_H50_0405_fot_43B-29650_E_tif
  70
32
  10
506890.391
  20
4585272.929
  30
1086.32
  0
SEQEND
  8
PNOA-H_AMS_1956-57_33k_ES_PAN_21mic_H50_0405_fot_43B-29650_E_tif
  0
INSERT
  8
FeatureAttribs
  2
FEATURE
  41
1
  42
1
  43
1
  50
0
  10
502744.954
  20
4587241.500
 66
1
  0
ATTRIB
  8
FeatureAttribs
 70
0
  1
PNOA-H_AMS_1956-57_33k_ES_PAN_21mic_H50_0405_fot_43B-29649_E.tif
  2
NAME
  10
502744.954
  20
4587241.500
 40
33.48059
  0
SEQEND
  0
POLYLINE
  8
PNOA-H_AMS_1956-57_33k_ES_PAN_21mic_H50_0405_fot_43B-29649_E_tif
  70
9
  66
1
  0
VERTEX
  8
PNOA-H_AMS_1956-57_33k_ES_PAN_21mic_H50_0405_fot_43B-29649_E_tif
  70
32
  10
503675.521
  20
4584916.146
  30
1140.668
  0
VERTEX
  8
PNOA-H_AMS_1956-57_33k_ES_PAN_21mic_H50_0405_fot_43B-29649_E_tif
  70
32
  10
503674.500
  20
4584916.000
  30
1140.684
  0
VERTEX
  8
PNOA-H_AMS_1956-57_33k_ES_PAN_21mic_H50_0405_fot_43B-29649_E_tif
  70
32
  10
501834.900
  20
4585190.400
  30
1139.988
  0
VERTEX
  8
PNOA-H_AMS_1956-57_33k_ES_PAN_21mic_H50_0405_fot_43B-29649_E_tif
  70
32
  10
501375.000
  20
4585259.000
  30
1139.814
  0
VERTEX
  8
PNOA-H_AMS_1956-57_33k_ES_PAN_21mic_H50_0405_fot_43B-29649_E_tif
  70
32
  10
501375.500
  20
4589154.500
  30
940.341
  0
VERTEX
  8
PNOA-H_AMS_1956-57_33k_ES_PAN_21mic_H50_0405_fot_43B-29649_E_tif
  70
32
  10
501375.837
  20
4589154.639
  30
940.348
  0
VERTEX
  8
PNOA-H_AMS_1956-57_33k_ES_PAN_21mic_H50_0405_fot_43B-29649_E_tif
  70
32
  10
502375.000
  20
4589566.500
  30
962.144
  0
VERTEX
  8
PNOA-H_AMS_1956-57_33k_ES_PAN_21mic_H50_0405_fot_43B-29649_E_tif
  70
32
  10
502376.847
  20
4589566.731
  30
962.048
  0
VERTEX
  8
PNOA-H_AMS_1956-57_33k_ES_PAN_21mic_H50_0405_fot_43B-29649_E_tif
  70
32
  10
502378.010
  20
4589566.876
  30
961.987
  0
VERTEX
  8
PNOA-H_AMS_1956-57_33k_ES_PAN_21mic_H50_0405_fot_43B-29649_E_tif
  70
32
  10
502379.000
  20
4589567.000
  30
961.936
  0
VERTEX
  8
PNOA-H_AMS_1956-57_33k_ES_PAN_21mic_H50_0405_fot_43B-29649_E_tif
  70
32
  10
502393.500
  20
4589563.500
  30
961.212
  0
VERTEX
  8
PNOA-H_AMS_1956-57_33k_ES_PAN_21mic_H50_0405_fot_43B-29649_E_tif
  70
32
  10
503699.053
  20
4589246.761
  30
953.588
  0
VERTEX
  8
PNOA-H_AMS_1956-57_33k_ES_PAN_21mic_H50_0405_fot_43B-29649_E_tif
  70
32
  10
504118.500
  20
4589145.000
  30
951.139
  0
VERTEX
  8
PNOA-H_AMS_1956-57_33k_ES_PAN_21mic_H50_0405_fot_43B-29649_E_tif
  70
32
  10
504110.500
  20
4585186.000
  30
1134.145
  0
VERTEX
  8
PNOA-H_AMS_1956-57_33k_ES_PAN_21mic_H50_0405_fot_43B-29649_E_tif
  70
32
  10
504110.460
  20
4585185.975
  30
1134.145
  0
VERTEX
  8
PNOA-H_AMS_1956-57_33k_ES_PAN_21mic_H50_0405_fot_43B-29649_E_tif
  70
32
  10
503808.000
  20
4584997.500
  30
1137.851
  0
VERTEX
  8
PNOA-H_AMS_1956-57_33k_ES_PAN_21mic_H50_0405_fot_43B-29649_E_tif
  70
32
  10
503806.608
  20
4584997.036
  30
1137.879
  0
VERTEX
  8
PNOA-H_AMS_1956-57_33k_ES_PAN_21mic_H50_0405_fot_43B-29649_E_tif
  70
32
  10
503806.500
  20
4584997.000
  30
1137.881
  0
VERTEX
  8
PNOA-H_AMS_1956-57_33k_ES_PAN_21mic_H50_0405_fot_43B-29649_E_tif
  70
32
  10
503797.901
  20
4584991.613
  30
1138.065
  0
VERTEX
  8
PNOA-H_AMS_1956-57_33k_ES_PAN_21mic_H50_0405_fot_43B-29649_E_tif
  70
32
  10
503678.000
  20
4584916.500
  30
1140.63
  0
VERTEX
  8
PNOA-H_AMS_1956-57_33k_ES_PAN_21mic_H50_0405_fot_43B-29649_E_tif
  70
32
  10
503677.095
  20
4584916.371
  30
1140.644
  0
VERTEX
  8
PNOA-H_AMS_1956-57_33k_ES_PAN_21mic_H50_0405_fot_43B-29649_E_tif
  70
32
  10
503675.521
  20
4584916.146
  30
1140.668
  0
SEQEND
  8
PNOA-H_AMS_1956-57_33k_ES_PAN_21mic_H50_0405_fot_43B-29649_E_tif
  0
INSERT
  8
FeatureAttribs
  2
FEATURE
  41
1
  42
1
  43
1
  50
0
  10
502177.133
  20
4582902.750
 66
1
  0
ATTRIB
  8
FeatureAttribs
 70
0
  1
PNOA-H_AMS_1956-57_33k_ES_PAN_21mic_H50_0405_fot_44B-36266_W.tif
  2
NAME
  10
502177.133
  20
4582902.750
 40
33.48059
  0
SEQEND
  0
POLYLINE
  8
PNOA-H_AMS_1956-57_33k_ES_PAN_21mic_H50_0405_fot_44B-36266_W_tif
  70
9
  66
1
  0
VERTEX
  8
PNOA-H_AMS_1956-57_33k_ES_PAN_21mic_H50_0405_fot_44B-36266_W_tif
  70
32
  10
501890.304
  20
4580546.571
  30
1220.127
  0
VERTEX
  8
PNOA-H_AMS_1956-57_33k_ES_PAN_21mic_H50_0405_fot_44B-36266_W_tif
  70
32
  10
501890.000
  20
4580546.500
  30
1220.137
  0
VERTEX
  8
PNOA-H_AMS_1956-57_33k_ES_PAN_21mic_H50_0405_fot_44B-36266_W_tif
  70
32
  10
500652.295
  20
4580993.989
  30
1212.274
  0
VERTEX
  8
PNOA-H_AMS_1956-57_33k_ES_PAN_21mic_H50_0405_fot_44B-36266_W_tif
  70
32
  10
500649.500
  20
4580995.000
  30
1212.257
  0
VERTEX
  8
PNOA-H_AMS_1956-57_33k_ES_PAN_21mic_H50_0405_fot_44B-36266_W_tif
  70
32
  10
500641.500
  20
4584862.000
  30
1143.554
  0
VERTEX
  8
PNOA-H_AMS_1956-57_33k_ES_PAN_21mic_H50_0405_fot_44B-36266_W_tif
  70
32
  10
500641.500
  20
4584862.500
  30
1143.545
  0
VERTEX
  8
PNOA-H_AMS_1956-57_33k_ES_PAN_21mic_H50_0405_fot_44B-36266_W_tif
  70
32
  10
501373.500
  20
4585258.500
  30
1139.806
  0
VERTEX
  8
PNOA-H_AMS_1956-57_33k_ES_PAN_21mic_H50_0405_fot_44B-36266_W_tif
  70
32
  10
501374.500
  20
4585259.000
  30
1139.811
  0
VERTEX
  8
PNOA-H_AMS_1956-57_33k_ES_PAN_21mic_H50_0405_fot_44B-36266_W_tif
  70
32
  10
501374.892
  20
4585258.942
  30
1139.811
  0
VERTEX
  8
PNOA-H_AMS_1956-57_33k_ES_PAN_21mic_H50_0405_fot_44B-36266_W_tif
  70
32
  10
501834.900
  20
4585190.400
  30
1139.98
  0
VERTEX
  8
PNOA-H_AMS_1956-57_33k_ES_PAN_21mic_H50_0405_fot_44B-36266_W_tif
  70
32
  10
503675.521
  20
4584916.146
  30
1140.658
  0
VERTEX
  8
PNOA-H_AMS_1956-57_33k_ES_PAN_21mic_H50_0405_fot_44B-36266_W_tif
  70
32
  10
503676.500
  20
4584916.000
  30
1140.658
  0
VERTEX
  8
PNOA-H_AMS_1956-57_33k_ES_PAN_21mic_H50_0405_fot_44B-36266_W_tif
  70
32
  10
503739.500
  20
4580978.500
  30
1158.249
  0
VERTEX
  8
PNOA-H_AMS_1956-57_33k_ES_PAN_21mic_H50_0405_fot_44B-36266_W_tif
  70
32
  10
503738.625
  20
4580978.296
  30
1158.278
  0
VERTEX
  8
PNOA-H_AMS_1956-57_33k_ES_PAN_21mic_H50_0405_fot_44B-36266_W_tif
  70
32
  10
502259.900
  20
4580632.900
  30
1207.76
  0
VERTEX
  8
PNOA-H_AMS_1956-57_33k_ES_PAN_21mic_H50_0405_fot_44B-36266_W_tif
  70
32
  10
501890.304
  20
4580546.571
  30
1220.127
  0
SEQEND
  8
PNOA-H_AMS_1956-57_33k_ES_PAN_21mic_H50_0405_fot_44B-36266_W_tif
  0
INSERT
  8
FeatureAttribs
  2
FEATURE
  41
1
  42
1
  43
1
  50
0
  10
505166.542
  20
4582978.250
 66
1
  0
ATTRIB
  8
FeatureAttribs
 70
0
  1
PNOA-H_AMS_1956-57_33k_ES_PAN_21mic_H50_0405_fot_44B-36265_W.tif
  2
NAME
  10
505166.542
  20
4582978.250
 40
33.48059
  0
SEQEND
  0
POLYLINE
  8
PNOA-H_AMS_1956-57_33k_ES_PAN_21mic_H50_0405_fot_44B-36265_W_tif
  70
9
  66
1
  0
VERTEX
  8
PNOA-H_AMS_1956-57_33k_ES_PAN_21mic_H50_0405_fot_44B-36265_W_tif
  70
32
  10
504110.460
  20
4585185.975
  30
1134.143
  0
VERTEX
  8
PNOA-H_AMS_1956-57_33k_ES_PAN_21mic_H50_0405_fot_44B-36265_W_tif
  70
32
  10
504266.000
  20
4585177.499
  30
1131.239
  0
VERTEX
  8
PNOA-H_AMS_1956-57_33k_ES_PAN_21mic_H50_0405_fot_44B-36265_W_tif
  70
32
  10
504268.000
  20
4585177.500
  30
1131.201
  0
VERTEX
  8
PNOA-H_AMS_1956-57_33k_ES_PAN_21mic_H50_0405_fot_44B-36265_W_tif
  70
32
  10
506098.259
  20
4585077.333
  30
1091.383
  0
VERTEX
  8
PNOA-H_AMS_1956-57_33k_ES_PAN_21mic_H50_0405_fot_44B-36265_W_tif
  70
32
  10
506552.000
  20
4585052.500
  30
1081.512
  0
VERTEX
  8
PNOA-H_AMS_1956-57_33k_ES_PAN_21mic_H50_0405_fot_44B-36265_W_tif
  70
32
  10
506688.500
  20
4581204.500
  30
1100.219
  0
VERTEX
  8
PNOA-H_AMS_1956-57_33k_ES_PAN_21mic_H50_0405_fot_44B-36265_W_tif
  70
32
  10
506688.482
  20
4581204.497
  30
1100.219
  0
VERTEX
  8
PNOA-H_AMS_1956-57_33k_ES_PAN_21mic_H50_0405_fot_44B-36265_W_tif
  70
32
  10
506688.139
  20
4581204.436
  30
1100.223
  0
VERTEX
  8
PNOA-H_AMS_1956-57_33k_ES_PAN_21mic_H50_0405_fot_44B-36265_W_tif
  70
32
  10
504236.000
  20
4580770.500
  30
1127.411
  0
VERTEX
  8
PNOA-H_AMS_1956-57_33k_ES_PAN_21mic_H50_0405_fot_44B-36265_W_tif
  70
32
  10
504235.887
  20
4580770.547
  30
1127.418
  0
VERTEX
  8
PNOA-H_AMS_1956-57_33k_ES_PAN_21mic_H50_0405_fot_44B-36265_W_tif
  70
32
  10
504235.558
  20
4580770.685
  30
1127.438
  0
VERTEX
  8
PNOA-H_AMS_1956-57_33k_ES_PAN_21mic_H50_0405_fot_44B-36265_W_tif
  70
32
  10
503741.034
  20
4580977.858
  30
1158.153
  0
VERTEX
  8
PNOA-H_AMS_1956-57_33k_ES_PAN_21mic_H50_0405_fot_44B-36265_W_tif
  70
32
  10
503739.500
  20
4580978.500
  30
1158.249
  0
VERTEX
  8
PNOA-H_AMS_1956-57_33k_ES_PAN_21mic_H50_0405_fot_44B-36265_W_tif
  70
32
  10
503676.500
  20
4584916.000
  30
1140.658
  0
VERTEX
  8
PNOA-H_AMS_1956-57_33k_ES_PAN_21mic_H50_0405_fot_44B-36265_W_tif
  70
32
  10
503677.095
  20
4584916.371
  30
1140.649
  0
VERTEX
  8
PNOA-H_AMS_1956-57_33k_ES_PAN_21mic_H50_0405_fot_44B-36265_W_tif
  70
32
  10
503797.901
  20
4584991.613
  30
1138.836
  0
VERTEX
  8
PNOA-H_AMS_1956-57_33k_ES_PAN_21mic_H50_0405_fot_44B-36265_W_tif
  70
32
  10
503806.608
  20
4584997.036
  30
1138.705
  0
VERTEX
  8
PNOA-H_AMS_1956-57_33k_ES_PAN_21mic_H50_0405_fot_44B-36265_W_tif
  70
32
  10
504110.000
  20
4585186.000
  30
1134.151
  0
VERTEX
  8
PNOA-H_AMS_1956-57_33k_ES_PAN_21mic_H50_0405_fot_44B-36265_W_tif
  70
32
  10
504110.460
  20
4585185.975
  30
1134.143
  0
SEQEND
  8
PNOA-H_AMS_1956-57_33k_ES_PAN_21mic_H50_0405_fot_44B-36265_W_tif
  0
INSERT
  8
FeatureAttribs
  2
FEATURE
  41
1
  42
1
  43
1
  50
0
  10
505815.740
  20
4579863.750
 66
1
  0
ATTRIB
  8
FeatureAttribs
 70
0
  1
PNOA-H_AMS_1956-57_33k_ES_PAN_21mic_H50_0405_fot_000-37430_R.tif
  2
NAME
  10
505815.740
  20
4579863.750
 40
33.48059
  0
SEQEND
  0
POLYLINE
  8
PNOA-H_AMS_1956-57_33k_ES_PAN_21mic_H50_0405_fot_000-37430_R_tif
  70
9
  66
1
  0
VERTEX
  8
PNOA-H_AMS_1956-57_33k_ES_PAN_21mic_H50_0405_fot_000-37430_R_tif
  70
32
  10
507284.000
  20
4578750.500
  30
1129.986
  0
VERTEX
  8
PNOA-H_AMS_1956-57_33k_ES_PAN_21mic_H50_0405_fot_000-37430_R_tif
  70
32
  10
504650.000
  20
4578523.000
  30
1183.667
  0
VERTEX
  8
PNOA-H_AMS_1956-57_33k_ES_PAN_21mic_H50_0405_fot_000-37430_R_tif
  70
32
  10
504649.995
  20
4578523.029
  30
1183.666
  0
VERTEX
  8
PNOA-H_AMS_1956-57_33k_ES_PAN_21mic_H50_0405_fot_000-37430_R_tif
  70
32
  10
504235.500
  20
4580769.000
  30
1127.466
  0
VERTEX
  8
PNOA-H_AMS_1956-57_33k_ES_PAN_21mic_H50_0405_fot_000-37430_R_tif
  70
32
  10
504235.712
  20
4580769.849
  30
1127.437
  0
VERTEX
  8
PNOA-H_AMS_1956-57_33k_ES_PAN_21mic_H50_0405_fot_000-37430_R_tif
  70
32
  10
504235.887
  20
4580770.547
  30
1127.413
  0
VERTEX
  8
PNOA-H_AMS_1956-57_33k_ES_PAN_21mic_H50_0405_fot_000-37430_R_tif
  70
32
  10
504236.000
  20
4580771.000
  30
1127.397
  0
VERTEX
  8
PNOA-H_AMS_1956-57_33k_ES_PAN_21mic_H50_0405_fot_000-37430_R_tif
  70
32
  10
504261.000
  20
4580775.500
  30
1126.625
  0
VERTEX
  8
PNOA-H_AMS_1956-57_33k_ES_PAN_21mic_H50_0405_fot_000-37430_R_tif
  70
32
  10
506688.000
  20
4581204.500
  30
1100.265
  0
VERTEX
  8
PNOA-H_AMS_1956-57_33k_ES_PAN_21mic_H50_0405_fot_000-37430_R_tif
  70
32
  10
506688.139
  20
4581204.436
  30
1100.264
  0
VERTEX
  8
PNOA-H_AMS_1956-57_33k_ES_PAN_21mic_H50_0405_fot_000-37430_R_tif
  70
32
  10
506688.490
  20
4581204.274
  30
1100.261
  0
VERTEX
  8
PNOA-H_AMS_1956-57_33k_ES_PAN_21mic_H50_0405_fot_000-37430_R_tif
  70
32
  10
507172.275
  20
4580981.104
  30
1096.208
  0
VERTEX
  8
PNOA-H_AMS_1956-57_33k_ES_PAN_21mic_H50_0405_fot_000-37430_R_tif
  70
32
  10
507172.500
  20
4580981.000
  30
1096.206
  0
VERTEX
  8
PNOA-H_AMS_1956-57_33k_ES_PAN_21mic_H50_0405_fot_000-37430_R_tif
  70
32
  10
507279.500
  20
4578862.000
  30
1123.916
  0
VERTEX
  8
PNOA-H_AMS_1956-57_33k_ES_PAN_21mic_H50_0405_fot_000-37430_R_tif
  70
32
  10
507279.500
  20
4578853.000
  30
1123.993
  0
VERTEX
  8
PNOA-H_AMS_1956-57_33k_ES_PAN_21mic_H50_0405_fot_000-37430_R_tif
  70
32
  10
507285.000
  20
4578752.500
  30
1129.753
  0
VERTEX
  8
PNOA-H_AMS_1956-57_33k_ES_PAN_21mic_H50_0405_fot_000-37430_R_tif
  70
32
  10
507284.670
  20
4578751.840
  30
1129.83
  0
VERTEX
  8
PNOA-H_AMS_1956-57_33k_ES_PAN_21mic_H50_0405_fot_000-37430_R_tif
  70
32
  10
507284.216
  20
4578750.932
  30
1129.936
  0
VERTEX
  8
PNOA-H_AMS_1956-57_33k_ES_PAN_21mic_H50_0405_fot_000-37430_R_tif
  70
32
  10
507284.000
  20
4578750.500
  30
1129.986
  0
SEQEND
  8
PNOA-H_AMS_1956-57_33k_ES_PAN_21mic_H50_0405_fot_000-37430_R_tif
  0
INSERT
  8
FeatureAttribs
  2
FEATURE
  41
1
  42
1
  43
1
  50
0
  10
500501.829
  20
4578714.250
 66
1
  0
ATTRIB
  8
FeatureAttribs
 70
0
  1
PNOA-H_AMS_1956-57_33k_ES_PAN_21mic_H50_0405_fot_45B-36177_E.tif
  2
NAME
  10
500501.829
  20
4578714.250
 40
33.48059
  0
SEQEND
  0
POLYLINE
  8
PNOA-H_AMS_1956-57_33k_ES_PAN_21mic_H50_0405_fot_45B-36177_E_tif
  70
9
  66
1
  0
VERTEX
  8
PNOA-H_AMS_1956-57_33k_ES_PAN_21mic_H50_0405_fot_45B-36177_E_tif
  70
32
  10
500281.793
  20
4576433.597
  30
1288.493
  0
VERTEX
  8
PNOA-H_AMS_1956-57_33k_ES_PAN_21mic_H50_0405_fot_45B-36177_E_tif
  70
32
  10
500281.500
  20
4576433.500
  30
1288.493
  0
VERTEX
  8
PNOA-H_AMS_1956-57_33k_ES_PAN_21mic_H50_0405_fot_45B-36177_E_tif
  70
32
  10
499133.204
  20
4576971.904
  30
1336.338
  0
VERTEX
  8
PNOA-H_AMS_1956-57_33k_ES_PAN_21mic_H50_0405_fot_45B-36177_E_tif
  70
32
  10
499133.000
  20
4576972.000
  30
1336.347
  0
VERTEX
  8
PNOA-H_AMS_1956-57_33k_ES_PAN_21mic_H50_0405_fot_45B-36177_E_tif
  70
32
  10
499126.500
  20
4580551.000
  30
1209.914
  0
VERTEX
  8
PNOA-H_AMS_1956-57_33k_ES_PAN_21mic_H50_0405_fot_45B-36177_E_tif
  70
32
  10
499792.062
  20
4580745.195
  30
1210.495
  0
VERTEX
  8
PNOA-H_AMS_1956-57_33k_ES_PAN_21mic_H50_0405_fot_45B-36177_E_tif
  70
32
  10
500646.500
  20
4580994.500
  30
1211.24
  0
VERTEX
  8
PNOA-H_AMS_1956-57_33k_ES_PAN_21mic_H50_0405_fot_45B-36177_E_tif
  70
32
  10
500648.000
  20
4580995.000
  30
1211.736
  0
VERTEX
  8
PNOA-H_AMS_1956-57_33k_ES_PAN_21mic_H50_0405_fot_45B-36177_E_tif
  70
32
  10
500648.830
  20
4580994.805
  30
1212.034
  0
VERTEX
  8
PNOA-H_AMS_1956-57_33k_ES_PAN_21mic_H50_0405_fot_45B-36177_E_tif
  70
32
  10
500652.295
  20
4580993.989
  30
1213.278
  0
VERTEX
  8
PNOA-H_AMS_1956-57_33k_ES_PAN_21mic_H50_0405_fot_45B-36177_E_tif
  70
32
  10
500656.500
  20
4580993.000
  30
1214.788
  0
VERTEX
  8
PNOA-H_AMS_1956-57_33k_ES_PAN_21mic_H50_0405_fot_45B-36177_E_tif
  70
32
  10
501890.304
  20
4580546.571
  30
1220.004
  0
VERTEX
  8
PNOA-H_AMS_1956-57_33k_ES_PAN_21mic_H50_0405_fot_45B-36177_E_tif
  70
32
  10
501890.500
  20
4580546.500
  30
1220.005
  0
VERTEX
  8
PNOA-H_AMS_1956-57_33k_ES_PAN_21mic_H50_0405_fot_45B-36177_E_tif
  70
32
  10
501858.000
  20
4576976.000
  30
1287.29
  0
VERTEX
  8
PNOA-H_AMS_1956-57_33k_ES_PAN_21mic_H50_0405_fot_45B-36177_E_tif
  70
32
  10
501857.500
  20
4576956.000
  30
1286.918
  0
VERTEX
  8
PNOA-H_AMS_1956-57_33k_ES_PAN_21mic_H50_0405_fot_45B-36177_E_tif
  70
32
  10
501857.076
  20
4576955.788
  30
1286.966
  0
VERTEX
  8
PNOA-H_AMS_1956-57_33k_ES_PAN_21mic_H50_0405_fot_45B-36177_E_tif
  70
32
  10
501856.500
  20
4576955.500
  30
1287.031
  0
VERTEX
  8
PNOA-H_AMS_1956-57_33k_ES_PAN_21mic_H50_0405_fot_45B-36177_E_tif
  70
32
  10
500673.936
  20
4576563.564
  30
1288.129
  0
VERTEX
  8
PNOA-H_AMS_1956-57_33k_ES_PAN_21mic_H50_0405_fot_45B-36177_E_tif
  70
32
  10
500281.793
  20
4576433.597
  30
1288.493
  0
SEQEND
  8
PNOA-H_AMS_1956-57_33k_ES_PAN_21mic_H50_0405_fot_45B-36177_E_tif
  0
INSERT
  8
FeatureAttribs
  2
FEATURE
  41
1
  42
1
  43
1
  50
0
  10
503246.167
  20
4578692.750
 66
1
  0
ATTRIB
  8
FeatureAttribs
 70
0
  1
PNOA-H_AMS_1956-57_33k_ES_PAN_21mic_H50_0405_fot_45B-36178_E.tif
  2
NAME
  10
503246.167
  20
4578692.750
 40
33.48059
  0
SEQEND
  0
POLYLINE
  8
PNOA-H_AMS_1956-57_33k_ES_PAN_21mic_H50_0405_fot_45B-36178_E_tif
  70
9
  66
1
  0
VERTEX
  8
PNOA-H_AMS_1956-57_33k_ES_PAN_21mic_H50_0405_fot_45B-36178_E_tif
  70
32
  10
503015.314
  20
4576407.088
  30
1267.048
  0
VERTEX
  8
PNOA-H_AMS_1956-57_33k_ES_PAN_21mic_H50_0405_fot_45B-36178_E_tif
  70
32
  10
503015.000
  20
4576407.000
  30
1267.052
  0
VERTEX
  8
PNOA-H_AMS_1956-57_33k_ES_PAN_21mic_H50_0405_fot_45B-36178_E_tif
  70
32
  10
502395.146
  20
4576700.996
  30
1277.691
  0
VERTEX
  8
PNOA-H_AMS_1956-57_33k_ES_PAN_21mic_H50_0405_fot_45B-36178_E_tif
  70
32
  10
502193.577
  20
4576796.600
  30
1281.15
  0
VERTEX
  8
PNOA-H_AMS_1956-57_33k_ES_PAN_21mic_H50_0405_fot_45B-36178_E_tif
  70
32
  10
501860.980
  20
4576954.350
  30
1286.859
  0
VERTEX
  8
PNOA-H_AMS_1956-57_33k_ES_PAN_21mic_H50_0405_fot_45B-36178_E_tif
  70
32
  10
501857.500
  20
4576956.000
  30
1286.918
  0
VERTEX
  8
PNOA-H_AMS_1956-57_33k_ES_PAN_21mic_H50_0405_fot_45B-36178_E_tif
  70
32
  10
501890.500
  20
4580546.500
  30
1220.005
  0
VERTEX
  8
PNOA-H_AMS_1956-57_33k_ES_PAN_21mic_H50_0405_fot_45B-36178_E_tif
  70
32
  10
502259.900
  20
4580632.900
  30
1207.66
  0
VERTEX
  8
PNOA-H_AMS_1956-57_33k_ES_PAN_21mic_H50_0405_fot_45B-36178_E_tif
  70
32
  10
503737.500
  20
4580978.500
  30
1158.279
  0
VERTEX
  8
PNOA-H_AMS_1956-57_33k_ES_PAN_21mic_H50_0405_fot_45B-36178_E_tif
  70
32
  10
503738.625
  20
4580978.296
  30
1158.282
  0
VERTEX
  8
PNOA-H_AMS_1956-57_33k_ES_PAN_21mic_H50_0405_fot_45B-36178_E_tif
  70
32
  10
503741.034
  20
4580977.858
  30
1158.289
  0
VERTEX
  8
PNOA-H_AMS_1956-57_33k_ES_PAN_21mic_H50_0405_fot_45B-36178_E_tif
  70
32
  10
503743.000
  20
4580977.500
  30
1158.295
  0
VERTEX
  8
PNOA-H_AMS_1956-57_33k_ES_PAN_21mic_H50_0405_fot_45B-36178_E_tif
  70
32
  10
504235.500
  20
4580771.000
  30
1127.411
  0
VERTEX
  8
PNOA-H_AMS_1956-57_33k_ES_PAN_21mic_H50_0405_fot_45B-36178_E_tif
  70
32
  10
504235.558
  20
4580770.685
  30
1127.419
  0
VERTEX
  8
PNOA-H_AMS_1956-57_33k_ES_PAN_21mic_H50_0405_fot_45B-36178_E_tif
  70
32
  10
504235.712
  20
4580769.849
  30
1127.44
  0
VERTEX
  8
PNOA-H_AMS_1956-57_33k_ES_PAN_21mic_H50_0405_fot_45B-36178_E_tif
  70
32
  10
504650.000
  20
4578524.000
  30
1183.585
  0
VERTEX
  8
PNOA-H_AMS_1956-57_33k_ES_PAN_21mic_H50_0405_fot_45B-36178_E_tif
  70
32
  10
504649.995
  20
4578523.029
  30
1183.619
  0
VERTEX
  8
PNOA-H_AMS_1956-57_33k_ES_PAN_21mic_H50_0405_fot_45B-36178_E_tif
  70
32
  10
504644.000
  20
4577416.000
  30
1221.856
  0
VERTEX
  8
PNOA-H_AMS_1956-57_33k_ES_PAN_21mic_H50_0405_fot_45B-36178_E_tif
  70
32
  10
504641.003
  20
4576862.499
  30
1240.974
  0
VERTEX
  8
PNOA-H_AMS_1956-57_33k_ES_PAN_21mic_H50_0405_fot_45B-36178_E_tif
  70
32
  10
504641.000
  20
4576862.000
  30
1240.991
  0
VERTEX
  8
PNOA-H_AMS_1956-57_33k_ES_PAN_21mic_H50_0405_fot_45B-36178_E_tif
  70
32
  10
504437.500
  20
4576805.000
  30
1247.465
  0
VERTEX
  8
PNOA-H_AMS_1956-57_33k_ES_PAN_21mic_H50_0405_fot_45B-36178_E_tif
  70
32
  10
504435.500
  20
4576805.000
  30
1247.5
  0
VERTEX
  8
PNOA-H_AMS_1956-57_33k_ES_PAN_21mic_H50_0405_fot_45B-36178_E_tif
  70
32
  10
503016.137
  20
4576407.319
  30
1267.036
  0
VERTEX
  8
PNOA-H_AMS_1956-57_33k_ES_PAN_21mic_H50_0405_fot_45B-36178_E_tif
  70
32
  10
503015.314
  20
4576407.088
  30
1267.048
  0
SEQEND
  8
PNOA-H_AMS_1956-57_33k_ES_PAN_21mic_H50_0405_fot_45B-36178_E_tif
  0
INSERT
  8
FeatureAttribs
  2
FEATURE
  41
1
  42
1
  43
1
  50
0
  10
506057.648
  20
4577559.000
 66
1
  0
ATTRIB
  8
FeatureAttribs
 70
0
  1
PNOA-H_AMS_1956-57_33k_ES_PAN_21mic_H50_0405_fot_45B-36179_E.tif
  2
NAME
  10
506057.648
  20
4577559.000
 40
33.48059
  0
SEQEND
  0
POLYLINE
  8
PNOA-H_AMS_1956-57_33k_ES_PAN_21mic_H50_0405_fot_45B-36179_E_tif
  70
9
  66
1
  0
VERTEX
  8
PNOA-H_AMS_1956-57_33k_ES_PAN_21mic_H50_0405_fot_45B-36179_E_tif
  70
32
  10
507474.150
  20
4576799.418
  30
1108.007
  0
VERTEX
  8
PNOA-H_AMS_1956-57_33k_ES_PAN_21mic_H50_0405_fot_45B-36179_E_tif
  70
32
  10
505629.000
  20
4576367.000
  30
1216
  0
VERTEX
  8
PNOA-H_AMS_1956-57_33k_ES_PAN_21mic_H50_0405_fot_45B-36179_E_tif
  70
32
  10
505628.682
  20
4576367.160
  30
1216.008
  0
VERTEX
  8
PNOA-H_AMS_1956-57_33k_ES_PAN_21mic_H50_0405_fot_45B-36179_E_tif
  70
32
  10
505628.000
  20
4576367.501
  30
1216.025
  0
VERTEX
  8
PNOA-H_AMS_1956-57_33k_ES_PAN_21mic_H50_0405_fot_45B-36179_E_tif
  70
32
  10
504641.003
  20
4576862.499
  30
1240.974
  0
VERTEX
  8
PNOA-H_AMS_1956-57_33k_ES_PAN_21mic_H50_0405_fot_45B-36179_E_tif
  70
32
  10
504641.000
  20
4576862.500
  30
1240.975
  0
VERTEX
  8
PNOA-H_AMS_1956-57_33k_ES_PAN_21mic_H50_0405_fot_45B-36179_E_tif
  70
32
  10
504644.000
  20
4577416.000
  30
1221.872
  0
VERTEX
  8
PNOA-H_AMS_1956-57_33k_ES_PAN_21mic_H50_0405_fot_45B-36179_E_tif
  70
32
  10
504650.000
  20
4578523.000
  30
1183.667
  0
VERTEX
  8
PNOA-H_AMS_1956-57_33k_ES_PAN_21mic_H50_0405_fot_45B-36179_E_tif
  70
32
  10
506307.500
  20
4578666.500
  30
1160.566
  0
VERTEX
  8
PNOA-H_AMS_1956-57_33k_ES_PAN_21mic_H50_0405_fot_45B-36179_E_tif
  70
32
  10
506313.500
  20
4578667.000
  30
1161.201
  0
VERTEX
  8
PNOA-H_AMS_1956-57_33k_ES_PAN_21mic_H50_0405_fot_45B-36179_E_tif
  70
32
  10
507284.216
  20
4578750.932
  30
1129.916
  0
VERTEX
  8
PNOA-H_AMS_1956-57_33k_ES_PAN_21mic_H50_0405_fot_45B-36179_E_tif
  70
32
  10
507284.889
  20
4578750.990
  30
1129.895
  0
VERTEX
  8
PNOA-H_AMS_1956-57_33k_ES_PAN_21mic_H50_0405_fot_45B-36179_E_tif
  70
32
  10
507285.000
  20
4578751.000
  30
1129.891
  0
VERTEX
  8
PNOA-H_AMS_1956-57_33k_ES_PAN_21mic_H50_0405_fot_45B-36179_E_tif
  70
32
  10
507376.500
  20
4578395.500
  30
1152.02
  0
VERTEX
  8
PNOA-H_AMS_1956-57_33k_ES_PAN_21mic_H50_0405_fot_45B-36179_E_tif
  70
32
  10
507468.000
  20
4578040.000
  30
1174.148
  0
VERTEX
  8
PNOA-H_AMS_1956-57_33k_ES_PAN_21mic_H50_0405_fot_45B-36179_E_tif
  70
32
  10
507468.008
  20
4578038.504
  30
1174.068
  0
VERTEX
  8
PNOA-H_AMS_1956-57_33k_ES_PAN_21mic_H50_0405_fot_45B-36179_E_tif
  70
32
  10
507474.500
  20
4576799.500
  30
1107.987
  0
VERTEX
  8
PNOA-H_AMS_1956-57_33k_ES_PAN_21mic_H50_0405_fot_45B-36179_E_tif
  70
32
  10
507474.497
  20
4576799.499
  30
1107.987
  0
VERTEX
  8
PNOA-H_AMS_1956-57_33k_ES_PAN_21mic_H50_0405_fot_45B-36179_E_tif
  70
32
  10
507474.150
  20
4576799.418
  30
1108.007
  0
SEQEND
  8
PNOA-H_AMS_1956-57_33k_ES_PAN_21mic_H50_0405_fot_45B-36179_E_tif
  0
INSERT
  8
FeatureAttribs
  2
FEATURE
  41
1
  42
1
  43
1
  50
0
  10
501646.937
  20
4576358.754
 66
1
  0
ATTRIB
  8
FeatureAttribs
 70
0
  1
PNOA-H_AMS_1956-57_33k_ES_PAN_21mic_H50_0433_fot_46B-29785_E.tif
  2
NAME
  10
501646.937
  20
4576358.754
 40
33.48059
  0
SEQEND
  0
POLYLINE
  8
PNOA-H_AMS_1956-57_33k_ES_PAN_21mic_H50_0433_fot_46B-29785_E_tif
  70
9
  66
1
  0
VERTEX
  8
PNOA-H_AMS_1956-57_33k_ES_PAN_21mic_H50_0433_fot_46B-29785_E_tif
  70
32
  10
500269.960
  20
4575761.507
  30
1281.218
  0
VERTEX
  8
PNOA-H_AMS_1956-57_33k_ES_PAN_21mic_H50_0433_fot_46B-29785_E_tif
  70
32
  10
500269.859
  20
4575761.507
  30
1281.218
  0
VERTEX
  8
PNOA-H_AMS_1956-57_33k_ES_PAN_21mic_H50_0433_fot_46B-29785_E_tif
  70
32
  10
500282.000
  20
4576433.500
  30
1288.454
  0
VERTEX
  8
PNOA-H_AMS_1956-57_33k_ES_PAN_21mic_H50_0433_fot_46B-29785_E_tif
  70
32
  10
500673.936
  20
4576563.564
  30
1288.106
  0
VERTEX
  8
PNOA-H_AMS_1956-57_33k_ES_PAN_21mic_H50_0433_fot_46B-29785_E_tif
  70
32
  10
501856.500
  20
4576956.000
  30
1287.056
  0
VERTEX
  8
PNOA-H_AMS_1956-57_33k_ES_PAN_21mic_H50_0433_fot_46B-29785_E_tif
  70
32
  10
501857.076
  20
4576955.788
  30
1286.965
  0
VERTEX
  8
PNOA-H_AMS_1956-57_33k_ES_PAN_21mic_H50_0433_fot_46B-29785_E_tif
  70
32
  10
501860.980
  20
4576954.350
  30
1286.35
  0
VERTEX
  8
PNOA-H_AMS_1956-57_33k_ES_PAN_21mic_H50_0433_fot_46B-29785_E_tif
  70
32
  10
501866.000
  20
4576952.500
  30
1285.559
  0
VERTEX
  8
PNOA-H_AMS_1956-57_33k_ES_PAN_21mic_H50_0433_fot_46B-29785_E_tif
  70
32
  10
502193.577
  20
4576796.600
  30
1285.157
  0
VERTEX
  8
PNOA-H_AMS_1956-57_33k_ES_PAN_21mic_H50_0433_fot_46B-29785_E_tif
  70
32
  10
502219.000
  20
4576784.500
  30
1285.126
  0
VERTEX
  8
PNOA-H_AMS_1956-57_33k_ES_PAN_21mic_H50_0433_fot_46B-29785_E_tif
  70
32
  10
502220.000
  20
4576784.000
  30
1285.086
  0
VERTEX
  8
PNOA-H_AMS_1956-57_33k_ES_PAN_21mic_H50_0433_fot_46B-29785_E_tif
  70
32
  10
502395.146
  20
4576700.996
  30
1281.114
  0
VERTEX
  8
PNOA-H_AMS_1956-57_33k_ES_PAN_21mic_H50_0433_fot_46B-29785_E_tif
  70
32
  10
503015.314
  20
4576407.088
  30
1267.052
  0
VERTEX
  8
PNOA-H_AMS_1956-57_33k_ES_PAN_21mic_H50_0433_fot_46B-29785_E_tif
  70
32
  10
503015.500
  20
4576407.000
  30
1267.048
  0
VERTEX
  8
PNOA-H_AMS_1956-57_33k_ES_PAN_21mic_H50_0433_fot_46B-29785_E_tif
  70
32
  10
502985.090
  20
4575762.104
  30
1271.635
  0
VERTEX
  8
PNOA-H_AMS_1956-57_33k_ES_PAN_21mic_H50_0433_fot_46B-29785_E_tif
  70
32
  10
502984.804
  20
4575762.104
  30
0
  0
VERTEX
  8
PNOA-H_AMS_1956-57_33k_ES_PAN_21mic_H50_0433_fot_46B-29785_E_tif
  70
32
  10
501743.258
  20
4575761.507
  30
0
  0
VERTEX
  8
PNOA-H_AMS_1956-57_33k_ES_PAN_21mic_H50_0433_fot_46B-29785_E_tif
  70
32
  10
500269.960
  20
4575761.507
  30
1281.218
  0
SEQEND
  8
PNOA-H_AMS_1956-57_33k_ES_PAN_21mic_H50_0433_fot_46B-29785_E_tif
  0
INSERT
  8
FeatureAttribs
  2
FEATURE
  41
1
  42
1
  43
1
  50
0
  10
504318.397
  20
4576312.302
 66
1
  0
ATTRIB
  8
FeatureAttribs
 70
0
  1
PNOA-H_AMS_1956-57_33k_ES_PAN_21mic_H50_0433_fot_46B-29784_E.tif
  2
NAME
  10
504318.397
  20
4576312.302
 40
33.48059
  0
SEQEND
  0
POLYLINE
  8
PNOA-H_AMS_1956-57_33k_ES_PAN_21mic_H50_0433_fot_46B-29784_E_tif
  70
9
  66
1
  0
VERTEX
  8
PNOA-H_AMS_1956-57_33k_ES_PAN_21mic_H50_0433_fot_46B-29784_E_tif
  70
32
  10
502985.090
  20
4575762.104
  30
1271.524
  0
VERTEX
  8
PNOA-H_AMS_1956-57_33k_ES_PAN_21mic_H50_0433_fot_46B-29784_E_tif
  70
32
  10
502984.804
  20
4575762.104
  30
1271.503
  0
VERTEX
  8
PNOA-H_AMS_1956-57_33k_ES_PAN_21mic_H50_0433_fot_46B-29784_E_tif
  70
32
  10
503015.000
  20
4576404.000
  30
1266.902
  0
VERTEX
  8
PNOA-H_AMS_1956-57_33k_ES_PAN_21mic_H50_0433_fot_46B-29784_E_tif
  70
32
  10
503015.500
  20
4576407.000
  30
1267.048
  0
VERTEX
  8
PNOA-H_AMS_1956-57_33k_ES_PAN_21mic_H50_0433_fot_46B-29784_E_tif
  70
32
  10
503016.137
  20
4576407.319
  30
1267.058
  0
VERTEX
  8
PNOA-H_AMS_1956-57_33k_ES_PAN_21mic_H50_0433_fot_46B-29784_E_tif
  70
32
  10
503017.500
  20
4576408.000
  30
1267.079
  0
VERTEX
  8
PNOA-H_AMS_1956-57_33k_ES_PAN_21mic_H50_0433_fot_46B-29784_E_tif
  70
32
  10
504639.000
  20
4576862.000
  30
1240.992
  0
VERTEX
  8
PNOA-H_AMS_1956-57_33k_ES_PAN_21mic_H50_0433_fot_46B-29784_E_tif
  70
32
  10
504641.000
  20
4576862.500
  30
1240.975
  0
VERTEX
  8
PNOA-H_AMS_1956-57_33k_ES_PAN_21mic_H50_0433_fot_46B-29784_E_tif
  70
32
  10
504641.003
  20
4576862.499
  30
1240.974
  0
VERTEX
  8
PNOA-H_AMS_1956-57_33k_ES_PAN_21mic_H50_0433_fot_46B-29784_E_tif
  70
32
  10
505628.000
  20
4576367.501
  30
1216.13
  0
VERTEX
  8
PNOA-H_AMS_1956-57_33k_ES_PAN_21mic_H50_0433_fot_46B-29784_E_tif
  70
32
  10
505607.284
  20
4575763.544
  30
1219.075
  0
VERTEX
  8
PNOA-H_AMS_1956-57_33k_ES_PAN_21mic_H50_0433_fot_46B-29784_E_tif
  70
32
  10
505229.775
  20
4575763.182
  30
0
  0
VERTEX
  8
PNOA-H_AMS_1956-57_33k_ES_PAN_21mic_H50_0433_fot_46B-29784_E_tif
  70
32
  10
502985.090
  20
4575762.104
  30
1271.524
  0
SEQEND
  8
PNOA-H_AMS_1956-57_33k_ES_PAN_21mic_H50_0433_fot_46B-29784_E_tif
  0
INSERT
  8
FeatureAttribs
  2
FEATURE
  41
1
  42
1
  43
1
  50
0
  10
508299.363
  20
4587326.000
 66
1
  0
ATTRIB
  8
FeatureAttribs
 70
0
  1
PNOA-H_AMS_1956-57_33k_ES_PAN_21mic_H50_0405_fot_43B-29651_E.tif
  2
NAME
  10
508299.363
  20
4587326.000
 40
33.48059
  0
SEQEND
  0
POLYLINE
  8
PNOA-H_AMS_1956-57_33k_ES_PAN_21mic_H50_0405_fot_43B-29651_E_tif
  70
9
  66
1
  0
VERTEX
  8
PNOA-H_AMS_1956-57_33k_ES_PAN_21mic_H50_0405_fot_43B-29651_E_tif
  70
32
  10
508362.500
  20
4589526.000
  30
978.289
  0
VERTEX
  8
PNOA-H_AMS_1956-57_33k_ES_PAN_21mic_H50_0405_fot_43B-29651_E_tif
  70
32
  10
508363.673
  20
4589526.000
  30
978.267
  0
VERTEX
  8
PNOA-H_AMS_1956-57_33k_ES_PAN_21mic_H50_0405_fot_43B-29651_E_tif
  70
32
  10
508364.000
  20
4589526.000
  30
978.261
  0
VERTEX
  8
PNOA-H_AMS_1956-57_33k_ES_PAN_21mic_H50_0405_fot_43B-29651_E_tif
  70
32
  10
509716.750
  20
4589092.580
  30
960.952
  0
VERTEX
  8
PNOA-H_AMS_1956-57_33k_ES_PAN_21mic_H50_0405_fot_43B-29651_E_tif
  70
32
  10
509717.000
  20
4589092.500
  30
960.949
  0
VERTEX
  8
PNOA-H_AMS_1956-57_33k_ES_PAN_21mic_H50_0405_fot_43B-29651_E_tif
  70
32
  10
509716.000
  20
4585331.000
  30
1028.933
  0
VERTEX
  8
PNOA-H_AMS_1956-57_33k_ES_PAN_21mic_H50_0405_fot_43B-29651_E_tif
  70
32
  10
509715.925
  20
4585330.953
  30
1028.934
  0
VERTEX
  8
PNOA-H_AMS_1956-57_33k_ES_PAN_21mic_H50_0405_fot_43B-29651_E_tif
  70
32
  10
509313.509
  20
4585079.006
  30
1033.272
  0
VERTEX
  8
PNOA-H_AMS_1956-57_33k_ES_PAN_21mic_H50_0405_fot_43B-29651_E_tif
  70
32
  10
509313.500
  20
4585079.000
  30
1033.272
  0
VERTEX
  8
PNOA-H_AMS_1956-57_33k_ES_PAN_21mic_H50_0405_fot_43B-29651_E_tif
  70
32
  10
506890.500
  20
4585273.000
  30
1086.321
  0
VERTEX
  8
PNOA-H_AMS_1956-57_33k_ES_PAN_21mic_H50_0405_fot_43B-29651_E_tif
  70
32
  10
506875.000
  20
4589104.500
  30
997.205
  0
VERTEX
  8
PNOA-H_AMS_1956-57_33k_ES_PAN_21mic_H50_0405_fot_43B-29651_E_tif
  70
32
  10
506876.340
  20
4589104.968
  30
997.208
  0
VERTEX
  8
PNOA-H_AMS_1956-57_33k_ES_PAN_21mic_H50_0405_fot_43B-29651_E_tif
  70
32
  10
508216.500
  20
4589573.000
  30
1000.166
  0
VERTEX
  8
PNOA-H_AMS_1956-57_33k_ES_PAN_21mic_H50_0405_fot_43B-29651_E_tif
  70
32
  10
508216.760
  20
4589572.916
  30
1000.127
  0
VERTEX
  8
PNOA-H_AMS_1956-57_33k_ES_PAN_21mic_H50_0405_fot_43B-29651_E_tif
  70
32
  10
508362.500
  20
4589526.000
  30
978.289
  0
SEQEND
  8
PNOA-H_AMS_1956-57_33k_ES_PAN_21mic_H50_0405_fot_43B-29651_E_tif
  0
INSERT
  8
FeatureAttribs
  2
FEATURE
  41
1
  42
1
  43
1
  50
0
  10
510949.960
  20
4587310.750
 66
1
  0
ATTRIB
  8
FeatureAttribs
 70
0
  1
PNOA-H_AMS_1956-57_33k_ES_PAN_21mic_H50_0405_fot_43B-29652_E.tif
  2
NAME
  10
510949.960
  20
4587310.750
 40
33.48059
  0
SEQEND
  0
POLYLINE
  8
PNOA-H_AMS_1956-57_33k_ES_PAN_21mic_H50_0405_fot_43B-29652_E_tif
  70
9
  66
1
  0
VERTEX
  8
PNOA-H_AMS_1956-57_33k_ES_PAN_21mic_H50_0405_fot_43B-29652_E_tif
  70
32
  10
512187.037
  20
4585146.825
  30
986.634
  0
VERTEX
  8
PNOA-H_AMS_1956-57_33k_ES_PAN_21mic_H50_0405_fot_43B-29652_E_tif
  70
32
  10
512063.500
  20
4585071.500
  30
975.04
  0
VERTEX
  8
PNOA-H_AMS_1956-57_33k_ES_PAN_21mic_H50_0405_fot_43B-29652_E_tif
  70
32
  10
512062.654
  20
4585071.594
  30
975.06
  0
VERTEX
  8
PNOA-H_AMS_1956-57_33k_ES_PAN_21mic_H50_0405_fot_43B-29652_E_tif
  70
32
  10
509716.000
  20
4585331.000
  30
1028.933
  0
VERTEX
  8
PNOA-H_AMS_1956-57_33k_ES_PAN_21mic_H50_0405_fot_43B-29652_E_tif
  70
32
  10
509717.000
  20
4589092.500
  30
960.949
  0
VERTEX
  8
PNOA-H_AMS_1956-57_33k_ES_PAN_21mic_H50_0405_fot_43B-29652_E_tif
  70
32
  10
509929.398
  20
4589160.897
  30
954.12
  0
VERTEX
  8
PNOA-H_AMS_1956-57_33k_ES_PAN_21mic_H50_0405_fot_43B-29652_E_tif
  70
32
  10
510409.500
  20
4589315.500
  30
938.683
  0
VERTEX
  8
PNOA-H_AMS_1956-57_33k_ES_PAN_21mic_H50_0405_fot_43B-29652_E_tif
  70
32
  10
510411.000
  20
4589316.000
  30
938.617
  0
VERTEX
  8
PNOA-H_AMS_1956-57_33k_ES_PAN_21mic_H50_0405_fot_43B-29652_E_tif
  70
32
  10
511139.000
  20
4589549.519
  30
1002.485
  0
VERTEX
  8
PNOA-H_AMS_1956-57_33k_ES_PAN_21mic_H50_0405_fot_43B-29652_E_tif
  70
32
  10
511139.996
  20
4589549.838
  30
1002.573
  0
VERTEX
  8
PNOA-H_AMS_1956-57_33k_ES_PAN_21mic_H50_0405_fot_43B-29652_E_tif
  70
32
  10
511140.500
  20
4589550.000
  30
1002.617
  0
VERTEX
  8
PNOA-H_AMS_1956-57_33k_ES_PAN_21mic_H50_0405_fot_43B-29652_E_tif
  70
32
  10
512180.192
  20
4589210.632
  30
951.751
  0
VERTEX
  8
PNOA-H_AMS_1956-57_33k_ES_PAN_21mic_H50_0405_fot_43B-29652_E_tif
  70
32
  10
512180.193
  20
4589210.127
  30
0
  0
VERTEX
  8
PNOA-H_AMS_1956-57_33k_ES_PAN_21mic_H50_0405_fot_43B-29652_E_tif
  70
32
  10
512183.351
  20
4587335.824
  30
0
  0
VERTEX
  8
PNOA-H_AMS_1956-57_33k_ES_PAN_21mic_H50_0405_fot_43B-29652_E_tif
  70
32
  10
512187.037
  20
4585147.196
  30
0
  0
VERTEX
  8
PNOA-H_AMS_1956-57_33k_ES_PAN_21mic_H50_0405_fot_43B-29652_E_tif
  70
32
  10
512187.037
  20
4585146.825
  30
986.634
  0
SEQEND
  8
PNOA-H_AMS_1956-57_33k_ES_PAN_21mic_H50_0405_fot_43B-29652_E_tif
  0
INSERT
  8
FeatureAttribs
  2
FEATURE
  41
1
  42
1
  43
1
  50
0
  10
507985.511
  20
4583127.000
 66
1
  0
ATTRIB
  8
FeatureAttribs
 70
0
  1
PNOA-H_AMS_1956-57_33k_ES_PAN_21mic_H50_0405_fot_44B-36264_W.tif
  2
NAME
  10
507985.511
  20
4583127.000
 40
33.48059
  0
SEQEND
  0
POLYLINE
  8
PNOA-H_AMS_1956-57_33k_ES_PAN_21mic_H50_0405_fot_44B-36264_W_tif
  70
9
  66
1
  0
VERTEX
  8
PNOA-H_AMS_1956-57_33k_ES_PAN_21mic_H50_0405_fot_44B-36264_W_tif
  70
32
  10
507172.275
  20
4580981.104
  30
1096.205
  0
VERTEX
  8
PNOA-H_AMS_1956-57_33k_ES_PAN_21mic_H50_0405_fot_44B-36264_W_tif
  70
32
  10
507171.500
  20
4580981.000
  30
1096.212
  0
VERTEX
  8
PNOA-H_AMS_1956-57_33k_ES_PAN_21mic_H50_0405_fot_44B-36264_W_tif
  70
32
  10
506688.500
  20
4581204.000
  30
1100.281
  0
VERTEX
  8
PNOA-H_AMS_1956-57_33k_ES_PAN_21mic_H50_0405_fot_44B-36264_W_tif
  70
32
  10
506688.490
  20
4581204.274
  30
1100.28
  0
VERTEX
  8
PNOA-H_AMS_1956-57_33k_ES_PAN_21mic_H50_0405_fot_44B-36264_W_tif
  70
32
  10
506688.482
  20
4581204.497
  30
1100.278
  0
VERTEX
  8
PNOA-H_AMS_1956-57_33k_ES_PAN_21mic_H50_0405_fot_44B-36264_W_tif
  70
32
  10
506552.000
  20
4585052.500
  30
1081.512
  0
VERTEX
  8
PNOA-H_AMS_1956-57_33k_ES_PAN_21mic_H50_0405_fot_44B-36264_W_tif
  70
32
  10
506552.039
  20
4585052.525
  30
1081.512
  0
VERTEX
  8
PNOA-H_AMS_1956-57_33k_ES_PAN_21mic_H50_0405_fot_44B-36264_W_tif
  70
32
  10
506889.500
  20
4585273.000
  30
1086.323
  0
VERTEX
  8
PNOA-H_AMS_1956-57_33k_ES_PAN_21mic_H50_0405_fot_44B-36264_W_tif
  70
32
  10
506890.391
  20
4585272.929
  30
1086.307
  0
VERTEX
  8
PNOA-H_AMS_1956-57_33k_ES_PAN_21mic_H50_0405_fot_44B-36264_W_tif
  70
32
  10
508357.500
  20
4585155.500
  30
1059.318
  0
VERTEX
  8
PNOA-H_AMS_1956-57_33k_ES_PAN_21mic_H50_0405_fot_44B-36264_W_tif
  70
32
  10
508364.000
  20
4585155.000
  30
1059.147
  0
VERTEX
  8
PNOA-H_AMS_1956-57_33k_ES_PAN_21mic_H50_0405_fot_44B-36264_W_tif
  70
32
  10
509313.500
  20
4585079.000
  30
1033.272
  0
VERTEX
  8
PNOA-H_AMS_1956-57_33k_ES_PAN_21mic_H50_0405_fot_44B-36264_W_tif
  70
32
  10
509386.000
  20
4581277.500
  30
1077.746
  0
VERTEX
  8
PNOA-H_AMS_1956-57_33k_ES_PAN_21mic_H50_0405_fot_44B-36264_W_tif
  70
32
  10
507635.401
  20
4581043.112
  30
1092.344
  0
VERTEX
  8
PNOA-H_AMS_1956-57_33k_ES_PAN_21mic_H50_0405_fot_44B-36264_W_tif
  70
32
  10
507172.275
  20
4580981.104
  30
1096.205
  0
SEQEND
  8
PNOA-H_AMS_1956-57_33k_ES_PAN_21mic_H50_0405_fot_44B-36264_W_tif
  0
INSERT
  8
FeatureAttribs
  2
FEATURE
  41
1
  42
1
  43
1
  50
0
  10
510715.054
  20
4583183.750
 66
1
  0
ATTRIB
  8
FeatureAttribs
 70
0
  1
PNOA-H_AMS_1956-57_33k_ES_PAN_21mic_H50_0405_fot_44B-36263_W.tif
  2
NAME
  10
510715.054
  20
4583183.750
 40
33.48059
  0
SEQEND
  0
POLYLINE
  8
PNOA-H_AMS_1956-57_33k_ES_PAN_21mic_H50_0405_fot_44B-36263_W_tif
  70
9
  66
1
  0
VERTEX
  8
PNOA-H_AMS_1956-57_33k_ES_PAN_21mic_H50_0405_fot_44B-36263_W_tif
  70
32
  10
509715.925
  20
4585330.953
  30
1028.921
  0
VERTEX
  8
PNOA-H_AMS_1956-57_33k_ES_PAN_21mic_H50_0405_fot_44B-36263_W_tif
  70
32
  10
510410.000
  20
4585254.000
  30
1071.837
  0
VERTEX
  8
PNOA-H_AMS_1956-57_33k_ES_PAN_21mic_H50_0405_fot_44B-36263_W_tif
  70
32
  10
510412.000
  20
4585254.000
  30
1071.717
  0
VERTEX
  8
PNOA-H_AMS_1956-57_33k_ES_PAN_21mic_H50_0405_fot_44B-36263_W_tif
  70
32
  10
512062.500
  20
4585071.500
  30
974.815
  0
VERTEX
  8
PNOA-H_AMS_1956-57_33k_ES_PAN_21mic_H50_0405_fot_44B-36263_W_tif
  70
32
  10
512063.000
  20
4585070.500
  30
974.795
  0
VERTEX
  8
PNOA-H_AMS_1956-57_33k_ES_PAN_21mic_H50_0405_fot_44B-36263_W_tif
  70
32
  10
512098.500
  20
4581234.000
  30
1007.583
  0
VERTEX
  8
PNOA-H_AMS_1956-57_33k_ES_PAN_21mic_H50_0405_fot_44B-36263_W_tif
  70
32
  10
511933.781
  20
4581219.425
  30
1013.219
  0
VERTEX
  8
PNOA-H_AMS_1956-57_33k_ES_PAN_21mic_H50_0405_fot_44B-36263_W_tif
  70
32
  10
509866.500
  20
4581036.500
  30
1083.957
  0
VERTEX
  8
PNOA-H_AMS_1956-57_33k_ES_PAN_21mic_H50_0405_fot_44B-36263_W_tif
  70
32
  10
509863.000
  20
4581036.500
  30
1083.984
  0
VERTEX
  8
PNOA-H_AMS_1956-57_33k_ES_PAN_21mic_H50_0405_fot_44B-36263_W_tif
  70
32
  10
509862.500
  20
4581036.500
  30
1083.988
  0
VERTEX
  8
PNOA-H_AMS_1956-57_33k_ES_PAN_21mic_H50_0405_fot_44B-36263_W_tif
  70
32
  10
509846.500
  20
4581044.500
  30
1084.115
  0
VERTEX
  8
PNOA-H_AMS_1956-57_33k_ES_PAN_21mic_H50_0405_fot_44B-36263_W_tif
  70
32
  10
509386.000
  20
4581277.500
  30
1077.746
  0
VERTEX
  8
PNOA-H_AMS_1956-57_33k_ES_PAN_21mic_H50_0405_fot_44B-36263_W_tif
  70
32
  10
509313.509
  20
4585079.006
  30
1033.259
  0
VERTEX
  8
PNOA-H_AMS_1956-57_33k_ES_PAN_21mic_H50_0405_fot_44B-36263_W_tif
  70
32
  10
509313.500
  20
4585079.500
  30
1033.253
  0
VERTEX
  8
PNOA-H_AMS_1956-57_33k_ES_PAN_21mic_H50_0405_fot_44B-36263_W_tif
  70
32
  10
509715.500
  20
4585331.000
  30
1028.894
  0
VERTEX
  8
PNOA-H_AMS_1956-57_33k_ES_PAN_21mic_H50_0405_fot_44B-36263_W_tif
  70
32
  10
509715.925
  20
4585330.953
  30
1028.921
  0
SEQEND
  8
PNOA-H_AMS_1956-57_33k_ES_PAN_21mic_H50_0405_fot_44B-36263_W_tif
  0
INSERT
  8
FeatureAttribs
  2
FEATURE
  41
1
  42
1
  43
1
  50
0
  10
512135.382
  20
4583164.504
 66
1
  0
ATTRIB
  8
FeatureAttribs
 70
0
  1
PNOA-H_AMS_1956-57_33k_ES_PAN_21mic_H50_0406_fot_44B-36262_W.tif
  2
NAME
  10
512135.382
  20
4583164.504
 40
33.48059
  0
SEQEND
  0
POLYLINE
  8
PNOA-H_AMS_1956-57_33k_ES_PAN_21mic_H50_0406_fot_44B-36262_W_tif
  70
9
  66
1
  0
VERTEX
  8
PNOA-H_AMS_1956-57_33k_ES_PAN_21mic_H50_0406_fot_44B-36262_W_tif
  70
32
  10
512193.711
  20
4581182.188
  30
0
  0
VERTEX
  8
PNOA-H_AMS_1956-57_33k_ES_PAN_21mic_H50_0406_fot_44B-36262_W_tif
  70
32
  10
512193.711
  20
4581181.813
  30
1022.153
  0
VERTEX
  8
PNOA-H_AMS_1956-57_33k_ES_PAN_21mic_H50_0406_fot_44B-36262_W_tif
  70
32
  10
512098.569
  20
4581233.962
  30
1007.593
  0
VERTEX
  8
PNOA-H_AMS_1956-57_33k_ES_PAN_21mic_H50_0406_fot_44B-36262_W_tif
  70
32
  10
512098.500
  20
4581234.000
  30
1007.583
  0
VERTEX
  8
PNOA-H_AMS_1956-57_33k_ES_PAN_21mic_H50_0406_fot_44B-36262_W_tif
  70
32
  10
512062.500
  20
4585071.500
  30
974.815
  0
VERTEX
  8
PNOA-H_AMS_1956-57_33k_ES_PAN_21mic_H50_0406_fot_44B-36262_W_tif
  70
32
  10
512062.654
  20
4585071.594
  30
974.828
  0
VERTEX
  8
PNOA-H_AMS_1956-57_33k_ES_PAN_21mic_H50_0406_fot_44B-36262_W_tif
  70
32
  10
512187.037
  20
4585147.196
  30
985.387
  0
VERTEX
  8
PNOA-H_AMS_1956-57_33k_ES_PAN_21mic_H50_0406_fot_44B-36262_W_tif
  70
32
  10
512187.037
  20
4585146.825
  30
0
  0
VERTEX
  8
PNOA-H_AMS_1956-57_33k_ES_PAN_21mic_H50_0406_fot_44B-36262_W_tif
  70
32
  10
512187.246
  20
4585022.953
  30
0
  0
VERTEX
  8
PNOA-H_AMS_1956-57_33k_ES_PAN_21mic_H50_0406_fot_44B-36262_W_tif
  70
32
  10
512191.140
  20
4582710.091
  30
0
  0
VERTEX
  8
PNOA-H_AMS_1956-57_33k_ES_PAN_21mic_H50_0406_fot_44B-36262_W_tif
  70
32
  10
512193.711
  20
4581182.188
  30
0
  0
SEQEND
  8
PNOA-H_AMS_1956-57_33k_ES_PAN_21mic_H50_0406_fot_44B-36262_W_tif
  0
INSERT
  8
FeatureAttribs
  2
FEATURE
  41
1
  42
1
  43
1
  50
0
  10
508536.479
  20
4579658.000
 66
1
  0
ATTRIB
  8
FeatureAttribs
 70
0
  1
PNOA-H_AMS_1956-57_33k_ES_PAN_21mic_H50_0405_fot_000-37431_R.tif
  2
NAME
  10
508536.479
  20
4579658.000
 40
33.48059
  0
SEQEND
  0
POLYLINE
  8
PNOA-H_AMS_1956-57_33k_ES_PAN_21mic_H50_0405_fot_000-37431_R_tif
  70
9
  66
1
  0
VERTEX
  8
PNOA-H_AMS_1956-57_33k_ES_PAN_21mic_H50_0405_fot_000-37431_R_tif
  70
32
  10
509826.062
  20
4579303.265
  30
1103.13
  0
VERTEX
  8
PNOA-H_AMS_1956-57_33k_ES_PAN_21mic_H50_0405_fot_000-37431_R_tif
  70
32
  10
507468.500
  20
4578038.500
  30
1174.202
  0
VERTEX
  8
PNOA-H_AMS_1956-57_33k_ES_PAN_21mic_H50_0405_fot_000-37431_R_tif
  70
32
  10
507468.439
  20
4578038.736
  30
1174.188
  0
VERTEX
  8
PNOA-H_AMS_1956-57_33k_ES_PAN_21mic_H50_0405_fot_000-37431_R_tif
  70
32
  10
507376.500
  20
4578395.500
  30
1151.992
  0
VERTEX
  8
PNOA-H_AMS_1956-57_33k_ES_PAN_21mic_H50_0405_fot_000-37431_R_tif
  70
32
  10
507284.889
  20
4578750.990
  30
1129.876
  0
VERTEX
  8
PNOA-H_AMS_1956-57_33k_ES_PAN_21mic_H50_0405_fot_000-37431_R_tif
  70
32
  10
507284.670
  20
4578751.840
  30
1129.823
  0
VERTEX
  8
PNOA-H_AMS_1956-57_33k_ES_PAN_21mic_H50_0405_fot_000-37431_R_tif
  70
32
  10
507284.500
  20
4578752.500
  30
1129.782
  0
VERTEX
  8
PNOA-H_AMS_1956-57_33k_ES_PAN_21mic_H50_0405_fot_000-37431_R_tif
  70
32
  10
507172.500
  20
4580981.000
  30
1096.206
  0
VERTEX
  8
PNOA-H_AMS_1956-57_33k_ES_PAN_21mic_H50_0405_fot_000-37431_R_tif
  70
32
  10
507635.401
  20
4581043.112
  30
1092.372
  0
VERTEX
  8
PNOA-H_AMS_1956-57_33k_ES_PAN_21mic_H50_0405_fot_000-37431_R_tif
  70
32
  10
509378.500
  20
4581277.000
  30
1077.936
  0
VERTEX
  8
PNOA-H_AMS_1956-57_33k_ES_PAN_21mic_H50_0405_fot_000-37431_R_tif
  70
32
  10
509382.500
  20
4581277.500
  30
1077.841
  0
VERTEX
  8
PNOA-H_AMS_1956-57_33k_ES_PAN_21mic_H50_0405_fot_000-37431_R_tif
  70
32
  10
509386.000
  20
4581277.500
  30
1077.746
  0
VERTEX
  8
PNOA-H_AMS_1956-57_33k_ES_PAN_21mic_H50_0405_fot_000-37431_R_tif
  70
32
  10
509387.000
  20
4581277.500
  30
1077.719
  0
VERTEX
  8
PNOA-H_AMS_1956-57_33k_ES_PAN_21mic_H50_0405_fot_000-37431_R_tif
  70
32
  10
509416.000
  20
4581263.000
  30
1077.153
  0
VERTEX
  8
PNOA-H_AMS_1956-57_33k_ES_PAN_21mic_H50_0405_fot_000-37431_R_tif
  70
32
  10
509863.000
  20
4581036.500
  30
1083.984
  0
VERTEX
  8
PNOA-H_AMS_1956-57_33k_ES_PAN_21mic_H50_0405_fot_000-37431_R_tif
  70
32
  10
509833.477
  20
4579634.764
  30
1099.46
  0
VERTEX
  8
PNOA-H_AMS_1956-57_33k_ES_PAN_21mic_H50_0405_fot_000-37431_R_tif
  70
32
  10
509826.500
  20
4579303.500
  30
1103.117
  0
VERTEX
  8
PNOA-H_AMS_1956-57_33k_ES_PAN_21mic_H50_0405_fot_000-37431_R_tif
  70
32
  10
509826.062
  20
4579303.265
  30
1103.13
  0
SEQEND
  8
PNOA-H_AMS_1956-57_33k_ES_PAN_21mic_H50_0405_fot_000-37431_R_tif
  0
INSERT
  8
FeatureAttribs
  2
FEATURE
  41
1
  42
1
  43
1
  50
0
  10
510890.145
  20
4579328.250
 66
1
  0
ATTRIB
  8
FeatureAttribs
 70
0
  1
PNOA-H_AMS_1956-57_33k_ES_PAN_21mic_H50_0405_fot_45C-37432_E.tif
  2
NAME
  10
510890.145
  20
4579328.250
 40
33.48059
  0
SEQEND
  0
POLYLINE
  8
PNOA-H_AMS_1956-57_33k_ES_PAN_21mic_H50_0405_fot_45C-37432_E_tif
  70
9
  66
1
  0
VERTEX
  8
PNOA-H_AMS_1956-57_33k_ES_PAN_21mic_H50_0405_fot_45C-37432_E_tif
  70
32
  10
510392.657
  20
4577501.689
  30
1069.665
  0
VERTEX
  8
PNOA-H_AMS_1956-57_33k_ES_PAN_21mic_H50_0405_fot_45C-37432_E_tif
  70
32
  10
510325.000
  20
4577422.500
  30
1069.384
  0
VERTEX
  8
PNOA-H_AMS_1956-57_33k_ES_PAN_21mic_H50_0405_fot_45C-37432_E_tif
  70
32
  10
510324.731
  20
4577422.769
  30
1069.37
  0
VERTEX
  8
PNOA-H_AMS_1956-57_33k_ES_PAN_21mic_H50_0405_fot_45C-37432_E_tif
  70
32
  10
510324.320
  20
4577423.180
  30
1069.348
  0
VERTEX
  8
PNOA-H_AMS_1956-57_33k_ES_PAN_21mic_H50_0405_fot_45C-37432_E_tif
  70
32
  10
510323.500
  20
4577424.000
  30
1069.305
  0
VERTEX
  8
PNOA-H_AMS_1956-57_33k_ES_PAN_21mic_H50_0405_fot_45C-37432_E_tif
  70
32
  10
509898.745
  20
4579029.010
  30
1098.163
  0
VERTEX
  8
PNOA-H_AMS_1956-57_33k_ES_PAN_21mic_H50_0405_fot_45C-37432_E_tif
  70
32
  10
509826.500
  20
4579302.000
  30
1103.071
  0
VERTEX
  8
PNOA-H_AMS_1956-57_33k_ES_PAN_21mic_H50_0405_fot_45C-37432_E_tif
  70
32
  10
509833.477
  20
4579634.764
  30
1099.319
  0
VERTEX
  8
PNOA-H_AMS_1956-57_33k_ES_PAN_21mic_H50_0405_fot_45C-37432_E_tif
  70
32
  10
509862.500
  20
4581019.000
  30
1083.709
  0
VERTEX
  8
PNOA-H_AMS_1956-57_33k_ES_PAN_21mic_H50_0405_fot_45C-37432_E_tif
  70
32
  10
509863.000
  20
4581036.500
  30
1083.984
  0
VERTEX
  8
PNOA-H_AMS_1956-57_33k_ES_PAN_21mic_H50_0405_fot_45C-37432_E_tif
  70
32
  10
509866.500
  20
4581037.000
  30
1083.961
  0
VERTEX
  8
PNOA-H_AMS_1956-57_33k_ES_PAN_21mic_H50_0405_fot_45C-37432_E_tif
  70
32
  10
510404.500
  20
4581084.500
  30
1097.145
  0
VERTEX
  8
PNOA-H_AMS_1956-57_33k_ES_PAN_21mic_H50_0405_fot_45C-37432_E_tif
  70
32
  10
510410.000
  20
4581085.000
  30
1097.624
  0
VERTEX
  8
PNOA-H_AMS_1956-57_33k_ES_PAN_21mic_H50_0405_fot_45C-37432_E_tif
  70
32
  10
511933.781
  20
4581219.425
  30
1016.426
  0
VERTEX
  8
PNOA-H_AMS_1956-57_33k_ES_PAN_21mic_H50_0405_fot_45C-37432_E_tif
  70
32
  10
512098.569
  20
4581233.962
  30
1007.645
  0
VERTEX
  8
PNOA-H_AMS_1956-57_33k_ES_PAN_21mic_H50_0405_fot_45C-37432_E_tif
  70
32
  10
512099.000
  20
4581234.000
  30
1007.622
  0
VERTEX
  8
PNOA-H_AMS_1956-57_33k_ES_PAN_21mic_H50_0405_fot_45C-37432_E_tif
  70
32
  10
512193.711
  20
4581182.188
  30
1022.083
  0
VERTEX
  8
PNOA-H_AMS_1956-57_33k_ES_PAN_21mic_H50_0405_fot_45C-37432_E_tif
  70
32
  10
512193.711
  20
4581181.813
  30
0
  0
VERTEX
  8
PNOA-H_AMS_1956-57_33k_ES_PAN_21mic_H50_0405_fot_45C-37432_E_tif
  70
32
  10
512195.031
  20
4580397.237
  30
0
  0
VERTEX
  8
PNOA-H_AMS_1956-57_33k_ES_PAN_21mic_H50_0405_fot_45C-37432_E_tif
  70
32
  10
512196.351
  20
4579612.796
  30
1077.17
  0
VERTEX
  8
PNOA-H_AMS_1956-57_33k_ES_PAN_21mic_H50_0405_fot_45C-37432_E_tif
  70
32
  10
511957.827
  20
4579333.620
  30
1076.177
  0
VERTEX
  8
PNOA-H_AMS_1956-57_33k_ES_PAN_21mic_H50_0405_fot_45C-37432_E_tif
  70
32
  10
510411.190
  20
4577523.380
  30
1069.742
  0
VERTEX
  8
PNOA-H_AMS_1956-57_33k_ES_PAN_21mic_H50_0405_fot_45C-37432_E_tif
  70
32
  10
510392.657
  20
4577501.689
  30
1069.665
  0
SEQEND
  8
PNOA-H_AMS_1956-57_33k_ES_PAN_21mic_H50_0405_fot_45C-37432_E_tif
  0
INSERT
  8
FeatureAttribs
  2
FEATURE
  41
1
  42
1
  43
1
  50
0
  10
508841.515
  20
4577839.500
 66
1
  0
ATTRIB
  8
FeatureAttribs
 70
0
  1
PNOA-H_AMS_1956-57_33k_ES_PAN_21mic_H50_0405_fot_45B-36180_E.tif
  2
NAME
  10
508841.515
  20
4577839.500
 40
33.48059
  0
SEQEND
  0
POLYLINE
  8
PNOA-H_AMS_1956-57_33k_ES_PAN_21mic_H50_0405_fot_45B-36180_E_tif
  70
9
  66
1
  0
VERTEX
  8
PNOA-H_AMS_1956-57_33k_ES_PAN_21mic_H50_0405_fot_45B-36180_E_tif
  70
32
  10
509929.593
  20
4576668.088
  30
1171.611
  0
VERTEX
  8
PNOA-H_AMS_1956-57_33k_ES_PAN_21mic_H50_0405_fot_45B-36180_E_tif
  70
32
  10
508246.000
  20
4576375.500
  30
1198.962
  0
VERTEX
  8
PNOA-H_AMS_1956-57_33k_ES_PAN_21mic_H50_0405_fot_45B-36180_E_tif
  70
32
  10
508245.990
  20
4576375.505
  30
1198.961
  0
VERTEX
  8
PNOA-H_AMS_1956-57_33k_ES_PAN_21mic_H50_0405_fot_45B-36180_E_tif
  70
32
  10
507474.500
  20
4576799.000
  30
1107.996
  0
VERTEX
  8
PNOA-H_AMS_1956-57_33k_ES_PAN_21mic_H50_0405_fot_45B-36180_E_tif
  70
32
  10
507474.499
  20
4576799.226
  30
1108.009
  0
VERTEX
  8
PNOA-H_AMS_1956-57_33k_ES_PAN_21mic_H50_0405_fot_45B-36180_E_tif
  70
32
  10
507474.497
  20
4576799.499
  30
1108.023
  0
VERTEX
  8
PNOA-H_AMS_1956-57_33k_ES_PAN_21mic_H50_0405_fot_45B-36180_E_tif
  70
32
  10
507468.000
  20
4578038.500
  30
1174.195
  0
VERTEX
  8
PNOA-H_AMS_1956-57_33k_ES_PAN_21mic_H50_0405_fot_45B-36180_E_tif
  70
32
  10
507468.008
  20
4578038.504
  30
1174.195
  0
VERTEX
  8
PNOA-H_AMS_1956-57_33k_ES_PAN_21mic_H50_0405_fot_45B-36180_E_tif
  70
32
  10
507468.439
  20
4578038.736
  30
1174.182
  0
VERTEX
  8
PNOA-H_AMS_1956-57_33k_ES_PAN_21mic_H50_0405_fot_45B-36180_E_tif
  70
32
  10
509825.000
  20
4579303.000
  30
1103.168
  0
VERTEX
  8
PNOA-H_AMS_1956-57_33k_ES_PAN_21mic_H50_0405_fot_45B-36180_E_tif
  70
32
  10
509826.000
  20
4579303.500
  30
1103.14
  0
VERTEX
  8
PNOA-H_AMS_1956-57_33k_ES_PAN_21mic_H50_0405_fot_45B-36180_E_tif
  70
32
  10
509826.062
  20
4579303.265
  30
1103.135
  0
VERTEX
  8
PNOA-H_AMS_1956-57_33k_ES_PAN_21mic_H50_0405_fot_45B-36180_E_tif
  70
32
  10
509898.745
  20
4579029.010
  30
1098.227
  0
VERTEX
  8
PNOA-H_AMS_1956-57_33k_ES_PAN_21mic_H50_0405_fot_45B-36180_E_tif
  70
32
  10
510324.320
  20
4577423.180
  30
1069.491
  0
VERTEX
  8
PNOA-H_AMS_1956-57_33k_ES_PAN_21mic_H50_0405_fot_45B-36180_E_tif
  70
32
  10
510324.500
  20
4577422.500
  30
1069.479
  0
VERTEX
  8
PNOA-H_AMS_1956-57_33k_ES_PAN_21mic_H50_0405_fot_45B-36180_E_tif
  70
32
  10
510329.000
  20
4576737.500
  30
1165.122
  0
VERTEX
  8
PNOA-H_AMS_1956-57_33k_ES_PAN_21mic_H50_0405_fot_45B-36180_E_tif
  70
32
  10
509929.593
  20
4576668.088
  30
1171.611
  0
SEQEND
  8
PNOA-H_AMS_1956-57_33k_ES_PAN_21mic_H50_0405_fot_45B-36180_E_tif
  0
INSERT
  8
FeatureAttribs
  2
FEATURE
  41
1
  42
1
  43
1
  50
0
  10
511504.018
  20
4577989.128
 66
1
  0
ATTRIB
  8
FeatureAttribs
 70
0
  1
PNOA-H_AMS_1956-57_33k_ES_PAN_21mic_H50_0405_fot_45B-36181_E.tif
  2
NAME
  10
511504.018
  20
4577989.128
 40
33.48059
  0
SEQEND
  0
POLYLINE
  8
PNOA-H_AMS_1956-57_33k_ES_PAN_21mic_H50_0405_fot_45B-36181_E_tif
  70
9
  66
1
  0
VERTEX
  8
PNOA-H_AMS_1956-57_33k_ES_PAN_21mic_H50_0405_fot_45B-36181_E_tif
  70
32
  10
512201.588
  20
4576498.795
  30
1101.454
  0
VERTEX
  8
PNOA-H_AMS_1956-57_33k_ES_PAN_21mic_H50_0405_fot_45B-36181_E_tif
  70
32
  10
510957.500
  20
4576365.500
  30
1119.789
  0
VERTEX
  8
PNOA-H_AMS_1956-57_33k_ES_PAN_21mic_H50_0405_fot_45B-36181_E_tif
  70
32
  10
510957.470
  20
4576365.518
  30
1119.791
  0
VERTEX
  8
PNOA-H_AMS_1956-57_33k_ES_PAN_21mic_H50_0405_fot_45B-36181_E_tif
  70
32
  10
510329.113
  20
4576737.433
  30
1165.114
  0
VERTEX
  8
PNOA-H_AMS_1956-57_33k_ES_PAN_21mic_H50_0405_fot_45B-36181_E_tif
  70
32
  10
510329.000
  20
4576737.500
  30
1165.122
  0
VERTEX
  8
PNOA-H_AMS_1956-57_33k_ES_PAN_21mic_H50_0405_fot_45B-36181_E_tif
  70
32
  10
510324.500
  20
4577422.500
  30
1069.479
  0
VERTEX
  8
PNOA-H_AMS_1956-57_33k_ES_PAN_21mic_H50_0405_fot_45B-36181_E_tif
  70
32
  10
510324.731
  20
4577422.769
  30
1069.538
  0
VERTEX
  8
PNOA-H_AMS_1956-57_33k_ES_PAN_21mic_H50_0405_fot_45B-36181_E_tif
  70
32
  10
510392.657
  20
4577501.689
  30
1087.043
  0
VERTEX
  8
PNOA-H_AMS_1956-57_33k_ES_PAN_21mic_H50_0405_fot_45B-36181_E_tif
  70
32
  10
510411.000
  20
4577523.000
  30
1091.77
  0
VERTEX
  8
PNOA-H_AMS_1956-57_33k_ES_PAN_21mic_H50_0405_fot_45B-36181_E_tif
  70
32
  10
510411.190
  20
4577523.380
  30
1091.909
  0
VERTEX
  8
PNOA-H_AMS_1956-57_33k_ES_PAN_21mic_H50_0405_fot_45B-36181_E_tif
  70
32
  10
510411.500
  20
4577524.000
  30
1092.135
  0
VERTEX
  8
PNOA-H_AMS_1956-57_33k_ES_PAN_21mic_H50_0405_fot_45B-36181_E_tif
  70
32
  10
511957.827
  20
4579333.620
  30
1081.864
  0
VERTEX
  8
PNOA-H_AMS_1956-57_33k_ES_PAN_21mic_H50_0405_fot_45B-36181_E_tif
  70
32
  10
512196.351
  20
4579612.757
  30
1080.28
  0
VERTEX
  8
PNOA-H_AMS_1956-57_33k_ES_PAN_21mic_H50_0405_fot_45B-36181_E_tif
  70
32
  10
512198.922
  20
4578084.391
  30
0
  0
VERTEX
  8
PNOA-H_AMS_1956-57_33k_ES_PAN_21mic_H50_0405_fot_45B-36181_E_tif
  70
32
  10
512201.588
  20
4576498.906
  30
0
  0
VERTEX
  8
PNOA-H_AMS_1956-57_33k_ES_PAN_21mic_H50_0405_fot_45B-36181_E_tif
  70
32
  10
512201.588
  20
4576498.795
  30
1101.454
  0
SEQEND
  8
PNOA-H_AMS_1956-57_33k_ES_PAN_21mic_H50_0405_fot_45B-36181_E_tif
  0
INSERT
  8
FeatureAttribs
  2
FEATURE
  41
1
  42
1
  43
1
  50
0
  10
511572.587
  20
4576134.306
 66
1
  0
ATTRIB
  8
FeatureAttribs
 70
0
  1
PNOA-H_AMS_1956-57_33k_ES_PAN_21mic_H50_0433_fot_46B-29781_E.tif
  2
NAME
  10
511572.587
  20
4576134.306
 40
33.48059
  0
SEQEND
  0
POLYLINE
  8
PNOA-H_AMS_1956-57_33k_ES_PAN_21mic_H50_0433_fot_46B-29781_E_tif
  70
9
  66
1
  0
VERTEX
  8
PNOA-H_AMS_1956-57_33k_ES_PAN_21mic_H50_0433_fot_46B-29781_E_tif
  70
32
  10
510920.112
  20
4575769.706
  30
1133.686
  0
VERTEX
  8
PNOA-H_AMS_1956-57_33k_ES_PAN_21mic_H50_0433_fot_46B-29781_E_tif
  70
32
  10
510920.065
  20
4575769.706
  30
1133.687
  0
VERTEX
  8
PNOA-H_AMS_1956-57_33k_ES_PAN_21mic_H50_0433_fot_46B-29781_E_tif
  70
32
  10
510942.482
  20
4576126.482
  30
1125.364
  0
VERTEX
  8
PNOA-H_AMS_1956-57_33k_ES_PAN_21mic_H50_0433_fot_46B-29781_E_tif
  70
32
  10
510957.500
  20
4576365.500
  30
1119.789
  0
VERTEX
  8
PNOA-H_AMS_1956-57_33k_ES_PAN_21mic_H50_0433_fot_46B-29781_E_tif
  70
32
  10
512201.588
  20
4576498.906
  30
1101.206
  0
VERTEX
  8
PNOA-H_AMS_1956-57_33k_ES_PAN_21mic_H50_0433_fot_46B-29781_E_tif
  70
32
  10
512201.588
  20
4576498.795
  30
0
  0
VERTEX
  8
PNOA-H_AMS_1956-57_33k_ES_PAN_21mic_H50_0433_fot_46B-29781_E_tif
  70
32
  10
512202.810
  20
4575771.554
  30
0
  0
VERTEX
  8
PNOA-H_AMS_1956-57_33k_ES_PAN_21mic_H50_0433_fot_46B-29781_E_tif
  70
32
  10
510920.112
  20
4575769.706
  30
1133.686
  0
SEQEND
  8
PNOA-H_AMS_1956-57_33k_ES_PAN_21mic_H50_0433_fot_46B-29781_E_tif
  0
INSERT
  8
FeatureAttribs
  2
FEATURE
  41
1
  42
1
  43
1
  50
0
  10
509596.966
  20
4576251.784
 66
1
  0
ATTRIB
  8
FeatureAttribs
 70
0
  1
PNOA-H_AMS_1956-57_33k_ES_PAN_21mic_H50_0433_fot_46B-29782_E.tif
  2
NAME
  10
509596.966
  20
4576251.784
 40
33.48059
  0
SEQEND
  0
POLYLINE
  8
PNOA-H_AMS_1956-57_33k_ES_PAN_21mic_H50_0433_fot_46B-29782_E_tif
  70
9
  66
1
  0
VERTEX
  8
PNOA-H_AMS_1956-57_33k_ES_PAN_21mic_H50_0433_fot_46B-29782_E_tif
  70
32
  10
508234.220
  20
4575766.068
  30
1196.082
  0
VERTEX
  8
PNOA-H_AMS_1956-57_33k_ES_PAN_21mic_H50_0433_fot_46B-29782_E_tif
  70
32
  10
508234.148
  20
4575766.068
  30
1196.084
  0
VERTEX
  8
PNOA-H_AMS_1956-57_33k_ES_PAN_21mic_H50_0433_fot_46B-29782_E_tif
  70
32
  10
508244.587
  20
4576302.849
  30
1198.619
  0
VERTEX
  8
PNOA-H_AMS_1956-57_33k_ES_PAN_21mic_H50_0433_fot_46B-29782_E_tif
  70
32
  10
508246.000
  20
4576375.500
  30
1198.962
  0
VERTEX
  8
PNOA-H_AMS_1956-57_33k_ES_PAN_21mic_H50_0433_fot_46B-29782_E_tif
  70
32
  10
508359.500
  20
4576395.500
  30
1195.128
  0
VERTEX
  8
PNOA-H_AMS_1956-57_33k_ES_PAN_21mic_H50_0433_fot_46B-29782_E_tif
  70
32
  10
508362.000
  20
4576396.000
  30
1195.152
  0
VERTEX
  8
PNOA-H_AMS_1956-57_33k_ES_PAN_21mic_H50_0433_fot_46B-29782_E_tif
  70
32
  10
509929.593
  20
4576668.088
  30
1171.263
  0
VERTEX
  8
PNOA-H_AMS_1956-57_33k_ES_PAN_21mic_H50_0433_fot_46B-29782_E_tif
  70
32
  10
510329.113
  20
4576737.433
  30
1165.175
  0
VERTEX
  8
PNOA-H_AMS_1956-57_33k_ES_PAN_21mic_H50_0433_fot_46B-29782_E_tif
  70
32
  10
510329.500
  20
4576737.500
  30
1165.169
  0
VERTEX
  8
PNOA-H_AMS_1956-57_33k_ES_PAN_21mic_H50_0433_fot_46B-29782_E_tif
  70
32
  10
510957.500
  20
4576366.000
  30
1119.803
  0
VERTEX
  8
PNOA-H_AMS_1956-57_33k_ES_PAN_21mic_H50_0433_fot_46B-29782_E_tif
  70
32
  10
510957.470
  20
4576365.518
  30
1119.814
  0
VERTEX
  8
PNOA-H_AMS_1956-57_33k_ES_PAN_21mic_H50_0433_fot_46B-29782_E_tif
  70
32
  10
510942.482
  20
4576126.482
  30
1125.389
  0
VERTEX
  8
PNOA-H_AMS_1956-57_33k_ES_PAN_21mic_H50_0433_fot_46B-29782_E_tif
  70
32
  10
510920.112
  20
4575769.706
  30
1133.708
  0
VERTEX
  8
PNOA-H_AMS_1956-57_33k_ES_PAN_21mic_H50_0433_fot_46B-29782_E_tif
  70
32
  10
510920.065
  20
4575769.706
  30
1133.71
  0
VERTEX
  8
PNOA-H_AMS_1956-57_33k_ES_PAN_21mic_H50_0433_fot_46B-29782_E_tif
  70
32
  10
508716.293
  20
4575766.531
  30
0
  0
VERTEX
  8
PNOA-H_AMS_1956-57_33k_ES_PAN_21mic_H50_0433_fot_46B-29782_E_tif
  70
32
  10
508234.220
  20
4575766.068
  30
1196.082
  0
SEQEND
  8
PNOA-H_AMS_1956-57_33k_ES_PAN_21mic_H50_0433_fot_46B-29782_E_tif
  0
INSERT
  8
FeatureAttribs
  2
FEATURE
  41
1
  42
1
  43
1
  50
0
  10
506934.622
  20
4576281.522
 66
1
  0
ATTRIB
  8
FeatureAttribs
 70
0
  1
PNOA-H_AMS_1956-57_33k_ES_PAN_21mic_H50_0433_fot_46B-29783_E.tif
  2
NAME
  10
506934.622
  20
4576281.522
 40
33.48059
  0
SEQEND
  0
POLYLINE
  8
PNOA-H_AMS_1956-57_33k_ES_PAN_21mic_H50_0433_fot_46B-29783_E_tif
  70
9
  66
1
  0
VERTEX
  8
PNOA-H_AMS_1956-57_33k_ES_PAN_21mic_H50_0433_fot_46B-29783_E_tif
  70
32
  10
508234.148
  20
4575766.068
  30
1196.12
  0
VERTEX
  8
PNOA-H_AMS_1956-57_33k_ES_PAN_21mic_H50_0433_fot_46B-29783_E_tif
  70
32
  10
505607.301
  20
4575763.544
  30
1219.018
  0
VERTEX
  8
PNOA-H_AMS_1956-57_33k_ES_PAN_21mic_H50_0433_fot_46B-29783_E_tif
  70
32
  10
505628.000
  20
4576367.000
  30
1216.072
  0
VERTEX
  8
PNOA-H_AMS_1956-57_33k_ES_PAN_21mic_H50_0433_fot_46B-29783_E_tif
  70
32
  10
505628.682
  20
4576367.160
  30
1216.032
  0
VERTEX
  8
PNOA-H_AMS_1956-57_33k_ES_PAN_21mic_H50_0433_fot_46B-29783_E_tif
  70
32
  10
507472.000
  20
4576799.000
  30
1107.99
  0
VERTEX
  8
PNOA-H_AMS_1956-57_33k_ES_PAN_21mic_H50_0433_fot_46B-29783_E_tif
  70
32
  10
507474.000
  20
4576799.500
  30
1107.987
  0
VERTEX
  8
PNOA-H_AMS_1956-57_33k_ES_PAN_21mic_H50_0433_fot_46B-29783_E_tif
  70
32
  10
507474.150
  20
4576799.418
  30
1108.005
  0
VERTEX
  8
PNOA-H_AMS_1956-57_33k_ES_PAN_21mic_H50_0433_fot_46B-29783_E_tif
  70
32
  10
507474.499
  20
4576799.226
  30
1108.046
  0
VERTEX
  8
PNOA-H_AMS_1956-57_33k_ES_PAN_21mic_H50_0433_fot_46B-29783_E_tif
  70
32
  10
508246.000
  20
4576376.000
  30
1198.955
  0
VERTEX
  8
PNOA-H_AMS_1956-57_33k_ES_PAN_21mic_H50_0433_fot_46B-29783_E_tif
  70
32
  10
508245.990
  20
4576375.505
  30
1198.952
  0
VERTEX
  8
PNOA-H_AMS_1956-57_33k_ES_PAN_21mic_H50_0433_fot_46B-29783_E_tif
  70
32
  10
508244.587
  20
4576302.849
  30
1198.615
  0
VERTEX
  8
PNOA-H_AMS_1956-57_33k_ES_PAN_21mic_H50_0433_fot_46B-29783_E_tif
  70
32
  10
508234.220
  20
4575766.068
  30
1196.119
  0
VERTEX
  8
PNOA-H_AMS_1956-57_33k_ES_PAN_21mic_H50_0433_fot_46B-29783_E_tif
  70
32
  10
508234.148
  20
4575766.068
  30
1196.12
  0
SEQEND
  8
PNOA-H_AMS_1956-57_33k_ES_PAN_21mic_H50_0433_fot_46B-29783_E_tif
  0
INSERT
  8
FeatureAttribs
  2
FEATURE
  41
1
  42
1
  43
1
  50
0
  10
484795.712
  20
4591695.606
 66
1
  0
ATTRIB
  8
FeatureAttribs
 70
0
  1
PNOA-H_AMS_1956-57_33k_ES_PAN_21mic_H50_0404_fot_42B-36311_E.tif
  2
NAME
  10
484795.712
  20
4591695.606
 40
33.48059
  0
SEQEND
  0
POLYLINE
  8
PNOA-H_AMS_1956-57_33k_ES_PAN_21mic_H50_0404_fot_42B-36311_E_tif
  70
9
  66
1
  0
VERTEX
  8
PNOA-H_AMS_1956-57_33k_ES_PAN_21mic_H50_0404_fot_42B-36311_E_tif
  70
32
  10
485256.864
  20
4589549.929
  30
1072.939
  0
VERTEX
  8
PNOA-H_AMS_1956-57_33k_ES_PAN_21mic_H50_0404_fot_42B-36311_E_tif
  70
32
  10
484824.500
  20
4589325.000
  30
1026.277
  0
VERTEX
  8
PNOA-H_AMS_1956-57_33k_ES_PAN_21mic_H50_0404_fot_42B-36311_E_tif
  70
32
  10
484824.080
  20
4589325.042
  30
1026.284
  0
VERTEX
  8
PNOA-H_AMS_1956-57_33k_ES_PAN_21mic_H50_0404_fot_42B-36311_E_tif
  70
32
  10
484340.089
  20
4589373.295
  30
1034.791
  0
VERTEX
  8
PNOA-H_AMS_1956-57_33k_ES_PAN_21mic_H50_0404_fot_42B-36311_E_tif
  70
32
  10
484340.701
  20
4589655.405
  30
0
  0
VERTEX
  8
PNOA-H_AMS_1956-57_33k_ES_PAN_21mic_H50_0404_fot_42B-36311_E_tif
  70
32
  10
484345.713
  20
4591968.293
  30
0
  0
VERTEX
  8
PNOA-H_AMS_1956-57_33k_ES_PAN_21mic_H50_0404_fot_42B-36311_E_tif
  70
32
  10
484350.261
  20
4594066.213
  30
980.629
  0
VERTEX
  8
PNOA-H_AMS_1956-57_33k_ES_PAN_21mic_H50_0404_fot_42B-36311_E_tif
  70
32
  10
484431.676
  20
4594038.204
  30
980.64
  0
VERTEX
  8
PNOA-H_AMS_1956-57_33k_ES_PAN_21mic_H50_0404_fot_42B-36311_E_tif
  70
32
  10
485236.000
  20
4593761.500
  30
980.753
  0
VERTEX
  8
PNOA-H_AMS_1956-57_33k_ES_PAN_21mic_H50_0404_fot_42B-36311_E_tif
  70
32
  10
485257.000
  20
4589550.000
  30
1072.954
  0
VERTEX
  8
PNOA-H_AMS_1956-57_33k_ES_PAN_21mic_H50_0404_fot_42B-36311_E_tif
  70
32
  10
485256.864
  20
4589549.929
  30
1072.939
  0
SEQEND
  8
PNOA-H_AMS_1956-57_33k_ES_PAN_21mic_H50_0404_fot_42B-36311_E_tif
  0
INSERT
  8
FeatureAttribs
  2
FEATURE
  41
1
  42
1
  43
1
  50
0
  10
485329.103
  20
4594021.345
 66
1
  0
ATTRIB
  8
FeatureAttribs
 70
0
  1
PNOA-H_AMS_1956-57_33k_ES_PAN_21mic_H50_0377_fot_41B-37406_W.tif
  2
NAME
  10
485329.103
  20
4594021.345
 40
33.48059
  0
SEQEND
  0
POLYLINE
  8
PNOA-H_AMS_1956-57_33k_ES_PAN_21mic_H50_0377_fot_41B-37406_W_tif
  70
9
  66
1
  0
VERTEX
  8
PNOA-H_AMS_1956-57_33k_ES_PAN_21mic_H50_0377_fot_41B-37406_W_tif
  70
32
  10
485236.000
  20
4593761.500
  30
980.752
  0
VERTEX
  8
PNOA-H_AMS_1956-57_33k_ES_PAN_21mic_H50_0377_fot_41B-37406_W_tif
  70
32
  10
485234.500
  20
4593761.500
  30
980.769
  0
VERTEX
  8
PNOA-H_AMS_1956-57_33k_ES_PAN_21mic_H50_0377_fot_41B-37406_W_tif
  70
32
  10
485218.500
  20
4593767.000
  30
980.852
  0
VERTEX
  8
PNOA-H_AMS_1956-57_33k_ES_PAN_21mic_H50_0377_fot_41B-37406_W_tif
  70
32
  10
484431.676
  20
4594038.204
  30
980.682
  0
VERTEX
  8
PNOA-H_AMS_1956-57_33k_ES_PAN_21mic_H50_0377_fot_41B-37406_W_tif
  70
32
  10
484350.261
  20
4594066.267
  30
980.664
  0
VERTEX
  8
PNOA-H_AMS_1956-57_33k_ES_PAN_21mic_H50_0377_fot_41B-37406_W_tif
  70
32
  10
484350.727
  20
4594281.189
  30
0
  0
VERTEX
  8
PNOA-H_AMS_1956-57_33k_ES_PAN_21mic_H50_0377_fot_41B-37406_W_tif
  70
32
  10
486857.085
  20
4594276.358
  30
930.806
  0
VERTEX
  8
PNOA-H_AMS_1956-57_33k_ES_PAN_21mic_H50_0377_fot_41B-37406_W_tif
  70
32
  10
486858.000
  20
4594209.500
  30
931.921
  0
VERTEX
  8
PNOA-H_AMS_1956-57_33k_ES_PAN_21mic_H50_0377_fot_41B-37406_W_tif
  70
32
  10
486442.710
  20
4594094.654
  30
944.433
  0
VERTEX
  8
PNOA-H_AMS_1956-57_33k_ES_PAN_21mic_H50_0377_fot_41B-37406_W_tif
  70
32
  10
485238.000
  20
4593761.500
  30
980.729
  0
VERTEX
  8
PNOA-H_AMS_1956-57_33k_ES_PAN_21mic_H50_0377_fot_41B-37406_W_tif
  70
32
  10
485236.000
  20
4593761.500
  30
980.752
  0
SEQEND
  8
PNOA-H_AMS_1956-57_33k_ES_PAN_21mic_H50_0377_fot_41B-37406_W_tif
  0
INSERT
  8
FeatureAttribs
  2
FEATURE
  41
1
  42
1
  43
1
  50
0
  10
489499.821
  20
4591751.250
 66
1
  0
ATTRIB
  8
FeatureAttribs
 70
0
  1
PNOA-H_AMS_1956-57_33k_ES_PAN_21mic_H50_0405_fot_42B-36313_E.tif
  2
NAME
  10
489499.821
  20
4591751.250
 40
33.48059
  0
SEQEND
  0
POLYLINE
  8
PNOA-H_AMS_1956-57_33k_ES_PAN_21mic_H50_0405_fot_42B-36313_E_tif
  70
9
  66
1
  0
VERTEX
  8
PNOA-H_AMS_1956-57_33k_ES_PAN_21mic_H50_0405_fot_42B-36313_E_tif
  70
32
  10
490870.803
  20
4589494.405
  30
1013.75
  0
VERTEX
  8
PNOA-H_AMS_1956-57_33k_ES_PAN_21mic_H50_0405_fot_42B-36313_E_tif
  70
32
  10
490443.500
  20
4589288.500
  30
1035.719
  0
VERTEX
  8
PNOA-H_AMS_1956-57_33k_ES_PAN_21mic_H50_0405_fot_42B-36313_E_tif
  70
32
  10
490442.500
  20
4589288.500
  30
1035.679
  0
VERTEX
  8
PNOA-H_AMS_1956-57_33k_ES_PAN_21mic_H50_0405_fot_42B-36313_E_tif
  70
32
  10
490439.000
  20
4589288.500
  30
1035.541
  0
VERTEX
  8
PNOA-H_AMS_1956-57_33k_ES_PAN_21mic_H50_0405_fot_42B-36313_E_tif
  70
32
  10
488053.511
  20
4589560.271
  30
1042.7
  0
VERTEX
  8
PNOA-H_AMS_1956-57_33k_ES_PAN_21mic_H50_0405_fot_42B-36313_E_tif
  70
32
  10
488051.500
  20
4589560.500
  30
1042.706
  0
VERTEX
  8
PNOA-H_AMS_1956-57_33k_ES_PAN_21mic_H50_0405_fot_42B-36313_E_tif
  70
32
  10
488100.994
  20
4593756.502
  30
967.21
  0
VERTEX
  8
PNOA-H_AMS_1956-57_33k_ES_PAN_21mic_H50_0405_fot_42B-36313_E_tif
  70
32
  10
488101.000
  20
4593757.000
  30
967.201
  0
VERTEX
  8
PNOA-H_AMS_1956-57_33k_ES_PAN_21mic_H50_0405_fot_42B-36313_E_tif
  70
32
  10
489733.500
  20
4594214.000
  30
975.68
  0
VERTEX
  8
PNOA-H_AMS_1956-57_33k_ES_PAN_21mic_H50_0405_fot_42B-36313_E_tif
  70
32
  10
489734.292
  20
4594213.802
  30
975.608
  0
VERTEX
  8
PNOA-H_AMS_1956-57_33k_ES_PAN_21mic_H50_0405_fot_42B-36313_E_tif
  70
32
  10
489738.777
  20
4594212.681
  30
975.204
  0
VERTEX
  8
PNOA-H_AMS_1956-57_33k_ES_PAN_21mic_H50_0405_fot_42B-36313_E_tif
  70
32
  10
489743.500
  20
4594211.500
  30
974.778
  0
VERTEX
  8
PNOA-H_AMS_1956-57_33k_ES_PAN_21mic_H50_0405_fot_42B-36313_E_tif
  70
32
  10
489916.554
  20
4594150.585
  30
973.022
  0
VERTEX
  8
PNOA-H_AMS_1956-57_33k_ES_PAN_21mic_H50_0405_fot_42B-36313_E_tif
  70
32
  10
489931.000
  20
4594145.500
  30
972.876
  0
VERTEX
  8
PNOA-H_AMS_1956-57_33k_ES_PAN_21mic_H50_0405_fot_42B-36313_E_tif
  70
32
  10
489932.000
  20
4594145.000
  30
972.852
  0
VERTEX
  8
PNOA-H_AMS_1956-57_33k_ES_PAN_21mic_H50_0405_fot_42B-36313_E_tif
  70
32
  10
490296.998
  20
4594017.700
  30
961.633
  0
VERTEX
  8
PNOA-H_AMS_1956-57_33k_ES_PAN_21mic_H50_0405_fot_42B-36313_E_tif
  70
32
  10
490968.076
  20
4593783.648
  30
941.006
  0
VERTEX
  8
PNOA-H_AMS_1956-57_33k_ES_PAN_21mic_H50_0405_fot_42B-36313_E_tif
  70
32
  10
490968.500
  20
4593783.500
  30
940.993
  0
VERTEX
  8
PNOA-H_AMS_1956-57_33k_ES_PAN_21mic_H50_0405_fot_42B-36313_E_tif
  70
32
  10
490871.000
  20
4589494.500
  30
1013.74
  0
VERTEX
  8
PNOA-H_AMS_1956-57_33k_ES_PAN_21mic_H50_0405_fot_42B-36313_E_tif
  70
32
  10
490870.803
  20
4589494.405
  30
1013.75
  0
SEQEND
  8
PNOA-H_AMS_1956-57_33k_ES_PAN_21mic_H50_0405_fot_42B-36313_E_tif
  0
INSERT
  8
FeatureAttribs
  2
FEATURE
  41
1
  42
1
  43
1
  50
0
  10
486661.788
  20
4591781.750
 66
1
  0
ATTRIB
  8
FeatureAttribs
 70
0
  1
PNOA-H_AMS_1956-57_33k_ES_PAN_21mic_H50_0405_fot_42B-36312_E.tif
  2
NAME
  10
486661.788
  20
4591781.750
 40
33.48059
  0
SEQEND
  0
POLYLINE
  8
PNOA-H_AMS_1956-57_33k_ES_PAN_21mic_H50_0405_fot_42B-36312_E_tif
  70
9
  66
1
  0
VERTEX
  8
PNOA-H_AMS_1956-57_33k_ES_PAN_21mic_H50_0405_fot_42B-36312_E_tif
  70
32
  10
488050.001
  20
4589559.731
  30
1042.851
  0
VERTEX
  8
PNOA-H_AMS_1956-57_33k_ES_PAN_21mic_H50_0405_fot_42B-36312_E_tif
  70
32
  10
487649.000
  20
4589354.000
  30
1081.836
  0
VERTEX
  8
PNOA-H_AMS_1956-57_33k_ES_PAN_21mic_H50_0405_fot_42B-36312_E_tif
  70
32
  10
487648.569
  20
4589354.035
  30
1081.834
  0
VERTEX
  8
PNOA-H_AMS_1956-57_33k_ES_PAN_21mic_H50_0405_fot_42B-36312_E_tif
  70
32
  10
485257.000
  20
4589550.000
  30
1072.954
  0
VERTEX
  8
PNOA-H_AMS_1956-57_33k_ES_PAN_21mic_H50_0405_fot_42B-36312_E_tif
  70
32
  10
485236.000
  20
4593761.500
  30
980.753
  0
VERTEX
  8
PNOA-H_AMS_1956-57_33k_ES_PAN_21mic_H50_0405_fot_42B-36312_E_tif
  70
32
  10
485833.000
  20
4593926.500
  30
979.974
  0
VERTEX
  8
PNOA-H_AMS_1956-57_33k_ES_PAN_21mic_H50_0405_fot_42B-36312_E_tif
  70
32
  10
485835.000
  20
4593927.000
  30
979.969
  0
VERTEX
  8
PNOA-H_AMS_1956-57_33k_ES_PAN_21mic_H50_0405_fot_42B-36312_E_tif
  70
32
  10
486442.710
  20
4594094.654
  30
951.417
  0
VERTEX
  8
PNOA-H_AMS_1956-57_33k_ES_PAN_21mic_H50_0405_fot_42B-36312_E_tif
  70
32
  10
486858.431
  20
4594209.343
  30
931.885
  0
VERTEX
  8
PNOA-H_AMS_1956-57_33k_ES_PAN_21mic_H50_0405_fot_42B-36312_E_tif
  70
32
  10
486859.000
  20
4594209.500
  30
931.858
  0
VERTEX
  8
PNOA-H_AMS_1956-57_33k_ES_PAN_21mic_H50_0405_fot_42B-36312_E_tif
  70
32
  10
488100.994
  20
4593756.502
  30
967.019
  0
VERTEX
  8
PNOA-H_AMS_1956-57_33k_ES_PAN_21mic_H50_0405_fot_42B-36312_E_tif
  70
32
  10
488101.000
  20
4593756.500
  30
967.019
  0
VERTEX
  8
PNOA-H_AMS_1956-57_33k_ES_PAN_21mic_H50_0405_fot_42B-36312_E_tif
  70
32
  10
488051.500
  20
4589560.500
  30
1042.706
  0
VERTEX
  8
PNOA-H_AMS_1956-57_33k_ES_PAN_21mic_H50_0405_fot_42B-36312_E_tif
  70
32
  10
488050.001
  20
4589559.731
  30
1042.851
  0
SEQEND
  8
PNOA-H_AMS_1956-57_33k_ES_PAN_21mic_H50_0405_fot_42B-36312_E_tif
  0
INSERT
  8
FeatureAttribs
  2
FEATURE
  41
1
  42
1
  43
1
  50
0
  10
488208.566
  20
4594016.429
 66
1
  0
ATTRIB
  8
FeatureAttribs
 70
0
  1
PNOA-H_AMS_1956-57_33k_ES_PAN_21mic_H50_0377_fot_41B-37405_W.tif
  2
NAME
  10
488208.566
  20
4594016.429
 40
33.48059
  0
SEQEND
  0
POLYLINE
  8
PNOA-H_AMS_1956-57_33k_ES_PAN_21mic_H50_0377_fot_41B-37405_W_tif
  70
9
  66
1
  0
VERTEX
  8
PNOA-H_AMS_1956-57_33k_ES_PAN_21mic_H50_0377_fot_41B-37405_W_tif
  70
32
  10
489734.292
  20
4594213.802
  30
975.568
  0
VERTEX
  8
PNOA-H_AMS_1956-57_33k_ES_PAN_21mic_H50_0377_fot_41B-37405_W_tif
  70
32
  10
488101.000
  20
4593756.500
  30
967.019
  0
VERTEX
  8
PNOA-H_AMS_1956-57_33k_ES_PAN_21mic_H50_0377_fot_41B-37405_W_tif
  70
32
  10
488100.994
  20
4593756.502
  30
967.019
  0
VERTEX
  8
PNOA-H_AMS_1956-57_33k_ES_PAN_21mic_H50_0377_fot_41B-37405_W_tif
  70
32
  10
486858.431
  20
4594209.343
  30
931.934
  0
VERTEX
  8
PNOA-H_AMS_1956-57_33k_ES_PAN_21mic_H50_0377_fot_41B-37405_W_tif
  70
32
  10
486858.000
  20
4594209.500
  30
931.921
  0
VERTEX
  8
PNOA-H_AMS_1956-57_33k_ES_PAN_21mic_H50_0377_fot_41B-37405_W_tif
  70
32
  10
486857.085
  20
4594276.358
  30
930.806
  0
VERTEX
  8
PNOA-H_AMS_1956-57_33k_ES_PAN_21mic_H50_0377_fot_41B-37405_W_tif
  70
32
  10
487828.344
  20
4594274.486
  30
0
  0
VERTEX
  8
PNOA-H_AMS_1956-57_33k_ES_PAN_21mic_H50_0377_fot_41B-37405_W_tif
  70
32
  10
489733.822
  20
4594271.732
  30
974.055
  0
VERTEX
  8
PNOA-H_AMS_1956-57_33k_ES_PAN_21mic_H50_0377_fot_41B-37405_W_tif
  70
32
  10
489735.000
  20
4594214.000
  30
975.571
  0
VERTEX
  8
PNOA-H_AMS_1956-57_33k_ES_PAN_21mic_H50_0377_fot_41B-37405_W_tif
  70
32
  10
489734.292
  20
4594213.802
  30
975.568
  0
SEQEND
  8
PNOA-H_AMS_1956-57_33k_ES_PAN_21mic_H50_0377_fot_41B-37405_W_tif
  0
INSERT
  8
FeatureAttribs
  2
FEATURE
  41
1
  42
1
  43
1
  50
0
  10
484581.780
  20
4587371.158
 66
1
  0
ATTRIB
  8
FeatureAttribs
 70
0
  1
PNOA-H_AMS_1956-57_33k_ES_PAN_21mic_H50_0404_fot_43B-29642_E.tif
  2
NAME
  10
484581.780
  20
4587371.158
 40
33.48059
  0
SEQEND
  0
POLYLINE
  8
PNOA-H_AMS_1956-57_33k_ES_PAN_21mic_H50_0404_fot_43B-29642_E_tif
  70
9
  66
1
  0
VERTEX
  8
PNOA-H_AMS_1956-57_33k_ES_PAN_21mic_H50_0404_fot_43B-29642_E_tif
  70
32
  10
484830.822
  20
4585476.854
  30
1097.495
  0
VERTEX
  8
PNOA-H_AMS_1956-57_33k_ES_PAN_21mic_H50_0404_fot_43B-29642_E_tif
  70
32
  10
484331.418
  20
4585369.206
  30
1097.105
  0
VERTEX
  8
PNOA-H_AMS_1956-57_33k_ES_PAN_21mic_H50_0404_fot_43B-29642_E_tif
  70
32
  10
484331.418
  20
4585369.289
  30
0
  0
VERTEX
  8
PNOA-H_AMS_1956-57_33k_ES_PAN_21mic_H50_0404_fot_43B-29642_E_tif
  70
32
  10
484335.690
  20
4587342.525
  30
0
  0
VERTEX
  8
PNOA-H_AMS_1956-57_33k_ES_PAN_21mic_H50_0404_fot_43B-29642_E_tif
  70
32
  10
484340.089
  20
4589373.111
  30
1020.347
  0
VERTEX
  8
PNOA-H_AMS_1956-57_33k_ES_PAN_21mic_H50_0404_fot_43B-29642_E_tif
  70
32
  10
484824.000
  20
4589325.000
  30
1026.248
  0
VERTEX
  8
PNOA-H_AMS_1956-57_33k_ES_PAN_21mic_H50_0404_fot_43B-29642_E_tif
  70
32
  10
484831.500
  20
4585477.000
  30
1097.495
  0
VERTEX
  8
PNOA-H_AMS_1956-57_33k_ES_PAN_21mic_H50_0404_fot_43B-29642_E_tif
  70
32
  10
484830.822
  20
4585476.854
  30
1097.495
  0
SEQEND
  8
PNOA-H_AMS_1956-57_33k_ES_PAN_21mic_H50_0404_fot_43B-29642_E_tif
  0
INSERT
  8
FeatureAttribs
  2
FEATURE
  41
1
  42
1
  43
1
  50
0
  10
484977.960
  20
4583198.250
 66
1
  0
ATTRIB
  8
FeatureAttribs
 70
0
  1
PNOA-H_AMS_1956-57_33k_ES_PAN_21mic_H50_0404_fot_44B-36272_W.tif
  2
NAME
  10
484977.960
  20
4583198.250
 40
33.48059
  0
SEQEND
  0
POLYLINE
  8
PNOA-H_AMS_1956-57_33k_ES_PAN_21mic_H50_0404_fot_44B-36272_W_tif
  70
9
  66
1
  0
VERTEX
  8
PNOA-H_AMS_1956-57_33k_ES_PAN_21mic_H50_0404_fot_44B-36272_W_tif
  70
32
  10
485579.000
  20
4580919.515
  30
1207.867
  0
VERTEX
  8
PNOA-H_AMS_1956-57_33k_ES_PAN_21mic_H50_0404_fot_44B-36272_W_tif
  70
32
  10
485579.000
  20
4580919.500
  30
1207.867
  0
VERTEX
  8
PNOA-H_AMS_1956-57_33k_ES_PAN_21mic_H50_0404_fot_44B-36272_W_tif
  70
32
  10
484321.835
  20
4580941.294
  30
1206.053
  0
VERTEX
  8
PNOA-H_AMS_1956-57_33k_ES_PAN_21mic_H50_0404_fot_44B-36272_W_tif
  70
32
  10
484321.835
  20
4580941.407
  30
0
  0
VERTEX
  8
PNOA-H_AMS_1956-57_33k_ES_PAN_21mic_H50_0404_fot_44B-36272_W_tif
  70
32
  10
484325.676
  20
4582716.791
  30
0
  0
VERTEX
  8
PNOA-H_AMS_1956-57_33k_ES_PAN_21mic_H50_0404_fot_44B-36272_W_tif
  70
32
  10
484330.682
  20
4585029.654
  30
0
  0
VERTEX
  8
PNOA-H_AMS_1956-57_33k_ES_PAN_21mic_H50_0404_fot_44B-36272_W_tif
  70
32
  10
484331.418
  20
4585369.206
  30
0
  0
VERTEX
  8
PNOA-H_AMS_1956-57_33k_ES_PAN_21mic_H50_0404_fot_44B-36272_W_tif
  70
32
  10
484331.418
  20
4585369.289
  30
1097.147
  0
VERTEX
  8
PNOA-H_AMS_1956-57_33k_ES_PAN_21mic_H50_0404_fot_44B-36272_W_tif
  70
32
  10
484828.500
  20
4585476.500
  30
1097.539
  0
VERTEX
  8
PNOA-H_AMS_1956-57_33k_ES_PAN_21mic_H50_0404_fot_44B-36272_W_tif
  70
32
  10
484830.500
  20
4585477.000
  30
1097.502
  0
VERTEX
  8
PNOA-H_AMS_1956-57_33k_ES_PAN_21mic_H50_0404_fot_44B-36272_W_tif
  70
32
  10
484830.822
  20
4585476.854
  30
1097.506
  0
VERTEX
  8
PNOA-H_AMS_1956-57_33k_ES_PAN_21mic_H50_0404_fot_44B-36272_W_tif
  70
32
  10
484837.015
  20
4585474.038
  30
1097.598
  0
VERTEX
  8
PNOA-H_AMS_1956-57_33k_ES_PAN_21mic_H50_0404_fot_44B-36272_W_tif
  70
32
  10
484841.500
  20
4585472.000
  30
1097.664
  0
VERTEX
  8
PNOA-H_AMS_1956-57_33k_ES_PAN_21mic_H50_0404_fot_44B-36272_W_tif
  70
32
  10
485659.551
  20
4585032.841
  30
1103.883
  0
VERTEX
  8
PNOA-H_AMS_1956-57_33k_ES_PAN_21mic_H50_0404_fot_44B-36272_W_tif
  70
32
  10
485669.500
  20
4585027.500
  30
1103.959
  0
VERTEX
  8
PNOA-H_AMS_1956-57_33k_ES_PAN_21mic_H50_0404_fot_44B-36272_W_tif
  70
32
  10
485669.494
  20
4585027.212
  30
1103.966
  0
VERTEX
  8
PNOA-H_AMS_1956-57_33k_ES_PAN_21mic_H50_0404_fot_44B-36272_W_tif
  70
32
  10
485579.000
  20
4580919.515
  30
1207.867
  0
SEQEND
  8
PNOA-H_AMS_1956-57_33k_ES_PAN_21mic_H50_0404_fot_44B-36272_W_tif
  0
INSERT
  8
FeatureAttribs
  2
FEATURE
  41
1
  42
1
  43
1
  50
0
  10
484943.415
  20
4578646.423
 66
1
  0
ATTRIB
  8
FeatureAttribs
 70
0
  1
PNOA-H_AMS_1956-57_33k_ES_PAN_21mic_H50_0405_fot_45B-36171_E.tif
  2
NAME
  10
484943.415
  20
4578646.423
 40
33.48059
  0
SEQEND
  0
POLYLINE
  8
PNOA-H_AMS_1956-57_33k_ES_PAN_21mic_H50_0405_fot_45B-36171_E_tif
  70
9
  66
1
  0
VERTEX
  8
PNOA-H_AMS_1956-57_33k_ES_PAN_21mic_H50_0405_fot_45B-36171_E_tif
  70
32
  10
485556.271
  20
4576854.907
  30
1215.431
  0
VERTEX
  8
PNOA-H_AMS_1956-57_33k_ES_PAN_21mic_H50_0405_fot_45B-36171_E_tif
  70
32
  10
484311.910
  20
4576351.438
  30
1196.799
  0
VERTEX
  8
PNOA-H_AMS_1956-57_33k_ES_PAN_21mic_H50_0405_fot_45B-36171_E_tif
  70
32
  10
484311.910
  20
4576351.641
  30
0
  0
VERTEX
  8
PNOA-H_AMS_1956-57_33k_ES_PAN_21mic_H50_0405_fot_45B-36171_E_tif
  70
32
  10
484315.671
  20
4578091.090
  30
0
  0
VERTEX
  8
PNOA-H_AMS_1956-57_33k_ES_PAN_21mic_H50_0405_fot_45B-36171_E_tif
  70
32
  10
484320.672
  20
4580403.936
  30
0
  0
VERTEX
  8
PNOA-H_AMS_1956-57_33k_ES_PAN_21mic_H50_0405_fot_45B-36171_E_tif
  70
32
  10
484321.835
  20
4580941.294
  30
0
  0
VERTEX
  8
PNOA-H_AMS_1956-57_33k_ES_PAN_21mic_H50_0405_fot_45B-36171_E_tif
  70
32
  10
484321.835
  20
4580941.407
  30
1205.937
  0
VERTEX
  8
PNOA-H_AMS_1956-57_33k_ES_PAN_21mic_H50_0405_fot_45B-36171_E_tif
  70
32
  10
485563.000
  20
4580920.000
  30
1207.615
  0
VERTEX
  8
PNOA-H_AMS_1956-57_33k_ES_PAN_21mic_H50_0405_fot_45B-36171_E_tif
  70
32
  10
485579.000
  20
4580919.515
  30
1207.869
  0
VERTEX
  8
PNOA-H_AMS_1956-57_33k_ES_PAN_21mic_H50_0405_fot_45B-36171_E_tif
  70
32
  10
485579.500
  20
4580919.500
  30
1207.877
  0
VERTEX
  8
PNOA-H_AMS_1956-57_33k_ES_PAN_21mic_H50_0405_fot_45B-36171_E_tif
  70
32
  10
485587.000
  20
4580915.000
  30
1208.1
  0
VERTEX
  8
PNOA-H_AMS_1956-57_33k_ES_PAN_21mic_H50_0405_fot_45B-36171_E_tif
  70
32
  10
485586.996
  20
4580914.502
  30
1208.101
  0
VERTEX
  8
PNOA-H_AMS_1956-57_33k_ES_PAN_21mic_H50_0405_fot_45B-36171_E_tif
  70
32
  10
485556.500
  20
4576855.000
  30
1215.434
  0
VERTEX
  8
PNOA-H_AMS_1956-57_33k_ES_PAN_21mic_H50_0405_fot_45B-36171_E_tif
  70
32
  10
485556.271
  20
4576854.907
  30
1215.431
  0
SEQEND
  8
PNOA-H_AMS_1956-57_33k_ES_PAN_21mic_H50_0405_fot_45B-36171_E_tif
  0
INSERT
  8
FeatureAttribs
  2
FEATURE
  41
1
  42
1
  43
1
  50
0
  10
485601.976
  20
4576314.112
 66
1
  0
ATTRIB
  8
FeatureAttribs
 70
0
  1
PNOA-H_AMS_1956-57_33k_ES_PAN_21mic_H50_0433_fot_46B-29791_E.tif
  2
NAME
  10
485601.976
  20
4576314.112
 40
33.48059
  0
SEQEND
  0
POLYLINE
  8
PNOA-H_AMS_1956-57_33k_ES_PAN_21mic_H50_0433_fot_46B-29791_E_tif
  70
9
  66
1
  0
VERTEX
  8
PNOA-H_AMS_1956-57_33k_ES_PAN_21mic_H50_0433_fot_46B-29791_E_tif
  70
32
  10
486886.500
  20
4576399.500
  30
1178.519
  0
VERTEX
  8
PNOA-H_AMS_1956-57_33k_ES_PAN_21mic_H50_0433_fot_46B-29791_E_tif
  70
32
  10
486927.739
  20
4575773.225
  30
1191.821
  0
VERTEX
  8
PNOA-H_AMS_1956-57_33k_ES_PAN_21mic_H50_0433_fot_46B-29791_E_tif
  70
32
  10
484310.671
  20
4575778.252
  30
0
  0
VERTEX
  8
PNOA-H_AMS_1956-57_33k_ES_PAN_21mic_H50_0433_fot_46B-29791_E_tif
  70
32
  10
484311.910
  20
4576351.438
  30
0
  0
VERTEX
  8
PNOA-H_AMS_1956-57_33k_ES_PAN_21mic_H50_0433_fot_46B-29791_E_tif
  70
32
  10
484311.910
  20
4576351.641
  30
1196.711
  0
VERTEX
  8
PNOA-H_AMS_1956-57_33k_ES_PAN_21mic_H50_0433_fot_46B-29791_E_tif
  70
32
  10
485556.000
  20
4576855.000
  30
1215.45
  0
VERTEX
  8
PNOA-H_AMS_1956-57_33k_ES_PAN_21mic_H50_0433_fot_46B-29791_E_tif
  70
32
  10
485556.271
  20
4576854.907
  30
1215.443
  0
VERTEX
  8
PNOA-H_AMS_1956-57_33k_ES_PAN_21mic_H50_0433_fot_46B-29791_E_tif
  70
32
  10
486886.500
  20
4576399.500
  30
1178.519
  0
SEQEND
  8
PNOA-H_AMS_1956-57_33k_ES_PAN_21mic_H50_0433_fot_46B-29791_E_tif
  0
INSERT
  8
FeatureAttribs
  2
FEATURE
  41
1
  42
1
  43
1
  50
0
  10
486228.108
  20
4587288.750
 66
1
  0
ATTRIB
  8
FeatureAttribs
 70
0
  1
PNOA-H_AMS_1956-57_33k_ES_PAN_21mic_H50_0405_fot_43B-29643_E.tif
  2
NAME
  10
486228.108
  20
4587288.750
 40
33.48059
  0
SEQEND
  0
POLYLINE
  8
PNOA-H_AMS_1956-57_33k_ES_PAN_21mic_H50_0405_fot_43B-29643_E_tif
  70
9
  66
1
  0
VERTEX
  8
PNOA-H_AMS_1956-57_33k_ES_PAN_21mic_H50_0405_fot_43B-29643_E_tif
  70
32
  10
487609.287
  20
4585427.853
  30
1112.623
  0
VERTEX
  8
PNOA-H_AMS_1956-57_33k_ES_PAN_21mic_H50_0405_fot_43B-29643_E_tif
  70
32
  10
485670.500
  20
4585027.500
  30
1103.9
  0
VERTEX
  8
PNOA-H_AMS_1956-57_33k_ES_PAN_21mic_H50_0405_fot_43B-29643_E_tif
  70
32
  10
485670.344
  20
4585027.576
  30
1103.913
  0
VERTEX
  8
PNOA-H_AMS_1956-57_33k_ES_PAN_21mic_H50_0405_fot_43B-29643_E_tif
  70
32
  10
485659.551
  20
4585032.841
  30
1104.882
  0
VERTEX
  8
PNOA-H_AMS_1956-57_33k_ES_PAN_21mic_H50_0405_fot_43B-29643_E_tif
  70
32
  10
485650.000
  20
4585037.500
  30
1105.738
  0
VERTEX
  8
PNOA-H_AMS_1956-57_33k_ES_PAN_21mic_H50_0405_fot_43B-29643_E_tif
  70
32
  10
484837.015
  20
4585474.038
  30
1097.551
  0
VERTEX
  8
PNOA-H_AMS_1956-57_33k_ES_PAN_21mic_H50_0405_fot_43B-29643_E_tif
  70
32
  10
484831.500
  20
4585477.000
  30
1097.495
  0
VERTEX
  8
PNOA-H_AMS_1956-57_33k_ES_PAN_21mic_H50_0405_fot_43B-29643_E_tif
  70
32
  10
484824.000
  20
4589325.000
  30
1026.248
  0
VERTEX
  8
PNOA-H_AMS_1956-57_33k_ES_PAN_21mic_H50_0405_fot_43B-29643_E_tif
  70
32
  10
484824.080
  20
4589325.042
  30
1026.256
  0
VERTEX
  8
PNOA-H_AMS_1956-57_33k_ES_PAN_21mic_H50_0405_fot_43B-29643_E_tif
  70
32
  10
485256.000
  20
4589550.000
  30
1072.959
  0
VERTEX
  8
PNOA-H_AMS_1956-57_33k_ES_PAN_21mic_H50_0405_fot_43B-29643_E_tif
  70
32
  10
485256.864
  20
4589549.929
  30
1072.897
  0
VERTEX
  8
PNOA-H_AMS_1956-57_33k_ES_PAN_21mic_H50_0405_fot_43B-29643_E_tif
  70
32
  10
485834.000
  20
4589502.500
  30
1031.53
  0
VERTEX
  8
PNOA-H_AMS_1956-57_33k_ES_PAN_21mic_H50_0405_fot_43B-29643_E_tif
  70
32
  10
485836.000
  20
4589502.500
  30
1030.927
  0
VERTEX
  8
PNOA-H_AMS_1956-57_33k_ES_PAN_21mic_H50_0405_fot_43B-29643_E_tif
  70
32
  10
487648.500
  20
4589354.000
  30
1081.883
  0
VERTEX
  8
PNOA-H_AMS_1956-57_33k_ES_PAN_21mic_H50_0405_fot_43B-29643_E_tif
  70
32
  10
487610.000
  20
4585428.000
  30
1112.626
  0
VERTEX
  8
PNOA-H_AMS_1956-57_33k_ES_PAN_21mic_H50_0405_fot_43B-29643_E_tif
  70
32
  10
487609.287
  20
4585427.853
  30
1112.623
  0
SEQEND
  8
PNOA-H_AMS_1956-57_33k_ES_PAN_21mic_H50_0405_fot_43B-29643_E_tif
  0
INSERT
  8
FeatureAttribs
  2
FEATURE
  41
1
  42
1
  43
1
  50
0
  10
489009.513
  20
4587240.000
 66
1
  0
ATTRIB
  8
FeatureAttribs
 70
0
  1
PNOA-H_AMS_1956-57_33k_ES_PAN_21mic_H50_0405_fot_43B-29644_E.tif
  2
NAME
  10
489009.513
  20
4587240.000
 40
33.48059
  0
SEQEND
  0
POLYLINE
  8
PNOA-H_AMS_1956-57_33k_ES_PAN_21mic_H50_0405_fot_43B-29644_E_tif
  70
9
  66
1
  0
VERTEX
  8
PNOA-H_AMS_1956-57_33k_ES_PAN_21mic_H50_0405_fot_43B-29644_E_tif
  70
32
  10
490177.426
  20
4585345.708
  30
1087.485
  0
VERTEX
  8
PNOA-H_AMS_1956-57_33k_ES_PAN_21mic_H50_0405_fot_43B-29644_E_tif
  70
32
  10
488600.500
  20
4584919.500
  30
1116.805
  0
VERTEX
  8
PNOA-H_AMS_1956-57_33k_ES_PAN_21mic_H50_0405_fot_43B-29644_E_tif
  70
32
  10
488600.485
  20
4584919.507
  30
1116.805
  0
VERTEX
  8
PNOA-H_AMS_1956-57_33k_ES_PAN_21mic_H50_0405_fot_43B-29644_E_tif
  70
32
  10
487633.885
  20
4585415.250
  30
1112.739
  0
VERTEX
  8
PNOA-H_AMS_1956-57_33k_ES_PAN_21mic_H50_0405_fot_43B-29644_E_tif
  70
32
  10
487610.000
  20
4585427.500
  30
1112.639
  0
VERTEX
  8
PNOA-H_AMS_1956-57_33k_ES_PAN_21mic_H50_0405_fot_43B-29644_E_tif
  70
32
  10
487648.500
  20
4589354.000
  30
1081.883
  0
VERTEX
  8
PNOA-H_AMS_1956-57_33k_ES_PAN_21mic_H50_0405_fot_43B-29644_E_tif
  70
32
  10
487648.569
  20
4589354.035
  30
1081.881
  0
VERTEX
  8
PNOA-H_AMS_1956-57_33k_ES_PAN_21mic_H50_0405_fot_43B-29644_E_tif
  70
32
  10
487882.000
  20
4589474.000
  30
1074.436
  0
VERTEX
  8
PNOA-H_AMS_1956-57_33k_ES_PAN_21mic_H50_0405_fot_43B-29644_E_tif
  70
32
  10
487883.000
  20
4589474.500
  30
1074.312
  0
VERTEX
  8
PNOA-H_AMS_1956-57_33k_ES_PAN_21mic_H50_0405_fot_43B-29644_E_tif
  70
32
  10
488048.500
  20
4589559.500
  30
1043.431
  0
VERTEX
  8
PNOA-H_AMS_1956-57_33k_ES_PAN_21mic_H50_0405_fot_43B-29644_E_tif
  70
32
  10
488050.001
  20
4589559.731
  30
1043.08
  0
VERTEX
  8
PNOA-H_AMS_1956-57_33k_ES_PAN_21mic_H50_0405_fot_43B-29644_E_tif
  70
32
  10
488053.511
  20
4589560.271
  30
1042.26
  0
VERTEX
  8
PNOA-H_AMS_1956-57_33k_ES_PAN_21mic_H50_0405_fot_43B-29644_E_tif
  70
32
  10
488055.000
  20
4589560.500
  30
1041.912
  0
VERTEX
  8
PNOA-H_AMS_1956-57_33k_ES_PAN_21mic_H50_0405_fot_43B-29644_E_tif
  70
32
  10
490442.500
  20
4589288.500
  30
1035.675
  0
VERTEX
  8
PNOA-H_AMS_1956-57_33k_ES_PAN_21mic_H50_0405_fot_43B-29644_E_tif
  70
32
  10
490345.000
  20
4585391.000
  30
1084.369
  0
VERTEX
  8
PNOA-H_AMS_1956-57_33k_ES_PAN_21mic_H50_0405_fot_43B-29644_E_tif
  70
32
  10
490177.426
  20
4585345.708
  30
1087.485
  0
SEQEND
  8
PNOA-H_AMS_1956-57_33k_ES_PAN_21mic_H50_0405_fot_43B-29644_E_tif
  0
INSERT
  8
FeatureAttribs
  2
FEATURE
  41
1
  42
1
  43
1
  50
0
  10
487088.352
  20
4583159.000
 66
1
  0
ATTRIB
  8
FeatureAttribs
 70
0
  1
PNOA-H_AMS_1956-57_33k_ES_PAN_21mic_H50_0405_fot_44B-36271_W.tif
  2
NAME
  10
487088.352
  20
4583159.000
 40
33.48059
  0
SEQEND
  0
POLYLINE
  8
PNOA-H_AMS_1956-57_33k_ES_PAN_21mic_H50_0405_fot_44B-36271_W_tif
  70
9
  66
1
  0
VERTEX
  8
PNOA-H_AMS_1956-57_33k_ES_PAN_21mic_H50_0405_fot_44B-36271_W_tif
  70
32
  10
488378.552
  20
4580890.017
  30
1203.498
  0
VERTEX
  8
PNOA-H_AMS_1956-57_33k_ES_PAN_21mic_H50_0405_fot_44B-36271_W_tif
  70
32
  10
488378.500
  20
4580890.000
  30
1203.5
  0
VERTEX
  8
PNOA-H_AMS_1956-57_33k_ES_PAN_21mic_H50_0405_fot_44B-36271_W_tif
  70
32
  10
485799.500
  20
4580912.500
  30
1207.955
  0
VERTEX
  8
PNOA-H_AMS_1956-57_33k_ES_PAN_21mic_H50_0405_fot_44B-36271_W_tif
  70
32
  10
485627.500
  20
4580914.000
  30
1208.252
  0
VERTEX
  8
PNOA-H_AMS_1956-57_33k_ES_PAN_21mic_H50_0405_fot_44B-36271_W_tif
  70
32
  10
485587.000
  20
4580914.500
  30
1208.122
  0
VERTEX
  8
PNOA-H_AMS_1956-57_33k_ES_PAN_21mic_H50_0405_fot_44B-36271_W_tif
  70
32
  10
485586.996
  20
4580914.502
  30
1208.122
  0
VERTEX
  8
PNOA-H_AMS_1956-57_33k_ES_PAN_21mic_H50_0405_fot_44B-36271_W_tif
  70
32
  10
485579.000
  20
4580919.500
  30
1207.867
  0
VERTEX
  8
PNOA-H_AMS_1956-57_33k_ES_PAN_21mic_H50_0405_fot_44B-36271_W_tif
  70
32
  10
485579.000
  20
4580919.515
  30
1207.867
  0
VERTEX
  8
PNOA-H_AMS_1956-57_33k_ES_PAN_21mic_H50_0405_fot_44B-36271_W_tif
  70
32
  10
485669.000
  20
4585027.000
  30
1103.978
  0
VERTEX
  8
PNOA-H_AMS_1956-57_33k_ES_PAN_21mic_H50_0405_fot_44B-36271_W_tif
  70
32
  10
485669.494
  20
4585027.212
  30
1103.953
  0
VERTEX
  8
PNOA-H_AMS_1956-57_33k_ES_PAN_21mic_H50_0405_fot_44B-36271_W_tif
  70
32
  10
485670.344
  20
4585027.576
  30
1103.91
  0
VERTEX
  8
PNOA-H_AMS_1956-57_33k_ES_PAN_21mic_H50_0405_fot_44B-36271_W_tif
  70
32
  10
485672.500
  20
4585028.500
  30
1103.8
  0
VERTEX
  8
PNOA-H_AMS_1956-57_33k_ES_PAN_21mic_H50_0405_fot_44B-36271_W_tif
  70
32
  10
487609.000
  20
4585428.000
  30
1112.597
  0
VERTEX
  8
PNOA-H_AMS_1956-57_33k_ES_PAN_21mic_H50_0405_fot_44B-36271_W_tif
  70
32
  10
487609.287
  20
4585427.853
  30
1112.598
  0
VERTEX
  8
PNOA-H_AMS_1956-57_33k_ES_PAN_21mic_H50_0405_fot_44B-36271_W_tif
  70
32
  10
487633.885
  20
4585415.250
  30
1112.703
  0
VERTEX
  8
PNOA-H_AMS_1956-57_33k_ES_PAN_21mic_H50_0405_fot_44B-36271_W_tif
  70
32
  10
488600.500
  20
4584920.000
  30
1116.822
  0
VERTEX
  8
PNOA-H_AMS_1956-57_33k_ES_PAN_21mic_H50_0405_fot_44B-36271_W_tif
  70
32
  10
488600.485
  20
4584919.507
  30
1116.832
  0
VERTEX
  8
PNOA-H_AMS_1956-57_33k_ES_PAN_21mic_H50_0405_fot_44B-36271_W_tif
  70
32
  10
488542.000
  20
4582933.750
  30
1156.529
  0
VERTEX
  8
PNOA-H_AMS_1956-57_33k_ES_PAN_21mic_H50_0405_fot_44B-36271_W_tif
  70
32
  10
488483.515
  20
4580947.999
  30
1196.226
  0
VERTEX
  8
PNOA-H_AMS_1956-57_33k_ES_PAN_21mic_H50_0405_fot_44B-36271_W_tif
  70
32
  10
488483.500
  20
4580947.500
  30
1196.236
  0
VERTEX
  8
PNOA-H_AMS_1956-57_33k_ES_PAN_21mic_H50_0405_fot_44B-36271_W_tif
  70
32
  10
488400.500
  20
4580901.000
  30
1202.247
  0
VERTEX
  8
PNOA-H_AMS_1956-57_33k_ES_PAN_21mic_H50_0405_fot_44B-36271_W_tif
  70
32
  10
488399.500
  20
4580901.000
  30
1202.251
  0
VERTEX
  8
PNOA-H_AMS_1956-57_33k_ES_PAN_21mic_H50_0405_fot_44B-36271_W_tif
  70
32
  10
488384.500
  20
4580892.000
  30
1203.246
  0
VERTEX
  8
PNOA-H_AMS_1956-57_33k_ES_PAN_21mic_H50_0405_fot_44B-36271_W_tif
  70
32
  10
488381.241
  20
4580890.914
  30
1203.384
  0
VERTEX
  8
PNOA-H_AMS_1956-57_33k_ES_PAN_21mic_H50_0405_fot_44B-36271_W_tif
  70
32
  10
488378.552
  20
4580890.017
  30
1203.498
  0
SEQEND
  8
PNOA-H_AMS_1956-57_33k_ES_PAN_21mic_H50_0405_fot_44B-36271_W_tif
  0
INSERT
  8
FeatureAttribs
  2
FEATURE
  41
1
  42
1
  43
1
  50
0
  10
489736.522
  20
4578695.000
 66
1
  0
ATTRIB
  8
FeatureAttribs
 70
0
  1
PNOA-H_AMS_1956-57_33k_ES_PAN_21mic_H50_0405_fot_45B-36173_E.tif
  2
NAME
  10
489736.522
  20
4578695.000
 40
33.48059
  0
SEQEND
  0
POLYLINE
  8
PNOA-H_AMS_1956-57_33k_ES_PAN_21mic_H50_0405_fot_45B-36173_E_tif
  70
9
  66
1
  0
VERTEX
  8
PNOA-H_AMS_1956-57_33k_ES_PAN_21mic_H50_0405_fot_45B-36173_E_tif
  70
32
  10
489854.500
  20
4576531.500
  30
1178.681
  0
VERTEX
  8
PNOA-H_AMS_1956-57_33k_ES_PAN_21mic_H50_0405_fot_45B-36173_E_tif
  70
32
  10
489586.000
  20
4576442.000
  30
1179.661
  0
VERTEX
  8
PNOA-H_AMS_1956-57_33k_ES_PAN_21mic_H50_0405_fot_45B-36173_E_tif
  70
32
  10
489584.500
  20
4576442.000
  30
1179.529
  0
VERTEX
  8
PNOA-H_AMS_1956-57_33k_ES_PAN_21mic_H50_0405_fot_45B-36173_E_tif
  70
32
  10
489583.500
  20
4576442.000
  30
1179.441
  0
VERTEX
  8
PNOA-H_AMS_1956-57_33k_ES_PAN_21mic_H50_0405_fot_45B-36173_E_tif
  70
32
  10
488772.500
  20
4576763.667
  30
1149.41
  0
VERTEX
  8
PNOA-H_AMS_1956-57_33k_ES_PAN_21mic_H50_0405_fot_45B-36173_E_tif
  70
32
  10
488367.000
  20
4576924.500
  30
1134.394
  0
VERTEX
  8
PNOA-H_AMS_1956-57_33k_ES_PAN_21mic_H50_0405_fot_45B-36173_E_tif
  70
32
  10
488380.499
  20
4580890.000
  30
1203.42
  0
VERTEX
  8
PNOA-H_AMS_1956-57_33k_ES_PAN_21mic_H50_0405_fot_45B-36173_E_tif
  70
32
  10
488380.500
  20
4580890.500
  30
1203.429
  0
VERTEX
  8
PNOA-H_AMS_1956-57_33k_ES_PAN_21mic_H50_0405_fot_45B-36173_E_tif
  70
32
  10
488381.241
  20
4580890.914
  30
1203.377
  0
VERTEX
  8
PNOA-H_AMS_1956-57_33k_ES_PAN_21mic_H50_0405_fot_45B-36173_E_tif
  70
32
  10
488483.500
  20
4580948.000
  30
1196.166
  0
VERTEX
  8
PNOA-H_AMS_1956-57_33k_ES_PAN_21mic_H50_0405_fot_45B-36173_E_tif
  70
32
  10
488483.515
  20
4580947.999
  30
1196.166
  0
VERTEX
  8
PNOA-H_AMS_1956-57_33k_ES_PAN_21mic_H50_0405_fot_45B-36173_E_tif
  70
32
  10
491129.000
  20
4580771.000
  30
1197.244
  0
VERTEX
  8
PNOA-H_AMS_1956-57_33k_ES_PAN_21mic_H50_0405_fot_45B-36173_E_tif
  70
32
  10
491128.978
  20
4580769.411
  30
1197.262
  0
VERTEX
  8
PNOA-H_AMS_1956-57_33k_ES_PAN_21mic_H50_0405_fot_45B-36173_E_tif
  70
32
  10
491075.507
  20
4576939.497
  30
1240.472
  0
VERTEX
  8
PNOA-H_AMS_1956-57_33k_ES_PAN_21mic_H50_0405_fot_45B-36173_E_tif
  70
32
  10
491075.505
  20
4576939.335
  30
1240.474
  0
VERTEX
  8
PNOA-H_AMS_1956-57_33k_ES_PAN_21mic_H50_0405_fot_45B-36173_E_tif
  70
32
  10
491075.500
  20
4576939.000
  30
1240.478
  0
VERTEX
  8
PNOA-H_AMS_1956-57_33k_ES_PAN_21mic_H50_0405_fot_45B-36173_E_tif
  70
32
  10
490674.000
  20
4576805.000
  30
1277.073
  0
VERTEX
  8
PNOA-H_AMS_1956-57_33k_ES_PAN_21mic_H50_0405_fot_45B-36173_E_tif
  70
32
  10
490672.676
  20
4576805.000
  30
1277.306
  0
VERTEX
  8
PNOA-H_AMS_1956-57_33k_ES_PAN_21mic_H50_0405_fot_45B-36173_E_tif
  70
32
  10
490672.500
  20
4576805.000
  30
1277.337
  0
VERTEX
  8
PNOA-H_AMS_1956-57_33k_ES_PAN_21mic_H50_0405_fot_45B-36173_E_tif
  70
32
  10
490605.271
  20
4576782.522
  30
1269.228
  0
VERTEX
  8
PNOA-H_AMS_1956-57_33k_ES_PAN_21mic_H50_0405_fot_45B-36173_E_tif
  70
32
  10
489854.500
  20
4576531.500
  30
1178.681
  0
SEQEND
  8
PNOA-H_AMS_1956-57_33k_ES_PAN_21mic_H50_0405_fot_45B-36173_E_tif
  0
INSERT
  8
FeatureAttribs
  2
FEATURE
  41
1
  42
1
  43
1
  50
0
  10
486971.468
  20
4578657.000
 66
1
  0
ATTRIB
  8
FeatureAttribs
 70
0
  1
PNOA-H_AMS_1956-57_33k_ES_PAN_21mic_H50_0405_fot_45B-36172_E.tif
  2
NAME
  10
486971.468
  20
4578657.000
 40
33.48059
  0
SEQEND
  0
POLYLINE
  8
PNOA-H_AMS_1956-57_33k_ES_PAN_21mic_H50_0405_fot_45B-36172_E_tif
  70
9
  66
1
  0
VERTEX
  8
PNOA-H_AMS_1956-57_33k_ES_PAN_21mic_H50_0405_fot_45B-36172_E_tif
  70
32
  10
485587.000
  20
4580914.500
  30
1208.122
  0
VERTEX
  8
PNOA-H_AMS_1956-57_33k_ES_PAN_21mic_H50_0405_fot_45B-36172_E_tif
  70
32
  10
485799.500
  20
4580912.500
  30
1209.932
  0
VERTEX
  8
PNOA-H_AMS_1956-57_33k_ES_PAN_21mic_H50_0405_fot_45B-36172_E_tif
  70
32
  10
485836.000
  20
4580912.500
  30
1210.38
  0
VERTEX
  8
PNOA-H_AMS_1956-57_33k_ES_PAN_21mic_H50_0405_fot_45B-36172_E_tif
  70
32
  10
488378.552
  20
4580890.017
  30
1203.483
  0
VERTEX
  8
PNOA-H_AMS_1956-57_33k_ES_PAN_21mic_H50_0405_fot_45B-36172_E_tif
  70
32
  10
488380.499
  20
4580890.000
  30
1203.477
  0
VERTEX
  8
PNOA-H_AMS_1956-57_33k_ES_PAN_21mic_H50_0405_fot_45B-36172_E_tif
  70
32
  10
488367.000
  20
4576924.500
  30
1134.394
  0
VERTEX
  8
PNOA-H_AMS_1956-57_33k_ES_PAN_21mic_H50_0405_fot_45B-36172_E_tif
  70
32
  10
488366.736
  20
4576924.406
  30
1134.402
  0
VERTEX
  8
PNOA-H_AMS_1956-57_33k_ES_PAN_21mic_H50_0405_fot_45B-36172_E_tif
  70
32
  10
486886.532
  20
4576399.511
  30
1178.518
  0
VERTEX
  8
PNOA-H_AMS_1956-57_33k_ES_PAN_21mic_H50_0405_fot_45B-36172_E_tif
  70
32
  10
486886.500
  20
4576399.500
  30
1178.519
  0
VERTEX
  8
PNOA-H_AMS_1956-57_33k_ES_PAN_21mic_H50_0405_fot_45B-36172_E_tif
  70
32
  10
485556.500
  20
4576855.000
  30
1215.434
  0
VERTEX
  8
PNOA-H_AMS_1956-57_33k_ES_PAN_21mic_H50_0405_fot_45B-36172_E_tif
  70
32
  10
485587.000
  20
4580914.500
  30
1208.122
  0
SEQEND
  8
PNOA-H_AMS_1956-57_33k_ES_PAN_21mic_H50_0405_fot_45B-36172_E_tif
  0
INSERT
  8
FeatureAttribs
  2
FEATURE
  41
1
  42
1
  43
1
  50
0
  10
488238.298
  20
4576346.729
 66
1
  0
ATTRIB
  8
FeatureAttribs
 70
0
  1
PNOA-H_AMS_1956-57_33k_ES_PAN_21mic_H50_0433_fot_46B-29790_E.tif
  2
NAME
  10
488238.298
  20
4576346.729
 40
33.48059
  0
SEQEND
  0
POLYLINE
  8
PNOA-H_AMS_1956-57_33k_ES_PAN_21mic_H50_0433_fot_46B-29790_E_tif
  70
9
  66
1
  0
VERTEX
  8
PNOA-H_AMS_1956-57_33k_ES_PAN_21mic_H50_0433_fot_46B-29790_E_tif
  70
32
  10
489584.500
  20
4576442.000
  30
1179.529
  0
VERTEX
  8
PNOA-H_AMS_1956-57_33k_ES_PAN_21mic_H50_0433_fot_46B-29790_E_tif
  70
32
  10
489599.253
  20
4575768.958
  30
1203.796
  0
VERTEX
  8
PNOA-H_AMS_1956-57_33k_ES_PAN_21mic_H50_0433_fot_46B-29790_E_tif
  70
32
  10
487797.190
  20
4575771.554
  30
0
  0
VERTEX
  8
PNOA-H_AMS_1956-57_33k_ES_PAN_21mic_H50_0433_fot_46B-29790_E_tif
  70
32
  10
486927.766
  20
4575773.225
  30
1191.785
  0
VERTEX
  8
PNOA-H_AMS_1956-57_33k_ES_PAN_21mic_H50_0433_fot_46B-29790_E_tif
  70
32
  10
486886.532
  20
4576399.511
  30
1178.475
  0
VERTEX
  8
PNOA-H_AMS_1956-57_33k_ES_PAN_21mic_H50_0433_fot_46B-29790_E_tif
  70
32
  10
486886.500
  20
4576400.000
  30
1178.465
  0
VERTEX
  8
PNOA-H_AMS_1956-57_33k_ES_PAN_21mic_H50_0433_fot_46B-29790_E_tif
  70
32
  10
488365.500
  20
4576924.000
  30
1134.395
  0
VERTEX
  8
PNOA-H_AMS_1956-57_33k_ES_PAN_21mic_H50_0433_fot_46B-29790_E_tif
  70
32
  10
488366.500
  20
4576924.500
  30
1134.398
  0
VERTEX
  8
PNOA-H_AMS_1956-57_33k_ES_PAN_21mic_H50_0433_fot_46B-29790_E_tif
  70
32
  10
488366.736
  20
4576924.406
  30
1134.406
  0
VERTEX
  8
PNOA-H_AMS_1956-57_33k_ES_PAN_21mic_H50_0433_fot_46B-29790_E_tif
  70
32
  10
488772.500
  20
4576763.667
  30
1149.442
  0
VERTEX
  8
PNOA-H_AMS_1956-57_33k_ES_PAN_21mic_H50_0433_fot_46B-29790_E_tif
  70
32
  10
489584.500
  20
4576442.000
  30
1179.529
  0
SEQEND
  8
PNOA-H_AMS_1956-57_33k_ES_PAN_21mic_H50_0433_fot_46B-29790_E_tif
  0
ENDSEC
  0
EOF
