  0
SECTION
  2
HEADER
  9
$ACADVER
  1
AC1009
  9
$LUNITS
  70
2
  9
$LIMMIN
  10
456418.462
  20
4575778.252
  9
$LIMMAX
  10
484350.727
  20
4594395.143
  9
$EXTMIN
  10
456418.462
  20
4575778.252
  9
$EXTMAX
  10
484350.727
  20
4594395.143
  999
Created by Global Mapper
  999
Projection: UTM
  999
Datum: ETRS89
  999
Ground Units: meters
  999
ZONE: 30
  0
ENDSEC
  0
SECTION
  2
TABLES
  0
ENDSEC
  0
SECTION
  2
BLOCKS
  0
BLOCK
  8
FeatureAttribs
  70
0
  2
FEATURE
  3
FEATURE
  10
0.00000000
  20
0.00000000
  0
ATTDEF
  8
FeatureAttribs
  70
0
  1
 
  2
NAME
  3
NAME
  10
0.00000000
  20
0.00000000
  40
1.00000000
  0
ENDBLK
  0
ENDSEC
  0
SECTION
  2
ENTITIES
  0
INSERT
  8
FeatureAttribs
  2
FEATURE
  41
1
  42
1
  43
1
  50
0
  10
456750.349
  20
4591910.478
 66
1
  0
ATTRIB
  8
FeatureAttribs
 70
0
  1
PNOA-H_AMS_1956-57_33k_ES_PAN_21mic_H50_0403_fot_42B-36301_E.tif
  2
NAME
  10
456750.349
  20
4591910.478
 40
33.56784
  0
SEQEND
  0
POLYLINE
  8
PNOA-H_AMS_1956-57_33k_ES_PAN_21mic_H50_0403_fot_42B-36301_E_tif
  70
9
  66
1
  0
VERTEX
  8
PNOA-H_AMS_1956-57_33k_ES_PAN_21mic_H50_0403_fot_42B-36301_E_tif
  70
32
  10
456959.500
  20
4589741.500
  30
947.354
  0
VERTEX
  8
PNOA-H_AMS_1956-57_33k_ES_PAN_21mic_H50_0403_fot_42B-36301_E_tif
  70
32
  10
456501.608
  20
4589724.017
  30
951.28
  0
VERTEX
  8
PNOA-H_AMS_1956-57_33k_ES_PAN_21mic_H50_0403_fot_42B-36301_E_tif
  70
32
  10
456501.609
  20
4589724.134
  30
0
  0
VERTEX
  8
PNOA-H_AMS_1956-57_33k_ES_PAN_21mic_H50_0403_fot_42B-36301_E_tif
  70
32
  10
456501.881
  20
4589769.338
  30
0
  0
VERTEX
  8
PNOA-H_AMS_1956-57_33k_ES_PAN_21mic_H50_0403_fot_42B-36301_E_tif
  70
32
  10
456515.804
  20
4592082.236
  30
0
  0
VERTEX
  8
PNOA-H_AMS_1956-57_33k_ES_PAN_21mic_H50_0403_fot_42B-36301_E_tif
  70
32
  10
456527.937
  20
4594096.938
  30
914.269
  0
VERTEX
  8
PNOA-H_AMS_1956-57_33k_ES_PAN_21mic_H50_0403_fot_42B-36301_E_tif
  70
32
  10
457010.500
  20
4593927.000
  30
909.803
  0
VERTEX
  8
PNOA-H_AMS_1956-57_33k_ES_PAN_21mic_H50_0403_fot_42B-36301_E_tif
  70
32
  10
456959.500
  20
4589741.500
  30
947.354
  0
SEQEND
  8
PNOA-H_AMS_1956-57_33k_ES_PAN_21mic_H50_0403_fot_42B-36301_E_tif
  0
INSERT
  8
FeatureAttribs
  2
FEATURE
  41
1
  42
1
  43
1
  50
0
  10
457153.440
  20
4594161.072
 66
1
  0
ATTRIB
  8
FeatureAttribs
 70
0
  1
PNOA-H_AMS_1956-57_33k_ES_PAN_21mic_H50_0376_fot_41B-37416_W.tif
  2
NAME
  10
457153.440
  20
4594161.072
 40
33.56784
  0
SEQEND
  0
POLYLINE
  8
PNOA-H_AMS_1956-57_33k_ES_PAN_21mic_H50_0376_fot_41B-37416_W_tif
  70
9
  66
1
  0
VERTEX
  8
PNOA-H_AMS_1956-57_33k_ES_PAN_21mic_H50_0376_fot_41B-37416_W_tif
  70
32
  10
458020.454
  20
4594234.888
  30
927.938
  0
VERTEX
  8
PNOA-H_AMS_1956-57_33k_ES_PAN_21mic_H50_0376_fot_41B-37416_W_tif
  70
32
  10
457011.500
  20
4593927.000
  30
909.803
  0
VERTEX
  8
PNOA-H_AMS_1956-57_33k_ES_PAN_21mic_H50_0376_fot_41B-37416_W_tif
  70
32
  10
457011.034
  20
4593927.164
  30
909.806
  0
VERTEX
  8
PNOA-H_AMS_1956-57_33k_ES_PAN_21mic_H50_0376_fot_41B-37416_W_tif
  70
32
  10
456527.937
  20
4594096.954
  30
913.274
  0
VERTEX
  8
PNOA-H_AMS_1956-57_33k_ES_PAN_21mic_H50_0376_fot_41B-37416_W_tif
  70
32
  10
456529.733
  20
4594395.143
  30
0
  0
VERTEX
  8
PNOA-H_AMS_1956-57_33k_ES_PAN_21mic_H50_0376_fot_41B-37416_W_tif
  70
32
  10
458330.899
  20
4594384.728
  30
934.558
  0
VERTEX
  8
PNOA-H_AMS_1956-57_33k_ES_PAN_21mic_H50_0376_fot_41B-37416_W_tif
  70
32
  10
458330.500
  20
4594329.500
  30
933.51
  0
VERTEX
  8
PNOA-H_AMS_1956-57_33k_ES_PAN_21mic_H50_0376_fot_41B-37416_W_tif
  70
32
  10
458020.454
  20
4594234.888
  30
927.938
  0
SEQEND
  8
PNOA-H_AMS_1956-57_33k_ES_PAN_21mic_H50_0376_fot_41B-37416_W_tif
  0
INSERT
  8
FeatureAttribs
  2
FEATURE
  41
1
  42
1
  43
1
  50
0
  10
461344.123
  20
4591937.500
 66
1
  0
ATTRIB
  8
FeatureAttribs
 70
0
  1
PNOA-H_AMS_1956-57_33k_ES_PAN_21mic_H50_0404_fot_42B-36303_E.tif
  2
NAME
  10
461344.123
  20
4591937.500
 40
33.56784
  0
SEQEND
  0
POLYLINE
  8
PNOA-H_AMS_1956-57_33k_ES_PAN_21mic_H50_0404_fot_42B-36303_E_tif
  70
9
  66
1
  0
VERTEX
  8
PNOA-H_AMS_1956-57_33k_ES_PAN_21mic_H50_0404_fot_42B-36303_E_tif
  70
32
  10
462753.000
  20
4589543.000
  30
933.531
  0
VERTEX
  8
PNOA-H_AMS_1956-57_33k_ES_PAN_21mic_H50_0404_fot_42B-36303_E_tif
  70
32
  10
462744.500
  20
4589543.000
  30
933.439
  0
VERTEX
  8
PNOA-H_AMS_1956-57_33k_ES_PAN_21mic_H50_0404_fot_42B-36303_E_tif
  70
32
  10
461245.549
  20
4589565.000
  30
929.739
  0
VERTEX
  8
PNOA-H_AMS_1956-57_33k_ES_PAN_21mic_H50_0404_fot_42B-36303_E_tif
  70
32
  10
460795.851
  20
4589571.600
  30
928.629
  0
VERTEX
  8
PNOA-H_AMS_1956-57_33k_ES_PAN_21mic_H50_0404_fot_42B-36303_E_tif
  70
32
  10
459951.499
  20
4589583.993
  30
926.545
  0
VERTEX
  8
PNOA-H_AMS_1956-57_33k_ES_PAN_21mic_H50_0404_fot_42B-36303_E_tif
  70
32
  10
459951.000
  20
4589584.000
  30
926.544
  0
VERTEX
  8
PNOA-H_AMS_1956-57_33k_ES_PAN_21mic_H50_0404_fot_42B-36303_E_tif
  70
32
  10
459888.000
  20
4589624.000
  30
923.004
  0
VERTEX
  8
PNOA-H_AMS_1956-57_33k_ES_PAN_21mic_H50_0404_fot_42B-36303_E_tif
  70
32
  10
459888.004
  20
4589624.498
  30
923.01
  0
VERTEX
  8
PNOA-H_AMS_1956-57_33k_ES_PAN_21mic_H50_0404_fot_42B-36303_E_tif
  70
32
  10
459920.000
  20
4593938.500
  30
981.872
  0
VERTEX
  8
PNOA-H_AMS_1956-57_33k_ES_PAN_21mic_H50_0404_fot_42B-36303_E_tif
  70
32
  10
459920.521
  20
4593938.696
  30
981.902
  0
VERTEX
  8
PNOA-H_AMS_1956-57_33k_ES_PAN_21mic_H50_0404_fot_42B-36303_E_tif
  70
32
  10
460967.000
  20
4594332.000
  30
1041.445
  0
VERTEX
  8
PNOA-H_AMS_1956-57_33k_ES_PAN_21mic_H50_0404_fot_42B-36303_E_tif
  70
32
  10
460968.142
  20
4594331.866
  30
1041.447
  0
VERTEX
  8
PNOA-H_AMS_1956-57_33k_ES_PAN_21mic_H50_0404_fot_42B-36303_E_tif
  70
32
  10
460970.096
  20
4594331.636
  30
1041.451
  0
VERTEX
  8
PNOA-H_AMS_1956-57_33k_ES_PAN_21mic_H50_0404_fot_42B-36303_E_tif
  70
32
  10
460975.500
  20
4594331.000
  30
1041.462
  0
VERTEX
  8
PNOA-H_AMS_1956-57_33k_ES_PAN_21mic_H50_0404_fot_42B-36303_E_tif
  70
32
  10
461258.000
  20
4594266.000
  30
1045.896
  0
VERTEX
  8
PNOA-H_AMS_1956-57_33k_ES_PAN_21mic_H50_0404_fot_42B-36303_E_tif
  70
32
  10
461260.000
  20
4594265.500
  30
1045.893
  0
VERTEX
  8
PNOA-H_AMS_1956-57_33k_ES_PAN_21mic_H50_0404_fot_42B-36303_E_tif
  70
32
  10
462806.859
  20
4593912.646
  30
1049.456
  0
VERTEX
  8
PNOA-H_AMS_1956-57_33k_ES_PAN_21mic_H50_0404_fot_42B-36303_E_tif
  70
32
  10
462807.500
  20
4593912.500
  30
1049.458
  0
VERTEX
  8
PNOA-H_AMS_1956-57_33k_ES_PAN_21mic_H50_0404_fot_42B-36303_E_tif
  70
32
  10
462753.500
  20
4589544.000
  30
933.522
  0
VERTEX
  8
PNOA-H_AMS_1956-57_33k_ES_PAN_21mic_H50_0404_fot_42B-36303_E_tif
  70
32
  10
462753.026
  20
4589543.051
  30
933.531
  0
VERTEX
  8
PNOA-H_AMS_1956-57_33k_ES_PAN_21mic_H50_0404_fot_42B-36303_E_tif
  70
32
  10
462753.000
  20
4589543.000
  30
933.531
  0
SEQEND
  8
PNOA-H_AMS_1956-57_33k_ES_PAN_21mic_H50_0404_fot_42B-36303_E_tif
  0
INSERT
  8
FeatureAttribs
  2
FEATURE
  41
1
  42
1
  43
1
  50
0
  10
458446.095
  20
4591977.000
 66
1
  0
ATTRIB
  8
FeatureAttribs
 70
0
  1
PNOA-H_AMS_1956-57_33k_ES_PAN_21mic_H50_0404_fot_42B-36302_E.tif
  2
NAME
  10
458446.095
  20
4591977.000
 40
33.56784
  0
SEQEND
  0
POLYLINE
  8
PNOA-H_AMS_1956-57_33k_ES_PAN_21mic_H50_0404_fot_42B-36302_E_tif
  70
9
  66
1
  0
VERTEX
  8
PNOA-H_AMS_1956-57_33k_ES_PAN_21mic_H50_0404_fot_42B-36302_E_tif
  70
32
  10
459920.000
  20
4593938.500
  30
981.872
  0
VERTEX
  8
PNOA-H_AMS_1956-57_33k_ES_PAN_21mic_H50_0404_fot_42B-36302_E_tif
  70
32
  10
459888.000
  20
4589624.500
  30
922.98
  0
VERTEX
  8
PNOA-H_AMS_1956-57_33k_ES_PAN_21mic_H50_0404_fot_42B-36302_E_tif
  70
32
  10
457134.500
  20
4589629.499
  30
949.42
  0
VERTEX
  8
PNOA-H_AMS_1956-57_33k_ES_PAN_21mic_H50_0404_fot_42B-36302_E_tif
  70
32
  10
457134.000
  20
4589629.500
  30
949.425
  0
VERTEX
  8
PNOA-H_AMS_1956-57_33k_ES_PAN_21mic_H50_0404_fot_42B-36302_E_tif
  70
32
  10
456959.500
  20
4589741.500
  30
947.354
  0
VERTEX
  8
PNOA-H_AMS_1956-57_33k_ES_PAN_21mic_H50_0404_fot_42B-36302_E_tif
  70
32
  10
457010.500
  20
4593927.000
  30
909.803
  0
VERTEX
  8
PNOA-H_AMS_1956-57_33k_ES_PAN_21mic_H50_0404_fot_42B-36302_E_tif
  70
32
  10
457011.034
  20
4593927.164
  30
909.803
  0
VERTEX
  8
PNOA-H_AMS_1956-57_33k_ES_PAN_21mic_H50_0404_fot_42B-36302_E_tif
  70
32
  10
457160.500
  20
4593973.000
  30
909.802
  0
VERTEX
  8
PNOA-H_AMS_1956-57_33k_ES_PAN_21mic_H50_0404_fot_42B-36302_E_tif
  70
32
  10
457162.500
  20
4593973.500
  30
909.802
  0
VERTEX
  8
PNOA-H_AMS_1956-57_33k_ES_PAN_21mic_H50_0404_fot_42B-36302_E_tif
  70
32
  10
458020.454
  20
4594234.888
  30
927.203
  0
VERTEX
  8
PNOA-H_AMS_1956-57_33k_ES_PAN_21mic_H50_0404_fot_42B-36302_E_tif
  70
32
  10
458330.776
  20
4594329.432
  30
933.497
  0
VERTEX
  8
PNOA-H_AMS_1956-57_33k_ES_PAN_21mic_H50_0404_fot_42B-36302_E_tif
  70
32
  10
458331.000
  20
4594329.500
  30
933.501
  0
VERTEX
  8
PNOA-H_AMS_1956-57_33k_ES_PAN_21mic_H50_0404_fot_42B-36302_E_tif
  70
32
  10
459913.488
  20
4593940.102
  30
981.674
  0
VERTEX
  8
PNOA-H_AMS_1956-57_33k_ES_PAN_21mic_H50_0404_fot_42B-36302_E_tif
  70
32
  10
459920.000
  20
4593938.500
  30
981.872
  0
SEQEND
  8
PNOA-H_AMS_1956-57_33k_ES_PAN_21mic_H50_0404_fot_42B-36302_E_tif
  0
INSERT
  8
FeatureAttribs
  2
FEATURE
  41
1
  42
1
  43
1
  50
0
  10
459763.585
  20
4594161.614
 66
1
  0
ATTRIB
  8
FeatureAttribs
 70
0
  1
PNOA-H_AMS_1956-57_33k_ES_PAN_21mic_H50_0376_fot_41B-37415_W.tif
  2
NAME
  10
459763.585
  20
4594161.614
 40
33.56784
  0
SEQEND
  0
POLYLINE
  8
PNOA-H_AMS_1956-57_33k_ES_PAN_21mic_H50_0376_fot_41B-37415_W_tif
  70
9
  66
1
  0
VERTEX
  8
PNOA-H_AMS_1956-57_33k_ES_PAN_21mic_H50_0376_fot_41B-37415_W_tif
  70
32
  10
460968.142
  20
4594331.866
  30
1041.427
  0
VERTEX
  8
PNOA-H_AMS_1956-57_33k_ES_PAN_21mic_H50_0376_fot_41B-37415_W_tif
  70
32
  10
459921.500
  20
4593938.500
  30
982.068
  0
VERTEX
  8
PNOA-H_AMS_1956-57_33k_ES_PAN_21mic_H50_0376_fot_41B-37415_W_tif
  70
32
  10
459920.521
  20
4593938.696
  30
982.006
  0
VERTEX
  8
PNOA-H_AMS_1956-57_33k_ES_PAN_21mic_H50_0376_fot_41B-37415_W_tif
  70
32
  10
459913.488
  20
4593940.102
  30
981.554
  0
VERTEX
  8
PNOA-H_AMS_1956-57_33k_ES_PAN_21mic_H50_0376_fot_41B-37415_W_tif
  70
32
  10
459901.500
  20
4593942.500
  30
980.784
  0
VERTEX
  8
PNOA-H_AMS_1956-57_33k_ES_PAN_21mic_H50_0376_fot_41B-37415_W_tif
  70
32
  10
458330.776
  20
4594329.432
  30
933.519
  0
VERTEX
  8
PNOA-H_AMS_1956-57_33k_ES_PAN_21mic_H50_0376_fot_41B-37415_W_tif
  70
32
  10
458330.500
  20
4594329.500
  30
933.51
  0
VERTEX
  8
PNOA-H_AMS_1956-57_33k_ES_PAN_21mic_H50_0376_fot_41B-37415_W_tif
  70
32
  10
458330.899
  20
4594384.728
  30
934.558
  0
VERTEX
  8
PNOA-H_AMS_1956-57_33k_ES_PAN_21mic_H50_0376_fot_41B-37415_W_tif
  70
32
  10
460007.365
  20
4594375.033
  30
0
  0
VERTEX
  8
PNOA-H_AMS_1956-57_33k_ES_PAN_21mic_H50_0376_fot_41B-37415_W_tif
  70
32
  10
460968.812
  20
4594369.937
  30
1041.361
  0
VERTEX
  8
PNOA-H_AMS_1956-57_33k_ES_PAN_21mic_H50_0376_fot_41B-37415_W_tif
  70
32
  10
460968.500
  20
4594332.000
  30
1041.447
  0
VERTEX
  8
PNOA-H_AMS_1956-57_33k_ES_PAN_21mic_H50_0376_fot_41B-37415_W_tif
  70
32
  10
460968.142
  20
4594331.866
  30
1041.427
  0
SEQEND
  8
PNOA-H_AMS_1956-57_33k_ES_PAN_21mic_H50_0376_fot_41B-37415_W_tif
  0
INSERT
  8
FeatureAttribs
  2
FEATURE
  41
1
  42
1
  43
1
  50
0
  10
462586.833
  20
4594141.219
 66
1
  0
ATTRIB
  8
FeatureAttribs
 70
0
  1
PNOA-H_AMS_1956-57_33k_ES_PAN_21mic_H50_0376_fot_41B-37414_W.tif
  2
NAME
  10
462586.833
  20
4594141.219
 40
33.56784
  0
SEQEND
  0
POLYLINE
  8
PNOA-H_AMS_1956-57_33k_ES_PAN_21mic_H50_0376_fot_41B-37414_W_tif
  70
9
  66
1
  0
VERTEX
  8
PNOA-H_AMS_1956-57_33k_ES_PAN_21mic_H50_0376_fot_41B-37414_W_tif
  70
32
  10
462806.859
  20
4593912.646
  30
1049.457
  0
VERTEX
  8
PNOA-H_AMS_1956-57_33k_ES_PAN_21mic_H50_0376_fot_41B-37414_W_tif
  70
32
  10
462806.500
  20
4593912.500
  30
1049.456
  0
VERTEX
  8
PNOA-H_AMS_1956-57_33k_ES_PAN_21mic_H50_0376_fot_41B-37414_W_tif
  70
32
  10
460970.096
  20
4594331.636
  30
1041.454
  0
VERTEX
  8
PNOA-H_AMS_1956-57_33k_ES_PAN_21mic_H50_0376_fot_41B-37414_W_tif
  70
32
  10
460968.500
  20
4594332.000
  30
1041.447
  0
VERTEX
  8
PNOA-H_AMS_1956-57_33k_ES_PAN_21mic_H50_0376_fot_41B-37414_W_tif
  70
32
  10
460968.812
  20
4594369.937
  30
1041.361
  0
VERTEX
  8
PNOA-H_AMS_1956-57_33k_ES_PAN_21mic_H50_0376_fot_41B-37414_W_tif
  70
32
  10
463484.994
  20
4594356.600
  30
0
  0
VERTEX
  8
PNOA-H_AMS_1956-57_33k_ES_PAN_21mic_H50_0376_fot_41B-37414_W_tif
  70
32
  10
463773.865
  20
4594355.208
  30
1051.239
  0
VERTEX
  8
PNOA-H_AMS_1956-57_33k_ES_PAN_21mic_H50_0376_fot_41B-37414_W_tif
  70
32
  10
463773.501
  20
4594305.594
  30
1051.442
  0
VERTEX
  8
PNOA-H_AMS_1956-57_33k_ES_PAN_21mic_H50_0376_fot_41B-37414_W_tif
  70
32
  10
463773.500
  20
4594305.500
  30
1051.442
  0
VERTEX
  8
PNOA-H_AMS_1956-57_33k_ES_PAN_21mic_H50_0376_fot_41B-37414_W_tif
  70
32
  10
463140.914
  20
4594048.410
  30
1050.143
  0
VERTEX
  8
PNOA-H_AMS_1956-57_33k_ES_PAN_21mic_H50_0376_fot_41B-37414_W_tif
  70
32
  10
462806.859
  20
4593912.646
  30
1049.457
  0
SEQEND
  8
PNOA-H_AMS_1956-57_33k_ES_PAN_21mic_H50_0376_fot_41B-37414_W_tif
  0
INSERT
  8
FeatureAttribs
  2
FEATURE
  41
1
  42
1
  43
1
  50
0
  10
465441.526
  20
4594124.603
 66
1
  0
ATTRIB
  8
FeatureAttribs
 70
0
  1
PNOA-H_AMS_1956-57_33k_ES_PAN_21mic_H50_0376_fot_41B-37413_W.tif
  2
NAME
  10
465441.526
  20
4594124.603
 40
33.56784
  0
SEQEND
  0
POLYLINE
  8
PNOA-H_AMS_1956-57_33k_ES_PAN_21mic_H50_0376_fot_41B-37413_W_tif
  70
9
  66
1
  0
VERTEX
  8
PNOA-H_AMS_1956-57_33k_ES_PAN_21mic_H50_0376_fot_41B-37413_W_tif
  70
32
  10
466687.827
  20
4594304.927
  30
1041.495
  0
VERTEX
  8
PNOA-H_AMS_1956-57_33k_ES_PAN_21mic_H50_0376_fot_41B-37413_W_tif
  70
32
  10
465709.500
  20
4593894.000
  30
1034.149
  0
VERTEX
  8
PNOA-H_AMS_1956-57_33k_ES_PAN_21mic_H50_0376_fot_41B-37413_W_tif
  70
32
  10
465708.808
  20
4593894.129
  30
1034.033
  0
VERTEX
  8
PNOA-H_AMS_1956-57_33k_ES_PAN_21mic_H50_0376_fot_41B-37413_W_tif
  70
32
  10
465701.488
  20
4593895.494
  30
1032.807
  0
VERTEX
  8
PNOA-H_AMS_1956-57_33k_ES_PAN_21mic_H50_0376_fot_41B-37413_W_tif
  70
32
  10
465680.000
  20
4593899.500
  30
1029.208
  0
VERTEX
  8
PNOA-H_AMS_1956-57_33k_ES_PAN_21mic_H50_0376_fot_41B-37413_W_tif
  70
32
  10
463774.328
  20
4594305.930
  30
1051.444
  0
VERTEX
  8
PNOA-H_AMS_1956-57_33k_ES_PAN_21mic_H50_0376_fot_41B-37413_W_tif
  70
32
  10
463774.000
  20
4594306.000
  30
1051.448
  0
VERTEX
  8
PNOA-H_AMS_1956-57_33k_ES_PAN_21mic_H50_0376_fot_41B-37413_W_tif
  70
32
  10
463774.355
  20
4594355.205
  30
1051.246
  0
VERTEX
  8
PNOA-H_AMS_1956-57_33k_ES_PAN_21mic_H50_0376_fot_41B-37413_W_tif
  70
32
  10
466688.009
  20
4594341.165
  30
1041.04
  0
VERTEX
  8
PNOA-H_AMS_1956-57_33k_ES_PAN_21mic_H50_0376_fot_41B-37413_W_tif
  70
32
  10
466688.000
  20
4594305.000
  30
1041.496
  0
VERTEX
  8
PNOA-H_AMS_1956-57_33k_ES_PAN_21mic_H50_0376_fot_41B-37413_W_tif
  70
32
  10
466687.827
  20
4594304.927
  30
1041.495
  0
SEQEND
  8
PNOA-H_AMS_1956-57_33k_ES_PAN_21mic_H50_0376_fot_41B-37413_W_tif
  0
INSERT
  8
FeatureAttribs
  2
FEATURE
  41
1
  42
1
  43
1
  50
0
  10
467103.921
  20
4591827.500
 66
1
  0
ATTRIB
  8
FeatureAttribs
 70
0
  1
PNOA-H_AMS_1956-57_33k_ES_PAN_21mic_H50_0404_fot_42B-36305_E.tif
  2
NAME
  10
467103.921
  20
4591827.500
 40
33.56784
  0
SEQEND
  0
POLYLINE
  8
PNOA-H_AMS_1956-57_33k_ES_PAN_21mic_H50_0404_fot_42B-36305_E_tif
  70
9
  66
1
  0
VERTEX
  8
PNOA-H_AMS_1956-57_33k_ES_PAN_21mic_H50_0404_fot_42B-36305_E_tif
  70
32
  10
468218.052
  20
4589350.027
  30
1047.944
  0
VERTEX
  8
PNOA-H_AMS_1956-57_33k_ES_PAN_21mic_H50_0404_fot_42B-36305_E_tif
  70
32
  10
468218.000
  20
4589350.000
  30
1047.944
  0
VERTEX
  8
PNOA-H_AMS_1956-57_33k_ES_PAN_21mic_H50_0404_fot_42B-36305_E_tif
  70
32
  10
467399.442
  20
4589398.500
  30
1036.156
  0
VERTEX
  8
PNOA-H_AMS_1956-57_33k_ES_PAN_21mic_H50_0404_fot_42B-36305_E_tif
  70
32
  10
466894.658
  20
4589428.409
  30
1028.887
  0
VERTEX
  8
PNOA-H_AMS_1956-57_33k_ES_PAN_21mic_H50_0404_fot_42B-36305_E_tif
  70
32
  10
465669.500
  20
4589501.000
  30
1011.244
  0
VERTEX
  8
PNOA-H_AMS_1956-57_33k_ES_PAN_21mic_H50_0404_fot_42B-36305_E_tif
  70
32
  10
465708.500
  20
4593894.000
  30
1034.104
  0
VERTEX
  8
PNOA-H_AMS_1956-57_33k_ES_PAN_21mic_H50_0404_fot_42B-36305_E_tif
  70
32
  10
465708.808
  20
4593894.129
  30
1034.106
  0
VERTEX
  8
PNOA-H_AMS_1956-57_33k_ES_PAN_21mic_H50_0404_fot_42B-36305_E_tif
  70
32
  10
466687.500
  20
4594305.000
  30
1041.502
  0
VERTEX
  8
PNOA-H_AMS_1956-57_33k_ES_PAN_21mic_H50_0404_fot_42B-36305_E_tif
  70
32
  10
466687.827
  20
4594304.927
  30
1041.491
  0
VERTEX
  8
PNOA-H_AMS_1956-57_33k_ES_PAN_21mic_H50_0404_fot_42B-36305_E_tif
  70
32
  10
467401.500
  20
4594146.000
  30
1018.562
  0
VERTEX
  8
PNOA-H_AMS_1956-57_33k_ES_PAN_21mic_H50_0404_fot_42B-36305_E_tif
  70
32
  10
467404.000
  20
4594145.500
  30
1017.374
  0
VERTEX
  8
PNOA-H_AMS_1956-57_33k_ES_PAN_21mic_H50_0404_fot_42B-36305_E_tif
  70
32
  10
467601.681
  20
4594101.580
  30
1020.151
  0
VERTEX
  8
PNOA-H_AMS_1956-57_33k_ES_PAN_21mic_H50_0404_fot_42B-36305_E_tif
  70
32
  10
468563.000
  20
4593888.000
  30
1033.659
  0
VERTEX
  8
PNOA-H_AMS_1956-57_33k_ES_PAN_21mic_H50_0404_fot_42B-36305_E_tif
  70
32
  10
468466.000
  20
4589477.000
  30
1048.4
  0
VERTEX
  8
PNOA-H_AMS_1956-57_33k_ES_PAN_21mic_H50_0404_fot_42B-36305_E_tif
  70
32
  10
468465.941
  20
4589476.970
  30
1048.4
  0
VERTEX
  8
PNOA-H_AMS_1956-57_33k_ES_PAN_21mic_H50_0404_fot_42B-36305_E_tif
  70
32
  10
468218.500
  20
4589350.256
  30
1047.944
  0
VERTEX
  8
PNOA-H_AMS_1956-57_33k_ES_PAN_21mic_H50_0404_fot_42B-36305_E_tif
  70
32
  10
468218.052
  20
4589350.027
  30
1047.944
  0
SEQEND
  8
PNOA-H_AMS_1956-57_33k_ES_PAN_21mic_H50_0404_fot_42B-36305_E_tif
  0
INSERT
  8
FeatureAttribs
  2
FEATURE
  41
1
  42
1
  43
1
  50
0
  10
469898.314
  20
4591787.250
 66
1
  0
ATTRIB
  8
FeatureAttribs
 70
0
  1
PNOA-H_AMS_1956-57_33k_ES_PAN_21mic_H50_0404_fot_42B-36306_E.tif
  2
NAME
  10
469898.314
  20
4591787.250
 40
33.56784
  0
SEQEND
  0
POLYLINE
  8
PNOA-H_AMS_1956-57_33k_ES_PAN_21mic_H50_0404_fot_42B-36306_E_tif
  70
9
  66
1
  0
VERTEX
  8
PNOA-H_AMS_1956-57_33k_ES_PAN_21mic_H50_0404_fot_42B-36306_E_tif
  70
32
  10
471240.937
  20
4589474.467
  30
1080.966
  0
VERTEX
  8
PNOA-H_AMS_1956-57_33k_ES_PAN_21mic_H50_0404_fot_42B-36306_E_tif
  70
32
  10
470923.500
  20
4589308.500
  30
1078.999
  0
VERTEX
  8
PNOA-H_AMS_1956-57_33k_ES_PAN_21mic_H50_0404_fot_42B-36306_E_tif
  70
32
  10
470923.058
  20
4589308.530
  30
1078.994
  0
VERTEX
  8
PNOA-H_AMS_1956-57_33k_ES_PAN_21mic_H50_0404_fot_42B-36306_E_tif
  70
32
  10
470562.733
  20
4589333.236
  30
1074.507
  0
VERTEX
  8
PNOA-H_AMS_1956-57_33k_ES_PAN_21mic_H50_0404_fot_42B-36306_E_tif
  70
32
  10
469450.458
  20
4589409.500
  30
1060.658
  0
VERTEX
  8
PNOA-H_AMS_1956-57_33k_ES_PAN_21mic_H50_0404_fot_42B-36306_E_tif
  70
32
  10
468466.000
  20
4589477.000
  30
1048.4
  0
VERTEX
  8
PNOA-H_AMS_1956-57_33k_ES_PAN_21mic_H50_0404_fot_42B-36306_E_tif
  70
32
  10
468563.000
  20
4593888.000
  30
1033.659
  0
VERTEX
  8
PNOA-H_AMS_1956-57_33k_ES_PAN_21mic_H50_0404_fot_42B-36306_E_tif
  70
32
  10
469582.500
  20
4594265.500
  30
1034.153
  0
VERTEX
  8
PNOA-H_AMS_1956-57_33k_ES_PAN_21mic_H50_0404_fot_42B-36306_E_tif
  70
32
  10
469584.000
  20
4594266.000
  30
1034.206
  0
VERTEX
  8
PNOA-H_AMS_1956-57_33k_ES_PAN_21mic_H50_0404_fot_42B-36306_E_tif
  70
32
  10
469584.690
  20
4594265.885
  30
1034.222
  0
VERTEX
  8
PNOA-H_AMS_1956-57_33k_ES_PAN_21mic_H50_0404_fot_42B-36306_E_tif
  70
32
  10
469586.863
  20
4594265.523
  30
1034.273
  0
VERTEX
  8
PNOA-H_AMS_1956-57_33k_ES_PAN_21mic_H50_0404_fot_42B-36306_E_tif
  70
32
  10
469593.000
  20
4594264.500
  30
1034.418
  0
VERTEX
  8
PNOA-H_AMS_1956-57_33k_ES_PAN_21mic_H50_0404_fot_42B-36306_E_tif
  70
32
  10
470988.534
  20
4593906.494
  30
1032.517
  0
VERTEX
  8
PNOA-H_AMS_1956-57_33k_ES_PAN_21mic_H50_0404_fot_42B-36306_E_tif
  70
32
  10
471314.000
  20
4593823.000
  30
1032.073
  0
VERTEX
  8
PNOA-H_AMS_1956-57_33k_ES_PAN_21mic_H50_0404_fot_42B-36306_E_tif
  70
32
  10
471241.000
  20
4589474.500
  30
1080.966
  0
VERTEX
  8
PNOA-H_AMS_1956-57_33k_ES_PAN_21mic_H50_0404_fot_42B-36306_E_tif
  70
32
  10
471240.937
  20
4589474.467
  30
1080.966
  0
SEQEND
  8
PNOA-H_AMS_1956-57_33k_ES_PAN_21mic_H50_0404_fot_42B-36306_E_tif
  0
INSERT
  8
FeatureAttribs
  2
FEATURE
  41
1
  42
1
  43
1
  50
0
  10
464236.131
  20
4591856.250
 66
1
  0
ATTRIB
  8
FeatureAttribs
 70
0
  1
PNOA-H_AMS_1956-57_33k_ES_PAN_21mic_H50_0404_fot_42B-36304_E.tif
  2
NAME
  10
464236.131
  20
4591856.250
 40
33.56784
  0
SEQEND
  0
POLYLINE
  8
PNOA-H_AMS_1956-57_33k_ES_PAN_21mic_H50_0404_fot_42B-36304_E_tif
  70
9
  66
1
  0
VERTEX
  8
PNOA-H_AMS_1956-57_33k_ES_PAN_21mic_H50_0404_fot_42B-36304_E_tif
  70
32
  10
465669.500
  20
4589501.000
  30
1011.244
  0
VERTEX
  8
PNOA-H_AMS_1956-57_33k_ES_PAN_21mic_H50_0404_fot_42B-36304_E_tif
  70
32
  10
465498.500
  20
4589406.500
  30
991.541
  0
VERTEX
  8
PNOA-H_AMS_1956-57_33k_ES_PAN_21mic_H50_0404_fot_42B-36304_E_tif
  70
32
  10
465497.436
  20
4589406.517
  30
991.766
  0
VERTEX
  8
PNOA-H_AMS_1956-57_33k_ES_PAN_21mic_H50_0404_fot_42B-36304_E_tif
  70
32
  10
465480.574
  20
4589406.785
  30
995.339
  0
VERTEX
  8
PNOA-H_AMS_1956-57_33k_ES_PAN_21mic_H50_0404_fot_42B-36304_E_tif
  70
32
  10
465467.000
  20
4589407.000
  30
998.216
  0
VERTEX
  8
PNOA-H_AMS_1956-57_33k_ES_PAN_21mic_H50_0404_fot_42B-36304_E_tif
  70
32
  10
462795.000
  20
4589539.000
  30
933.235
  0
VERTEX
  8
PNOA-H_AMS_1956-57_33k_ES_PAN_21mic_H50_0404_fot_42B-36304_E_tif
  70
32
  10
462756.000
  20
4589541.000
  30
933.54
  0
VERTEX
  8
PNOA-H_AMS_1956-57_33k_ES_PAN_21mic_H50_0404_fot_42B-36304_E_tif
  70
32
  10
462755.974
  20
4589541.017
  30
933.54
  0
VERTEX
  8
PNOA-H_AMS_1956-57_33k_ES_PAN_21mic_H50_0404_fot_42B-36304_E_tif
  70
32
  10
462753.000
  20
4589543.000
  30
933.531
  0
VERTEX
  8
PNOA-H_AMS_1956-57_33k_ES_PAN_21mic_H50_0404_fot_42B-36304_E_tif
  70
32
  10
462753.001
  20
4589543.053
  30
933.533
  0
VERTEX
  8
PNOA-H_AMS_1956-57_33k_ES_PAN_21mic_H50_0404_fot_42B-36304_E_tif
  70
32
  10
462807.500
  20
4593912.500
  30
1049.458
  0
VERTEX
  8
PNOA-H_AMS_1956-57_33k_ES_PAN_21mic_H50_0404_fot_42B-36304_E_tif
  70
32
  10
463140.914
  20
4594048.410
  30
1049.314
  0
VERTEX
  8
PNOA-H_AMS_1956-57_33k_ES_PAN_21mic_H50_0404_fot_42B-36304_E_tif
  70
32
  10
463305.500
  20
4594115.500
  30
1049.243
  0
VERTEX
  8
PNOA-H_AMS_1956-57_33k_ES_PAN_21mic_H50_0404_fot_42B-36304_E_tif
  70
32
  10
463306.500
  20
4594116.000
  30
1049.253
  0
VERTEX
  8
PNOA-H_AMS_1956-57_33k_ES_PAN_21mic_H50_0404_fot_42B-36304_E_tif
  70
32
  10
463773.501
  20
4594305.594
  30
1051.447
  0
VERTEX
  8
PNOA-H_AMS_1956-57_33k_ES_PAN_21mic_H50_0404_fot_42B-36304_E_tif
  70
32
  10
463774.328
  20
4594305.930
  30
1051.45
  0
VERTEX
  8
PNOA-H_AMS_1956-57_33k_ES_PAN_21mic_H50_0404_fot_42B-36304_E_tif
  70
32
  10
463774.500
  20
4594306.000
  30
1051.451
  0
VERTEX
  8
PNOA-H_AMS_1956-57_33k_ES_PAN_21mic_H50_0404_fot_42B-36304_E_tif
  70
32
  10
465701.488
  20
4593895.494
  30
1034.166
  0
VERTEX
  8
PNOA-H_AMS_1956-57_33k_ES_PAN_21mic_H50_0404_fot_42B-36304_E_tif
  70
32
  10
465708.500
  20
4593894.000
  30
1034.104
  0
VERTEX
  8
PNOA-H_AMS_1956-57_33k_ES_PAN_21mic_H50_0404_fot_42B-36304_E_tif
  70
32
  10
465669.500
  20
4589501.000
  30
1011.244
  0
SEQEND
  8
PNOA-H_AMS_1956-57_33k_ES_PAN_21mic_H50_0404_fot_42B-36304_E_tif
  0
INSERT
  8
FeatureAttribs
  2
FEATURE
  41
1
  42
1
  43
1
  50
0
  10
471190.265
  20
4594075.732
 66
1
  0
ATTRIB
  8
FeatureAttribs
 70
0
  1
PNOA-H_AMS_1956-57_33k_ES_PAN_21mic_H50_0376_fot_41B-37411_W.tif
  2
NAME
  10
471190.265
  20
4594075.732
 40
33.56784
  0
SEQEND
  0
POLYLINE
  8
PNOA-H_AMS_1956-57_33k_ES_PAN_21mic_H50_0376_fot_41B-37411_W_tif
  70
9
  66
1
  0
VERTEX
  8
PNOA-H_AMS_1956-57_33k_ES_PAN_21mic_H50_0376_fot_41B-37411_W_tif
  70
32
  10
472515.000
  20
4594234.000
  30
989.409
  0
VERTEX
  8
PNOA-H_AMS_1956-57_33k_ES_PAN_21mic_H50_0376_fot_41B-37411_W_tif
  70
32
  10
471314.500
  20
4593823.000
  30
1032.042
  0
VERTEX
  8
PNOA-H_AMS_1956-57_33k_ES_PAN_21mic_H50_0376_fot_41B-37411_W_tif
  70
32
  10
471314.213
  20
4593823.073
  30
1032.042
  0
VERTEX
  8
PNOA-H_AMS_1956-57_33k_ES_PAN_21mic_H50_0376_fot_41B-37411_W_tif
  70
32
  10
470988.534
  20
4593906.494
  30
1032.455
  0
VERTEX
  8
PNOA-H_AMS_1956-57_33k_ES_PAN_21mic_H50_0376_fot_41B-37411_W_tif
  70
32
  10
469586.863
  20
4594265.523
  30
1034.231
  0
VERTEX
  8
PNOA-H_AMS_1956-57_33k_ES_PAN_21mic_H50_0376_fot_41B-37411_W_tif
  70
32
  10
469585.000
  20
4594266.000
  30
1034.234
  0
VERTEX
  8
PNOA-H_AMS_1956-57_33k_ES_PAN_21mic_H50_0376_fot_41B-37411_W_tif
  70
32
  10
469585.997
  20
4594328.464
  30
1032.721
  0
VERTEX
  8
PNOA-H_AMS_1956-57_33k_ES_PAN_21mic_H50_0376_fot_41B-37411_W_tif
  70
32
  10
469586.004
  20
4594328.464
  30
1032.714
  0
VERTEX
  8
PNOA-H_AMS_1956-57_33k_ES_PAN_21mic_H50_0376_fot_41B-37411_W_tif
  70
32
  10
470440.246
  20
4594324.760
  30
0
  0
VERTEX
  8
PNOA-H_AMS_1956-57_33k_ES_PAN_21mic_H50_0376_fot_41B-37411_W_tif
  70
32
  10
472515.876
  20
4594316.758
  30
989.362
  0
VERTEX
  8
PNOA-H_AMS_1956-57_33k_ES_PAN_21mic_H50_0376_fot_41B-37411_W_tif
  70
32
  10
472515.000
  20
4594234.000
  30
989.409
  0
SEQEND
  8
PNOA-H_AMS_1956-57_33k_ES_PAN_21mic_H50_0376_fot_41B-37411_W_tif
  0
INSERT
  8
FeatureAttribs
  2
FEATURE
  41
1
  42
1
  43
1
  50
0
  10
468359.696
  20
4594114.582
 66
1
  0
ATTRIB
  8
FeatureAttribs
 70
0
  1
PNOA-H_AMS_1956-57_33k_ES_PAN_21mic_H50_0376_fot_41B-37412_W.tif
  2
NAME
  10
468359.696
  20
4594114.582
 40
33.56784
  0
SEQEND
  0
POLYLINE
  8
PNOA-H_AMS_1956-57_33k_ES_PAN_21mic_H50_0376_fot_41B-37412_W_tif
  70
9
  66
1
  0
VERTEX
  8
PNOA-H_AMS_1956-57_33k_ES_PAN_21mic_H50_0376_fot_41B-37412_W_tif
  70
32
  10
468563.000
  20
4593888.000
  30
1033.657
  0
VERTEX
  8
PNOA-H_AMS_1956-57_33k_ES_PAN_21mic_H50_0376_fot_41B-37412_W_tif
  70
32
  10
468561.000
  20
4593888.000
  30
1033.632
  0
VERTEX
  8
PNOA-H_AMS_1956-57_33k_ES_PAN_21mic_H50_0376_fot_41B-37412_W_tif
  70
32
  10
467601.681
  20
4594101.580
  30
1037.66
  0
VERTEX
  8
PNOA-H_AMS_1956-57_33k_ES_PAN_21mic_H50_0376_fot_41B-37412_W_tif
  70
32
  10
466688.000
  20
4594305.000
  30
1041.496
  0
VERTEX
  8
PNOA-H_AMS_1956-57_33k_ES_PAN_21mic_H50_0376_fot_41B-37412_W_tif
  70
32
  10
466688.009
  20
4594341.165
  30
1041.04
  0
VERTEX
  8
PNOA-H_AMS_1956-57_33k_ES_PAN_21mic_H50_0376_fot_41B-37412_W_tif
  70
32
  10
466962.621
  20
4594339.842
  30
0
  0
VERTEX
  8
PNOA-H_AMS_1956-57_33k_ES_PAN_21mic_H50_0376_fot_41B-37412_W_tif
  70
32
  10
469585.997
  20
4594328.464
  30
0
  0
VERTEX
  8
PNOA-H_AMS_1956-57_33k_ES_PAN_21mic_H50_0376_fot_41B-37412_W_tif
  70
32
  10
469586.004
  20
4594328.464
  30
1032.714
  0
VERTEX
  8
PNOA-H_AMS_1956-57_33k_ES_PAN_21mic_H50_0376_fot_41B-37412_W_tif
  70
32
  10
469585.000
  20
4594266.000
  30
1034.234
  0
VERTEX
  8
PNOA-H_AMS_1956-57_33k_ES_PAN_21mic_H50_0376_fot_41B-37412_W_tif
  70
32
  10
469584.690
  20
4594265.885
  30
1034.234
  0
VERTEX
  8
PNOA-H_AMS_1956-57_33k_ES_PAN_21mic_H50_0376_fot_41B-37412_W_tif
  70
32
  10
468584.500
  20
4593895.500
  30
1033.795
  0
VERTEX
  8
PNOA-H_AMS_1956-57_33k_ES_PAN_21mic_H50_0376_fot_41B-37412_W_tif
  70
32
  10
468564.000
  20
4593888.000
  30
1033.669
  0
VERTEX
  8
PNOA-H_AMS_1956-57_33k_ES_PAN_21mic_H50_0376_fot_41B-37412_W_tif
  70
32
  10
468563.000
  20
4593888.000
  30
1033.657
  0
SEQEND
  8
PNOA-H_AMS_1956-57_33k_ES_PAN_21mic_H50_0376_fot_41B-37412_W_tif
  0
INSERT
  8
FeatureAttribs
  2
FEATURE
  41
1
  42
1
  43
1
  50
0
  10
475437.119
  20
4591740.750
 66
1
  0
ATTRIB
  8
FeatureAttribs
 70
0
  1
PNOA-H_AMS_1956-57_33k_ES_PAN_21mic_H50_0404_fot_42B-36308_E.tif
  2
NAME
  10
475437.119
  20
4591740.750
 40
33.56784
  0
SEQEND
  0
POLYLINE
  8
PNOA-H_AMS_1956-57_33k_ES_PAN_21mic_H50_0404_fot_42B-36308_E_tif
  70
9
  66
1
  0
VERTEX
  8
PNOA-H_AMS_1956-57_33k_ES_PAN_21mic_H50_0404_fot_42B-36308_E_tif
  70
32
  10
475564.726
  20
4594150.255
  30
979.339
  0
VERTEX
  8
PNOA-H_AMS_1956-57_33k_ES_PAN_21mic_H50_0404_fot_42B-36308_E_tif
  70
32
  10
475595.000
  20
4594141.000
  30
975.101
  0
VERTEX
  8
PNOA-H_AMS_1956-57_33k_ES_PAN_21mic_H50_0404_fot_42B-36308_E_tif
  70
32
  10
475595.354
  20
4594141.000
  30
975.089
  0
VERTEX
  8
PNOA-H_AMS_1956-57_33k_ES_PAN_21mic_H50_0404_fot_42B-36308_E_tif
  70
32
  10
475596.000
  20
4594141.000
  30
975.068
  0
VERTEX
  8
PNOA-H_AMS_1956-57_33k_ES_PAN_21mic_H50_0404_fot_42B-36308_E_tif
  70
32
  10
476811.753
  20
4593773.575
  30
958.624
  0
VERTEX
  8
PNOA-H_AMS_1956-57_33k_ES_PAN_21mic_H50_0404_fot_42B-36308_E_tif
  70
32
  10
476812.000
  20
4593773.500
  30
958.621
  0
VERTEX
  8
PNOA-H_AMS_1956-57_33k_ES_PAN_21mic_H50_0404_fot_42B-36308_E_tif
  70
32
  10
476832.500
  20
4589479.500
  30
1022.894
  0
VERTEX
  8
PNOA-H_AMS_1956-57_33k_ES_PAN_21mic_H50_0404_fot_42B-36308_E_tif
  70
32
  10
476832.431
  20
4589479.464
  30
1022.895
  0
VERTEX
  8
PNOA-H_AMS_1956-57_33k_ES_PAN_21mic_H50_0404_fot_42B-36308_E_tif
  70
32
  10
476463.499
  20
4589286.000
  30
1031.329
  0
VERTEX
  8
PNOA-H_AMS_1956-57_33k_ES_PAN_21mic_H50_0404_fot_42B-36308_E_tif
  70
32
  10
475594.995
  20
4589353.000
  30
1011.812
  0
VERTEX
  8
PNOA-H_AMS_1956-57_33k_ES_PAN_21mic_H50_0404_fot_42B-36308_E_tif
  70
32
  10
474026.500
  20
4589474.000
  30
976.563
  0
VERTEX
  8
PNOA-H_AMS_1956-57_33k_ES_PAN_21mic_H50_0404_fot_42B-36308_E_tif
  70
32
  10
474076.000
  20
4593784.000
  30
1059.389
  0
VERTEX
  8
PNOA-H_AMS_1956-57_33k_ES_PAN_21mic_H50_0404_fot_42B-36308_E_tif
  70
32
  10
474076.722
  20
4593784.222
  30
1059.357
  0
VERTEX
  8
PNOA-H_AMS_1956-57_33k_ES_PAN_21mic_H50_0404_fot_42B-36308_E_tif
  70
32
  10
475413.000
  20
4594195.500
  30
999.948
  0
VERTEX
  8
PNOA-H_AMS_1956-57_33k_ES_PAN_21mic_H50_0404_fot_42B-36308_E_tif
  70
32
  10
475414.366
  20
4594195.305
  30
999.88
  0
VERTEX
  8
PNOA-H_AMS_1956-57_33k_ES_PAN_21mic_H50_0404_fot_42B-36308_E_tif
  70
32
  10
475416.793
  20
4594194.958
  30
999.761
  0
VERTEX
  8
PNOA-H_AMS_1956-57_33k_ES_PAN_21mic_H50_0404_fot_42B-36308_E_tif
  70
32
  10
475420.000
  20
4594194.500
  30
999.603
  0
VERTEX
  8
PNOA-H_AMS_1956-57_33k_ES_PAN_21mic_H50_0404_fot_42B-36308_E_tif
  70
32
  10
475564.726
  20
4594150.255
  30
979.339
  0
SEQEND
  8
PNOA-H_AMS_1956-57_33k_ES_PAN_21mic_H50_0404_fot_42B-36308_E_tif
  0
INSERT
  8
FeatureAttribs
  2
FEATURE
  41
1
  42
1
  43
1
  50
0
  10
472666.089
  20
4591762.000
 66
1
  0
ATTRIB
  8
FeatureAttribs
 70
0
  1
PNOA-H_AMS_1956-57_33k_ES_PAN_21mic_H50_0404_fot_42B-36307_E.tif
  2
NAME
  10
472666.089
  20
4591762.000
 40
33.56784
  0
SEQEND
  0
POLYLINE
  8
PNOA-H_AMS_1956-57_33k_ES_PAN_21mic_H50_0404_fot_42B-36307_E_tif
  70
9
  66
1
  0
VERTEX
  8
PNOA-H_AMS_1956-57_33k_ES_PAN_21mic_H50_0404_fot_42B-36307_E_tif
  70
32
  10
474026.436
  20
4589473.966
  30
976.566
  0
VERTEX
  8
PNOA-H_AMS_1956-57_33k_ES_PAN_21mic_H50_0404_fot_42B-36307_E_tif
  70
32
  10
473679.000
  20
4589290.000
  30
996.612
  0
VERTEX
  8
PNOA-H_AMS_1956-57_33k_ES_PAN_21mic_H50_0404_fot_42B-36307_E_tif
  70
32
  10
473678.563
  20
4589290.033
  30
996.628
  0
VERTEX
  8
PNOA-H_AMS_1956-57_33k_ES_PAN_21mic_H50_0404_fot_42B-36307_E_tif
  70
32
  10
471241.000
  20
4589474.500
  30
1080.966
  0
VERTEX
  8
PNOA-H_AMS_1956-57_33k_ES_PAN_21mic_H50_0404_fot_42B-36307_E_tif
  70
32
  10
471314.000
  20
4593823.000
  30
1032.073
  0
VERTEX
  8
PNOA-H_AMS_1956-57_33k_ES_PAN_21mic_H50_0404_fot_42B-36307_E_tif
  70
32
  10
471314.213
  20
4593823.073
  30
1032.051
  0
VERTEX
  8
PNOA-H_AMS_1956-57_33k_ES_PAN_21mic_H50_0404_fot_42B-36307_E_tif
  70
32
  10
471497.000
  20
4593886.000
  30
1012.299
  0
VERTEX
  8
PNOA-H_AMS_1956-57_33k_ES_PAN_21mic_H50_0404_fot_42B-36307_E_tif
  70
32
  10
471498.500
  20
4593886.500
  30
1012.161
  0
VERTEX
  8
PNOA-H_AMS_1956-57_33k_ES_PAN_21mic_H50_0404_fot_42B-36307_E_tif
  70
32
  10
472498.500
  20
4594229.000
  30
989.457
  0
VERTEX
  8
PNOA-H_AMS_1956-57_33k_ES_PAN_21mic_H50_0404_fot_42B-36307_E_tif
  70
32
  10
472513.500
  20
4594234.000
  30
989.334
  0
VERTEX
  8
PNOA-H_AMS_1956-57_33k_ES_PAN_21mic_H50_0404_fot_42B-36307_E_tif
  70
32
  10
472515.000
  20
4594234.000
  30
989.409
  0
VERTEX
  8
PNOA-H_AMS_1956-57_33k_ES_PAN_21mic_H50_0404_fot_42B-36307_E_tif
  70
32
  10
472516.500
  20
4594234.000
  30
989.484
  0
VERTEX
  8
PNOA-H_AMS_1956-57_33k_ES_PAN_21mic_H50_0404_fot_42B-36307_E_tif
  70
32
  10
474075.614
  20
4593784.111
  30
1059.372
  0
VERTEX
  8
PNOA-H_AMS_1956-57_33k_ES_PAN_21mic_H50_0404_fot_42B-36307_E_tif
  70
32
  10
474076.000
  20
4593784.000
  30
1059.389
  0
VERTEX
  8
PNOA-H_AMS_1956-57_33k_ES_PAN_21mic_H50_0404_fot_42B-36307_E_tif
  70
32
  10
474026.500
  20
4589474.000
  30
976.563
  0
VERTEX
  8
PNOA-H_AMS_1956-57_33k_ES_PAN_21mic_H50_0404_fot_42B-36307_E_tif
  70
32
  10
474026.436
  20
4589473.966
  30
976.566
  0
SEQEND
  8
PNOA-H_AMS_1956-57_33k_ES_PAN_21mic_H50_0404_fot_42B-36307_E_tif
  0
INSERT
  8
FeatureAttribs
  2
FEATURE
  41
1
  42
1
  43
1
  50
0
  10
474047.397
  20
4594050.379
 66
1
  0
ATTRIB
  8
FeatureAttribs
 70
0
  1
PNOA-H_AMS_1956-57_33k_ES_PAN_21mic_H50_0376_fot_41B-37410_W.tif
  2
NAME
  10
474047.397
  20
4594050.379
 40
33.56784
  0
SEQEND
  0
POLYLINE
  8
PNOA-H_AMS_1956-57_33k_ES_PAN_21mic_H50_0376_fot_41B-37410_W_tif
  70
9
  66
1
  0
VERTEX
  8
PNOA-H_AMS_1956-57_33k_ES_PAN_21mic_H50_0376_fot_41B-37410_W_tif
  70
32
  10
474075.614
  20
4593784.111
  30
1059.4
  0
VERTEX
  8
PNOA-H_AMS_1956-57_33k_ES_PAN_21mic_H50_0376_fot_41B-37410_W_tif
  70
32
  10
474074.500
  20
4593784.000
  30
1059.393
  0
VERTEX
  8
PNOA-H_AMS_1956-57_33k_ES_PAN_21mic_H50_0376_fot_41B-37410_W_tif
  70
32
  10
472515.000
  20
4594234.000
  30
989.409
  0
VERTEX
  8
PNOA-H_AMS_1956-57_33k_ES_PAN_21mic_H50_0376_fot_41B-37410_W_tif
  70
32
  10
472515.876
  20
4594316.758
  30
989.362
  0
VERTEX
  8
PNOA-H_AMS_1956-57_33k_ES_PAN_21mic_H50_0376_fot_41B-37410_W_tif
  70
32
  10
473917.868
  20
4594311.353
  30
0
  0
VERTEX
  8
PNOA-H_AMS_1956-57_33k_ES_PAN_21mic_H50_0376_fot_41B-37410_W_tif
  70
32
  10
475415.366
  20
4594306.302
  30
997.937
  0
VERTEX
  8
PNOA-H_AMS_1956-57_33k_ES_PAN_21mic_H50_0376_fot_41B-37410_W_tif
  70
32
  10
475415.000
  20
4594195.500
  30
999.877
  0
VERTEX
  8
PNOA-H_AMS_1956-57_33k_ES_PAN_21mic_H50_0376_fot_41B-37410_W_tif
  70
32
  10
475414.366
  20
4594195.305
  30
999.905
  0
VERTEX
  8
PNOA-H_AMS_1956-57_33k_ES_PAN_21mic_H50_0376_fot_41B-37410_W_tif
  70
32
  10
474079.500
  20
4593784.500
  30
1059.424
  0
VERTEX
  8
PNOA-H_AMS_1956-57_33k_ES_PAN_21mic_H50_0376_fot_41B-37410_W_tif
  70
32
  10
474076.722
  20
4593784.222
  30
1059.406
  0
VERTEX
  8
PNOA-H_AMS_1956-57_33k_ES_PAN_21mic_H50_0376_fot_41B-37410_W_tif
  70
32
  10
474075.614
  20
4593784.111
  30
1059.4
  0
SEQEND
  8
PNOA-H_AMS_1956-57_33k_ES_PAN_21mic_H50_0376_fot_41B-37410_W_tif
  0
INSERT
  8
FeatureAttribs
  2
FEATURE
  41
1
  42
1
  43
1
  50
0
  10
476822.955
  20
4594039.901
 66
1
  0
ATTRIB
  8
FeatureAttribs
 70
0
  1
PNOA-H_AMS_1956-57_33k_ES_PAN_21mic_H50_0376_fot_41B-37409_W.tif
  2
NAME
  10
476822.955
  20
4594039.901
 40
33.56784
  0
SEQEND
  0
POLYLINE
  8
PNOA-H_AMS_1956-57_33k_ES_PAN_21mic_H50_0376_fot_41B-37409_W_tif
  70
9
  66
1
  0
VERTEX
  8
PNOA-H_AMS_1956-57_33k_ES_PAN_21mic_H50_0376_fot_41B-37409_W_tif
  70
32
  10
476811.753
  20
4593773.575
  30
958.591
  0
VERTEX
  8
PNOA-H_AMS_1956-57_33k_ES_PAN_21mic_H50_0376_fot_41B-37409_W_tif
  70
32
  10
476811.500
  20
4593773.500
  30
958.591
  0
VERTEX
  8
PNOA-H_AMS_1956-57_33k_ES_PAN_21mic_H50_0376_fot_41B-37409_W_tif
  70
32
  10
475595.354
  20
4594141.000
  30
994.545
  0
VERTEX
  8
PNOA-H_AMS_1956-57_33k_ES_PAN_21mic_H50_0376_fot_41B-37409_W_tif
  70
32
  10
475564.726
  20
4594150.255
  30
995.45
  0
VERTEX
  8
PNOA-H_AMS_1956-57_33k_ES_PAN_21mic_H50_0376_fot_41B-37409_W_tif
  70
32
  10
475416.793
  20
4594194.958
  30
999.823
  0
VERTEX
  8
PNOA-H_AMS_1956-57_33k_ES_PAN_21mic_H50_0376_fot_41B-37409_W_tif
  70
32
  10
475415.000
  20
4594195.500
  30
999.877
  0
VERTEX
  8
PNOA-H_AMS_1956-57_33k_ES_PAN_21mic_H50_0376_fot_41B-37409_W_tif
  70
32
  10
475415.366
  20
4594306.302
  30
997.937
  0
VERTEX
  8
PNOA-H_AMS_1956-57_33k_ES_PAN_21mic_H50_0376_fot_41B-37409_W_tif
  70
32
  10
477395.489
  20
4594299.623
  30
0
  0
VERTEX
  8
PNOA-H_AMS_1956-57_33k_ES_PAN_21mic_H50_0376_fot_41B-37409_W_tif
  70
32
  10
478238.055
  20
4594297.187
  30
956.139
  0
VERTEX
  8
PNOA-H_AMS_1956-57_33k_ES_PAN_21mic_H50_0376_fot_41B-37409_W_tif
  70
32
  10
478237.503
  20
4594193.999
  30
958.225
  0
VERTEX
  8
PNOA-H_AMS_1956-57_33k_ES_PAN_21mic_H50_0376_fot_41B-37409_W_tif
  70
32
  10
478237.500
  20
4594193.500
  30
958.235
  0
VERTEX
  8
PNOA-H_AMS_1956-57_33k_ES_PAN_21mic_H50_0376_fot_41B-37409_W_tif
  70
32
  10
476812.002
  20
4593773.648
  30
958.591
  0
VERTEX
  8
PNOA-H_AMS_1956-57_33k_ES_PAN_21mic_H50_0376_fot_41B-37409_W_tif
  70
32
  10
476811.753
  20
4593773.575
  30
958.591
  0
SEQEND
  8
PNOA-H_AMS_1956-57_33k_ES_PAN_21mic_H50_0376_fot_41B-37409_W_tif
  0
INSERT
  8
FeatureAttribs
  2
FEATURE
  41
1
  42
1
  43
1
  50
0
  10
478234.997
  20
4591736.500
 66
1
  0
ATTRIB
  8
FeatureAttribs
 70
0
  1
PNOA-H_AMS_1956-57_33k_ES_PAN_21mic_H50_0404_fot_42B-36309_E.tif
  2
NAME
  10
478234.997
  20
4591736.500
 40
33.56784
  0
SEQEND
  0
POLYLINE
  8
PNOA-H_AMS_1956-57_33k_ES_PAN_21mic_H50_0404_fot_42B-36309_E_tif
  70
9
  66
1
  0
VERTEX
  8
PNOA-H_AMS_1956-57_33k_ES_PAN_21mic_H50_0404_fot_42B-36309_E_tif
  70
32
  10
479227.502
  20
4589279.001
  30
981.319
  0
VERTEX
  8
PNOA-H_AMS_1956-57_33k_ES_PAN_21mic_H50_0404_fot_42B-36309_E_tif
  70
32
  10
479227.500
  20
4589279.000
  30
981.319
  0
VERTEX
  8
PNOA-H_AMS_1956-57_33k_ES_PAN_21mic_H50_0404_fot_42B-36309_E_tif
  70
32
  10
476832.500
  20
4589479.500
  30
1022.894
  0
VERTEX
  8
PNOA-H_AMS_1956-57_33k_ES_PAN_21mic_H50_0404_fot_42B-36309_E_tif
  70
32
  10
476812.002
  20
4593773.648
  30
958.62
  0
VERTEX
  8
PNOA-H_AMS_1956-57_33k_ES_PAN_21mic_H50_0404_fot_42B-36309_E_tif
  70
32
  10
476812.000
  20
4593774.000
  30
958.614
  0
VERTEX
  8
PNOA-H_AMS_1956-57_33k_ES_PAN_21mic_H50_0404_fot_42B-36309_E_tif
  70
32
  10
478236.000
  20
4594193.500
  30
958.427
  0
VERTEX
  8
PNOA-H_AMS_1956-57_33k_ES_PAN_21mic_H50_0404_fot_42B-36309_E_tif
  70
32
  10
478237.500
  20
4594194.000
  30
958.086
  0
VERTEX
  8
PNOA-H_AMS_1956-57_33k_ES_PAN_21mic_H50_0404_fot_42B-36309_E_tif
  70
32
  10
478237.503
  20
4594193.999
  30
958.086
  0
VERTEX
  8
PNOA-H_AMS_1956-57_33k_ES_PAN_21mic_H50_0404_fot_42B-36309_E_tif
  70
32
  10
478238.002
  20
4594193.843
  30
958.077
  0
VERTEX
  8
PNOA-H_AMS_1956-57_33k_ES_PAN_21mic_H50_0404_fot_42B-36309_E_tif
  70
32
  10
479622.006
  20
4593760.155
  30
931.92
  0
VERTEX
  8
PNOA-H_AMS_1956-57_33k_ES_PAN_21mic_H50_0404_fot_42B-36309_E_tif
  70
32
  10
479622.500
  20
4593760.000
  30
931.91
  0
VERTEX
  8
PNOA-H_AMS_1956-57_33k_ES_PAN_21mic_H50_0404_fot_42B-36309_E_tif
  70
32
  10
479676.494
  20
4589519.997
  30
963.202
  0
VERTEX
  8
PNOA-H_AMS_1956-57_33k_ES_PAN_21mic_H50_0404_fot_42B-36309_E_tif
  70
32
  10
479676.500
  20
4589519.500
  30
963.206
  0
VERTEX
  8
PNOA-H_AMS_1956-57_33k_ES_PAN_21mic_H50_0404_fot_42B-36309_E_tif
  70
32
  10
479227.502
  20
4589279.001
  30
981.319
  0
SEQEND
  8
PNOA-H_AMS_1956-57_33k_ES_PAN_21mic_H50_0404_fot_42B-36309_E_tif
  0
INSERT
  8
FeatureAttribs
  2
FEATURE
  41
1
  42
1
  43
1
  50
0
  10
483410.858
  20
4591795.397
 66
1
  0
ATTRIB
  8
FeatureAttribs
 70
0
  1
PNOA-H_AMS_1956-57_33k_ES_PAN_21mic_H50_0404_fot_42B-36311_E.tif
  2
NAME
  10
483410.858
  20
4591795.397
 40
33.56784
  0
SEQEND
  0
POLYLINE
  8
PNOA-H_AMS_1956-57_33k_ES_PAN_21mic_H50_0404_fot_42B-36311_E_tif
  70
9
  66
1
  0
VERTEX
  8
PNOA-H_AMS_1956-57_33k_ES_PAN_21mic_H50_0404_fot_42B-36311_E_tif
  70
32
  10
484340.701
  20
4589655.405
  30
0
  0
VERTEX
  8
PNOA-H_AMS_1956-57_33k_ES_PAN_21mic_H50_0404_fot_42B-36311_E_tif
  70
32
  10
484340.089
  20
4589373.295
  30
1034.791
  0
VERTEX
  8
PNOA-H_AMS_1956-57_33k_ES_PAN_21mic_H50_0404_fot_42B-36311_E_tif
  70
32
  10
482507.500
  20
4589556.000
  30
1067
  0
VERTEX
  8
PNOA-H_AMS_1956-57_33k_ES_PAN_21mic_H50_0404_fot_42B-36311_E_tif
  70
32
  10
482449.000
  20
4593765.500
  30
993.009
  0
VERTEX
  8
PNOA-H_AMS_1956-57_33k_ES_PAN_21mic_H50_0404_fot_42B-36311_E_tif
  70
32
  10
482449.496
  20
4593765.654
  30
993.005
  0
VERTEX
  8
PNOA-H_AMS_1956-57_33k_ES_PAN_21mic_H50_0404_fot_42B-36311_E_tif
  70
32
  10
483909.000
  20
4594217.000
  30
980.568
  0
VERTEX
  8
PNOA-H_AMS_1956-57_33k_ES_PAN_21mic_H50_0404_fot_42B-36311_E_tif
  70
32
  10
483910.500
  20
4594217.500
  30
980.567
  0
VERTEX
  8
PNOA-H_AMS_1956-57_33k_ES_PAN_21mic_H50_0404_fot_42B-36311_E_tif
  70
32
  10
483910.973
  20
4594217.337
  30
980.567
  0
VERTEX
  8
PNOA-H_AMS_1956-57_33k_ES_PAN_21mic_H50_0404_fot_42B-36311_E_tif
  70
32
  10
484350.261
  20
4594066.213
  30
980.629
  0
VERTEX
  8
PNOA-H_AMS_1956-57_33k_ES_PAN_21mic_H50_0404_fot_42B-36311_E_tif
  70
32
  10
484345.713
  20
4591968.293
  30
0
  0
VERTEX
  8
PNOA-H_AMS_1956-57_33k_ES_PAN_21mic_H50_0404_fot_42B-36311_E_tif
  70
32
  10
484340.701
  20
4589655.405
  30
0
  0
SEQEND
  8
PNOA-H_AMS_1956-57_33k_ES_PAN_21mic_H50_0404_fot_42B-36311_E_tif
  0
INSERT
  8
FeatureAttribs
  2
FEATURE
  41
1
  42
1
  43
1
  50
0
  10
481062.578
  20
4591748.250
 66
1
  0
ATTRIB
  8
FeatureAttribs
 70
0
  1
PNOA-H_AMS_1956-57_33k_ES_PAN_21mic_H50_0404_fot_42B-36310_E.tif
  2
NAME
  10
481062.578
  20
4591748.250
 40
33.56784
  0
SEQEND
  0
POLYLINE
  8
PNOA-H_AMS_1956-57_33k_ES_PAN_21mic_H50_0404_fot_42B-36310_E_tif
  70
9
  66
1
  0
VERTEX
  8
PNOA-H_AMS_1956-57_33k_ES_PAN_21mic_H50_0404_fot_42B-36310_E_tif
  70
32
  10
482507.418
  20
4589555.958
  30
1066.998
  0
VERTEX
  8
PNOA-H_AMS_1956-57_33k_ES_PAN_21mic_H50_0404_fot_42B-36310_E_tif
  70
32
  10
481998.500
  20
4589297.000
  30
1055.199
  0
VERTEX
  8
PNOA-H_AMS_1956-57_33k_ES_PAN_21mic_H50_0404_fot_42B-36310_E_tif
  70
32
  10
481997.659
  20
4589297.081
  30
1055.166
  0
VERTEX
  8
PNOA-H_AMS_1956-57_33k_ES_PAN_21mic_H50_0404_fot_42B-36310_E_tif
  70
32
  10
479676.500
  20
4589520.000
  30
963.112
  0
VERTEX
  8
PNOA-H_AMS_1956-57_33k_ES_PAN_21mic_H50_0404_fot_42B-36310_E_tif
  70
32
  10
479622.500
  20
4593760.000
  30
931.91
  0
VERTEX
  8
PNOA-H_AMS_1956-57_33k_ES_PAN_21mic_H50_0404_fot_42B-36310_E_tif
  70
32
  10
479623.946
  20
4593760.453
  30
932.173
  0
VERTEX
  8
PNOA-H_AMS_1956-57_33k_ES_PAN_21mic_H50_0404_fot_42B-36310_E_tif
  70
32
  10
479689.500
  20
4593781.000
  30
944.078
  0
VERTEX
  8
PNOA-H_AMS_1956-57_33k_ES_PAN_21mic_H50_0404_fot_42B-36310_E_tif
  70
32
  10
479691.000
  20
4593781.500
  30
944.133
  0
VERTEX
  8
PNOA-H_AMS_1956-57_33k_ES_PAN_21mic_H50_0404_fot_42B-36310_E_tif
  70
32
  10
481028.000
  20
4594199.500
  30
988.948
  0
VERTEX
  8
PNOA-H_AMS_1956-57_33k_ES_PAN_21mic_H50_0404_fot_42B-36310_E_tif
  70
32
  10
481028.009
  20
4594199.497
  30
988.948
  0
VERTEX
  8
PNOA-H_AMS_1956-57_33k_ES_PAN_21mic_H50_0404_fot_42B-36310_E_tif
  70
32
  10
481910.771
  20
4593929.885
  30
991.471
  0
VERTEX
  8
PNOA-H_AMS_1956-57_33k_ES_PAN_21mic_H50_0404_fot_42B-36310_E_tif
  70
32
  10
482449.000
  20
4593765.500
  30
993.009
  0
VERTEX
  8
PNOA-H_AMS_1956-57_33k_ES_PAN_21mic_H50_0404_fot_42B-36310_E_tif
  70
32
  10
482507.500
  20
4589556.000
  30
1067
  0
VERTEX
  8
PNOA-H_AMS_1956-57_33k_ES_PAN_21mic_H50_0404_fot_42B-36310_E_tif
  70
32
  10
482507.418
  20
4589555.958
  30
1066.998
  0
SEQEND
  8
PNOA-H_AMS_1956-57_33k_ES_PAN_21mic_H50_0404_fot_42B-36310_E_tif
  0
INSERT
  8
FeatureAttribs
  2
FEATURE
  41
1
  42
1
  43
1
  50
0
  10
479623.127
  20
4594028.593
 66
1
  0
ATTRIB
  8
FeatureAttribs
 70
0
  1
PNOA-H_AMS_1956-57_33k_ES_PAN_21mic_H50_0376_fot_41B-37408_W.tif
  2
NAME
  10
479623.127
  20
4594028.593
 40
33.56784
  0
SEQEND
  0
POLYLINE
  8
PNOA-H_AMS_1956-57_33k_ES_PAN_21mic_H50_0376_fot_41B-37408_W_tif
  70
9
  66
1
  0
VERTEX
  8
PNOA-H_AMS_1956-57_33k_ES_PAN_21mic_H50_0376_fot_41B-37408_W_tif
  70
32
  10
479622.006
  20
4593760.155
  30
931.769
  0
VERTEX
  8
PNOA-H_AMS_1956-57_33k_ES_PAN_21mic_H50_0376_fot_41B-37408_W_tif
  70
32
  10
479621.000
  20
4593760.000
  30
931.574
  0
VERTEX
  8
PNOA-H_AMS_1956-57_33k_ES_PAN_21mic_H50_0376_fot_41B-37408_W_tif
  70
32
  10
478238.000
  20
4594193.500
  30
958.176
  0
VERTEX
  8
PNOA-H_AMS_1956-57_33k_ES_PAN_21mic_H50_0376_fot_41B-37408_W_tif
  70
32
  10
478238.002
  20
4594193.843
  30
958.169
  0
VERTEX
  8
PNOA-H_AMS_1956-57_33k_ES_PAN_21mic_H50_0376_fot_41B-37408_W_tif
  70
32
  10
478238.531
  20
4594297.185
  30
956.088
  0
VERTEX
  8
PNOA-H_AMS_1956-57_33k_ES_PAN_21mic_H50_0376_fot_41B-37408_W_tif
  70
32
  10
480873.109
  20
4594289.568
  30
0
  0
VERTEX
  8
PNOA-H_AMS_1956-57_33k_ES_PAN_21mic_H50_0376_fot_41B-37408_W_tif
  70
32
  10
481029.635
  20
4594289.191
  30
988.6
  0
VERTEX
  8
PNOA-H_AMS_1956-57_33k_ES_PAN_21mic_H50_0376_fot_41B-37408_W_tif
  70
32
  10
481029.353
  20
4594273.647
  30
988.66
  0
VERTEX
  8
PNOA-H_AMS_1956-57_33k_ES_PAN_21mic_H50_0376_fot_41B-37408_W_tif
  70
32
  10
481028.000
  20
4594199.500
  30
988.948
  0
VERTEX
  8
PNOA-H_AMS_1956-57_33k_ES_PAN_21mic_H50_0376_fot_41B-37408_W_tif
  70
32
  10
479627.500
  20
4593761.000
  30
932.83
  0
VERTEX
  8
PNOA-H_AMS_1956-57_33k_ES_PAN_21mic_H50_0376_fot_41B-37408_W_tif
  70
32
  10
479623.946
  20
4593760.453
  30
932.144
  0
VERTEX
  8
PNOA-H_AMS_1956-57_33k_ES_PAN_21mic_H50_0376_fot_41B-37408_W_tif
  70
32
  10
479622.006
  20
4593760.155
  30
931.769
  0
SEQEND
  8
PNOA-H_AMS_1956-57_33k_ES_PAN_21mic_H50_0376_fot_41B-37408_W_tif
  0
INSERT
  8
FeatureAttribs
  2
FEATURE
  41
1
  42
1
  43
1
  50
0
  10
482443.864
  20
4594027.346
 66
1
  0
ATTRIB
  8
FeatureAttribs
 70
0
  1
PNOA-H_AMS_1956-57_33k_ES_PAN_21mic_H50_0376_fot_41B-37407_W.tif
  2
NAME
  10
482443.864
  20
4594027.346
 40
33.56784
  0
SEQEND
  0
POLYLINE
  8
PNOA-H_AMS_1956-57_33k_ES_PAN_21mic_H50_0376_fot_41B-37407_W_tif
  70
9
  66
1
  0
VERTEX
  8
PNOA-H_AMS_1956-57_33k_ES_PAN_21mic_H50_0376_fot_41B-37407_W_tif
  70
32
  10
483910.973
  20
4594217.337
  30
980.573
  0
VERTEX
  8
PNOA-H_AMS_1956-57_33k_ES_PAN_21mic_H50_0376_fot_41B-37407_W_tif
  70
32
  10
482450.000
  20
4593765.500
  30
992.96
  0
VERTEX
  8
PNOA-H_AMS_1956-57_33k_ES_PAN_21mic_H50_0376_fot_41B-37407_W_tif
  70
32
  10
482449.496
  20
4593765.654
  30
992.959
  0
VERTEX
  8
PNOA-H_AMS_1956-57_33k_ES_PAN_21mic_H50_0376_fot_41B-37407_W_tif
  70
32
  10
481910.771
  20
4593929.885
  30
991.424
  0
VERTEX
  8
PNOA-H_AMS_1956-57_33k_ES_PAN_21mic_H50_0376_fot_41B-37407_W_tif
  70
32
  10
481028.000
  20
4594199.000
  30
988.909
  0
VERTEX
  8
PNOA-H_AMS_1956-57_33k_ES_PAN_21mic_H50_0376_fot_41B-37407_W_tif
  70
32
  10
481028.009
  20
4594199.497
  30
988.907
  0
VERTEX
  8
PNOA-H_AMS_1956-57_33k_ES_PAN_21mic_H50_0376_fot_41B-37407_W_tif
  70
32
  10
481029.353
  20
4594273.647
  30
988.62
  0
VERTEX
  8
PNOA-H_AMS_1956-57_33k_ES_PAN_21mic_H50_0376_fot_41B-37407_W_tif
  70
32
  10
481029.635
  20
4594289.191
  30
988.56
  0
VERTEX
  8
PNOA-H_AMS_1956-57_33k_ES_PAN_21mic_H50_0376_fot_41B-37407_W_tif
  70
32
  10
483912.326
  20
4594282.246
  30
979.65
  0
VERTEX
  8
PNOA-H_AMS_1956-57_33k_ES_PAN_21mic_H50_0376_fot_41B-37407_W_tif
  70
32
  10
483911.500
  20
4594217.500
  30
980.569
  0
VERTEX
  8
PNOA-H_AMS_1956-57_33k_ES_PAN_21mic_H50_0376_fot_41B-37407_W_tif
  70
32
  10
483910.973
  20
4594217.337
  30
980.573
  0
SEQEND
  8
PNOA-H_AMS_1956-57_33k_ES_PAN_21mic_H50_0376_fot_41B-37407_W_tif
  0
INSERT
  8
FeatureAttribs
  2
FEATURE
  41
1
  42
1
  43
1
  50
0
  10
484193.728
  20
4594174.256
 66
1
  0
ATTRIB
  8
FeatureAttribs
 70
0
  1
PNOA-H_AMS_1956-57_33k_ES_PAN_21mic_H50_0377_fot_41B-37406_W.tif
  2
NAME
  10
484193.728
  20
4594174.256
 40
33.56784
  0
SEQEND
  0
POLYLINE
  8
PNOA-H_AMS_1956-57_33k_ES_PAN_21mic_H50_0377_fot_41B-37406_W_tif
  70
9
  66
1
  0
VERTEX
  8
PNOA-H_AMS_1956-57_33k_ES_PAN_21mic_H50_0377_fot_41B-37406_W_tif
  70
32
  10
483911.500
  20
4594217.500
  30
980.569
  0
VERTEX
  8
PNOA-H_AMS_1956-57_33k_ES_PAN_21mic_H50_0377_fot_41B-37406_W_tif
  70
32
  10
483912.326
  20
4594282.246
  30
979.65
  0
VERTEX
  8
PNOA-H_AMS_1956-57_33k_ES_PAN_21mic_H50_0377_fot_41B-37406_W_tif
  70
32
  10
484350.727
  20
4594281.189
  30
0
  0
VERTEX
  8
PNOA-H_AMS_1956-57_33k_ES_PAN_21mic_H50_0377_fot_41B-37406_W_tif
  70
32
  10
484350.261
  20
4594066.267
  30
980.664
  0
VERTEX
  8
PNOA-H_AMS_1956-57_33k_ES_PAN_21mic_H50_0377_fot_41B-37406_W_tif
  70
32
  10
483911.500
  20
4594217.500
  30
980.569
  0
SEQEND
  8
PNOA-H_AMS_1956-57_33k_ES_PAN_21mic_H50_0377_fot_41B-37406_W_tif
  0
INSERT
  8
FeatureAttribs
  2
FEATURE
  41
1
  42
1
  43
1
  50
0
  10
456781.751
  20
4587664.147
 66
1
  0
ATTRIB
  8
FeatureAttribs
 70
0
  1
PNOA-H_AMS_1956-57_33k_ES_PAN_21mic_H50_0403_fot_43B-29632_E.tif
  2
NAME
  10
456781.751
  20
4587664.147
 40
33.56784
  0
SEQEND
  0
POLYLINE
  8
PNOA-H_AMS_1956-57_33k_ES_PAN_21mic_H50_0403_fot_43B-29632_E_tif
  70
9
  66
1
  0
VERTEX
  8
PNOA-H_AMS_1956-57_33k_ES_PAN_21mic_H50_0403_fot_43B-29632_E_tif
  70
32
  10
457012.000
  20
4585631.000
  30
944.044
  0
VERTEX
  8
PNOA-H_AMS_1956-57_33k_ES_PAN_21mic_H50_0403_fot_43B-29632_E_tif
  70
32
  10
456476.717
  20
4585586.794
  30
951.187
  0
VERTEX
  8
PNOA-H_AMS_1956-57_33k_ES_PAN_21mic_H50_0403_fot_43B-29632_E_tif
  70
32
  10
456476.718
  20
4585586.910
  30
0
  0
VERTEX
  8
PNOA-H_AMS_1956-57_33k_ES_PAN_21mic_H50_0403_fot_43B-29632_E_tif
  70
32
  10
456487.963
  20
4587456.448
  30
0
  0
VERTEX
  8
PNOA-H_AMS_1956-57_33k_ES_PAN_21mic_H50_0403_fot_43B-29632_E_tif
  70
32
  10
456501.608
  20
4589724.017
  30
0
  0
VERTEX
  8
PNOA-H_AMS_1956-57_33k_ES_PAN_21mic_H50_0403_fot_43B-29632_E_tif
  70
32
  10
456501.609
  20
4589724.134
  30
951.49
  0
VERTEX
  8
PNOA-H_AMS_1956-57_33k_ES_PAN_21mic_H50_0403_fot_43B-29632_E_tif
  70
32
  10
456942.500
  20
4589741.000
  30
947.757
  0
VERTEX
  8
PNOA-H_AMS_1956-57_33k_ES_PAN_21mic_H50_0403_fot_43B-29632_E_tif
  70
32
  10
456956.000
  20
4589741.500
  30
947.429
  0
VERTEX
  8
PNOA-H_AMS_1956-57_33k_ES_PAN_21mic_H50_0403_fot_43B-29632_E_tif
  70
32
  10
456959.500
  20
4589741.500
  30
947.354
  0
VERTEX
  8
PNOA-H_AMS_1956-57_33k_ES_PAN_21mic_H50_0403_fot_43B-29632_E_tif
  70
32
  10
456960.000
  20
4589741.500
  30
947.343
  0
VERTEX
  8
PNOA-H_AMS_1956-57_33k_ES_PAN_21mic_H50_0403_fot_43B-29632_E_tif
  70
32
  10
457134.500
  20
4589629.499
  30
949.42
  0
VERTEX
  8
PNOA-H_AMS_1956-57_33k_ES_PAN_21mic_H50_0403_fot_43B-29632_E_tif
  70
32
  10
457012.000
  20
4585631.000
  30
944.044
  0
SEQEND
  8
PNOA-H_AMS_1956-57_33k_ES_PAN_21mic_H50_0403_fot_43B-29632_E_tif
  0
INSERT
  8
FeatureAttribs
  2
FEATURE
  41
1
  42
1
  43
1
  50
0
  10
456968.957
  20
4583310.500
 66
1
  0
ATTRIB
  8
FeatureAttribs
 70
0
  1
PNOA-H_AMS_1956-57_33k_ES_PAN_21mic_H50_0403_fot_44B-36282_W.tif
  2
NAME
  10
456968.957
  20
4583310.500
 40
33.56784
  0
SEQEND
  0
POLYLINE
  8
PNOA-H_AMS_1956-57_33k_ES_PAN_21mic_H50_0403_fot_44B-36282_W_tif
  70
9
  66
1
  0
VERTEX
  8
PNOA-H_AMS_1956-57_33k_ES_PAN_21mic_H50_0403_fot_44B-36282_W_tif
  70
32
  10
456971.250
  20
4581174.250
  30
993.568
  0
VERTEX
  8
PNOA-H_AMS_1956-57_33k_ES_PAN_21mic_H50_0403_fot_44B-36282_W_tif
  70
32
  10
456522.500
  20
4580990.000
  30
993.654
  0
VERTEX
  8
PNOA-H_AMS_1956-57_33k_ES_PAN_21mic_H50_0403_fot_44B-36282_W_tif
  70
32
  10
456521.828
  20
4580990.134
  30
993.647
  0
VERTEX
  8
PNOA-H_AMS_1956-57_33k_ES_PAN_21mic_H50_0403_fot_44B-36282_W_tif
  70
32
  10
456449.171
  20
4581004.645
  30
992.839
  0
VERTEX
  8
PNOA-H_AMS_1956-57_33k_ES_PAN_21mic_H50_0403_fot_44B-36282_W_tif
  70
32
  10
456460.146
  20
4582830.692
  30
0
  0
VERTEX
  8
PNOA-H_AMS_1956-57_33k_ES_PAN_21mic_H50_0403_fot_44B-36282_W_tif
  70
32
  10
456474.051
  20
4585143.566
  30
0
  0
VERTEX
  8
PNOA-H_AMS_1956-57_33k_ES_PAN_21mic_H50_0403_fot_44B-36282_W_tif
  70
32
  10
456476.717
  20
4585586.794
  30
0
  0
VERTEX
  8
PNOA-H_AMS_1956-57_33k_ES_PAN_21mic_H50_0403_fot_44B-36282_W_tif
  70
32
  10
456476.718
  20
4585586.910
  30
950.091
  0
VERTEX
  8
PNOA-H_AMS_1956-57_33k_ES_PAN_21mic_H50_0403_fot_44B-36282_W_tif
  70
32
  10
457012.000
  20
4585631.000
  30
944.044
  0
VERTEX
  8
PNOA-H_AMS_1956-57_33k_ES_PAN_21mic_H50_0403_fot_44B-36282_W_tif
  70
32
  10
457012.015
  20
4585630.990
  30
944.044
  0
VERTEX
  8
PNOA-H_AMS_1956-57_33k_ES_PAN_21mic_H50_0403_fot_44B-36282_W_tif
  70
32
  10
457530.417
  20
4585288.555
  30
946.766
  0
VERTEX
  8
PNOA-H_AMS_1956-57_33k_ES_PAN_21mic_H50_0403_fot_44B-36282_W_tif
  70
32
  10
457530.500
  20
4585288.500
  30
946.767
  0
VERTEX
  8
PNOA-H_AMS_1956-57_33k_ES_PAN_21mic_H50_0403_fot_44B-36282_W_tif
  70
32
  10
457420.000
  20
4581358.500
  30
993.482
  0
VERTEX
  8
PNOA-H_AMS_1956-57_33k_ES_PAN_21mic_H50_0403_fot_44B-36282_W_tif
  70
32
  10
456971.250
  20
4581174.250
  30
993.568
  0
SEQEND
  8
PNOA-H_AMS_1956-57_33k_ES_PAN_21mic_H50_0403_fot_44B-36282_W_tif
  0
INSERT
  8
FeatureAttribs
  2
FEATURE
  41
1
  42
1
  43
1
  50
0
  10
456465.099
  20
4578932.819
 66
1
  0
ATTRIB
  8
FeatureAttribs
 70
0
  1
PNOA-H_AMS_1956-57_33k_ES_PAN_21mic_H50_0403_fot_45B-36161_E.tif
  2
NAME
  10
456465.099
  20
4578932.819
 40
33.56784
  0
SEQEND
  0
POLYLINE
  8
PNOA-H_AMS_1956-57_33k_ES_PAN_21mic_H50_0403_fot_45B-36161_E_tif
  70
9
  66
1
  0
VERTEX
  8
PNOA-H_AMS_1956-57_33k_ES_PAN_21mic_H50_0403_fot_45B-36161_E_tif
  70
32
  10
456465.141
  20
4576879.340
  30
1053.092
  0
VERTEX
  8
PNOA-H_AMS_1956-57_33k_ES_PAN_21mic_H50_0403_fot_45B-36161_E_tif
  70
32
  10
456424.282
  20
4576861.168
  30
1053.307
  0
VERTEX
  8
PNOA-H_AMS_1956-57_33k_ES_PAN_21mic_H50_0403_fot_45B-36161_E_tif
  70
32
  10
456424.284
  20
4576861.614
  30
0
  0
VERTEX
  8
PNOA-H_AMS_1956-57_33k_ES_PAN_21mic_H50_0403_fot_45B-36161_E_tif
  70
32
  10
456432.351
  20
4578204.970
  30
0
  0
VERTEX
  8
PNOA-H_AMS_1956-57_33k_ES_PAN_21mic_H50_0403_fot_45B-36161_E_tif
  70
32
  10
456446.245
  20
4580517.827
  30
0
  0
VERTEX
  8
PNOA-H_AMS_1956-57_33k_ES_PAN_21mic_H50_0403_fot_45B-36161_E_tif
  70
32
  10
456449.170
  20
4581004.469
  30
992.762
  0
VERTEX
  8
PNOA-H_AMS_1956-57_33k_ES_PAN_21mic_H50_0403_fot_45B-36161_E_tif
  70
32
  10
456521.500
  20
4580990.000
  30
993.571
  0
VERTEX
  8
PNOA-H_AMS_1956-57_33k_ES_PAN_21mic_H50_0403_fot_45B-36161_E_tif
  70
32
  10
456465.500
  20
4576879.500
  30
1053.09
  0
VERTEX
  8
PNOA-H_AMS_1956-57_33k_ES_PAN_21mic_H50_0403_fot_45B-36161_E_tif
  70
32
  10
456465.141
  20
4576879.340
  30
1053.092
  0
SEQEND
  8
PNOA-H_AMS_1956-57_33k_ES_PAN_21mic_H50_0403_fot_45B-36161_E_tif
  0
INSERT
  8
FeatureAttribs
  2
FEATURE
  41
1
  42
1
  43
1
  50
0
  10
457976.100
  20
4578894.750
 66
1
  0
ATTRIB
  8
FeatureAttribs
 70
0
  1
PNOA-H_AMS_1956-57_33k_ES_PAN_21mic_H50_0404_fot_45B-36162_E.tif
  2
NAME
  10
457976.100
  20
4578894.750
 40
33.56784
  0
SEQEND
  0
POLYLINE
  8
PNOA-H_AMS_1956-57_33k_ES_PAN_21mic_H50_0404_fot_45B-36162_E_tif
  70
9
  66
1
  0
VERTEX
  8
PNOA-H_AMS_1956-57_33k_ES_PAN_21mic_H50_0404_fot_45B-36162_E_tif
  70
32
  10
458519.331
  20
4581123.121
  30
1010.623
  0
VERTEX
  8
PNOA-H_AMS_1956-57_33k_ES_PAN_21mic_H50_0404_fot_45B-36162_E_tif
  70
32
  10
459210.500
  20
4580975.000
  30
1021.425
  0
VERTEX
  8
PNOA-H_AMS_1956-57_33k_ES_PAN_21mic_H50_0404_fot_45B-36162_E_tif
  70
32
  10
459211.129
  20
4580975.000
  30
1021.43
  0
VERTEX
  8
PNOA-H_AMS_1956-57_33k_ES_PAN_21mic_H50_0404_fot_45B-36162_E_tif
  70
32
  10
459212.000
  20
4580975.000
  30
1021.435
  0
VERTEX
  8
PNOA-H_AMS_1956-57_33k_ES_PAN_21mic_H50_0404_fot_45B-36162_E_tif
  70
32
  10
459461.000
  20
4580921.500
  30
1007.414
  0
VERTEX
  8
PNOA-H_AMS_1956-57_33k_ES_PAN_21mic_H50_0404_fot_45B-36162_E_tif
  70
32
  10
459457.500
  20
4576877.500
  30
1067.163
  0
VERTEX
  8
PNOA-H_AMS_1956-57_33k_ES_PAN_21mic_H50_0404_fot_45B-36162_E_tif
  70
32
  10
459457.036
  20
4576877.326
  30
1067.173
  0
VERTEX
  8
PNOA-H_AMS_1956-57_33k_ES_PAN_21mic_H50_0404_fot_45B-36162_E_tif
  70
32
  10
458267.000
  20
4576431.000
  30
1092.042
  0
VERTEX
  8
PNOA-H_AMS_1956-57_33k_ES_PAN_21mic_H50_0404_fot_45B-36162_E_tif
  70
32
  10
458266.399
  20
4576431.150
  30
1092.029
  0
VERTEX
  8
PNOA-H_AMS_1956-57_33k_ES_PAN_21mic_H50_0404_fot_45B-36162_E_tif
  70
32
  10
456465.500
  20
4576879.500
  30
1053.09
  0
VERTEX
  8
PNOA-H_AMS_1956-57_33k_ES_PAN_21mic_H50_0404_fot_45B-36162_E_tif
  70
32
  10
456521.500
  20
4580990.000
  30
993.571
  0
VERTEX
  8
PNOA-H_AMS_1956-57_33k_ES_PAN_21mic_H50_0404_fot_45B-36162_E_tif
  70
32
  10
456521.828
  20
4580990.134
  30
993.571
  0
VERTEX
  8
PNOA-H_AMS_1956-57_33k_ES_PAN_21mic_H50_0404_fot_45B-36162_E_tif
  70
32
  10
456971.250
  20
4581174.250
  30
993.514
  0
VERTEX
  8
PNOA-H_AMS_1956-57_33k_ES_PAN_21mic_H50_0404_fot_45B-36162_E_tif
  70
32
  10
457420.657
  20
4581358.359
  30
993.456
  0
VERTEX
  8
PNOA-H_AMS_1956-57_33k_ES_PAN_21mic_H50_0404_fot_45B-36162_E_tif
  70
32
  10
457421.000
  20
4581358.500
  30
993.456
  0
VERTEX
  8
PNOA-H_AMS_1956-57_33k_ES_PAN_21mic_H50_0404_fot_45B-36162_E_tif
  70
32
  10
458519.331
  20
4581123.121
  30
1010.623
  0
SEQEND
  8
PNOA-H_AMS_1956-57_33k_ES_PAN_21mic_H50_0404_fot_45B-36162_E_tif
  0
INSERT
  8
FeatureAttribs
  2
FEATURE
  41
1
  42
1
  43
1
  50
0
  10
457343.346
  20
4576380.509
 66
1
  0
ATTRIB
  8
FeatureAttribs
 70
0
  1
PNOA-H_AMS_1956-57_33k_ES_PAN_21mic_H50_0432_fot_46B-29802_E.tif
  2
NAME
  10
457343.346
  20
4576380.509
 40
33.56784
  0
SEQEND
  0
POLYLINE
  8
PNOA-H_AMS_1956-57_33k_ES_PAN_21mic_H50_0432_fot_46B-29802_E_tif
  70
9
  66
1
  0
VERTEX
  8
PNOA-H_AMS_1956-57_33k_ES_PAN_21mic_H50_0432_fot_46B-29802_E_tif
  70
32
  10
458266.000
  20
4576431.000
  30
1092.043
  0
VERTEX
  8
PNOA-H_AMS_1956-57_33k_ES_PAN_21mic_H50_0432_fot_46B-29802_E_tif
  70
32
  10
458258.349
  20
4575881.518
  30
1100.418
  0
VERTEX
  8
PNOA-H_AMS_1956-57_33k_ES_PAN_21mic_H50_0432_fot_46B-29802_E_tif
  70
32
  10
456418.462
  20
4575892.122
  30
0
  0
VERTEX
  8
PNOA-H_AMS_1956-57_33k_ES_PAN_21mic_H50_0432_fot_46B-29802_E_tif
  70
32
  10
456424.282
  20
4576861.168
  30
0
  0
VERTEX
  8
PNOA-H_AMS_1956-57_33k_ES_PAN_21mic_H50_0432_fot_46B-29802_E_tif
  70
32
  10
456424.284
  20
4576861.614
  30
1053.338
  0
VERTEX
  8
PNOA-H_AMS_1956-57_33k_ES_PAN_21mic_H50_0432_fot_46B-29802_E_tif
  70
32
  10
456464.500
  20
4576879.500
  30
1053.128
  0
VERTEX
  8
PNOA-H_AMS_1956-57_33k_ES_PAN_21mic_H50_0432_fot_46B-29802_E_tif
  70
32
  10
456465.141
  20
4576879.340
  30
1053.142
  0
VERTEX
  8
PNOA-H_AMS_1956-57_33k_ES_PAN_21mic_H50_0432_fot_46B-29802_E_tif
  70
32
  10
458266.000
  20
4576431.000
  30
1092.043
  0
SEQEND
  8
PNOA-H_AMS_1956-57_33k_ES_PAN_21mic_H50_0432_fot_46B-29802_E_tif
  0
INSERT
  8
FeatureAttribs
  2
FEATURE
  41
1
  42
1
  43
1
  50
0
  10
464826.325
  20
4583174.000
 66
1
  0
ATTRIB
  8
FeatureAttribs
 70
0
  1
PNOA-H_AMS_1956-57_33k_ES_PAN_21mic_H50_0404_fot_44B-36279_W.tif
  2
NAME
  10
464826.325
  20
4583174.000
 40
33.56784
  0
SEQEND
  0
POLYLINE
  8
PNOA-H_AMS_1956-57_33k_ES_PAN_21mic_H50_0404_fot_44B-36279_W_tif
  70
9
  66
1
  0
VERTEX
  8
PNOA-H_AMS_1956-57_33k_ES_PAN_21mic_H50_0404_fot_44B-36279_W_tif
  70
32
  10
466321.500
  20
4581261.000
  30
1017.631
  0
VERTEX
  8
PNOA-H_AMS_1956-57_33k_ES_PAN_21mic_H50_0404_fot_44B-36279_W_tif
  70
32
  10
465413.500
  20
4580861.500
  30
1008.407
  0
VERTEX
  8
PNOA-H_AMS_1956-57_33k_ES_PAN_21mic_H50_0404_fot_44B-36279_W_tif
  70
32
  10
465413.157
  20
4580861.569
  30
1008.409
  0
VERTEX
  8
PNOA-H_AMS_1956-57_33k_ES_PAN_21mic_H50_0404_fot_44B-36279_W_tif
  70
32
  10
464902.875
  20
4580964.375
  30
1010.736
  0
VERTEX
  8
PNOA-H_AMS_1956-57_33k_ES_PAN_21mic_H50_0404_fot_44B-36279_W_tif
  70
32
  10
463371.854
  20
4581272.828
  30
1017.72
  0
VERTEX
  8
PNOA-H_AMS_1956-57_33k_ES_PAN_21mic_H50_0404_fot_44B-36279_W_tif
  70
32
  10
463371.000
  20
4581273.000
  30
1017.724
  0
VERTEX
  8
PNOA-H_AMS_1956-57_33k_ES_PAN_21mic_H50_0404_fot_44B-36279_W_tif
  70
32
  10
463411.000
  20
4585042.500
  30
985.403
  0
VERTEX
  8
PNOA-H_AMS_1956-57_33k_ES_PAN_21mic_H50_0404_fot_44B-36279_W_tif
  70
32
  10
465353.000
  20
4585478.500
  30
961.116
  0
VERTEX
  8
PNOA-H_AMS_1956-57_33k_ES_PAN_21mic_H50_0404_fot_44B-36279_W_tif
  70
32
  10
465355.500
  20
4585479.000
  30
961.136
  0
VERTEX
  8
PNOA-H_AMS_1956-57_33k_ES_PAN_21mic_H50_0404_fot_44B-36279_W_tif
  70
32
  10
465389.000
  20
4585486.500
  30
960.756
  0
VERTEX
  8
PNOA-H_AMS_1956-57_33k_ES_PAN_21mic_H50_0404_fot_44B-36279_W_tif
  70
32
  10
465389.603
  20
4585486.299
  30
960.693
  0
VERTEX
  8
PNOA-H_AMS_1956-57_33k_ES_PAN_21mic_H50_0404_fot_44B-36279_W_tif
  70
32
  10
465392.761
  20
4585485.246
  30
960.365
  0
VERTEX
  8
PNOA-H_AMS_1956-57_33k_ES_PAN_21mic_H50_0404_fot_44B-36279_W_tif
  70
32
  10
465395.000
  20
4585484.500
  30
960.132
  0
VERTEX
  8
PNOA-H_AMS_1956-57_33k_ES_PAN_21mic_H50_0404_fot_44B-36279_W_tif
  70
32
  10
466194.500
  20
4585041.000
  30
980.102
  0
VERTEX
  8
PNOA-H_AMS_1956-57_33k_ES_PAN_21mic_H50_0404_fot_44B-36279_W_tif
  70
32
  10
466197.000
  20
4585039.500
  30
980.174
  0
VERTEX
  8
PNOA-H_AMS_1956-57_33k_ES_PAN_21mic_H50_0404_fot_44B-36279_W_tif
  70
32
  10
466197.065
  20
4585039.241
  30
980.168
  0
VERTEX
  8
PNOA-H_AMS_1956-57_33k_ES_PAN_21mic_H50_0404_fot_44B-36279_W_tif
  70
32
  10
466197.118
  20
4585039.027
  30
980.163
  0
VERTEX
  8
PNOA-H_AMS_1956-57_33k_ES_PAN_21mic_H50_0404_fot_44B-36279_W_tif
  70
32
  10
466197.500
  20
4585037.500
  30
980.131
  0
VERTEX
  8
PNOA-H_AMS_1956-57_33k_ES_PAN_21mic_H50_0404_fot_44B-36279_W_tif
  70
32
  10
466327.000
  20
4581265.500
  30
1017.34
  0
VERTEX
  8
PNOA-H_AMS_1956-57_33k_ES_PAN_21mic_H50_0404_fot_44B-36279_W_tif
  70
32
  10
466327.000
  20
4581263.500
  30
1017.414
  0
VERTEX
  8
PNOA-H_AMS_1956-57_33k_ES_PAN_21mic_H50_0404_fot_44B-36279_W_tif
  70
32
  10
466326.742
  20
4581263.383
  30
1017.424
  0
VERTEX
  8
PNOA-H_AMS_1956-57_33k_ES_PAN_21mic_H50_0404_fot_44B-36279_W_tif
  70
32
  10
466321.500
  20
4581261.000
  30
1017.631
  0
SEQEND
  8
PNOA-H_AMS_1956-57_33k_ES_PAN_21mic_H50_0404_fot_44B-36279_W_tif
  0
INSERT
  8
FeatureAttribs
  2
FEATURE
  41
1
  42
1
  43
1
  50
0
  10
458967.130
  20
4583255.250
 66
1
  0
ATTRIB
  8
FeatureAttribs
 70
0
  1
PNOA-H_AMS_1956-57_33k_ES_PAN_21mic_H50_0404_fot_44B-36281_W.tif
  2
NAME
  10
458967.130
  20
4583255.250
 40
33.56784
  0
SEQEND
  0
POLYLINE
  8
PNOA-H_AMS_1956-57_33k_ES_PAN_21mic_H50_0404_fot_44B-36281_W_tif
  70
9
  66
1
  0
VERTEX
  8
PNOA-H_AMS_1956-57_33k_ES_PAN_21mic_H50_0404_fot_44B-36281_W_tif
  70
32
  10
460404.500
  20
4581310.500
  30
1011.674
  0
VERTEX
  8
PNOA-H_AMS_1956-57_33k_ES_PAN_21mic_H50_0404_fot_44B-36281_W_tif
  70
32
  10
459461.000
  20
4580921.500
  30
1007.414
  0
VERTEX
  8
PNOA-H_AMS_1956-57_33k_ES_PAN_21mic_H50_0404_fot_44B-36281_W_tif
  70
32
  10
459211.129
  20
4580975.000
  30
1005.708
  0
VERTEX
  8
PNOA-H_AMS_1956-57_33k_ES_PAN_21mic_H50_0404_fot_44B-36281_W_tif
  70
32
  10
458519.331
  20
4581123.121
  30
1000.986
  0
VERTEX
  8
PNOA-H_AMS_1956-57_33k_ES_PAN_21mic_H50_0404_fot_44B-36281_W_tif
  70
32
  10
457420.657
  20
4581358.359
  30
993.486
  0
VERTEX
  8
PNOA-H_AMS_1956-57_33k_ES_PAN_21mic_H50_0404_fot_44B-36281_W_tif
  70
32
  10
457420.000
  20
4581358.500
  30
993.482
  0
VERTEX
  8
PNOA-H_AMS_1956-57_33k_ES_PAN_21mic_H50_0404_fot_44B-36281_W_tif
  70
32
  10
457530.500
  20
4585288.500
  30
946.767
  0
VERTEX
  8
PNOA-H_AMS_1956-57_33k_ES_PAN_21mic_H50_0404_fot_44B-36281_W_tif
  70
32
  10
458189.971
  20
4585375.770
  30
952.113
  0
VERTEX
  8
PNOA-H_AMS_1956-57_33k_ES_PAN_21mic_H50_0404_fot_44B-36281_W_tif
  70
32
  10
459797.500
  20
4585588.500
  30
965.145
  0
VERTEX
  8
PNOA-H_AMS_1956-57_33k_ES_PAN_21mic_H50_0404_fot_44B-36281_W_tif
  70
32
  10
459801.000
  20
4585589.000
  30
965.027
  0
VERTEX
  8
PNOA-H_AMS_1956-57_33k_ES_PAN_21mic_H50_0404_fot_44B-36281_W_tif
  70
32
  10
459801.314
  20
4585588.843
  30
965.018
  0
VERTEX
  8
PNOA-H_AMS_1956-57_33k_ES_PAN_21mic_H50_0404_fot_44B-36281_W_tif
  70
32
  10
459804.915
  20
4585587.043
  30
964.914
  0
VERTEX
  8
PNOA-H_AMS_1956-57_33k_ES_PAN_21mic_H50_0404_fot_44B-36281_W_tif
  70
32
  10
459811.000
  20
4585584.000
  30
964.739
  0
VERTEX
  8
PNOA-H_AMS_1956-57_33k_ES_PAN_21mic_H50_0404_fot_44B-36281_W_tif
  70
32
  10
460410.487
  20
4585221.560
  30
949.637
  0
VERTEX
  8
PNOA-H_AMS_1956-57_33k_ES_PAN_21mic_H50_0404_fot_44B-36281_W_tif
  70
32
  10
460509.000
  20
4585162.000
  30
947.155
  0
VERTEX
  8
PNOA-H_AMS_1956-57_33k_ES_PAN_21mic_H50_0404_fot_44B-36281_W_tif
  70
32
  10
460506.542
  20
4585064.500
  30
948.78
  0
VERTEX
  8
PNOA-H_AMS_1956-57_33k_ES_PAN_21mic_H50_0404_fot_44B-36281_W_tif
  70
32
  10
460412.000
  20
4581314.500
  30
1011.28
  0
VERTEX
  8
PNOA-H_AMS_1956-57_33k_ES_PAN_21mic_H50_0404_fot_44B-36281_W_tif
  70
32
  10
460411.506
  20
4581314.237
  30
1011.306
  0
VERTEX
  8
PNOA-H_AMS_1956-57_33k_ES_PAN_21mic_H50_0404_fot_44B-36281_W_tif
  70
32
  10
460408.847
  20
4581312.819
  30
1011.446
  0
VERTEX
  8
PNOA-H_AMS_1956-57_33k_ES_PAN_21mic_H50_0404_fot_44B-36281_W_tif
  70
32
  10
460404.500
  20
4581310.500
  30
1011.674
  0
SEQEND
  8
PNOA-H_AMS_1956-57_33k_ES_PAN_21mic_H50_0404_fot_44B-36281_W_tif
  0
INSERT
  8
FeatureAttribs
  2
FEATURE
  41
1
  42
1
  43
1
  50
0
  10
461925.464
  20
4583205.250
 66
1
  0
ATTRIB
  8
FeatureAttribs
 70
0
  1
PNOA-H_AMS_1956-57_33k_ES_PAN_21mic_H50_0404_fot_44B-36280_W.tif
  2
NAME
  10
461925.464
  20
4583205.250
 40
33.56784
  0
SEQEND
  0
POLYLINE
  8
PNOA-H_AMS_1956-57_33k_ES_PAN_21mic_H50_0404_fot_44B-36280_W_tif
  70
9
  66
1
  0
VERTEX
  8
PNOA-H_AMS_1956-57_33k_ES_PAN_21mic_H50_0404_fot_44B-36280_W_tif
  70
32
  10
463368.301
  20
4581271.880
  30
1017.753
  0
VERTEX
  8
PNOA-H_AMS_1956-57_33k_ES_PAN_21mic_H50_0404_fot_44B-36280_W_tif
  70
32
  10
462434.499
  20
4580884.500
  30
1027.894
  0
VERTEX
  8
PNOA-H_AMS_1956-57_33k_ES_PAN_21mic_H50_0404_fot_44B-36280_W_tif
  70
32
  10
460411.500
  20
4581314.000
  30
1011.314
  0
VERTEX
  8
PNOA-H_AMS_1956-57_33k_ES_PAN_21mic_H50_0404_fot_44B-36280_W_tif
  70
32
  10
460411.506
  20
4581314.237
  30
1011.31
  0
VERTEX
  8
PNOA-H_AMS_1956-57_33k_ES_PAN_21mic_H50_0404_fot_44B-36280_W_tif
  70
32
  10
460506.542
  20
4585064.500
  30
948.777
  0
VERTEX
  8
PNOA-H_AMS_1956-57_33k_ES_PAN_21mic_H50_0404_fot_44B-36280_W_tif
  70
32
  10
460509.000
  20
4585161.500
  30
947.159
  0
VERTEX
  8
PNOA-H_AMS_1956-57_33k_ES_PAN_21mic_H50_0404_fot_44B-36280_W_tif
  70
32
  10
460509.771
  20
4585161.638
  30
947.207
  0
VERTEX
  8
PNOA-H_AMS_1956-57_33k_ES_PAN_21mic_H50_0404_fot_44B-36280_W_tif
  70
32
  10
461255.000
  20
4585295.500
  30
993.331
  0
VERTEX
  8
PNOA-H_AMS_1956-57_33k_ES_PAN_21mic_H50_0404_fot_44B-36280_W_tif
  70
32
  10
461258.000
  20
4585296.000
  30
993.225
  0
VERTEX
  8
PNOA-H_AMS_1956-57_33k_ES_PAN_21mic_H50_0404_fot_44B-36280_W_tif
  70
32
  10
462333.128
  20
4585488.211
  30
992.756
  0
VERTEX
  8
PNOA-H_AMS_1956-57_33k_ES_PAN_21mic_H50_0404_fot_44B-36280_W_tif
  70
32
  10
462544.121
  20
4585525.932
  30
992.664
  0
VERTEX
  8
PNOA-H_AMS_1956-57_33k_ES_PAN_21mic_H50_0404_fot_44B-36280_W_tif
  70
32
  10
462544.500
  20
4585526.000
  30
992.664
  0
VERTEX
  8
PNOA-H_AMS_1956-57_33k_ES_PAN_21mic_H50_0404_fot_44B-36280_W_tif
  70
32
  10
463411.000
  20
4585043.000
  30
985.399
  0
VERTEX
  8
PNOA-H_AMS_1956-57_33k_ES_PAN_21mic_H50_0404_fot_44B-36280_W_tif
  70
32
  10
463410.995
  20
4585042.503
  30
985.404
  0
VERTEX
  8
PNOA-H_AMS_1956-57_33k_ES_PAN_21mic_H50_0404_fot_44B-36280_W_tif
  70
32
  10
463371.000
  20
4581273.000
  30
1017.724
  0
VERTEX
  8
PNOA-H_AMS_1956-57_33k_ES_PAN_21mic_H50_0404_fot_44B-36280_W_tif
  70
32
  10
463368.301
  20
4581271.880
  30
1017.753
  0
SEQEND
  8
PNOA-H_AMS_1956-57_33k_ES_PAN_21mic_H50_0404_fot_44B-36280_W_tif
  0
INSERT
  8
FeatureAttribs
  2
FEATURE
  41
1
  42
1
  43
1
  50
0
  10
461255.178
  20
4587372.750
 66
1
  0
ATTRIB
  8
FeatureAttribs
 70
0
  1
PNOA-H_AMS_1956-57_33k_ES_PAN_21mic_H50_0404_fot_43B-29634_E.tif
  2
NAME
  10
461255.178
  20
4587372.750
 40
33.56784
  0
SEQEND
  0
POLYLINE
  8
PNOA-H_AMS_1956-57_33k_ES_PAN_21mic_H50_0404_fot_43B-29634_E_tif
  70
9
  66
1
  0
VERTEX
  8
PNOA-H_AMS_1956-57_33k_ES_PAN_21mic_H50_0404_fot_43B-29634_E_tif
  70
32
  10
460795.851
  20
4589571.600
  30
926.362
  0
VERTEX
  8
PNOA-H_AMS_1956-57_33k_ES_PAN_21mic_H50_0404_fot_43B-29634_E_tif
  70
32
  10
461236.500
  20
4589565.000
  30
926.315
  0
VERTEX
  8
PNOA-H_AMS_1956-57_33k_ES_PAN_21mic_H50_0404_fot_43B-29634_E_tif
  70
32
  10
461245.549
  20
4589565.000
  30
926.313
  0
VERTEX
  8
PNOA-H_AMS_1956-57_33k_ES_PAN_21mic_H50_0404_fot_43B-29634_E_tif
  70
32
  10
461260.000
  20
4589565.000
  30
926.308
  0
VERTEX
  8
PNOA-H_AMS_1956-57_33k_ES_PAN_21mic_H50_0404_fot_43B-29634_E_tif
  70
32
  10
462744.500
  20
4589543.500
  30
933.438
  0
VERTEX
  8
PNOA-H_AMS_1956-57_33k_ES_PAN_21mic_H50_0404_fot_43B-29634_E_tif
  70
32
  10
462753.001
  20
4589543.053
  30
933.524
  0
VERTEX
  8
PNOA-H_AMS_1956-57_33k_ES_PAN_21mic_H50_0404_fot_43B-29634_E_tif
  70
32
  10
462753.026
  20
4589543.051
  30
933.524
  0
VERTEX
  8
PNOA-H_AMS_1956-57_33k_ES_PAN_21mic_H50_0404_fot_43B-29634_E_tif
  70
32
  10
462754.000
  20
4589543.000
  30
933.534
  0
VERTEX
  8
PNOA-H_AMS_1956-57_33k_ES_PAN_21mic_H50_0404_fot_43B-29634_E_tif
  70
32
  10
462756.000
  20
4589541.500
  30
933.542
  0
VERTEX
  8
PNOA-H_AMS_1956-57_33k_ES_PAN_21mic_H50_0404_fot_43B-29634_E_tif
  70
32
  10
462755.974
  20
4589541.017
  30
933.549
  0
VERTEX
  8
PNOA-H_AMS_1956-57_33k_ES_PAN_21mic_H50_0404_fot_43B-29634_E_tif
  70
32
  10
462544.000
  20
4585526.000
  30
992.666
  0
VERTEX
  8
PNOA-H_AMS_1956-57_33k_ES_PAN_21mic_H50_0404_fot_43B-29634_E_tif
  70
32
  10
462333.128
  20
4585488.211
  30
987.948
  0
VERTEX
  8
PNOA-H_AMS_1956-57_33k_ES_PAN_21mic_H50_0404_fot_43B-29634_E_tif
  70
32
  10
460510.000
  20
4585161.500
  30
947.16
  0
VERTEX
  8
PNOA-H_AMS_1956-57_33k_ES_PAN_21mic_H50_0404_fot_43B-29634_E_tif
  70
32
  10
460509.771
  20
4585161.638
  30
947.166
  0
VERTEX
  8
PNOA-H_AMS_1956-57_33k_ES_PAN_21mic_H50_0404_fot_43B-29634_E_tif
  70
32
  10
460410.487
  20
4585221.560
  30
949.667
  0
VERTEX
  8
PNOA-H_AMS_1956-57_33k_ES_PAN_21mic_H50_0404_fot_43B-29634_E_tif
  70
32
  10
459804.915
  20
4585587.043
  30
964.92
  0
VERTEX
  8
PNOA-H_AMS_1956-57_33k_ES_PAN_21mic_H50_0404_fot_43B-29634_E_tif
  70
32
  10
459802.500
  20
4585588.500
  30
964.981
  0
VERTEX
  8
PNOA-H_AMS_1956-57_33k_ES_PAN_21mic_H50_0404_fot_43B-29634_E_tif
  70
32
  10
459809.010
  20
4585763.539
  30
963.304
  0
VERTEX
  8
PNOA-H_AMS_1956-57_33k_ES_PAN_21mic_H50_0404_fot_43B-29634_E_tif
  70
32
  10
459951.000
  20
4589581.500
  30
926.735
  0
VERTEX
  8
PNOA-H_AMS_1956-57_33k_ES_PAN_21mic_H50_0404_fot_43B-29634_E_tif
  70
32
  10
459951.499
  20
4589583.993
  30
926.547
  0
VERTEX
  8
PNOA-H_AMS_1956-57_33k_ES_PAN_21mic_H50_0404_fot_43B-29634_E_tif
  70
32
  10
459951.500
  20
4589584.000
  30
926.547
  0
VERTEX
  8
PNOA-H_AMS_1956-57_33k_ES_PAN_21mic_H50_0404_fot_43B-29634_E_tif
  70
32
  10
459968.000
  20
4589584.000
  30
926.45
  0
VERTEX
  8
PNOA-H_AMS_1956-57_33k_ES_PAN_21mic_H50_0404_fot_43B-29634_E_tif
  70
32
  10
460795.851
  20
4589571.600
  30
926.362
  0
SEQEND
  8
PNOA-H_AMS_1956-57_33k_ES_PAN_21mic_H50_0404_fot_43B-29634_E_tif
  0
INSERT
  8
FeatureAttribs
  2
FEATURE
  41
1
  42
1
  43
1
  50
0
  10
458470.142
  20
4587459.000
 66
1
  0
ATTRIB
  8
FeatureAttribs
 70
0
  1
PNOA-H_AMS_1956-57_33k_ES_PAN_21mic_H50_0404_fot_43B-29633_E.tif
  2
NAME
  10
458470.142
  20
4587459.000
 40
33.56784
  0
SEQEND
  0
POLYLINE
  8
PNOA-H_AMS_1956-57_33k_ES_PAN_21mic_H50_0404_fot_43B-29633_E_tif
  70
9
  66
1
  0
VERTEX
  8
PNOA-H_AMS_1956-57_33k_ES_PAN_21mic_H50_0404_fot_43B-29633_E_tif
  70
32
  10
457530.417
  20
4585288.555
  30
946.76
  0
VERTEX
  8
PNOA-H_AMS_1956-57_33k_ES_PAN_21mic_H50_0404_fot_43B-29633_E_tif
  70
32
  10
457530.000
  20
4585288.500
  30
946.757
  0
VERTEX
  8
PNOA-H_AMS_1956-57_33k_ES_PAN_21mic_H50_0404_fot_43B-29633_E_tif
  70
32
  10
457012.000
  20
4585630.500
  30
944.032
  0
VERTEX
  8
PNOA-H_AMS_1956-57_33k_ES_PAN_21mic_H50_0404_fot_43B-29633_E_tif
  70
32
  10
457012.015
  20
4585630.990
  30
944.033
  0
VERTEX
  8
PNOA-H_AMS_1956-57_33k_ES_PAN_21mic_H50_0404_fot_43B-29633_E_tif
  70
32
  10
457134.500
  20
4589627.500
  30
949.45
  0
VERTEX
  8
PNOA-H_AMS_1956-57_33k_ES_PAN_21mic_H50_0404_fot_43B-29633_E_tif
  70
32
  10
457134.500
  20
4589629.499
  30
949.42
  0
VERTEX
  8
PNOA-H_AMS_1956-57_33k_ES_PAN_21mic_H50_0404_fot_43B-29633_E_tif
  70
32
  10
459888.000
  20
4589624.500
  30
922.98
  0
VERTEX
  8
PNOA-H_AMS_1956-57_33k_ES_PAN_21mic_H50_0404_fot_43B-29633_E_tif
  70
32
  10
459888.004
  20
4589624.498
  30
922.98
  0
VERTEX
  8
PNOA-H_AMS_1956-57_33k_ES_PAN_21mic_H50_0404_fot_43B-29633_E_tif
  70
32
  10
459951.500
  20
4589584.000
  30
926.547
  0
VERTEX
  8
PNOA-H_AMS_1956-57_33k_ES_PAN_21mic_H50_0404_fot_43B-29633_E_tif
  70
32
  10
459951.499
  20
4589583.993
  30
926.547
  0
VERTEX
  8
PNOA-H_AMS_1956-57_33k_ES_PAN_21mic_H50_0404_fot_43B-29633_E_tif
  70
32
  10
459809.010
  20
4585763.539
  30
963.299
  0
VERTEX
  8
PNOA-H_AMS_1956-57_33k_ES_PAN_21mic_H50_0404_fot_43B-29633_E_tif
  70
32
  10
459802.500
  20
4585589.000
  30
964.979
  0
VERTEX
  8
PNOA-H_AMS_1956-57_33k_ES_PAN_21mic_H50_0404_fot_43B-29633_E_tif
  70
32
  10
459801.314
  20
4585588.843
  30
964.969
  0
VERTEX
  8
PNOA-H_AMS_1956-57_33k_ES_PAN_21mic_H50_0404_fot_43B-29633_E_tif
  70
32
  10
458189.971
  20
4585375.770
  30
952.049
  0
VERTEX
  8
PNOA-H_AMS_1956-57_33k_ES_PAN_21mic_H50_0404_fot_43B-29633_E_tif
  70
32
  10
457530.417
  20
4585288.555
  30
946.76
  0
SEQEND
  8
PNOA-H_AMS_1956-57_33k_ES_PAN_21mic_H50_0404_fot_43B-29633_E_tif
  0
INSERT
  8
FeatureAttribs
  2
FEATURE
  41
1
  42
1
  43
1
  50
0
  10
464038.377
  20
4587291.750
 66
1
  0
ATTRIB
  8
FeatureAttribs
 70
0
  1
PNOA-H_AMS_1956-57_33k_ES_PAN_21mic_H50_0404_fot_43B-29635_E.tif
  2
NAME
  10
464038.377
  20
4587291.750
 40
33.56784
  0
SEQEND
  0
POLYLINE
  8
PNOA-H_AMS_1956-57_33k_ES_PAN_21mic_H50_0404_fot_43B-29635_E_tif
  70
9
  66
1
  0
VERTEX
  8
PNOA-H_AMS_1956-57_33k_ES_PAN_21mic_H50_0404_fot_43B-29635_E_tif
  70
32
  10
465389.603
  20
4585486.299
  30
960.632
  0
VERTEX
  8
PNOA-H_AMS_1956-57_33k_ES_PAN_21mic_H50_0404_fot_43B-29635_E_tif
  70
32
  10
463411.000
  20
4585042.500
  30
985.403
  0
VERTEX
  8
PNOA-H_AMS_1956-57_33k_ES_PAN_21mic_H50_0404_fot_43B-29635_E_tif
  70
32
  10
463410.995
  20
4585042.503
  30
985.403
  0
VERTEX
  8
PNOA-H_AMS_1956-57_33k_ES_PAN_21mic_H50_0404_fot_43B-29635_E_tif
  70
32
  10
462544.121
  20
4585525.932
  30
992.665
  0
VERTEX
  8
PNOA-H_AMS_1956-57_33k_ES_PAN_21mic_H50_0404_fot_43B-29635_E_tif
  70
32
  10
462544.000
  20
4585526.000
  30
992.666
  0
VERTEX
  8
PNOA-H_AMS_1956-57_33k_ES_PAN_21mic_H50_0404_fot_43B-29635_E_tif
  70
32
  10
462756.000
  20
4589532.500
  30
933.427
  0
VERTEX
  8
PNOA-H_AMS_1956-57_33k_ES_PAN_21mic_H50_0404_fot_43B-29635_E_tif
  70
32
  10
462756.000
  20
4589541.000
  30
933.54
  0
VERTEX
  8
PNOA-H_AMS_1956-57_33k_ES_PAN_21mic_H50_0404_fot_43B-29635_E_tif
  70
32
  10
465480.574
  20
4589406.785
  30
991.37
  0
VERTEX
  8
PNOA-H_AMS_1956-57_33k_ES_PAN_21mic_H50_0404_fot_43B-29635_E_tif
  70
32
  10
465496.500
  20
4589406.000
  30
991.708
  0
VERTEX
  8
PNOA-H_AMS_1956-57_33k_ES_PAN_21mic_H50_0404_fot_43B-29635_E_tif
  70
32
  10
465390.500
  20
4585486.500
  30
960.621
  0
VERTEX
  8
PNOA-H_AMS_1956-57_33k_ES_PAN_21mic_H50_0404_fot_43B-29635_E_tif
  70
32
  10
465389.603
  20
4585486.299
  30
960.632
  0
SEQEND
  8
PNOA-H_AMS_1956-57_33k_ES_PAN_21mic_H50_0404_fot_43B-29635_E_tif
  0
INSERT
  8
FeatureAttribs
  2
FEATURE
  41
1
  42
1
  43
1
  50
0
  10
460942.459
  20
4578868.500
 66
1
  0
ATTRIB
  8
FeatureAttribs
 70
0
  1
PNOA-H_AMS_1956-57_33k_ES_PAN_21mic_H50_0404_fot_45B-36163_E.tif
  2
NAME
  10
460942.459
  20
4578868.500
 40
33.56784
  0
SEQEND
  0
POLYLINE
  8
PNOA-H_AMS_1956-57_33k_ES_PAN_21mic_H50_0404_fot_45B-36163_E_tif
  70
9
  66
1
  0
VERTEX
  8
PNOA-H_AMS_1956-57_33k_ES_PAN_21mic_H50_0404_fot_45B-36163_E_tif
  70
32
  10
462416.452
  20
4576877.340
  30
1041.104
  0
VERTEX
  8
PNOA-H_AMS_1956-57_33k_ES_PAN_21mic_H50_0404_fot_45B-36163_E_tif
  70
32
  10
460857.500
  20
4576423.000
  30
1067.532
  0
VERTEX
  8
PNOA-H_AMS_1956-57_33k_ES_PAN_21mic_H50_0404_fot_45B-36163_E_tif
  70
32
  10
460856.655
  20
4576423.218
  30
1067.562
  0
VERTEX
  8
PNOA-H_AMS_1956-57_33k_ES_PAN_21mic_H50_0404_fot_45B-36163_E_tif
  70
32
  10
460850.196
  20
4576424.885
  30
1067.792
  0
VERTEX
  8
PNOA-H_AMS_1956-57_33k_ES_PAN_21mic_H50_0404_fot_45B-36163_E_tif
  70
32
  10
460842.000
  20
4576427.000
  30
1068.083
  0
VERTEX
  8
PNOA-H_AMS_1956-57_33k_ES_PAN_21mic_H50_0404_fot_45B-36163_E_tif
  70
32
  10
459973.494
  20
4576709.601
  30
1067.506
  0
VERTEX
  8
PNOA-H_AMS_1956-57_33k_ES_PAN_21mic_H50_0404_fot_45B-36163_E_tif
  70
32
  10
459457.500
  20
4576877.500
  30
1067.163
  0
VERTEX
  8
PNOA-H_AMS_1956-57_33k_ES_PAN_21mic_H50_0404_fot_45B-36163_E_tif
  70
32
  10
459461.000
  20
4580921.500
  30
1007.428
  0
VERTEX
  8
PNOA-H_AMS_1956-57_33k_ES_PAN_21mic_H50_0404_fot_45B-36163_E_tif
  70
32
  10
459461.000
  20
4580922.000
  30
1007.42
  0
VERTEX
  8
PNOA-H_AMS_1956-57_33k_ES_PAN_21mic_H50_0404_fot_45B-36163_E_tif
  70
32
  10
460408.847
  20
4581312.819
  30
1011.361
  0
VERTEX
  8
PNOA-H_AMS_1956-57_33k_ES_PAN_21mic_H50_0404_fot_45B-36163_E_tif
  70
32
  10
460410.500
  20
4581313.500
  30
1011.368
  0
VERTEX
  8
PNOA-H_AMS_1956-57_33k_ES_PAN_21mic_H50_0404_fot_45B-36163_E_tif
  70
32
  10
460411.500
  20
4581314.000
  30
1011.314
  0
VERTEX
  8
PNOA-H_AMS_1956-57_33k_ES_PAN_21mic_H50_0404_fot_45B-36163_E_tif
  70
32
  10
462434.499
  20
4580884.500
  30
1027.894
  0
VERTEX
  8
PNOA-H_AMS_1956-57_33k_ES_PAN_21mic_H50_0404_fot_45B-36163_E_tif
  70
32
  10
462417.000
  20
4576877.500
  30
1041.094
  0
VERTEX
  8
PNOA-H_AMS_1956-57_33k_ES_PAN_21mic_H50_0404_fot_45B-36163_E_tif
  70
32
  10
462416.452
  20
4576877.340
  30
1041.104
  0
SEQEND
  8
PNOA-H_AMS_1956-57_33k_ES_PAN_21mic_H50_0404_fot_45B-36163_E_tif
  0
INSERT
  8
FeatureAttribs
  2
FEATURE
  41
1
  42
1
  43
1
  50
0
  10
463913.808
  20
4578859.750
 66
1
  0
ATTRIB
  8
FeatureAttribs
 70
0
  1
PNOA-H_AMS_1956-57_33k_ES_PAN_21mic_H50_0404_fot_45B-36164_E.tif
  2
NAME
  10
463913.808
  20
4578859.750
 40
33.56784
  0
SEQEND
  0
POLYLINE
  8
PNOA-H_AMS_1956-57_33k_ES_PAN_21mic_H50_0404_fot_45B-36164_E_tif
  70
9
  66
1
  0
VERTEX
  8
PNOA-H_AMS_1956-57_33k_ES_PAN_21mic_H50_0404_fot_45B-36164_E_tif
  70
32
  10
463479.323
  20
4576446.572
  30
1067.084
  0
VERTEX
  8
PNOA-H_AMS_1956-57_33k_ES_PAN_21mic_H50_0404_fot_45B-36164_E_tif
  70
32
  10
463479.000
  20
4576446.500
  30
1067.083
  0
VERTEX
  8
PNOA-H_AMS_1956-57_33k_ES_PAN_21mic_H50_0404_fot_45B-36164_E_tif
  70
32
  10
462423.672
  20
4576874.792
  30
1041.258
  0
VERTEX
  8
PNOA-H_AMS_1956-57_33k_ES_PAN_21mic_H50_0404_fot_45B-36164_E_tif
  70
32
  10
462417.000
  20
4576877.500
  30
1041.094
  0
VERTEX
  8
PNOA-H_AMS_1956-57_33k_ES_PAN_21mic_H50_0404_fot_45B-36164_E_tif
  70
32
  10
462434.499
  20
4580884.500
  30
1027.88
  0
VERTEX
  8
PNOA-H_AMS_1956-57_33k_ES_PAN_21mic_H50_0404_fot_45B-36164_E_tif
  70
32
  10
462434.500
  20
4580885.000
  30
1027.878
  0
VERTEX
  8
PNOA-H_AMS_1956-57_33k_ES_PAN_21mic_H50_0404_fot_45B-36164_E_tif
  70
32
  10
463306.000
  20
4581246.500
  30
1018.438
  0
VERTEX
  8
PNOA-H_AMS_1956-57_33k_ES_PAN_21mic_H50_0404_fot_45B-36164_E_tif
  70
32
  10
463307.500
  20
4581247.000
  30
1018.395
  0
VERTEX
  8
PNOA-H_AMS_1956-57_33k_ES_PAN_21mic_H50_0404_fot_45B-36164_E_tif
  70
32
  10
463365.000
  20
4581271.000
  30
1017.734
  0
VERTEX
  8
PNOA-H_AMS_1956-57_33k_ES_PAN_21mic_H50_0404_fot_45B-36164_E_tif
  70
32
  10
463368.301
  20
4581271.880
  30
1017.73
  0
VERTEX
  8
PNOA-H_AMS_1956-57_33k_ES_PAN_21mic_H50_0404_fot_45B-36164_E_tif
  70
32
  10
463371.854
  20
4581272.828
  30
1017.726
  0
VERTEX
  8
PNOA-H_AMS_1956-57_33k_ES_PAN_21mic_H50_0404_fot_45B-36164_E_tif
  70
32
  10
463372.500
  20
4581273.000
  30
1017.725
  0
VERTEX
  8
PNOA-H_AMS_1956-57_33k_ES_PAN_21mic_H50_0404_fot_45B-36164_E_tif
  70
32
  10
464902.875
  20
4580964.375
  30
1010.732
  0
VERTEX
  8
PNOA-H_AMS_1956-57_33k_ES_PAN_21mic_H50_0404_fot_45B-36164_E_tif
  70
32
  10
465413.000
  20
4580861.500
  30
1008.4
  0
VERTEX
  8
PNOA-H_AMS_1956-57_33k_ES_PAN_21mic_H50_0404_fot_45B-36164_E_tif
  70
32
  10
465391.000
  20
4576873.000
  30
1071.718
  0
VERTEX
  8
PNOA-H_AMS_1956-57_33k_ES_PAN_21mic_H50_0404_fot_45B-36164_E_tif
  70
32
  10
465377.394
  20
4576869.965
  30
1071.685
  0
VERTEX
  8
PNOA-H_AMS_1956-57_33k_ES_PAN_21mic_H50_0404_fot_45B-36164_E_tif
  70
32
  10
463973.564
  20
4576556.820
  30
1068.282
  0
VERTEX
  8
PNOA-H_AMS_1956-57_33k_ES_PAN_21mic_H50_0404_fot_45B-36164_E_tif
  70
32
  10
463479.323
  20
4576446.572
  30
1067.084
  0
SEQEND
  8
PNOA-H_AMS_1956-57_33k_ES_PAN_21mic_H50_0404_fot_45B-36164_E_tif
  0
INSERT
  8
FeatureAttribs
  2
FEATURE
  41
1
  42
1
  43
1
  50
0
  10
464821.899
  20
4576356.658
 66
1
  0
ATTRIB
  8
FeatureAttribs
 70
0
  1
PNOA-H_AMS_1956-57_33k_ES_PAN_21mic_H50_0432_fot_46B-29799_E.tif
  2
NAME
  10
464821.899
  20
4576356.658
 40
33.56784
  0
SEQEND
  0
POLYLINE
  8
PNOA-H_AMS_1956-57_33k_ES_PAN_21mic_H50_0432_fot_46B-29799_E_tif
  70
9
  66
1
  0
VERTEX
  8
PNOA-H_AMS_1956-57_33k_ES_PAN_21mic_H50_0432_fot_46B-29799_E_tif
  70
32
  10
466163.996
  20
4576488.502
  30
1073.063
  0
VERTEX
  8
PNOA-H_AMS_1956-57_33k_ES_PAN_21mic_H50_0432_fot_46B-29799_E_tif
  70
32
  10
466158.786
  20
4575840.316
  30
1099.954
  0
VERTEX
  8
PNOA-H_AMS_1956-57_33k_ES_PAN_21mic_H50_0432_fot_46B-29799_E_tif
  70
32
  10
463488.556
  20
4575853.141
  30
1091.605
  0
VERTEX
  8
PNOA-H_AMS_1956-57_33k_ES_PAN_21mic_H50_0432_fot_46B-29799_E_tif
  70
32
  10
463488.495
  20
4575853.141
  30
1091.605
  0
VERTEX
  8
PNOA-H_AMS_1956-57_33k_ES_PAN_21mic_H50_0432_fot_46B-29799_E_tif
  70
32
  10
463479.500
  20
4576446.500
  30
1067.068
  0
VERTEX
  8
PNOA-H_AMS_1956-57_33k_ES_PAN_21mic_H50_0432_fot_46B-29799_E_tif
  70
32
  10
463973.564
  20
4576556.820
  30
1068.675
  0
VERTEX
  8
PNOA-H_AMS_1956-57_33k_ES_PAN_21mic_H50_0432_fot_46B-29799_E_tif
  70
32
  10
465351.500
  20
4576864.500
  30
1073.158
  0
VERTEX
  8
PNOA-H_AMS_1956-57_33k_ES_PAN_21mic_H50_0432_fot_46B-29799_E_tif
  70
32
  10
465353.500
  20
4576865.000
  30
1073.129
  0
VERTEX
  8
PNOA-H_AMS_1956-57_33k_ES_PAN_21mic_H50_0432_fot_46B-29799_E_tif
  70
32
  10
465377.394
  20
4576869.965
  30
1072.227
  0
VERTEX
  8
PNOA-H_AMS_1956-57_33k_ES_PAN_21mic_H50_0432_fot_46B-29799_E_tif
  70
32
  10
465391.295
  20
4576872.853
  30
1071.702
  0
VERTEX
  8
PNOA-H_AMS_1956-57_33k_ES_PAN_21mic_H50_0432_fot_46B-29799_E_tif
  70
32
  10
465392.000
  20
4576873.000
  30
1071.675
  0
VERTEX
  8
PNOA-H_AMS_1956-57_33k_ES_PAN_21mic_H50_0432_fot_46B-29799_E_tif
  70
32
  10
466164.000
  20
4576489.000
  30
1073.043
  0
VERTEX
  8
PNOA-H_AMS_1956-57_33k_ES_PAN_21mic_H50_0432_fot_46B-29799_E_tif
  70
32
  10
466163.996
  20
4576488.502
  30
1073.063
  0
SEQEND
  8
PNOA-H_AMS_1956-57_33k_ES_PAN_21mic_H50_0432_fot_46B-29799_E_tif
  0
INSERT
  8
FeatureAttribs
  2
FEATURE
  41
1
  42
1
  43
1
  50
0
  10
459560.850
  20
4576372.236
 66
1
  0
ATTRIB
  8
FeatureAttribs
 70
0
  1
PNOA-H_AMS_1956-57_33k_ES_PAN_21mic_H50_0432_fot_46B-29801_E.tif
  2
NAME
  10
459560.850
  20
4576372.236
 40
33.56784
  0
SEQEND
  0
POLYLINE
  8
PNOA-H_AMS_1956-57_33k_ES_PAN_21mic_H50_0432_fot_46B-29801_E_tif
  70
9
  66
1
  0
VERTEX
  8
PNOA-H_AMS_1956-57_33k_ES_PAN_21mic_H50_0432_fot_46B-29801_E_tif
  70
32
  10
460856.000
  20
4576423.000
  30
1067.57
  0
VERTEX
  8
PNOA-H_AMS_1956-57_33k_ES_PAN_21mic_H50_0432_fot_46B-29801_E_tif
  70
32
  10
460861.662
  20
4575866.973
  30
1081.418
  0
VERTEX
  8
PNOA-H_AMS_1956-57_33k_ES_PAN_21mic_H50_0432_fot_46B-29801_E_tif
  70
32
  10
460861.275
  20
4575866.975
  30
0
  0
VERTEX
  8
PNOA-H_AMS_1956-57_33k_ES_PAN_21mic_H50_0432_fot_46B-29801_E_tif
  70
32
  10
459904.996
  20
4575872.027
  30
0
  0
VERTEX
  8
PNOA-H_AMS_1956-57_33k_ES_PAN_21mic_H50_0432_fot_46B-29801_E_tif
  70
32
  10
458258.368
  20
4575881.518
  30
1100.199
  0
VERTEX
  8
PNOA-H_AMS_1956-57_33k_ES_PAN_21mic_H50_0432_fot_46B-29801_E_tif
  70
32
  10
458266.000
  20
4576431.000
  30
1092.043
  0
VERTEX
  8
PNOA-H_AMS_1956-57_33k_ES_PAN_21mic_H50_0432_fot_46B-29801_E_tif
  70
32
  10
458266.399
  20
4576431.150
  30
1092.035
  0
VERTEX
  8
PNOA-H_AMS_1956-57_33k_ES_PAN_21mic_H50_0432_fot_46B-29801_E_tif
  70
32
  10
459455.000
  20
4576877.000
  30
1067.298
  0
VERTEX
  8
PNOA-H_AMS_1956-57_33k_ES_PAN_21mic_H50_0432_fot_46B-29801_E_tif
  70
32
  10
459456.500
  20
4576877.500
  30
1067.208
  0
VERTEX
  8
PNOA-H_AMS_1956-57_33k_ES_PAN_21mic_H50_0432_fot_46B-29801_E_tif
  70
32
  10
459457.036
  20
4576877.326
  30
1067.208
  0
VERTEX
  8
PNOA-H_AMS_1956-57_33k_ES_PAN_21mic_H50_0432_fot_46B-29801_E_tif
  70
32
  10
459973.494
  20
4576709.601
  30
1067.342
  0
VERTEX
  8
PNOA-H_AMS_1956-57_33k_ES_PAN_21mic_H50_0432_fot_46B-29801_E_tif
  70
32
  10
460850.196
  20
4576424.885
  30
1067.568
  0
VERTEX
  8
PNOA-H_AMS_1956-57_33k_ES_PAN_21mic_H50_0432_fot_46B-29801_E_tif
  70
32
  10
460856.000
  20
4576423.000
  30
1067.57
  0
SEQEND
  8
PNOA-H_AMS_1956-57_33k_ES_PAN_21mic_H50_0432_fot_46B-29801_E_tif
  0
INSERT
  8
FeatureAttribs
  2
FEATURE
  41
1
  42
1
  43
1
  50
0
  10
462168.465
  20
4576365.320
 66
1
  0
ATTRIB
  8
FeatureAttribs
 70
0
  1
PNOA-H_AMS_1956-57_33k_ES_PAN_21mic_H50_0432_fot_46B-29800_E.tif
  2
NAME
  10
462168.465
  20
4576365.320
 40
33.56784
  0
SEQEND
  0
POLYLINE
  8
PNOA-H_AMS_1956-57_33k_ES_PAN_21mic_H50_0432_fot_46B-29800_E_tif
  70
9
  66
1
  0
VERTEX
  8
PNOA-H_AMS_1956-57_33k_ES_PAN_21mic_H50_0432_fot_46B-29800_E_tif
  70
32
  10
463479.500
  20
4576446.500
  30
1067.068
  0
VERTEX
  8
PNOA-H_AMS_1956-57_33k_ES_PAN_21mic_H50_0432_fot_46B-29800_E_tif
  70
32
  10
463488.556
  20
4575853.141
  30
1091.632
  0
VERTEX
  8
PNOA-H_AMS_1956-57_33k_ES_PAN_21mic_H50_0432_fot_46B-29800_E_tif
  70
32
  10
463488.495
  20
4575853.141
  30
1091.641
  0
VERTEX
  8
PNOA-H_AMS_1956-57_33k_ES_PAN_21mic_H50_0432_fot_46B-29800_E_tif
  70
32
  10
463391.528
  20
4575853.607
  30
0
  0
VERTEX
  8
PNOA-H_AMS_1956-57_33k_ES_PAN_21mic_H50_0432_fot_46B-29800_E_tif
  70
32
  10
460861.662
  20
4575866.973
  30
1080.851
  0
VERTEX
  8
PNOA-H_AMS_1956-57_33k_ES_PAN_21mic_H50_0432_fot_46B-29800_E_tif
  70
32
  10
460861.275
  20
4575866.975
  30
1080.7
  0
VERTEX
  8
PNOA-H_AMS_1956-57_33k_ES_PAN_21mic_H50_0432_fot_46B-29800_E_tif
  70
32
  10
460856.000
  20
4576384.000
  30
1067.714
  0
VERTEX
  8
PNOA-H_AMS_1956-57_33k_ES_PAN_21mic_H50_0432_fot_46B-29800_E_tif
  70
32
  10
460856.000
  20
4576423.000
  30
1067.57
  0
VERTEX
  8
PNOA-H_AMS_1956-57_33k_ES_PAN_21mic_H50_0432_fot_46B-29800_E_tif
  70
32
  10
460856.655
  20
4576423.218
  30
1067.554
  0
VERTEX
  8
PNOA-H_AMS_1956-57_33k_ES_PAN_21mic_H50_0432_fot_46B-29800_E_tif
  70
32
  10
460859.000
  20
4576424.000
  30
1067.496
  0
VERTEX
  8
PNOA-H_AMS_1956-57_33k_ES_PAN_21mic_H50_0432_fot_46B-29800_E_tif
  70
32
  10
462416.000
  20
4576877.500
  30
1041.086
  0
VERTEX
  8
PNOA-H_AMS_1956-57_33k_ES_PAN_21mic_H50_0432_fot_46B-29800_E_tif
  70
32
  10
462416.452
  20
4576877.340
  30
1041.091
  0
VERTEX
  8
PNOA-H_AMS_1956-57_33k_ES_PAN_21mic_H50_0432_fot_46B-29800_E_tif
  70
32
  10
462423.672
  20
4576874.792
  30
1041.183
  0
VERTEX
  8
PNOA-H_AMS_1956-57_33k_ES_PAN_21mic_H50_0432_fot_46B-29800_E_tif
  70
32
  10
462433.000
  20
4576871.500
  30
1041.301
  0
VERTEX
  8
PNOA-H_AMS_1956-57_33k_ES_PAN_21mic_H50_0432_fot_46B-29800_E_tif
  70
32
  10
463479.323
  20
4576446.572
  30
1067.063
  0
VERTEX
  8
PNOA-H_AMS_1956-57_33k_ES_PAN_21mic_H50_0432_fot_46B-29800_E_tif
  70
32
  10
463479.500
  20
4576446.500
  30
1067.068
  0
SEQEND
  8
PNOA-H_AMS_1956-57_33k_ES_PAN_21mic_H50_0432_fot_46B-29800_E_tif
  0
INSERT
  8
FeatureAttribs
  2
FEATURE
  41
1
  42
1
  43
1
  50
0
  10
467679.170
  20
4583213.500
 66
1
  0
ATTRIB
  8
FeatureAttribs
 70
0
  1
PNOA-H_AMS_1956-57_33k_ES_PAN_21mic_H50_0404_fot_44B-36278_W.tif
  2
NAME
  10
467679.170
  20
4583213.500
 40
33.56784
  0
SEQEND
  0
POLYLINE
  8
PNOA-H_AMS_1956-57_33k_ES_PAN_21mic_H50_0404_fot_44B-36278_W_tif
  70
9
  66
1
  0
VERTEX
  8
PNOA-H_AMS_1956-57_33k_ES_PAN_21mic_H50_0404_fot_44B-36278_W_tif
  70
32
  10
469150.287
  20
4581276.401
  30
1043.37
  0
VERTEX
  8
PNOA-H_AMS_1956-57_33k_ES_PAN_21mic_H50_0404_fot_44B-36278_W_tif
  70
32
  10
468414.000
  20
4580933.000
  30
1064.048
  0
VERTEX
  8
PNOA-H_AMS_1956-57_33k_ES_PAN_21mic_H50_0404_fot_44B-36278_W_tif
  70
32
  10
468413.627
  20
4580933.059
  30
1064.04
  0
VERTEX
  8
PNOA-H_AMS_1956-57_33k_ES_PAN_21mic_H50_0404_fot_44B-36278_W_tif
  70
32
  10
466342.000
  20
4581261.000
  30
1017.164
  0
VERTEX
  8
PNOA-H_AMS_1956-57_33k_ES_PAN_21mic_H50_0404_fot_44B-36278_W_tif
  70
32
  10
466327.000
  20
4581263.500
  30
1017.414
  0
VERTEX
  8
PNOA-H_AMS_1956-57_33k_ES_PAN_21mic_H50_0404_fot_44B-36278_W_tif
  70
32
  10
466326.500
  20
4581265.500
  30
1017.351
  0
VERTEX
  8
PNOA-H_AMS_1956-57_33k_ES_PAN_21mic_H50_0404_fot_44B-36278_W_tif
  70
32
  10
466197.000
  20
4585039.000
  30
980.157
  0
VERTEX
  8
PNOA-H_AMS_1956-57_33k_ES_PAN_21mic_H50_0404_fot_44B-36278_W_tif
  70
32
  10
466197.118
  20
4585039.027
  30
980.157
  0
VERTEX
  8
PNOA-H_AMS_1956-57_33k_ES_PAN_21mic_H50_0404_fot_44B-36278_W_tif
  70
32
  10
466197.355
  20
4585039.080
  30
980.156
  0
VERTEX
  8
PNOA-H_AMS_1956-57_33k_ES_PAN_21mic_H50_0404_fot_44B-36278_W_tif
  70
32
  10
468210.500
  20
4585493.500
  30
973.677
  0
VERTEX
  8
PNOA-H_AMS_1956-57_33k_ES_PAN_21mic_H50_0404_fot_44B-36278_W_tif
  70
32
  10
468213.000
  20
4585494.000
  30
973.711
  0
VERTEX
  8
PNOA-H_AMS_1956-57_33k_ES_PAN_21mic_H50_0404_fot_44B-36278_W_tif
  70
32
  10
468213.296
  20
4585493.841
  30
973.718
  0
VERTEX
  8
PNOA-H_AMS_1956-57_33k_ES_PAN_21mic_H50_0404_fot_44B-36278_W_tif
  70
32
  10
468827.409
  20
4585164.183
  30
988.062
  0
VERTEX
  8
PNOA-H_AMS_1956-57_33k_ES_PAN_21mic_H50_0404_fot_44B-36278_W_tif
  70
32
  10
469048.500
  20
4585045.500
  30
993.226
  0
VERTEX
  8
PNOA-H_AMS_1956-57_33k_ES_PAN_21mic_H50_0404_fot_44B-36278_W_tif
  70
32
  10
469048.918
  20
4585045.082
  30
993.208
  0
VERTEX
  8
PNOA-H_AMS_1956-57_33k_ES_PAN_21mic_H50_0404_fot_44B-36278_W_tif
  70
32
  10
469049.500
  20
4585044.500
  30
993.183
  0
VERTEX
  8
PNOA-H_AMS_1956-57_33k_ES_PAN_21mic_H50_0404_fot_44B-36278_W_tif
  70
32
  10
469050.000
  20
4585034.000
  30
992.914
  0
VERTEX
  8
PNOA-H_AMS_1956-57_33k_ES_PAN_21mic_H50_0404_fot_44B-36278_W_tif
  70
32
  10
469150.500
  20
4581276.500
  30
1043.364
  0
VERTEX
  8
PNOA-H_AMS_1956-57_33k_ES_PAN_21mic_H50_0404_fot_44B-36278_W_tif
  70
32
  10
469150.287
  20
4581276.401
  30
1043.37
  0
SEQEND
  8
PNOA-H_AMS_1956-57_33k_ES_PAN_21mic_H50_0404_fot_44B-36278_W_tif
  0
INSERT
  8
FeatureAttribs
  2
FEATURE
  41
1
  42
1
  43
1
  50
0
  10
470482.309
  20
4583281.750
 66
1
  0
ATTRIB
  8
FeatureAttribs
 70
0
  1
PNOA-H_AMS_1956-57_33k_ES_PAN_21mic_H50_0404_fot_44B-36277_W.tif
  2
NAME
  10
470482.309
  20
4583281.750
 40
33.56784
  0
SEQEND
  0
POLYLINE
  8
PNOA-H_AMS_1956-57_33k_ES_PAN_21mic_H50_0404_fot_44B-36277_W_tif
  70
9
  66
1
  0
VERTEX
  8
PNOA-H_AMS_1956-57_33k_ES_PAN_21mic_H50_0404_fot_44B-36277_W_tif
  70
32
  10
471842.000
  20
4581220.500
  30
1100.071
  0
VERTEX
  8
PNOA-H_AMS_1956-57_33k_ES_PAN_21mic_H50_0404_fot_44B-36277_W_tif
  70
32
  10
471360.500
  20
4580997.500
  30
1068.825
  0
VERTEX
  8
PNOA-H_AMS_1956-57_33k_ES_PAN_21mic_H50_0404_fot_44B-36277_W_tif
  70
32
  10
471360.496
  20
4580997.500
  30
1068.825
  0
VERTEX
  8
PNOA-H_AMS_1956-57_33k_ES_PAN_21mic_H50_0404_fot_44B-36277_W_tif
  70
32
  10
469150.500
  20
4581276.500
  30
1043.364
  0
VERTEX
  8
PNOA-H_AMS_1956-57_33k_ES_PAN_21mic_H50_0404_fot_44B-36277_W_tif
  70
32
  10
469049.500
  20
4585044.500
  30
993.183
  0
VERTEX
  8
PNOA-H_AMS_1956-57_33k_ES_PAN_21mic_H50_0404_fot_44B-36277_W_tif
  70
32
  10
469049.831
  20
4585044.591
  30
993.224
  0
VERTEX
  8
PNOA-H_AMS_1956-57_33k_ES_PAN_21mic_H50_0404_fot_44B-36277_W_tif
  70
32
  10
469449.000
  20
4585154.000
  30
1042.436
  0
VERTEX
  8
PNOA-H_AMS_1956-57_33k_ES_PAN_21mic_H50_0404_fot_44B-36277_W_tif
  70
32
  10
469451.000
  20
4585154.500
  30
1042.419
  0
VERTEX
  8
PNOA-H_AMS_1956-57_33k_ES_PAN_21mic_H50_0404_fot_44B-36277_W_tif
  70
32
  10
470572.843
  20
4585460.728
  30
1041.679
  0
VERTEX
  8
PNOA-H_AMS_1956-57_33k_ES_PAN_21mic_H50_0404_fot_44B-36277_W_tif
  70
32
  10
470958.173
  20
4585565.911
  30
1041.426
  0
VERTEX
  8
PNOA-H_AMS_1956-57_33k_ES_PAN_21mic_H50_0404_fot_44B-36277_W_tif
  70
32
  10
470958.500
  20
4585566.000
  30
1041.425
  0
VERTEX
  8
PNOA-H_AMS_1956-57_33k_ES_PAN_21mic_H50_0404_fot_44B-36277_W_tif
  70
32
  10
471890.334
  20
4585085.086
  30
1058.069
  0
VERTEX
  8
PNOA-H_AMS_1956-57_33k_ES_PAN_21mic_H50_0404_fot_44B-36277_W_tif
  70
32
  10
471890.500
  20
4585085.000
  30
1058.073
  0
VERTEX
  8
PNOA-H_AMS_1956-57_33k_ES_PAN_21mic_H50_0404_fot_44B-36277_W_tif
  70
32
  10
471842.006
  20
4581220.999
  30
1100.066
  0
VERTEX
  8
PNOA-H_AMS_1956-57_33k_ES_PAN_21mic_H50_0404_fot_44B-36277_W_tif
  70
32
  10
471842.000
  20
4581220.500
  30
1100.071
  0
SEQEND
  8
PNOA-H_AMS_1956-57_33k_ES_PAN_21mic_H50_0404_fot_44B-36277_W_tif
  0
INSERT
  8
FeatureAttribs
  2
FEATURE
  41
1
  42
1
  43
1
  50
0
  10
466827.403
  20
4587270.000
 66
1
  0
ATTRIB
  8
FeatureAttribs
 70
0
  1
PNOA-H_AMS_1956-57_33k_ES_PAN_21mic_H50_0404_fot_43B-29636_E.tif
  2
NAME
  10
466827.403
  20
4587270.000
 40
33.56784
  0
SEQEND
  0
POLYLINE
  8
PNOA-H_AMS_1956-57_33k_ES_PAN_21mic_H50_0404_fot_43B-29636_E_tif
  70
9
  66
1
  0
VERTEX
  8
PNOA-H_AMS_1956-57_33k_ES_PAN_21mic_H50_0404_fot_43B-29636_E_tif
  70
32
  10
466894.658
  20
4589428.409
  30
1033.349
  0
VERTEX
  8
PNOA-H_AMS_1956-57_33k_ES_PAN_21mic_H50_0404_fot_43B-29636_E_tif
  70
32
  10
467398.000
  20
4589398.500
  30
1041.623
  0
VERTEX
  8
PNOA-H_AMS_1956-57_33k_ES_PAN_21mic_H50_0404_fot_43B-29636_E_tif
  70
32
  10
467399.442
  20
4589398.500
  30
1041.608
  0
VERTEX
  8
PNOA-H_AMS_1956-57_33k_ES_PAN_21mic_H50_0404_fot_43B-29636_E_tif
  70
32
  10
467404.000
  20
4589398.500
  30
1041.56
  0
VERTEX
  8
PNOA-H_AMS_1956-57_33k_ES_PAN_21mic_H50_0404_fot_43B-29636_E_tif
  70
32
  10
468218.052
  20
4589350.027
  30
1047.93
  0
VERTEX
  8
PNOA-H_AMS_1956-57_33k_ES_PAN_21mic_H50_0404_fot_43B-29636_E_tif
  70
32
  10
468218.500
  20
4589350.000
  30
1047.933
  0
VERTEX
  8
PNOA-H_AMS_1956-57_33k_ES_PAN_21mic_H50_0404_fot_43B-29636_E_tif
  70
32
  10
468214.000
  20
4585494.000
  30
973.723
  0
VERTEX
  8
PNOA-H_AMS_1956-57_33k_ES_PAN_21mic_H50_0404_fot_43B-29636_E_tif
  70
32
  10
468213.296
  20
4585493.841
  30
973.725
  0
VERTEX
  8
PNOA-H_AMS_1956-57_33k_ES_PAN_21mic_H50_0404_fot_43B-29636_E_tif
  70
32
  10
466197.500
  20
4585039.000
  30
980.18
  0
VERTEX
  8
PNOA-H_AMS_1956-57_33k_ES_PAN_21mic_H50_0404_fot_43B-29636_E_tif
  70
32
  10
466197.355
  20
4585039.080
  30
980.177
  0
VERTEX
  8
PNOA-H_AMS_1956-57_33k_ES_PAN_21mic_H50_0404_fot_43B-29636_E_tif
  70
32
  10
466197.065
  20
4585039.241
  30
980.17
  0
VERTEX
  8
PNOA-H_AMS_1956-57_33k_ES_PAN_21mic_H50_0404_fot_43B-29636_E_tif
  70
32
  10
465392.761
  20
4585485.246
  30
960.676
  0
VERTEX
  8
PNOA-H_AMS_1956-57_33k_ES_PAN_21mic_H50_0404_fot_43B-29636_E_tif
  70
32
  10
465390.500
  20
4585486.500
  30
960.621
  0
VERTEX
  8
PNOA-H_AMS_1956-57_33k_ES_PAN_21mic_H50_0404_fot_43B-29636_E_tif
  70
32
  10
465496.500
  20
4589406.000
  30
991.708
  0
VERTEX
  8
PNOA-H_AMS_1956-57_33k_ES_PAN_21mic_H50_0404_fot_43B-29636_E_tif
  70
32
  10
465497.436
  20
4589406.517
  30
991.801
  0
VERTEX
  8
PNOA-H_AMS_1956-57_33k_ES_PAN_21mic_H50_0404_fot_43B-29636_E_tif
  70
32
  10
465665.000
  20
4589499.000
  30
1008.553
  0
VERTEX
  8
PNOA-H_AMS_1956-57_33k_ES_PAN_21mic_H50_0404_fot_43B-29636_E_tif
  70
32
  10
465669.000
  20
4589501.000
  30
1010.96
  0
VERTEX
  8
PNOA-H_AMS_1956-57_33k_ES_PAN_21mic_H50_0404_fot_43B-29636_E_tif
  70
32
  10
465669.500
  20
4589501.000
  30
1011.248
  0
VERTEX
  8
PNOA-H_AMS_1956-57_33k_ES_PAN_21mic_H50_0404_fot_43B-29636_E_tif
  70
32
  10
465673.000
  20
4589501.000
  30
1013.266
  0
VERTEX
  8
PNOA-H_AMS_1956-57_33k_ES_PAN_21mic_H50_0404_fot_43B-29636_E_tif
  70
32
  10
466894.658
  20
4589428.409
  30
1033.349
  0
SEQEND
  8
PNOA-H_AMS_1956-57_33k_ES_PAN_21mic_H50_0404_fot_43B-29636_E_tif
  0
INSERT
  8
FeatureAttribs
  2
FEATURE
  41
1
  42
1
  43
1
  50
0
  10
469579.106
  20
4587260.750
 66
1
  0
ATTRIB
  8
FeatureAttribs
 70
0
  1
PNOA-H_AMS_1956-57_33k_ES_PAN_21mic_H50_0404_fot_43B-29637_E.tif
  2
NAME
  10
469579.106
  20
4587260.750
 40
33.56784
  0
SEQEND
  0
POLYLINE
  8
PNOA-H_AMS_1956-57_33k_ES_PAN_21mic_H50_0404_fot_43B-29637_E_tif
  70
9
  66
1
  0
VERTEX
  8
PNOA-H_AMS_1956-57_33k_ES_PAN_21mic_H50_0404_fot_43B-29637_E_tif
  70
32
  10
468465.941
  20
4589476.970
  30
1048.411
  0
VERTEX
  8
PNOA-H_AMS_1956-57_33k_ES_PAN_21mic_H50_0404_fot_43B-29637_E_tif
  70
32
  10
469447.500
  20
4589409.500
  30
1053.03
  0
VERTEX
  8
PNOA-H_AMS_1956-57_33k_ES_PAN_21mic_H50_0404_fot_43B-29637_E_tif
  70
32
  10
469450.458
  20
4589409.500
  30
1053.094
  0
VERTEX
  8
PNOA-H_AMS_1956-57_33k_ES_PAN_21mic_H50_0404_fot_43B-29637_E_tif
  70
32
  10
469452.000
  20
4589409.500
  30
1053.128
  0
VERTEX
  8
PNOA-H_AMS_1956-57_33k_ES_PAN_21mic_H50_0404_fot_43B-29637_E_tif
  70
32
  10
470562.733
  20
4589333.236
  30
1072.652
  0
VERTEX
  8
PNOA-H_AMS_1956-57_33k_ES_PAN_21mic_H50_0404_fot_43B-29637_E_tif
  70
32
  10
470923.000
  20
4589308.500
  30
1078.984
  0
VERTEX
  8
PNOA-H_AMS_1956-57_33k_ES_PAN_21mic_H50_0404_fot_43B-29637_E_tif
  70
32
  10
470958.000
  20
4585566.000
  30
1041.417
  0
VERTEX
  8
PNOA-H_AMS_1956-57_33k_ES_PAN_21mic_H50_0404_fot_43B-29637_E_tif
  70
32
  10
470572.843
  20
4585460.728
  30
1031.682
  0
VERTEX
  8
PNOA-H_AMS_1956-57_33k_ES_PAN_21mic_H50_0404_fot_43B-29637_E_tif
  70
32
  10
469050.000
  20
4585044.500
  30
993.192
  0
VERTEX
  8
PNOA-H_AMS_1956-57_33k_ES_PAN_21mic_H50_0404_fot_43B-29637_E_tif
  70
32
  10
469049.831
  20
4585044.591
  30
993.188
  0
VERTEX
  8
PNOA-H_AMS_1956-57_33k_ES_PAN_21mic_H50_0404_fot_43B-29637_E_tif
  70
32
  10
469048.918
  20
4585045.082
  30
993.167
  0
VERTEX
  8
PNOA-H_AMS_1956-57_33k_ES_PAN_21mic_H50_0404_fot_43B-29637_E_tif
  70
32
  10
468827.409
  20
4585164.183
  30
988.008
  0
VERTEX
  8
PNOA-H_AMS_1956-57_33k_ES_PAN_21mic_H50_0404_fot_43B-29637_E_tif
  70
32
  10
468214.000
  20
4585494.000
  30
973.723
  0
VERTEX
  8
PNOA-H_AMS_1956-57_33k_ES_PAN_21mic_H50_0404_fot_43B-29637_E_tif
  70
32
  10
468218.500
  20
4589350.000
  30
1047.941
  0
VERTEX
  8
PNOA-H_AMS_1956-57_33k_ES_PAN_21mic_H50_0404_fot_43B-29637_E_tif
  70
32
  10
468218.500
  20
4589350.256
  30
1047.945
  0
VERTEX
  8
PNOA-H_AMS_1956-57_33k_ES_PAN_21mic_H50_0404_fot_43B-29637_E_tif
  70
32
  10
468218.500
  20
4589350.500
  30
1047.95
  0
VERTEX
  8
PNOA-H_AMS_1956-57_33k_ES_PAN_21mic_H50_0404_fot_43B-29637_E_tif
  70
32
  10
468465.500
  20
4589477.000
  30
1048.409
  0
VERTEX
  8
PNOA-H_AMS_1956-57_33k_ES_PAN_21mic_H50_0404_fot_43B-29637_E_tif
  70
32
  10
468465.941
  20
4589476.970
  30
1048.411
  0
SEQEND
  8
PNOA-H_AMS_1956-57_33k_ES_PAN_21mic_H50_0404_fot_43B-29637_E_tif
  0
INSERT
  8
FeatureAttribs
  2
FEATURE
  41
1
  42
1
  43
1
  50
0
  10
466902.811
  20
4578876.000
 66
1
  0
ATTRIB
  8
FeatureAttribs
 70
0
  1
PNOA-H_AMS_1956-57_33k_ES_PAN_21mic_H50_0404_fot_45B-36165_E.tif
  2
NAME
  10
466902.811
  20
4578876.000
 40
33.56784
  0
SEQEND
  0
POLYLINE
  8
PNOA-H_AMS_1956-57_33k_ES_PAN_21mic_H50_0404_fot_45B-36165_E_tif
  70
9
  66
1
  0
VERTEX
  8
PNOA-H_AMS_1956-57_33k_ES_PAN_21mic_H50_0404_fot_45B-36165_E_tif
  70
32
  10
468392.500
  20
4576787.000
  30
1109.393
  0
VERTEX
  8
PNOA-H_AMS_1956-57_33k_ES_PAN_21mic_H50_0404_fot_45B-36165_E_tif
  70
32
  10
466164.000
  20
4576488.500
  30
1073.042
  0
VERTEX
  8
PNOA-H_AMS_1956-57_33k_ES_PAN_21mic_H50_0404_fot_45B-36165_E_tif
  70
32
  10
466163.996
  20
4576488.502
  30
1073.042
  0
VERTEX
  8
PNOA-H_AMS_1956-57_33k_ES_PAN_21mic_H50_0404_fot_45B-36165_E_tif
  70
32
  10
465391.295
  20
4576872.853
  30
1071.718
  0
VERTEX
  8
PNOA-H_AMS_1956-57_33k_ES_PAN_21mic_H50_0404_fot_45B-36165_E_tif
  70
32
  10
465391.000
  20
4576873.000
  30
1071.718
  0
VERTEX
  8
PNOA-H_AMS_1956-57_33k_ES_PAN_21mic_H50_0404_fot_45B-36165_E_tif
  70
32
  10
465413.000
  20
4580861.500
  30
1008.4
  0
VERTEX
  8
PNOA-H_AMS_1956-57_33k_ES_PAN_21mic_H50_0404_fot_45B-36165_E_tif
  70
32
  10
465413.157
  20
4580861.569
  30
1008.402
  0
VERTEX
  8
PNOA-H_AMS_1956-57_33k_ES_PAN_21mic_H50_0404_fot_45B-36165_E_tif
  70
32
  10
466324.500
  20
4581263.000
  30
1017.488
  0
VERTEX
  8
PNOA-H_AMS_1956-57_33k_ES_PAN_21mic_H50_0404_fot_45B-36165_E_tif
  70
32
  10
466326.000
  20
4581263.500
  30
1017.436
  0
VERTEX
  8
PNOA-H_AMS_1956-57_33k_ES_PAN_21mic_H50_0404_fot_45B-36165_E_tif
  70
32
  10
466326.742
  20
4581263.383
  30
1017.453
  0
VERTEX
  8
PNOA-H_AMS_1956-57_33k_ES_PAN_21mic_H50_0404_fot_45B-36165_E_tif
  70
32
  10
468413.500
  20
4580933.000
  30
1064.004
  0
VERTEX
  8
PNOA-H_AMS_1956-57_33k_ES_PAN_21mic_H50_0404_fot_45B-36165_E_tif
  70
32
  10
468393.500
  20
4576788.500
  30
1109.355
  0
VERTEX
  8
PNOA-H_AMS_1956-57_33k_ES_PAN_21mic_H50_0404_fot_45B-36165_E_tif
  70
32
  10
468393.001
  20
4576787.752
  30
1109.374
  0
VERTEX
  8
PNOA-H_AMS_1956-57_33k_ES_PAN_21mic_H50_0404_fot_45B-36165_E_tif
  70
32
  10
468392.740
  20
4576787.360
  30
1109.384
  0
VERTEX
  8
PNOA-H_AMS_1956-57_33k_ES_PAN_21mic_H50_0404_fot_45B-36165_E_tif
  70
32
  10
468392.500
  20
4576787.000
  30
1109.393
  0
SEQEND
  8
PNOA-H_AMS_1956-57_33k_ES_PAN_21mic_H50_0404_fot_45B-36165_E_tif
  0
INSERT
  8
FeatureAttribs
  2
FEATURE
  41
1
  42
1
  43
1
  50
0
  10
469874.443
  20
4578896.750
 66
1
  0
ATTRIB
  8
FeatureAttribs
 70
0
  1
PNOA-H_AMS_1956-57_33k_ES_PAN_21mic_H50_0404_fot_45B-36166_E.tif
  2
NAME
  10
469874.443
  20
4578896.750
 40
33.56784
  0
SEQEND
  0
POLYLINE
  8
PNOA-H_AMS_1956-57_33k_ES_PAN_21mic_H50_0404_fot_45B-36166_E_tif
  70
9
  66
1
  0
VERTEX
  8
PNOA-H_AMS_1956-57_33k_ES_PAN_21mic_H50_0404_fot_45B-36166_E_tif
  70
32
  10
471329.500
  20
4576669.000
  30
1043.399
  0
VERTEX
  8
PNOA-H_AMS_1956-57_33k_ES_PAN_21mic_H50_0404_fot_45B-36166_E_tif
  70
32
  10
468856.000
  20
4576517.000
  30
1098.792
  0
VERTEX
  8
PNOA-H_AMS_1956-57_33k_ES_PAN_21mic_H50_0404_fot_45B-36166_E_tif
  70
32
  10
468855.989
  20
4576517.006
  30
1098.792
  0
VERTEX
  8
PNOA-H_AMS_1956-57_33k_ES_PAN_21mic_H50_0404_fot_45B-36166_E_tif
  70
32
  10
468563.429
  20
4576687.929
  30
1105.485
  0
VERTEX
  8
PNOA-H_AMS_1956-57_33k_ES_PAN_21mic_H50_0404_fot_45B-36166_E_tif
  70
32
  10
468393.000
  20
4576787.500
  30
1109.385
  0
VERTEX
  8
PNOA-H_AMS_1956-57_33k_ES_PAN_21mic_H50_0404_fot_45B-36166_E_tif
  70
32
  10
468393.001
  20
4576787.752
  30
1109.382
  0
VERTEX
  8
PNOA-H_AMS_1956-57_33k_ES_PAN_21mic_H50_0404_fot_45B-36166_E_tif
  70
32
  10
468413.500
  20
4580933.000
  30
1064.004
  0
VERTEX
  8
PNOA-H_AMS_1956-57_33k_ES_PAN_21mic_H50_0404_fot_45B-36166_E_tif
  70
32
  10
468413.627
  20
4580933.059
  30
1064
  0
VERTEX
  8
PNOA-H_AMS_1956-57_33k_ES_PAN_21mic_H50_0404_fot_45B-36166_E_tif
  70
32
  10
469148.500
  20
4581276.000
  30
1043.234
  0
VERTEX
  8
PNOA-H_AMS_1956-57_33k_ES_PAN_21mic_H50_0404_fot_45B-36166_E_tif
  70
32
  10
469149.500
  20
4581276.500
  30
1043.344
  0
VERTEX
  8
PNOA-H_AMS_1956-57_33k_ES_PAN_21mic_H50_0404_fot_45B-36166_E_tif
  70
32
  10
469150.287
  20
4581276.401
  30
1043.353
  0
VERTEX
  8
PNOA-H_AMS_1956-57_33k_ES_PAN_21mic_H50_0404_fot_45B-36166_E_tif
  70
32
  10
471360.496
  20
4580997.500
  30
1068.825
  0
VERTEX
  8
PNOA-H_AMS_1956-57_33k_ES_PAN_21mic_H50_0404_fot_45B-36166_E_tif
  70
32
  10
471360.500
  20
4580997.500
  30
1068.825
  0
VERTEX
  8
PNOA-H_AMS_1956-57_33k_ES_PAN_21mic_H50_0404_fot_45B-36166_E_tif
  70
32
  10
471329.500
  20
4576669.000
  30
1043.399
  0
SEQEND
  8
PNOA-H_AMS_1956-57_33k_ES_PAN_21mic_H50_0404_fot_45B-36166_E_tif
  0
INSERT
  8
FeatureAttribs
  2
FEATURE
  41
1
  42
1
  43
1
  50
0
  10
467507.041
  20
4576307.937
 66
1
  0
ATTRIB
  8
FeatureAttribs
 70
0
  1
PNOA-H_AMS_1956-57_33k_ES_PAN_21mic_H50_0432_fot_46B-29798_E.tif
  2
NAME
  10
467507.041
  20
4576307.937
 40
33.56784
  0
SEQEND
  0
POLYLINE
  8
PNOA-H_AMS_1956-57_33k_ES_PAN_21mic_H50_0432_fot_46B-29798_E_tif
  70
9
  66
1
  0
VERTEX
  8
PNOA-H_AMS_1956-57_33k_ES_PAN_21mic_H50_0432_fot_46B-29798_E_tif
  70
32
  10
468850.400
  20
4576254.767
  30
1103.912
  0
VERTEX
  8
PNOA-H_AMS_1956-57_33k_ES_PAN_21mic_H50_0432_fot_46B-29798_E_tif
  70
32
  10
468841.312
  20
4575828.375
  30
1112.257
  0
VERTEX
  8
PNOA-H_AMS_1956-57_33k_ES_PAN_21mic_H50_0432_fot_46B-29798_E_tif
  70
32
  10
468841.294
  20
4575828.375
  30
1112.257
  0
VERTEX
  8
PNOA-H_AMS_1956-57_33k_ES_PAN_21mic_H50_0432_fot_46B-29798_E_tif
  70
32
  10
466878.056
  20
4575836.861
  30
0
  0
VERTEX
  8
PNOA-H_AMS_1956-57_33k_ES_PAN_21mic_H50_0432_fot_46B-29798_E_tif
  70
32
  10
466158.790
  20
4575840.316
  30
1099.936
  0
VERTEX
  8
PNOA-H_AMS_1956-57_33k_ES_PAN_21mic_H50_0432_fot_46B-29798_E_tif
  70
32
  10
466164.000
  20
4576488.500
  30
1073.042
  0
VERTEX
  8
PNOA-H_AMS_1956-57_33k_ES_PAN_21mic_H50_0432_fot_46B-29798_E_tif
  70
32
  10
468389.000
  20
4576787.000
  30
1109.296
  0
VERTEX
  8
PNOA-H_AMS_1956-57_33k_ES_PAN_21mic_H50_0432_fot_46B-29798_E_tif
  70
32
  10
468392.500
  20
4576787.500
  30
1109.371
  0
VERTEX
  8
PNOA-H_AMS_1956-57_33k_ES_PAN_21mic_H50_0432_fot_46B-29798_E_tif
  70
32
  10
468392.740
  20
4576787.360
  30
1109.365
  0
VERTEX
  8
PNOA-H_AMS_1956-57_33k_ES_PAN_21mic_H50_0432_fot_46B-29798_E_tif
  70
32
  10
468563.429
  20
4576687.929
  30
1105.461
  0
VERTEX
  8
PNOA-H_AMS_1956-57_33k_ES_PAN_21mic_H50_0432_fot_46B-29798_E_tif
  70
32
  10
468856.000
  20
4576517.500
  30
1098.769
  0
VERTEX
  8
PNOA-H_AMS_1956-57_33k_ES_PAN_21mic_H50_0432_fot_46B-29798_E_tif
  70
32
  10
468855.989
  20
4576517.006
  30
1098.779
  0
VERTEX
  8
PNOA-H_AMS_1956-57_33k_ES_PAN_21mic_H50_0432_fot_46B-29798_E_tif
  70
32
  10
468850.400
  20
4576254.767
  30
1103.912
  0
SEQEND
  8
PNOA-H_AMS_1956-57_33k_ES_PAN_21mic_H50_0432_fot_46B-29798_E_tif
  0
INSERT
  8
FeatureAttribs
  2
FEATURE
  41
1
  42
1
  43
1
  50
0
  10
470174.535
  20
4576243.224
 66
1
  0
ATTRIB
  8
FeatureAttribs
 70
0
  1
PNOA-H_AMS_1956-57_33k_ES_PAN_21mic_H50_0432_fot_46B-29797_E.tif
  2
NAME
  10
470174.535
  20
4576243.224
 40
33.56784
  0
SEQEND
  0
POLYLINE
  8
PNOA-H_AMS_1956-57_33k_ES_PAN_21mic_H50_0432_fot_46B-29797_E_tif
  70
9
  66
1
  0
VERTEX
  8
PNOA-H_AMS_1956-57_33k_ES_PAN_21mic_H50_0432_fot_46B-29797_E_tif
  70
32
  10
471499.500
  20
4576302.188
  30
1075.208
  0
VERTEX
  8
PNOA-H_AMS_1956-57_33k_ES_PAN_21mic_H50_0432_fot_46B-29797_E_tif
  70
32
  10
471494.697
  20
4575817.448
  30
1088.845
  0
VERTEX
  8
PNOA-H_AMS_1956-57_33k_ES_PAN_21mic_H50_0432_fot_46B-29797_E_tif
  70
32
  10
470364.583
  20
4575821.790
  30
0
  0
VERTEX
  8
PNOA-H_AMS_1956-57_33k_ES_PAN_21mic_H50_0432_fot_46B-29797_E_tif
  70
32
  10
468841.312
  20
4575828.375
  30
1112.347
  0
VERTEX
  8
PNOA-H_AMS_1956-57_33k_ES_PAN_21mic_H50_0432_fot_46B-29797_E_tif
  70
32
  10
468841.294
  20
4575828.375
  30
1112.347
  0
VERTEX
  8
PNOA-H_AMS_1956-57_33k_ES_PAN_21mic_H50_0432_fot_46B-29797_E_tif
  70
32
  10
468850.400
  20
4576254.767
  30
1103.954
  0
VERTEX
  8
PNOA-H_AMS_1956-57_33k_ES_PAN_21mic_H50_0432_fot_46B-29797_E_tif
  70
32
  10
468856.000
  20
4576517.000
  30
1098.792
  0
VERTEX
  8
PNOA-H_AMS_1956-57_33k_ES_PAN_21mic_H50_0432_fot_46B-29797_E_tif
  70
32
  10
471323.500
  20
4576669.000
  30
1043.49
  0
VERTEX
  8
PNOA-H_AMS_1956-57_33k_ES_PAN_21mic_H50_0432_fot_46B-29797_E_tif
  70
32
  10
471329.500
  20
4576669.000
  30
1043.402
  0
VERTEX
  8
PNOA-H_AMS_1956-57_33k_ES_PAN_21mic_H50_0432_fot_46B-29797_E_tif
  70
32
  10
471330.000
  20
4576669.000
  30
1043.394
  0
VERTEX
  8
PNOA-H_AMS_1956-57_33k_ES_PAN_21mic_H50_0432_fot_46B-29797_E_tif
  70
32
  10
471332.500
  20
4576667.500
  30
1043.355
  0
VERTEX
  8
PNOA-H_AMS_1956-57_33k_ES_PAN_21mic_H50_0432_fot_46B-29797_E_tif
  70
32
  10
471475.214
  20
4576577.929
  30
1063.768
  0
VERTEX
  8
PNOA-H_AMS_1956-57_33k_ES_PAN_21mic_H50_0432_fot_46B-29797_E_tif
  70
32
  10
471499.000
  20
4576563.000
  30
1067.17
  0
VERTEX
  8
PNOA-H_AMS_1956-57_33k_ES_PAN_21mic_H50_0432_fot_46B-29797_E_tif
  70
32
  10
471499.500
  20
4576562.750
  30
1067.307
  0
VERTEX
  8
PNOA-H_AMS_1956-57_33k_ES_PAN_21mic_H50_0432_fot_46B-29797_E_tif
  70
32
  10
471500.000
  20
4576562.500
  30
1067.444
  0
VERTEX
  8
PNOA-H_AMS_1956-57_33k_ES_PAN_21mic_H50_0432_fot_46B-29797_E_tif
  70
32
  10
471502.000
  20
4576561.500
  30
1067.973
  0
VERTEX
  8
PNOA-H_AMS_1956-57_33k_ES_PAN_21mic_H50_0432_fot_46B-29797_E_tif
  70
32
  10
471502.000
  20
4576554.500
  30
1068.11
  0
VERTEX
  8
PNOA-H_AMS_1956-57_33k_ES_PAN_21mic_H50_0432_fot_46B-29797_E_tif
  70
32
  10
471499.500
  20
4576302.188
  30
1075.208
  0
SEQEND
  8
PNOA-H_AMS_1956-57_33k_ES_PAN_21mic_H50_0432_fot_46B-29797_E_tif
  0
INSERT
  8
FeatureAttribs
  2
FEATURE
  41
1
  42
1
  43
1
  50
0
  10
475966.879
  20
4583263.500
 66
1
  0
ATTRIB
  8
FeatureAttribs
 70
0
  1
PNOA-H_AMS_1956-57_33k_ES_PAN_21mic_H50_0404_fot_44B-36275_W.tif
  2
NAME
  10
475966.879
  20
4583263.500
 40
33.56784
  0
SEQEND
  0
POLYLINE
  8
PNOA-H_AMS_1956-57_33k_ES_PAN_21mic_H50_0404_fot_44B-36275_W_tif
  70
9
  66
1
  0
VERTEX
  8
PNOA-H_AMS_1956-57_33k_ES_PAN_21mic_H50_0404_fot_44B-36275_W_tif
  70
32
  10
477303.000
  20
4581109.500
  30
1163.918
  0
VERTEX
  8
PNOA-H_AMS_1956-57_33k_ES_PAN_21mic_H50_0404_fot_44B-36275_W_tif
  70
32
  10
477089.500
  20
4580998.000
  30
1173.99
  0
VERTEX
  8
PNOA-H_AMS_1956-57_33k_ES_PAN_21mic_H50_0404_fot_44B-36275_W_tif
  70
32
  10
477088.614
  20
4580998.060
  30
1173.963
  0
VERTEX
  8
PNOA-H_AMS_1956-57_33k_ES_PAN_21mic_H50_0404_fot_44B-36275_W_tif
  70
32
  10
474553.000
  20
4581169.000
  30
1096.072
  0
VERTEX
  8
PNOA-H_AMS_1956-57_33k_ES_PAN_21mic_H50_0404_fot_44B-36275_W_tif
  70
32
  10
474616.500
  20
4585086.000
  30
1003.08
  0
VERTEX
  8
PNOA-H_AMS_1956-57_33k_ES_PAN_21mic_H50_0404_fot_44B-36275_W_tif
  70
32
  10
474617.331
  20
4585086.201
  30
1003.101
  0
VERTEX
  8
PNOA-H_AMS_1956-57_33k_ES_PAN_21mic_H50_0404_fot_44B-36275_W_tif
  70
32
  10
476447.500
  20
4585528.500
  30
1050.859
  0
VERTEX
  8
PNOA-H_AMS_1956-57_33k_ES_PAN_21mic_H50_0404_fot_44B-36275_W_tif
  70
32
  10
476449.500
  20
4585529.000
  30
1050.999
  0
VERTEX
  8
PNOA-H_AMS_1956-57_33k_ES_PAN_21mic_H50_0404_fot_44B-36275_W_tif
  70
32
  10
476449.659
  20
4585528.917
  30
1050.998
  0
VERTEX
  8
PNOA-H_AMS_1956-57_33k_ES_PAN_21mic_H50_0404_fot_44B-36275_W_tif
  70
32
  10
476450.001
  20
4585528.740
  30
1050.997
  0
VERTEX
  8
PNOA-H_AMS_1956-57_33k_ES_PAN_21mic_H50_0404_fot_44B-36275_W_tif
  70
32
  10
477377.506
  20
4585046.357
  30
1048.085
  0
VERTEX
  8
PNOA-H_AMS_1956-57_33k_ES_PAN_21mic_H50_0404_fot_44B-36275_W_tif
  70
32
  10
477383.000
  20
4585043.500
  30
1048.067
  0
VERTEX
  8
PNOA-H_AMS_1956-57_33k_ES_PAN_21mic_H50_0404_fot_44B-36275_W_tif
  70
32
  10
477303.000
  20
4581109.500
  30
1163.918
  0
SEQEND
  8
PNOA-H_AMS_1956-57_33k_ES_PAN_21mic_H50_0404_fot_44B-36275_W_tif
  0
INSERT
  8
FeatureAttribs
  2
FEATURE
  41
1
  42
1
  43
1
  50
0
  10
473227.540
  20
4583280.500
 66
1
  0
ATTRIB
  8
FeatureAttribs
 70
0
  1
PNOA-H_AMS_1956-57_33k_ES_PAN_21mic_H50_0404_fot_44B-36276_W.tif
  2
NAME
  10
473227.540
  20
4583280.500
 40
33.56784
  0
SEQEND
  0
POLYLINE
  8
PNOA-H_AMS_1956-57_33k_ES_PAN_21mic_H50_0404_fot_44B-36276_W_tif
  70
9
  66
1
  0
VERTEX
  8
PNOA-H_AMS_1956-57_33k_ES_PAN_21mic_H50_0404_fot_44B-36276_W_tif
  70
32
  10
474552.880
  20
4581168.941
  30
1096.068
  0
VERTEX
  8
PNOA-H_AMS_1956-57_33k_ES_PAN_21mic_H50_0404_fot_44B-36276_W_tif
  70
32
  10
474222.000
  20
4581006.000
  30
1084.513
  0
VERTEX
  8
PNOA-H_AMS_1956-57_33k_ES_PAN_21mic_H50_0404_fot_44B-36276_W_tif
  70
32
  10
474221.577
  20
4581006.038
  30
1084.516
  0
VERTEX
  8
PNOA-H_AMS_1956-57_33k_ES_PAN_21mic_H50_0404_fot_44B-36276_W_tif
  70
32
  10
471842.006
  20
4581220.999
  30
1100.071
  0
VERTEX
  8
PNOA-H_AMS_1956-57_33k_ES_PAN_21mic_H50_0404_fot_44B-36276_W_tif
  70
32
  10
471842.000
  20
4581221.000
  30
1100.071
  0
VERTEX
  8
PNOA-H_AMS_1956-57_33k_ES_PAN_21mic_H50_0404_fot_44B-36276_W_tif
  70
32
  10
471890.500
  20
4585085.000
  30
1058.073
  0
VERTEX
  8
PNOA-H_AMS_1956-57_33k_ES_PAN_21mic_H50_0404_fot_44B-36276_W_tif
  70
32
  10
472334.700
  20
4585199.275
  30
1057.924
  0
VERTEX
  8
PNOA-H_AMS_1956-57_33k_ES_PAN_21mic_H50_0404_fot_44B-36276_W_tif
  70
32
  10
473715.500
  20
4585554.500
  30
1057.461
  0
VERTEX
  8
PNOA-H_AMS_1956-57_33k_ES_PAN_21mic_H50_0404_fot_44B-36276_W_tif
  70
32
  10
473717.500
  20
4585555.000
  30
1057.293
  0
VERTEX
  8
PNOA-H_AMS_1956-57_33k_ES_PAN_21mic_H50_0404_fot_44B-36276_W_tif
  70
32
  10
473718.228
  20
4585554.802
  30
1057.242
  0
VERTEX
  8
PNOA-H_AMS_1956-57_33k_ES_PAN_21mic_H50_0404_fot_44B-36276_W_tif
  70
32
  10
473720.635
  20
4585554.145
  30
1057.074
  0
VERTEX
  8
PNOA-H_AMS_1956-57_33k_ES_PAN_21mic_H50_0404_fot_44B-36276_W_tif
  70
32
  10
473723.000
  20
4585553.500
  30
1056.91
  0
VERTEX
  8
PNOA-H_AMS_1956-57_33k_ES_PAN_21mic_H50_0404_fot_44B-36276_W_tif
  70
32
  10
474614.484
  20
4585087.055
  30
1003.201
  0
VERTEX
  8
PNOA-H_AMS_1956-57_33k_ES_PAN_21mic_H50_0404_fot_44B-36276_W_tif
  70
32
  10
474616.500
  20
4585086.000
  30
1003.08
  0
VERTEX
  8
PNOA-H_AMS_1956-57_33k_ES_PAN_21mic_H50_0404_fot_44B-36276_W_tif
  70
32
  10
474553.000
  20
4581169.000
  30
1096.072
  0
VERTEX
  8
PNOA-H_AMS_1956-57_33k_ES_PAN_21mic_H50_0404_fot_44B-36276_W_tif
  70
32
  10
474552.880
  20
4581168.941
  30
1096.068
  0
SEQEND
  8
PNOA-H_AMS_1956-57_33k_ES_PAN_21mic_H50_0404_fot_44B-36276_W_tif
  0
INSERT
  8
FeatureAttribs
  2
FEATURE
  41
1
  42
1
  43
1
  50
0
  10
478727.442
  20
4583240.750
 66
1
  0
ATTRIB
  8
FeatureAttribs
 70
0
  1
PNOA-H_AMS_1956-57_33k_ES_PAN_21mic_H50_0404_fot_44B-36274_W.tif
  2
NAME
  10
478727.442
  20
4583240.750
 40
33.56784
  0
SEQEND
  0
POLYLINE
  8
PNOA-H_AMS_1956-57_33k_ES_PAN_21mic_H50_0404_fot_44B-36274_W_tif
  70
9
  66
1
  0
VERTEX
  8
PNOA-H_AMS_1956-57_33k_ES_PAN_21mic_H50_0404_fot_44B-36274_W_tif
  70
32
  10
480054.980
  20
4581000.989
  30
1195.432
  0
VERTEX
  8
PNOA-H_AMS_1956-57_33k_ES_PAN_21mic_H50_0404_fot_44B-36274_W_tif
  70
32
  10
479995.000
  20
4580968.500
  30
1173.986
  0
VERTEX
  8
PNOA-H_AMS_1956-57_33k_ES_PAN_21mic_H50_0404_fot_44B-36274_W_tif
  70
32
  10
479994.978
  20
4580968.501
  30
1173.985
  0
VERTEX
  8
PNOA-H_AMS_1956-57_33k_ES_PAN_21mic_H50_0404_fot_44B-36274_W_tif
  70
32
  10
479689.525
  20
4580984.500
  30
1172.843
  0
VERTEX
  8
PNOA-H_AMS_1956-57_33k_ES_PAN_21mic_H50_0404_fot_44B-36274_W_tif
  70
32
  10
479314.685
  20
4581004.133
  30
1171.441
  0
VERTEX
  8
PNOA-H_AMS_1956-57_33k_ES_PAN_21mic_H50_0404_fot_44B-36274_W_tif
  70
32
  10
477303.000
  20
4581109.500
  30
1163.918
  0
VERTEX
  8
PNOA-H_AMS_1956-57_33k_ES_PAN_21mic_H50_0404_fot_44B-36274_W_tif
  70
32
  10
477382.500
  20
4585040.000
  30
1046.816
  0
VERTEX
  8
PNOA-H_AMS_1956-57_33k_ES_PAN_21mic_H50_0404_fot_44B-36274_W_tif
  70
32
  10
477383.000
  20
4585043.500
  30
1048.067
  0
VERTEX
  8
PNOA-H_AMS_1956-57_33k_ES_PAN_21mic_H50_0404_fot_44B-36274_W_tif
  70
32
  10
477383.468
  20
4585043.734
  30
1048.425
  0
VERTEX
  8
PNOA-H_AMS_1956-57_33k_ES_PAN_21mic_H50_0404_fot_44B-36274_W_tif
  70
32
  10
477384.000
  20
4585044.000
  30
1048.832
  0
VERTEX
  8
PNOA-H_AMS_1956-57_33k_ES_PAN_21mic_H50_0404_fot_44B-36274_W_tif
  70
32
  10
477641.500
  20
4585109.000
  30
1081.177
  0
VERTEX
  8
PNOA-H_AMS_1956-57_33k_ES_PAN_21mic_H50_0404_fot_44B-36274_W_tif
  70
32
  10
477643.500
  20
4585109.500
  30
1081.048
  0
VERTEX
  8
PNOA-H_AMS_1956-57_33k_ES_PAN_21mic_H50_0404_fot_44B-36274_W_tif
  70
32
  10
478920.365
  20
4585431.308
  30
1093.716
  0
VERTEX
  8
PNOA-H_AMS_1956-57_33k_ES_PAN_21mic_H50_0404_fot_44B-36274_W_tif
  70
32
  10
479244.163
  20
4585512.915
  30
1096.929
  0
VERTEX
  8
PNOA-H_AMS_1956-57_33k_ES_PAN_21mic_H50_0404_fot_44B-36274_W_tif
  70
32
  10
479244.500
  20
4585513.000
  30
1096.932
  0
VERTEX
  8
PNOA-H_AMS_1956-57_33k_ES_PAN_21mic_H50_0404_fot_44B-36274_W_tif
  70
32
  10
480151.802
  20
4585041.103
  30
1105.203
  0
VERTEX
  8
PNOA-H_AMS_1956-57_33k_ES_PAN_21mic_H50_0404_fot_44B-36274_W_tif
  70
32
  10
480151.850
  20
4585041.078
  30
1105.204
  0
VERTEX
  8
PNOA-H_AMS_1956-57_33k_ES_PAN_21mic_H50_0404_fot_44B-36274_W_tif
  70
32
  10
480152.000
  20
4585041.000
  30
1105.205
  0
VERTEX
  8
PNOA-H_AMS_1956-57_33k_ES_PAN_21mic_H50_0404_fot_44B-36274_W_tif
  70
32
  10
480055.000
  20
4581001.000
  30
1195.439
  0
VERTEX
  8
PNOA-H_AMS_1956-57_33k_ES_PAN_21mic_H50_0404_fot_44B-36274_W_tif
  70
32
  10
480054.980
  20
4581000.989
  30
1195.432
  0
SEQEND
  8
PNOA-H_AMS_1956-57_33k_ES_PAN_21mic_H50_0404_fot_44B-36274_W_tif
  0
INSERT
  8
FeatureAttribs
  2
FEATURE
  41
1
  42
1
  43
1
  50
0
  10
475078.294
  20
4587280.000
 66
1
  0
ATTRIB
  8
FeatureAttribs
 70
0
  1
PNOA-H_AMS_1956-57_33k_ES_PAN_21mic_H50_0404_fot_43B-29639_E.tif
  2
NAME
  10
475078.294
  20
4587280.000
 40
33.56784
  0
SEQEND
  0
POLYLINE
  8
PNOA-H_AMS_1956-57_33k_ES_PAN_21mic_H50_0404_fot_43B-29639_E_tif
  70
9
  66
1
  0
VERTEX
  8
PNOA-H_AMS_1956-57_33k_ES_PAN_21mic_H50_0404_fot_43B-29639_E_tif
  70
32
  10
474026.436
  20
4589473.966
  30
976.61
  0
VERTEX
  8
PNOA-H_AMS_1956-57_33k_ES_PAN_21mic_H50_0404_fot_43B-29639_E_tif
  70
32
  10
475594.000
  20
4589353.000
  30
1011.154
  0
VERTEX
  8
PNOA-H_AMS_1956-57_33k_ES_PAN_21mic_H50_0404_fot_43B-29639_E_tif
  70
32
  10
475594.995
  20
4589353.000
  30
1011.167
  0
VERTEX
  8
PNOA-H_AMS_1956-57_33k_ES_PAN_21mic_H50_0404_fot_43B-29639_E_tif
  70
32
  10
475596.000
  20
4589353.000
  30
1011.181
  0
VERTEX
  8
PNOA-H_AMS_1956-57_33k_ES_PAN_21mic_H50_0404_fot_43B-29639_E_tif
  70
32
  10
476463.499
  20
4589286.000
  30
1031.329
  0
VERTEX
  8
PNOA-H_AMS_1956-57_33k_ES_PAN_21mic_H50_0404_fot_43B-29639_E_tif
  70
32
  10
476456.750
  20
4587407.500
  30
1041.186
  0
VERTEX
  8
PNOA-H_AMS_1956-57_33k_ES_PAN_21mic_H50_0404_fot_43B-29639_E_tif
  70
32
  10
476450.000
  20
4585529.000
  30
1051.043
  0
VERTEX
  8
PNOA-H_AMS_1956-57_33k_ES_PAN_21mic_H50_0404_fot_43B-29639_E_tif
  70
32
  10
476449.659
  20
4585528.917
  30
1051.034
  0
VERTEX
  8
PNOA-H_AMS_1956-57_33k_ES_PAN_21mic_H50_0404_fot_43B-29639_E_tif
  70
32
  10
474618.000
  20
4585086.000
  30
1003.231
  0
VERTEX
  8
PNOA-H_AMS_1956-57_33k_ES_PAN_21mic_H50_0404_fot_43B-29639_E_tif
  70
32
  10
474617.331
  20
4585086.201
  30
1003.22
  0
VERTEX
  8
PNOA-H_AMS_1956-57_33k_ES_PAN_21mic_H50_0404_fot_43B-29639_E_tif
  70
32
  10
474614.484
  20
4585087.055
  30
1003.173
  0
VERTEX
  8
PNOA-H_AMS_1956-57_33k_ES_PAN_21mic_H50_0404_fot_43B-29639_E_tif
  70
32
  10
474613.000
  20
4585087.500
  30
1003.149
  0
VERTEX
  8
PNOA-H_AMS_1956-57_33k_ES_PAN_21mic_H50_0404_fot_43B-29639_E_tif
  70
32
  10
473720.635
  20
4585554.145
  30
1057.075
  0
VERTEX
  8
PNOA-H_AMS_1956-57_33k_ES_PAN_21mic_H50_0404_fot_43B-29639_E_tif
  70
32
  10
473719.000
  20
4585555.000
  30
1057.174
  0
VERTEX
  8
PNOA-H_AMS_1956-57_33k_ES_PAN_21mic_H50_0404_fot_43B-29639_E_tif
  70
32
  10
473678.500
  20
4589290.000
  30
996.62
  0
VERTEX
  8
PNOA-H_AMS_1956-57_33k_ES_PAN_21mic_H50_0404_fot_43B-29639_E_tif
  70
32
  10
473678.563
  20
4589290.033
  30
996.616
  0
VERTEX
  8
PNOA-H_AMS_1956-57_33k_ES_PAN_21mic_H50_0404_fot_43B-29639_E_tif
  70
32
  10
474026.000
  20
4589474.000
  30
976.601
  0
VERTEX
  8
PNOA-H_AMS_1956-57_33k_ES_PAN_21mic_H50_0404_fot_43B-29639_E_tif
  70
32
  10
474026.436
  20
4589473.966
  30
976.61
  0
SEQEND
  8
PNOA-H_AMS_1956-57_33k_ES_PAN_21mic_H50_0404_fot_43B-29639_E_tif
  0
INSERT
  8
FeatureAttribs
  2
FEATURE
  41
1
  42
1
  43
1
  50
0
  10
472321.135
  20
4587279.750
 66
1
  0
ATTRIB
  8
FeatureAttribs
 70
0
  1
PNOA-H_AMS_1956-57_33k_ES_PAN_21mic_H50_0404_fot_43B-29638_E.tif
  2
NAME
  10
472321.135
  20
4587279.750
 40
33.56784
  0
SEQEND
  0
POLYLINE
  8
PNOA-H_AMS_1956-57_33k_ES_PAN_21mic_H50_0404_fot_43B-29638_E_tif
  70
9
  66
1
  0
VERTEX
  8
PNOA-H_AMS_1956-57_33k_ES_PAN_21mic_H50_0404_fot_43B-29638_E_tif
  70
32
  10
471890.334
  20
4585085.086
  30
1058.064
  0
VERTEX
  8
PNOA-H_AMS_1956-57_33k_ES_PAN_21mic_H50_0404_fot_43B-29638_E_tif
  70
32
  10
471890.000
  20
4585085.000
  30
1058.064
  0
VERTEX
  8
PNOA-H_AMS_1956-57_33k_ES_PAN_21mic_H50_0404_fot_43B-29638_E_tif
  70
32
  10
470958.173
  20
4585565.911
  30
1041.42
  0
VERTEX
  8
PNOA-H_AMS_1956-57_33k_ES_PAN_21mic_H50_0404_fot_43B-29638_E_tif
  70
32
  10
470958.000
  20
4585566.000
  30
1041.417
  0
VERTEX
  8
PNOA-H_AMS_1956-57_33k_ES_PAN_21mic_H50_0404_fot_43B-29638_E_tif
  70
32
  10
470923.000
  20
4589308.500
  30
1078.984
  0
VERTEX
  8
PNOA-H_AMS_1956-57_33k_ES_PAN_21mic_H50_0404_fot_43B-29638_E_tif
  70
32
  10
470923.058
  20
4589308.530
  30
1078.985
  0
VERTEX
  8
PNOA-H_AMS_1956-57_33k_ES_PAN_21mic_H50_0404_fot_43B-29638_E_tif
  70
32
  10
471239.500
  20
4589474.000
  30
1080.99
  0
VERTEX
  8
PNOA-H_AMS_1956-57_33k_ES_PAN_21mic_H50_0404_fot_43B-29638_E_tif
  70
32
  10
471240.500
  20
4589474.500
  30
1080.974
  0
VERTEX
  8
PNOA-H_AMS_1956-57_33k_ES_PAN_21mic_H50_0404_fot_43B-29638_E_tif
  70
32
  10
471240.937
  20
4589474.467
  30
1080.958
  0
VERTEX
  8
PNOA-H_AMS_1956-57_33k_ES_PAN_21mic_H50_0404_fot_43B-29638_E_tif
  70
32
  10
473678.500
  20
4589290.000
  30
996.62
  0
VERTEX
  8
PNOA-H_AMS_1956-57_33k_ES_PAN_21mic_H50_0404_fot_43B-29638_E_tif
  70
32
  10
473719.000
  20
4585555.000
  30
1057.174
  0
VERTEX
  8
PNOA-H_AMS_1956-57_33k_ES_PAN_21mic_H50_0404_fot_43B-29638_E_tif
  70
32
  10
473718.228
  20
4585554.802
  30
1057.175
  0
VERTEX
  8
PNOA-H_AMS_1956-57_33k_ES_PAN_21mic_H50_0404_fot_43B-29638_E_tif
  70
32
  10
472334.700
  20
4585199.275
  30
1057.848
  0
VERTEX
  8
PNOA-H_AMS_1956-57_33k_ES_PAN_21mic_H50_0404_fot_43B-29638_E_tif
  70
32
  10
471890.334
  20
4585085.086
  30
1058.064
  0
SEQEND
  8
PNOA-H_AMS_1956-57_33k_ES_PAN_21mic_H50_0404_fot_43B-29638_E_tif
  0
INSERT
  8
FeatureAttribs
  2
FEATURE
  41
1
  42
1
  43
1
  50
0
  10
477846.282
  20
4587261.500
 66
1
  0
ATTRIB
  8
FeatureAttribs
 70
0
  1
PNOA-H_AMS_1956-57_33k_ES_PAN_21mic_H50_0404_fot_43B-29640_E.tif
  2
NAME
  10
477846.282
  20
4587261.500
 40
33.56784
  0
SEQEND
  0
POLYLINE
  8
PNOA-H_AMS_1956-57_33k_ES_PAN_21mic_H50_0404_fot_43B-29640_E_tif
  70
9
  66
1
  0
VERTEX
  8
PNOA-H_AMS_1956-57_33k_ES_PAN_21mic_H50_0404_fot_43B-29640_E_tif
  70
32
  10
476832.431
  20
4589479.464
  30
1022.894
  0
VERTEX
  8
PNOA-H_AMS_1956-57_33k_ES_PAN_21mic_H50_0404_fot_43B-29640_E_tif
  70
32
  10
477643.000
  20
4589411.500
  30
964.067
  0
VERTEX
  8
PNOA-H_AMS_1956-57_33k_ES_PAN_21mic_H50_0404_fot_43B-29640_E_tif
  70
32
  10
477644.000
  20
4589411.500
  30
964.127
  0
VERTEX
  8
PNOA-H_AMS_1956-57_33k_ES_PAN_21mic_H50_0404_fot_43B-29640_E_tif
  70
32
  10
479227.500
  20
4589279.000
  30
981.319
  0
VERTEX
  8
PNOA-H_AMS_1956-57_33k_ES_PAN_21mic_H50_0404_fot_43B-29640_E_tif
  70
32
  10
479244.000
  20
4585513.000
  30
1097.141
  0
VERTEX
  8
PNOA-H_AMS_1956-57_33k_ES_PAN_21mic_H50_0404_fot_43B-29640_E_tif
  70
32
  10
478920.365
  20
4585431.308
  30
1088.709
  0
VERTEX
  8
PNOA-H_AMS_1956-57_33k_ES_PAN_21mic_H50_0404_fot_43B-29640_E_tif
  70
32
  10
477384.000
  20
4585043.500
  30
1048.682
  0
VERTEX
  8
PNOA-H_AMS_1956-57_33k_ES_PAN_21mic_H50_0404_fot_43B-29640_E_tif
  70
32
  10
477383.468
  20
4585043.734
  30
1048.456
  0
VERTEX
  8
PNOA-H_AMS_1956-57_33k_ES_PAN_21mic_H50_0404_fot_43B-29640_E_tif
  70
32
  10
477377.506
  20
4585046.357
  30
1045.913
  0
VERTEX
  8
PNOA-H_AMS_1956-57_33k_ES_PAN_21mic_H50_0404_fot_43B-29640_E_tif
  70
32
  10
477371.500
  20
4585049.000
  30
1043.352
  0
VERTEX
  8
PNOA-H_AMS_1956-57_33k_ES_PAN_21mic_H50_0404_fot_43B-29640_E_tif
  70
32
  10
476450.000
  20
4585528.500
  30
1051.08
  0
VERTEX
  8
PNOA-H_AMS_1956-57_33k_ES_PAN_21mic_H50_0404_fot_43B-29640_E_tif
  70
32
  10
476450.001
  20
4585528.740
  30
1051.078
  0
VERTEX
  8
PNOA-H_AMS_1956-57_33k_ES_PAN_21mic_H50_0404_fot_43B-29640_E_tif
  70
32
  10
476456.750
  20
4587407.500
  30
1041.276
  0
VERTEX
  8
PNOA-H_AMS_1956-57_33k_ES_PAN_21mic_H50_0404_fot_43B-29640_E_tif
  70
32
  10
476463.499
  20
4589286.000
  30
1031.475
  0
VERTEX
  8
PNOA-H_AMS_1956-57_33k_ES_PAN_21mic_H50_0404_fot_43B-29640_E_tif
  70
32
  10
476463.500
  20
4589286.500
  30
1031.473
  0
VERTEX
  8
PNOA-H_AMS_1956-57_33k_ES_PAN_21mic_H50_0404_fot_43B-29640_E_tif
  70
32
  10
476832.000
  20
4589479.500
  30
1022.925
  0
VERTEX
  8
PNOA-H_AMS_1956-57_33k_ES_PAN_21mic_H50_0404_fot_43B-29640_E_tif
  70
32
  10
476832.431
  20
4589479.464
  30
1022.894
  0
SEQEND
  8
PNOA-H_AMS_1956-57_33k_ES_PAN_21mic_H50_0404_fot_43B-29640_E_tif
  0
INSERT
  8
FeatureAttribs
  2
FEATURE
  41
1
  42
1
  43
1
  50
0
  10
475636.766
  20
4578846.500
 66
1
  0
ATTRIB
  8
FeatureAttribs
 70
0
  1
PNOA-H_AMS_1956-57_33k_ES_PAN_21mic_H50_0404_fot_45B-36168_E.tif
  2
NAME
  10
475636.766
  20
4578846.500
 40
33.56784
  0
SEQEND
  0
POLYLINE
  8
PNOA-H_AMS_1956-57_33k_ES_PAN_21mic_H50_0404_fot_45B-36168_E_tif
  70
9
  66
1
  0
VERTEX
  8
PNOA-H_AMS_1956-57_33k_ES_PAN_21mic_H50_0404_fot_45B-36168_E_tif
  70
32
  10
477037.500
  20
4576664.000
  30
1195.32
  0
VERTEX
  8
PNOA-H_AMS_1956-57_33k_ES_PAN_21mic_H50_0404_fot_45B-36168_E_tif
  70
32
  10
476800.500
  20
4576524.000
  30
1201.875
  0
VERTEX
  8
PNOA-H_AMS_1956-57_33k_ES_PAN_21mic_H50_0404_fot_45B-36168_E_tif
  70
32
  10
476800.033
  20
4576524.020
  30
1201.872
  0
VERTEX
  8
PNOA-H_AMS_1956-57_33k_ES_PAN_21mic_H50_0404_fot_45B-36168_E_tif
  70
32
  10
474197.000
  20
4576633.500
  30
1185.274
  0
VERTEX
  8
PNOA-H_AMS_1956-57_33k_ES_PAN_21mic_H50_0404_fot_45B-36168_E_tif
  70
32
  10
474221.500
  20
4581006.000
  30
1084.591
  0
VERTEX
  8
PNOA-H_AMS_1956-57_33k_ES_PAN_21mic_H50_0404_fot_45B-36168_E_tif
  70
32
  10
474221.577
  20
4581006.038
  30
1084.594
  0
VERTEX
  8
PNOA-H_AMS_1956-57_33k_ES_PAN_21mic_H50_0404_fot_45B-36168_E_tif
  70
32
  10
474551.000
  20
4581168.500
  30
1096.282
  0
VERTEX
  8
PNOA-H_AMS_1956-57_33k_ES_PAN_21mic_H50_0404_fot_45B-36168_E_tif
  70
32
  10
474552.000
  20
4581169.000
  30
1096.163
  0
VERTEX
  8
PNOA-H_AMS_1956-57_33k_ES_PAN_21mic_H50_0404_fot_45B-36168_E_tif
  70
32
  10
474552.880
  20
4581168.941
  30
1096.19
  0
VERTEX
  8
PNOA-H_AMS_1956-57_33k_ES_PAN_21mic_H50_0404_fot_45B-36168_E_tif
  70
32
  10
477088.500
  20
4580998.000
  30
1173.973
  0
VERTEX
  8
PNOA-H_AMS_1956-57_33k_ES_PAN_21mic_H50_0404_fot_45B-36168_E_tif
  70
32
  10
477039.500
  20
4576671.500
  30
1195.133
  0
VERTEX
  8
PNOA-H_AMS_1956-57_33k_ES_PAN_21mic_H50_0404_fot_45B-36168_E_tif
  70
32
  10
477039.038
  20
4576665.496
  30
1195.325
  0
VERTEX
  8
PNOA-H_AMS_1956-57_33k_ES_PAN_21mic_H50_0404_fot_45B-36168_E_tif
  70
32
  10
477039.000
  20
4576665.000
  30
1195.341
  0
VERTEX
  8
PNOA-H_AMS_1956-57_33k_ES_PAN_21mic_H50_0404_fot_45B-36168_E_tif
  70
32
  10
477037.500
  20
4576664.000
  30
1195.32
  0
SEQEND
  8
PNOA-H_AMS_1956-57_33k_ES_PAN_21mic_H50_0404_fot_45B-36168_E_tif
  0
INSERT
  8
FeatureAttribs
  2
FEATURE
  41
1
  42
1
  43
1
  50
0
  10
472777.532
  20
4578891.250
 66
1
  0
ATTRIB
  8
FeatureAttribs
 70
0
  1
PNOA-H_AMS_1956-57_33k_ES_PAN_21mic_H50_0404_fot_45B-36167_E.tif
  2
NAME
  10
472777.532
  20
4578891.250
 40
33.56784
  0
SEQEND
  0
POLYLINE
  8
PNOA-H_AMS_1956-57_33k_ES_PAN_21mic_H50_0404_fot_45B-36167_E_tif
  70
9
  66
1
  0
VERTEX
  8
PNOA-H_AMS_1956-57_33k_ES_PAN_21mic_H50_0404_fot_45B-36167_E_tif
  70
32
  10
471842.006
  20
4581220.999
  30
1100.071
  0
VERTEX
  8
PNOA-H_AMS_1956-57_33k_ES_PAN_21mic_H50_0404_fot_45B-36167_E_tif
  70
32
  10
473547.000
  20
4581066.500
  30
1108.454
  0
VERTEX
  8
PNOA-H_AMS_1956-57_33k_ES_PAN_21mic_H50_0404_fot_45B-36167_E_tif
  70
32
  10
473548.000
  20
4581066.500
  30
1108.45
  0
VERTEX
  8
PNOA-H_AMS_1956-57_33k_ES_PAN_21mic_H50_0404_fot_45B-36167_E_tif
  70
32
  10
474221.500
  20
4581006.000
  30
1084.591
  0
VERTEX
  8
PNOA-H_AMS_1956-57_33k_ES_PAN_21mic_H50_0404_fot_45B-36167_E_tif
  70
32
  10
474197.000
  20
4576633.500
  30
1185.274
  0
VERTEX
  8
PNOA-H_AMS_1956-57_33k_ES_PAN_21mic_H50_0404_fot_45B-36167_E_tif
  70
32
  10
474196.969
  20
4576633.480
  30
1185.274
  0
VERTEX
  8
PNOA-H_AMS_1956-57_33k_ES_PAN_21mic_H50_0404_fot_45B-36167_E_tif
  70
32
  10
474098.500
  20
4576570.500
  30
1182.716
  0
VERTEX
  8
PNOA-H_AMS_1956-57_33k_ES_PAN_21mic_H50_0404_fot_45B-36167_E_tif
  70
32
  10
474097.501
  20
4576570.463
  30
1182.677
  0
VERTEX
  8
PNOA-H_AMS_1956-57_33k_ES_PAN_21mic_H50_0404_fot_45B-36167_E_tif
  70
32
  10
474085.000
  20
4576570.000
  30
1182.188
  0
VERTEX
  8
PNOA-H_AMS_1956-57_33k_ES_PAN_21mic_H50_0404_fot_45B-36167_E_tif
  70
32
  10
471572.000
  20
4576561.500
  30
1082.047
  0
VERTEX
  8
PNOA-H_AMS_1956-57_33k_ES_PAN_21mic_H50_0404_fot_45B-36167_E_tif
  70
32
  10
471502.000
  20
4576561.500
  30
1067.943
  0
VERTEX
  8
PNOA-H_AMS_1956-57_33k_ES_PAN_21mic_H50_0404_fot_45B-36167_E_tif
  70
32
  10
471501.500
  20
4576561.500
  30
1067.842
  0
VERTEX
  8
PNOA-H_AMS_1956-57_33k_ES_PAN_21mic_H50_0404_fot_45B-36167_E_tif
  70
32
  10
471499.500
  20
4576562.750
  30
1067.558
  0
VERTEX
  8
PNOA-H_AMS_1956-57_33k_ES_PAN_21mic_H50_0404_fot_45B-36167_E_tif
  70
32
  10
471475.214
  20
4576577.929
  30
1064.107
  0
VERTEX
  8
PNOA-H_AMS_1956-57_33k_ES_PAN_21mic_H50_0404_fot_45B-36167_E_tif
  70
32
  10
471329.500
  20
4576669.000
  30
1043.399
  0
VERTEX
  8
PNOA-H_AMS_1956-57_33k_ES_PAN_21mic_H50_0404_fot_45B-36167_E_tif
  70
32
  10
471360.496
  20
4580997.500
  30
1068.844
  0
VERTEX
  8
PNOA-H_AMS_1956-57_33k_ES_PAN_21mic_H50_0404_fot_45B-36167_E_tif
  70
32
  10
471360.500
  20
4580998.000
  30
1068.847
  0
VERTEX
  8
PNOA-H_AMS_1956-57_33k_ES_PAN_21mic_H50_0404_fot_45B-36167_E_tif
  70
32
  10
471842.000
  20
4581221.000
  30
1100.071
  0
VERTEX
  8
PNOA-H_AMS_1956-57_33k_ES_PAN_21mic_H50_0404_fot_45B-36167_E_tif
  70
32
  10
471842.006
  20
4581220.999
  30
1100.071
  0
SEQEND
  8
PNOA-H_AMS_1956-57_33k_ES_PAN_21mic_H50_0404_fot_45B-36167_E_tif
  0
INSERT
  8
FeatureAttribs
  2
FEATURE
  41
1
  42
1
  43
1
  50
0
  10
478500.738
  20
4578779.750
 66
1
  0
ATTRIB
  8
FeatureAttribs
 70
0
  1
PNOA-H_AMS_1956-57_33k_ES_PAN_21mic_H50_0404_fot_45B-36169_E.tif
  2
NAME
  10
478500.738
  20
4578779.750
 40
33.56784
  0
SEQEND
  0
POLYLINE
  8
PNOA-H_AMS_1956-57_33k_ES_PAN_21mic_H50_0404_fot_45B-36169_E_tif
  70
9
  66
1
  0
VERTEX
  8
PNOA-H_AMS_1956-57_33k_ES_PAN_21mic_H50_0404_fot_45B-36169_E_tif
  70
32
  10
479314.685
  20
4581004.133
  30
1137.134
  0
VERTEX
  8
PNOA-H_AMS_1956-57_33k_ES_PAN_21mic_H50_0404_fot_45B-36169_E_tif
  70
32
  10
479688.500
  20
4580984.500
  30
1132.042
  0
VERTEX
  8
PNOA-H_AMS_1956-57_33k_ES_PAN_21mic_H50_0404_fot_45B-36169_E_tif
  70
32
  10
479689.525
  20
4580984.500
  30
1132.241
  0
VERTEX
  8
PNOA-H_AMS_1956-57_33k_ES_PAN_21mic_H50_0404_fot_45B-36169_E_tif
  70
32
  10
479692.000
  20
4580984.500
  30
1132.722
  0
VERTEX
  8
PNOA-H_AMS_1956-57_33k_ES_PAN_21mic_H50_0404_fot_45B-36169_E_tif
  70
32
  10
479994.978
  20
4580968.501
  30
1173.983
  0
VERTEX
  8
PNOA-H_AMS_1956-57_33k_ES_PAN_21mic_H50_0404_fot_45B-36169_E_tif
  70
32
  10
479995.000
  20
4580968.500
  30
1173.986
  0
VERTEX
  8
PNOA-H_AMS_1956-57_33k_ES_PAN_21mic_H50_0404_fot_45B-36169_E_tif
  70
32
  10
479884.500
  20
4576701.500
  30
1144.9
  0
VERTEX
  8
PNOA-H_AMS_1956-57_33k_ES_PAN_21mic_H50_0404_fot_45B-36169_E_tif
  70
32
  10
479884.000
  20
4576695.000
  30
1145.111
  0
VERTEX
  8
PNOA-H_AMS_1956-57_33k_ES_PAN_21mic_H50_0404_fot_45B-36169_E_tif
  70
32
  10
479882.015
  20
4576693.512
  30
1145.215
  0
VERTEX
  8
PNOA-H_AMS_1956-57_33k_ES_PAN_21mic_H50_0404_fot_45B-36169_E_tif
  70
32
  10
479882.000
  20
4576693.500
  30
1145.216
  0
VERTEX
  8
PNOA-H_AMS_1956-57_33k_ES_PAN_21mic_H50_0404_fot_45B-36169_E_tif
  70
32
  10
479396.500
  20
4576450.000
  30
1161.311
  0
VERTEX
  8
PNOA-H_AMS_1956-57_33k_ES_PAN_21mic_H50_0404_fot_45B-36169_E_tif
  70
32
  10
479396.307
  20
4576450.018
  30
1161.314
  0
VERTEX
  8
PNOA-H_AMS_1956-57_33k_ES_PAN_21mic_H50_0404_fot_45B-36169_E_tif
  70
32
  10
477039.038
  20
4576665.496
  30
1195.326
  0
VERTEX
  8
PNOA-H_AMS_1956-57_33k_ES_PAN_21mic_H50_0404_fot_45B-36169_E_tif
  70
32
  10
477039.000
  20
4576665.500
  30
1195.326
  0
VERTEX
  8
PNOA-H_AMS_1956-57_33k_ES_PAN_21mic_H50_0404_fot_45B-36169_E_tif
  70
32
  10
477088.500
  20
4580998.000
  30
1173.973
  0
VERTEX
  8
PNOA-H_AMS_1956-57_33k_ES_PAN_21mic_H50_0404_fot_45B-36169_E_tif
  70
32
  10
477088.614
  20
4580998.060
  30
1173.967
  0
VERTEX
  8
PNOA-H_AMS_1956-57_33k_ES_PAN_21mic_H50_0404_fot_45B-36169_E_tif
  70
32
  10
477292.500
  20
4581104.500
  30
1163.777
  0
VERTEX
  8
PNOA-H_AMS_1956-57_33k_ES_PAN_21mic_H50_0404_fot_45B-36169_E_tif
  70
32
  10
477302.500
  20
4581109.500
  30
1163.868
  0
VERTEX
  8
PNOA-H_AMS_1956-57_33k_ES_PAN_21mic_H50_0404_fot_45B-36169_E_tif
  70
32
  10
477303.000
  20
4581109.500
  30
1163.918
  0
VERTEX
  8
PNOA-H_AMS_1956-57_33k_ES_PAN_21mic_H50_0404_fot_45B-36169_E_tif
  70
32
  10
477308.500
  20
4581109.500
  30
1164.463
  0
VERTEX
  8
PNOA-H_AMS_1956-57_33k_ES_PAN_21mic_H50_0404_fot_45B-36169_E_tif
  70
32
  10
479314.685
  20
4581004.133
  30
1137.134
  0
SEQEND
  8
PNOA-H_AMS_1956-57_33k_ES_PAN_21mic_H50_0404_fot_45B-36169_E_tif
  0
INSERT
  8
FeatureAttribs
  2
FEATURE
  41
1
  42
1
  43
1
  50
0
  10
478094.840
  20
4576228.137
 66
1
  0
ATTRIB
  8
FeatureAttribs
 70
0
  1
PNOA-H_AMS_1956-57_33k_ES_PAN_21mic_H50_0432_fot_46B-29794_E.tif
  2
NAME
  10
478094.840
  20
4576228.137
 40
33.56784
  0
SEQEND
  0
POLYLINE
  8
PNOA-H_AMS_1956-57_33k_ES_PAN_21mic_H50_0432_fot_46B-29794_E_tif
  70
9
  66
1
  0
VERTEX
  8
PNOA-H_AMS_1956-57_33k_ES_PAN_21mic_H50_0432_fot_46B-29794_E_tif
  70
32
  10
479395.986
  20
4576449.215
  30
1161.385
  0
VERTEX
  8
PNOA-H_AMS_1956-57_33k_ES_PAN_21mic_H50_0432_fot_46B-29794_E_tif
  70
32
  10
479384.355
  20
4575790.774
  30
1176.787
  0
VERTEX
  8
PNOA-H_AMS_1956-57_33k_ES_PAN_21mic_H50_0432_fot_46B-29794_E_tif
  70
32
  10
479383.968
  20
4575790.775
  30
0
  0
VERTEX
  8
PNOA-H_AMS_1956-57_33k_ES_PAN_21mic_H50_0432_fot_46B-29794_E_tif
  70
32
  10
477337.630
  20
4575796.672
  30
0
  0
VERTEX
  8
PNOA-H_AMS_1956-57_33k_ES_PAN_21mic_H50_0432_fot_46B-29794_E_tif
  70
32
  10
476794.114
  20
4575798.500
  30
1218.081
  0
VERTEX
  8
PNOA-H_AMS_1956-57_33k_ES_PAN_21mic_H50_0432_fot_46B-29794_E_tif
  70
32
  10
476800.000
  20
4576524.000
  30
1201.894
  0
VERTEX
  8
PNOA-H_AMS_1956-57_33k_ES_PAN_21mic_H50_0432_fot_46B-29794_E_tif
  70
32
  10
476800.033
  20
4576524.020
  30
1201.893
  0
VERTEX
  8
PNOA-H_AMS_1956-57_33k_ES_PAN_21mic_H50_0432_fot_46B-29794_E_tif
  70
32
  10
477039.000
  20
4576665.500
  30
1195.326
  0
VERTEX
  8
PNOA-H_AMS_1956-57_33k_ES_PAN_21mic_H50_0432_fot_46B-29794_E_tif
  70
32
  10
477039.038
  20
4576665.496
  30
1195.325
  0
VERTEX
  8
PNOA-H_AMS_1956-57_33k_ES_PAN_21mic_H50_0432_fot_46B-29794_E_tif
  70
32
  10
477642.000
  20
4576610.000
  30
1175.844
  0
VERTEX
  8
PNOA-H_AMS_1956-57_33k_ES_PAN_21mic_H50_0432_fot_46B-29794_E_tif
  70
32
  10
477644.000
  20
4576610.000
  30
1175.287
  0
VERTEX
  8
PNOA-H_AMS_1956-57_33k_ES_PAN_21mic_H50_0432_fot_46B-29794_E_tif
  70
32
  10
479396.000
  20
4576450.000
  30
1161.367
  0
VERTEX
  8
PNOA-H_AMS_1956-57_33k_ES_PAN_21mic_H50_0432_fot_46B-29794_E_tif
  70
32
  10
479395.986
  20
4576449.215
  30
1161.385
  0
SEQEND
  8
PNOA-H_AMS_1956-57_33k_ES_PAN_21mic_H50_0432_fot_46B-29794_E_tif
  0
INSERT
  8
FeatureAttribs
  2
FEATURE
  41
1
  42
1
  43
1
  50
0
  10
475450.037
  20
4576216.000
 66
1
  0
ATTRIB
  8
FeatureAttribs
 70
0
  1
PNOA-H_AMS_1956-57_33k_ES_PAN_21mic_H50_0432_fot_46B-29795_E.tif
  2
NAME
  10
475450.037
  20
4576216.000
 40
33.56784
  0
SEQEND
  0
POLYLINE
  8
PNOA-H_AMS_1956-57_33k_ES_PAN_21mic_H50_0432_fot_46B-29795_E_tif
  70
9
  66
1
  0
VERTEX
  8
PNOA-H_AMS_1956-57_33k_ES_PAN_21mic_H50_0432_fot_46B-29795_E_tif
  70
32
  10
476800.000
  20
4576524.000
  30
1201.894
  0
VERTEX
  8
PNOA-H_AMS_1956-57_33k_ES_PAN_21mic_H50_0432_fot_46B-29795_E_tif
  70
32
  10
476794.114
  20
4575798.500
  30
1218.081
  0
VERTEX
  8
PNOA-H_AMS_1956-57_33k_ES_PAN_21mic_H50_0432_fot_46B-29795_E_tif
  70
32
  10
474108.493
  20
4575807.529
  30
1185.307
  0
VERTEX
  8
PNOA-H_AMS_1956-57_33k_ES_PAN_21mic_H50_0432_fot_46B-29795_E_tif
  70
32
  10
474108.416
  20
4575807.529
  30
1185.306
  0
VERTEX
  8
PNOA-H_AMS_1956-57_33k_ES_PAN_21mic_H50_0432_fot_46B-29795_E_tif
  70
32
  10
474097.501
  20
4576570.463
  30
1182.682
  0
VERTEX
  8
PNOA-H_AMS_1956-57_33k_ES_PAN_21mic_H50_0432_fot_46B-29795_E_tif
  70
32
  10
474097.500
  20
4576570.500
  30
1182.682
  0
VERTEX
  8
PNOA-H_AMS_1956-57_33k_ES_PAN_21mic_H50_0432_fot_46B-29795_E_tif
  70
32
  10
474196.500
  20
4576633.500
  30
1185.259
  0
VERTEX
  8
PNOA-H_AMS_1956-57_33k_ES_PAN_21mic_H50_0432_fot_46B-29795_E_tif
  70
32
  10
474196.969
  20
4576633.480
  30
1185.252
  0
VERTEX
  8
PNOA-H_AMS_1956-57_33k_ES_PAN_21mic_H50_0432_fot_46B-29795_E_tif
  70
32
  10
475594.000
  20
4576574.500
  30
1162.815
  0
VERTEX
  8
PNOA-H_AMS_1956-57_33k_ES_PAN_21mic_H50_0432_fot_46B-29795_E_tif
  70
32
  10
475596.000
  20
4576574.500
  30
1163.273
  0
VERTEX
  8
PNOA-H_AMS_1956-57_33k_ES_PAN_21mic_H50_0432_fot_46B-29795_E_tif
  70
32
  10
476800.000
  20
4576524.000
  30
1201.894
  0
SEQEND
  8
PNOA-H_AMS_1956-57_33k_ES_PAN_21mic_H50_0432_fot_46B-29795_E_tif
  0
INSERT
  8
FeatureAttribs
  2
FEATURE
  41
1
  42
1
  43
1
  50
0
  10
472800.693
  20
4576189.014
 66
1
  0
ATTRIB
  8
FeatureAttribs
 70
0
  1
PNOA-H_AMS_1956-57_33k_ES_PAN_21mic_H50_0432_fot_46B-29796_E.tif
  2
NAME
  10
472800.693
  20
4576189.014
 40
33.56784
  0
SEQEND
  0
POLYLINE
  8
PNOA-H_AMS_1956-57_33k_ES_PAN_21mic_H50_0432_fot_46B-29796_E_tif
  70
9
  66
1
  0
VERTEX
  8
PNOA-H_AMS_1956-57_33k_ES_PAN_21mic_H50_0432_fot_46B-29796_E_tif
  70
32
  10
474097.501
  20
4576570.463
  30
1182.683
  0
VERTEX
  8
PNOA-H_AMS_1956-57_33k_ES_PAN_21mic_H50_0432_fot_46B-29796_E_tif
  70
32
  10
474108.493
  20
4575807.529
  30
1185.778
  0
VERTEX
  8
PNOA-H_AMS_1956-57_33k_ES_PAN_21mic_H50_0432_fot_46B-29796_E_tif
  70
32
  10
474108.416
  20
4575807.529
  30
1185.775
  0
VERTEX
  8
PNOA-H_AMS_1956-57_33k_ES_PAN_21mic_H50_0432_fot_46B-29796_E_tif
  70
32
  10
473851.107
  20
4575808.394
  30
0
  0
VERTEX
  8
PNOA-H_AMS_1956-57_33k_ES_PAN_21mic_H50_0432_fot_46B-29796_E_tif
  70
32
  10
471494.707
  20
4575817.448
  30
1104.049
  0
VERTEX
  8
PNOA-H_AMS_1956-57_33k_ES_PAN_21mic_H50_0432_fot_46B-29796_E_tif
  70
32
  10
471499.500
  20
4576301.000
  30
1092.673
  0
VERTEX
  8
PNOA-H_AMS_1956-57_33k_ES_PAN_21mic_H50_0432_fot_46B-29796_E_tif
  70
32
  10
471499.500
  20
4576302.188
  30
1092.493
  0
VERTEX
  8
PNOA-H_AMS_1956-57_33k_ES_PAN_21mic_H50_0432_fot_46B-29796_E_tif
  70
32
  10
471499.500
  20
4576352.000
  30
1084.929
  0
VERTEX
  8
PNOA-H_AMS_1956-57_33k_ES_PAN_21mic_H50_0432_fot_46B-29796_E_tif
  70
32
  10
471502.000
  20
4576561.500
  30
1067.973
  0
VERTEX
  8
PNOA-H_AMS_1956-57_33k_ES_PAN_21mic_H50_0432_fot_46B-29796_E_tif
  70
32
  10
474097.500
  20
4576570.500
  30
1182.682
  0
VERTEX
  8
PNOA-H_AMS_1956-57_33k_ES_PAN_21mic_H50_0432_fot_46B-29796_E_tif
  70
32
  10
474097.501
  20
4576570.463
  30
1182.683
  0
SEQEND
  8
PNOA-H_AMS_1956-57_33k_ES_PAN_21mic_H50_0432_fot_46B-29796_E_tif
  0
INSERT
  8
FeatureAttribs
  2
FEATURE
  41
1
  42
1
  43
1
  50
0
  10
483180.336
  20
4587303.750
 66
1
  0
ATTRIB
  8
FeatureAttribs
 70
0
  1
PNOA-H_AMS_1956-57_33k_ES_PAN_21mic_H50_0404_fot_43B-29642_E.tif
  2
NAME
  10
483180.336
  20
4587303.750
 40
33.56784
  0
SEQEND
  0
POLYLINE
  8
PNOA-H_AMS_1956-57_33k_ES_PAN_21mic_H50_0404_fot_43B-29642_E_tif
  70
9
  66
1
  0
VERTEX
  8
PNOA-H_AMS_1956-57_33k_ES_PAN_21mic_H50_0404_fot_43B-29642_E_tif
  70
32
  10
482857.852
  20
4585051.576
  30
1095.955
  0
VERTEX
  8
PNOA-H_AMS_1956-57_33k_ES_PAN_21mic_H50_0404_fot_43B-29642_E_tif
  70
32
  10
482857.500
  20
4585051.500
  30
1095.955
  0
VERTEX
  8
PNOA-H_AMS_1956-57_33k_ES_PAN_21mic_H50_0404_fot_43B-29642_E_tif
  70
32
  10
482454.000
  20
4585258.000
  30
1105.277
  0
VERTEX
  8
PNOA-H_AMS_1956-57_33k_ES_PAN_21mic_H50_0404_fot_43B-29642_E_tif
  70
32
  10
482050.500
  20
4585464.500
  30
1114.599
  0
VERTEX
  8
PNOA-H_AMS_1956-57_33k_ES_PAN_21mic_H50_0404_fot_43B-29642_E_tif
  70
32
  10
482050.286
  20
4585479.998
  30
1114.36
  0
VERTEX
  8
PNOA-H_AMS_1956-57_33k_ES_PAN_21mic_H50_0404_fot_43B-29642_E_tif
  70
32
  10
481997.500
  20
4589297.000
  30
1055.411
  0
VERTEX
  8
PNOA-H_AMS_1956-57_33k_ES_PAN_21mic_H50_0404_fot_43B-29642_E_tif
  70
32
  10
481997.659
  20
4589297.081
  30
1055.414
  0
VERTEX
  8
PNOA-H_AMS_1956-57_33k_ES_PAN_21mic_H50_0404_fot_43B-29642_E_tif
  70
32
  10
482507.000
  20
4589556.000
  30
1066.995
  0
VERTEX
  8
PNOA-H_AMS_1956-57_33k_ES_PAN_21mic_H50_0404_fot_43B-29642_E_tif
  70
32
  10
482507.418
  20
4589555.958
  30
1066.977
  0
VERTEX
  8
PNOA-H_AMS_1956-57_33k_ES_PAN_21mic_H50_0404_fot_43B-29642_E_tif
  70
32
  10
483783.000
  20
4589428.500
  30
1013.333
  0
VERTEX
  8
PNOA-H_AMS_1956-57_33k_ES_PAN_21mic_H50_0404_fot_43B-29642_E_tif
  70
32
  10
483788.000
  20
4589428.000
  30
1013.615
  0
VERTEX
  8
PNOA-H_AMS_1956-57_33k_ES_PAN_21mic_H50_0404_fot_43B-29642_E_tif
  70
32
  10
484340.089
  20
4589373.111
  30
1020.347
  0
VERTEX
  8
PNOA-H_AMS_1956-57_33k_ES_PAN_21mic_H50_0404_fot_43B-29642_E_tif
  70
32
  10
484335.690
  20
4587342.525
  30
0
  0
VERTEX
  8
PNOA-H_AMS_1956-57_33k_ES_PAN_21mic_H50_0404_fot_43B-29642_E_tif
  70
32
  10
484331.418
  20
4585369.289
  30
0
  0
VERTEX
  8
PNOA-H_AMS_1956-57_33k_ES_PAN_21mic_H50_0404_fot_43B-29642_E_tif
  70
32
  10
484331.418
  20
4585369.206
  30
1097.105
  0
VERTEX
  8
PNOA-H_AMS_1956-57_33k_ES_PAN_21mic_H50_0404_fot_43B-29642_E_tif
  70
32
  10
483692.692
  20
4585231.527
  30
1096.607
  0
VERTEX
  8
PNOA-H_AMS_1956-57_33k_ES_PAN_21mic_H50_0404_fot_43B-29642_E_tif
  70
32
  10
482857.852
  20
4585051.576
  30
1095.955
  0
SEQEND
  8
PNOA-H_AMS_1956-57_33k_ES_PAN_21mic_H50_0404_fot_43B-29642_E_tif
  0
INSERT
  8
FeatureAttribs
  2
FEATURE
  41
1
  42
1
  43
1
  50
0
  10
483587.902
  20
4583155.291
 66
1
  0
ATTRIB
  8
FeatureAttribs
 70
0
  1
PNOA-H_AMS_1956-57_33k_ES_PAN_21mic_H50_0404_fot_44B-36272_W.tif
  2
NAME
  10
483587.902
  20
4583155.291
 40
33.56784
  0
SEQEND
  0
POLYLINE
  8
PNOA-H_AMS_1956-57_33k_ES_PAN_21mic_H50_0404_fot_44B-36272_W_tif
  70
9
  66
1
  0
VERTEX
  8
PNOA-H_AMS_1956-57_33k_ES_PAN_21mic_H50_0404_fot_44B-36272_W_tif
  70
32
  10
484321.835
  20
4580941.407
  30
0
  0
VERTEX
  8
PNOA-H_AMS_1956-57_33k_ES_PAN_21mic_H50_0404_fot_44B-36272_W_tif
  70
32
  10
484321.835
  20
4580941.294
  30
1206.053
  0
VERTEX
  8
PNOA-H_AMS_1956-57_33k_ES_PAN_21mic_H50_0404_fot_44B-36272_W_tif
  70
32
  10
483034.863
  20
4580963.605
  30
1204.197
  0
VERTEX
  8
PNOA-H_AMS_1956-57_33k_ES_PAN_21mic_H50_0404_fot_44B-36272_W_tif
  70
32
  10
482839.000
  20
4580967.000
  30
1203.914
  0
VERTEX
  8
PNOA-H_AMS_1956-57_33k_ES_PAN_21mic_H50_0404_fot_44B-36272_W_tif
  70
32
  10
482858.000
  20
4585051.500
  30
1095.986
  0
VERTEX
  8
PNOA-H_AMS_1956-57_33k_ES_PAN_21mic_H50_0404_fot_44B-36272_W_tif
  70
32
  10
483692.692
  20
4585231.527
  30
1096.644
  0
VERTEX
  8
PNOA-H_AMS_1956-57_33k_ES_PAN_21mic_H50_0404_fot_44B-36272_W_tif
  70
32
  10
484331.418
  20
4585369.289
  30
1097.147
  0
VERTEX
  8
PNOA-H_AMS_1956-57_33k_ES_PAN_21mic_H50_0404_fot_44B-36272_W_tif
  70
32
  10
484331.418
  20
4585369.206
  30
0
  0
VERTEX
  8
PNOA-H_AMS_1956-57_33k_ES_PAN_21mic_H50_0404_fot_44B-36272_W_tif
  70
32
  10
484330.682
  20
4585029.654
  30
0
  0
VERTEX
  8
PNOA-H_AMS_1956-57_33k_ES_PAN_21mic_H50_0404_fot_44B-36272_W_tif
  70
32
  10
484325.676
  20
4582716.791
  30
0
  0
VERTEX
  8
PNOA-H_AMS_1956-57_33k_ES_PAN_21mic_H50_0404_fot_44B-36272_W_tif
  70
32
  10
484321.835
  20
4580941.407
  30
0
  0
SEQEND
  8
PNOA-H_AMS_1956-57_33k_ES_PAN_21mic_H50_0404_fot_44B-36272_W_tif
  0
INSERT
  8
FeatureAttribs
  2
FEATURE
  41
1
  42
1
  43
1
  50
0
  10
481478.495
  20
4583202.500
 66
1
  0
ATTRIB
  8
FeatureAttribs
 70
0
  1
PNOA-H_AMS_1956-57_33k_ES_PAN_21mic_H50_0404_fot_44B-36273_W.tif
  2
NAME
  10
481478.495
  20
4583202.500
 40
33.56784
  0
SEQEND
  0
POLYLINE
  8
PNOA-H_AMS_1956-57_33k_ES_PAN_21mic_H50_0404_fot_44B-36273_W_tif
  70
9
  66
1
  0
VERTEX
  8
PNOA-H_AMS_1956-57_33k_ES_PAN_21mic_H50_0404_fot_44B-36273_W_tif
  70
32
  10
482825.038
  20
4580959.371
  30
1204.237
  0
VERTEX
  8
PNOA-H_AMS_1956-57_33k_ES_PAN_21mic_H50_0404_fot_44B-36273_W_tif
  70
32
  10
482790.500
  20
4580940.500
  30
1205.037
  0
VERTEX
  8
PNOA-H_AMS_1956-57_33k_ES_PAN_21mic_H50_0404_fot_44B-36273_W_tif
  70
32
  10
482790.302
  20
4580940.504
  30
1205.036
  0
VERTEX
  8
PNOA-H_AMS_1956-57_33k_ES_PAN_21mic_H50_0404_fot_44B-36273_W_tif
  70
32
  10
480055.000
  20
4581001.000
  30
1195.439
  0
VERTEX
  8
PNOA-H_AMS_1956-57_33k_ES_PAN_21mic_H50_0404_fot_44B-36273_W_tif
  70
32
  10
480151.500
  20
4585040.500
  30
1105.097
  0
VERTEX
  8
PNOA-H_AMS_1956-57_33k_ES_PAN_21mic_H50_0404_fot_44B-36273_W_tif
  70
32
  10
480151.781
  20
4585041.063
  30
1105.168
  0
VERTEX
  8
PNOA-H_AMS_1956-57_33k_ES_PAN_21mic_H50_0404_fot_44B-36273_W_tif
  70
32
  10
480151.802
  20
4585041.103
  30
1105.173
  0
VERTEX
  8
PNOA-H_AMS_1956-57_33k_ES_PAN_21mic_H50_0404_fot_44B-36273_W_tif
  70
32
  10
480152.000
  20
4585041.500
  30
1105.223
  0
VERTEX
  8
PNOA-H_AMS_1956-57_33k_ES_PAN_21mic_H50_0404_fot_44B-36273_W_tif
  70
32
  10
480183.000
  20
4585048.500
  30
1108.993
  0
VERTEX
  8
PNOA-H_AMS_1956-57_33k_ES_PAN_21mic_H50_0404_fot_44B-36273_W_tif
  70
32
  10
482047.500
  20
4585464.000
  30
1114.686
  0
VERTEX
  8
PNOA-H_AMS_1956-57_33k_ES_PAN_21mic_H50_0404_fot_44B-36273_W_tif
  70
32
  10
482050.000
  20
4585464.500
  30
1114.612
  0
VERTEX
  8
PNOA-H_AMS_1956-57_33k_ES_PAN_21mic_H50_0404_fot_44B-36273_W_tif
  70
32
  10
482050.009
  20
4585464.495
  30
1114.611
  0
VERTEX
  8
PNOA-H_AMS_1956-57_33k_ES_PAN_21mic_H50_0404_fot_44B-36273_W_tif
  70
32
  10
482454.000
  20
4585258.000
  30
1105.299
  0
VERTEX
  8
PNOA-H_AMS_1956-57_33k_ES_PAN_21mic_H50_0404_fot_44B-36273_W_tif
  70
32
  10
482857.852
  20
4585051.576
  30
1095.99
  0
VERTEX
  8
PNOA-H_AMS_1956-57_33k_ES_PAN_21mic_H50_0404_fot_44B-36273_W_tif
  70
32
  10
482858.000
  20
4585051.500
  30
1095.986
  0
VERTEX
  8
PNOA-H_AMS_1956-57_33k_ES_PAN_21mic_H50_0404_fot_44B-36273_W_tif
  70
32
  10
482839.000
  20
4580967.000
  30
1203.914
  0
VERTEX
  8
PNOA-H_AMS_1956-57_33k_ES_PAN_21mic_H50_0404_fot_44B-36273_W_tif
  70
32
  10
482838.969
  20
4580966.983
  30
1203.915
  0
VERTEX
  8
PNOA-H_AMS_1956-57_33k_ES_PAN_21mic_H50_0404_fot_44B-36273_W_tif
  70
32
  10
482837.624
  20
4580966.248
  30
1203.946
  0
VERTEX
  8
PNOA-H_AMS_1956-57_33k_ES_PAN_21mic_H50_0404_fot_44B-36273_W_tif
  70
32
  10
482825.038
  20
4580959.371
  30
1204.237
  0
SEQEND
  8
PNOA-H_AMS_1956-57_33k_ES_PAN_21mic_H50_0404_fot_44B-36273_W_tif
  0
INSERT
  8
FeatureAttribs
  2
FEATURE
  41
1
  42
1
  43
1
  50
0
  10
480630.922
  20
4587280.500
 66
1
  0
ATTRIB
  8
FeatureAttribs
 70
0
  1
PNOA-H_AMS_1956-57_33k_ES_PAN_21mic_H50_0404_fot_43B-29641_E.tif
  2
NAME
  10
480630.922
  20
4587280.500
 40
33.56784
  0
SEQEND
  0
POLYLINE
  8
PNOA-H_AMS_1956-57_33k_ES_PAN_21mic_H50_0404_fot_43B-29641_E_tif
  70
9
  66
1
  0
VERTEX
  8
PNOA-H_AMS_1956-57_33k_ES_PAN_21mic_H50_0404_fot_43B-29641_E_tif
  70
32
  10
480151.781
  20
4585041.063
  30
1105.118
  0
VERTEX
  8
PNOA-H_AMS_1956-57_33k_ES_PAN_21mic_H50_0404_fot_43B-29641_E_tif
  70
32
  10
480151.500
  20
4585041.000
  30
1105.116
  0
VERTEX
  8
PNOA-H_AMS_1956-57_33k_ES_PAN_21mic_H50_0404_fot_43B-29641_E_tif
  70
32
  10
479244.163
  20
4585512.915
  30
1097.142
  0
VERTEX
  8
PNOA-H_AMS_1956-57_33k_ES_PAN_21mic_H50_0404_fot_43B-29641_E_tif
  70
32
  10
479244.000
  20
4585513.000
  30
1097.141
  0
VERTEX
  8
PNOA-H_AMS_1956-57_33k_ES_PAN_21mic_H50_0404_fot_43B-29641_E_tif
  70
32
  10
479227.502
  20
4589279.001
  30
981.276
  0
VERTEX
  8
PNOA-H_AMS_1956-57_33k_ES_PAN_21mic_H50_0404_fot_43B-29641_E_tif
  70
32
  10
479227.500
  20
4589279.500
  30
981.26
  0
VERTEX
  8
PNOA-H_AMS_1956-57_33k_ES_PAN_21mic_H50_0404_fot_43B-29641_E_tif
  70
32
  10
479675.500
  20
4589519.500
  30
962.984
  0
VERTEX
  8
PNOA-H_AMS_1956-57_33k_ES_PAN_21mic_H50_0404_fot_43B-29641_E_tif
  70
32
  10
479676.494
  20
4589519.997
  30
963.111
  0
VERTEX
  8
PNOA-H_AMS_1956-57_33k_ES_PAN_21mic_H50_0404_fot_43B-29641_E_tif
  70
32
  10
479676.500
  20
4589520.000
  30
963.112
  0
VERTEX
  8
PNOA-H_AMS_1956-57_33k_ES_PAN_21mic_H50_0404_fot_43B-29641_E_tif
  70
32
  10
481997.500
  20
4589297.000
  30
1055.411
  0
VERTEX
  8
PNOA-H_AMS_1956-57_33k_ES_PAN_21mic_H50_0404_fot_43B-29641_E_tif
  70
32
  10
482050.500
  20
4585492.000
  30
1113.534
  0
VERTEX
  8
PNOA-H_AMS_1956-57_33k_ES_PAN_21mic_H50_0404_fot_43B-29641_E_tif
  70
32
  10
482050.286
  20
4585479.998
  30
1114.002
  0
VERTEX
  8
PNOA-H_AMS_1956-57_33k_ES_PAN_21mic_H50_0404_fot_43B-29641_E_tif
  70
32
  10
482050.009
  20
4585464.495
  30
1114.606
  0
VERTEX
  8
PNOA-H_AMS_1956-57_33k_ES_PAN_21mic_H50_0404_fot_43B-29641_E_tif
  70
32
  10
482050.000
  20
4585464.000
  30
1114.626
  0
VERTEX
  8
PNOA-H_AMS_1956-57_33k_ES_PAN_21mic_H50_0404_fot_43B-29641_E_tif
  70
32
  10
480151.850
  20
4585041.078
  30
1105.118
  0
VERTEX
  8
PNOA-H_AMS_1956-57_33k_ES_PAN_21mic_H50_0404_fot_43B-29641_E_tif
  70
32
  10
480151.781
  20
4585041.063
  30
1105.118
  0
SEQEND
  8
PNOA-H_AMS_1956-57_33k_ES_PAN_21mic_H50_0404_fot_43B-29641_E_tif
  0
INSERT
  8
FeatureAttribs
  2
FEATURE
  41
1
  42
1
  43
1
  50
0
  10
481345.947
  20
4578672.250
 66
1
  0
ATTRIB
  8
FeatureAttribs
 70
0
  1
PNOA-H_AMS_1956-57_33k_ES_PAN_21mic_H50_0404_fot_45B-36170_E.tif
  2
NAME
  10
481345.947
  20
4578672.250
 40
33.56784
  0
SEQEND
  0
POLYLINE
  8
PNOA-H_AMS_1956-57_33k_ES_PAN_21mic_H50_0404_fot_45B-36170_E_tif
  70
9
  66
1
  0
VERTEX
  8
PNOA-H_AMS_1956-57_33k_ES_PAN_21mic_H50_0404_fot_45B-36170_E_tif
  70
32
  10
482727.494
  20
4576725.294
  30
1216.862
  0
VERTEX
  8
PNOA-H_AMS_1956-57_33k_ES_PAN_21mic_H50_0404_fot_45B-36170_E_tif
  70
32
  10
481788.500
  20
4576343.500
  30
1155.294
  0
VERTEX
  8
PNOA-H_AMS_1956-57_33k_ES_PAN_21mic_H50_0404_fot_45B-36170_E_tif
  70
32
  10
481787.468
  20
4576343.690
  30
1155.288
  0
VERTEX
  8
PNOA-H_AMS_1956-57_33k_ES_PAN_21mic_H50_0404_fot_45B-36170_E_tif
  70
32
  10
480645.800
  20
4576554.400
  30
1149.184
  0
VERTEX
  8
PNOA-H_AMS_1956-57_33k_ES_PAN_21mic_H50_0404_fot_45B-36170_E_tif
  70
32
  10
479884.730
  20
4576694.865
  30
1145.115
  0
VERTEX
  8
PNOA-H_AMS_1956-57_33k_ES_PAN_21mic_H50_0404_fot_45B-36170_E_tif
  70
32
  10
479884.000
  20
4576695.000
  30
1145.111
  0
VERTEX
  8
PNOA-H_AMS_1956-57_33k_ES_PAN_21mic_H50_0404_fot_45B-36170_E_tif
  70
32
  10
479994.500
  20
4580957.500
  30
1171.56
  0
VERTEX
  8
PNOA-H_AMS_1956-57_33k_ES_PAN_21mic_H50_0404_fot_45B-36170_E_tif
  70
32
  10
479994.978
  20
4580968.501
  30
1173.973
  0
VERTEX
  8
PNOA-H_AMS_1956-57_33k_ES_PAN_21mic_H50_0404_fot_45B-36170_E_tif
  70
32
  10
479995.000
  20
4580969.000
  30
1174.082
  0
VERTEX
  8
PNOA-H_AMS_1956-57_33k_ES_PAN_21mic_H50_0404_fot_45B-36170_E_tif
  70
32
  10
480053.500
  20
4581000.500
  30
1195.023
  0
VERTEX
  8
PNOA-H_AMS_1956-57_33k_ES_PAN_21mic_H50_0404_fot_45B-36170_E_tif
  70
32
  10
480054.500
  20
4581001.000
  30
1195.355
  0
VERTEX
  8
PNOA-H_AMS_1956-57_33k_ES_PAN_21mic_H50_0404_fot_45B-36170_E_tif
  70
32
  10
480054.980
  20
4581000.989
  30
1195.356
  0
VERTEX
  8
PNOA-H_AMS_1956-57_33k_ES_PAN_21mic_H50_0404_fot_45B-36170_E_tif
  70
32
  10
482790.000
  20
4580940.500
  30
1205.055
  0
VERTEX
  8
PNOA-H_AMS_1956-57_33k_ES_PAN_21mic_H50_0404_fot_45B-36170_E_tif
  70
32
  10
482789.989
  20
4580939.721
  30
1205.057
  0
VERTEX
  8
PNOA-H_AMS_1956-57_33k_ES_PAN_21mic_H50_0404_fot_45B-36170_E_tif
  70
32
  10
482728.000
  20
4576725.500
  30
1216.895
  0
VERTEX
  8
PNOA-H_AMS_1956-57_33k_ES_PAN_21mic_H50_0404_fot_45B-36170_E_tif
  70
32
  10
482727.494
  20
4576725.294
  30
1216.862
  0
SEQEND
  8
PNOA-H_AMS_1956-57_33k_ES_PAN_21mic_H50_0404_fot_45B-36170_E_tif
  0
INSERT
  8
FeatureAttribs
  2
FEATURE
  41
1
  42
1
  43
1
  50
0
  10
483536.426
  20
4578642.750
 66
1
  0
ATTRIB
  8
FeatureAttribs
 70
0
  1
PNOA-H_AMS_1956-57_33k_ES_PAN_21mic_H50_0405_fot_45B-36171_E.tif
  2
NAME
  10
483536.426
  20
4578642.750
 40
33.56784
  0
SEQEND
  0
POLYLINE
  8
PNOA-H_AMS_1956-57_33k_ES_PAN_21mic_H50_0405_fot_45B-36171_E_tif
  70
9
  66
1
  0
VERTEX
  8
PNOA-H_AMS_1956-57_33k_ES_PAN_21mic_H50_0405_fot_45B-36171_E_tif
  70
32
  10
484311.910
  20
4576351.438
  30
1196.799
  0
VERTEX
  8
PNOA-H_AMS_1956-57_33k_ES_PAN_21mic_H50_0405_fot_45B-36171_E_tif
  70
32
  10
484230.500
  20
4576318.500
  30
1195.58
  0
VERTEX
  8
PNOA-H_AMS_1956-57_33k_ES_PAN_21mic_H50_0405_fot_45B-36171_E_tif
  70
32
  10
484230.201
  20
4576318.581
  30
1195.584
  0
VERTEX
  8
PNOA-H_AMS_1956-57_33k_ES_PAN_21mic_H50_0405_fot_45B-36171_E_tif
  70
32
  10
484008.456
  20
4576378.648
  30
1198.73
  0
VERTEX
  8
PNOA-H_AMS_1956-57_33k_ES_PAN_21mic_H50_0405_fot_45B-36171_E_tif
  70
32
  10
483787.502
  20
4576438.500
  30
1201.864
  0
VERTEX
  8
PNOA-H_AMS_1956-57_33k_ES_PAN_21mic_H50_0405_fot_45B-36171_E_tif
  70
32
  10
483428.494
  20
4576535.749
  30
1206.958
  0
VERTEX
  8
PNOA-H_AMS_1956-57_33k_ES_PAN_21mic_H50_0405_fot_45B-36171_E_tif
  70
32
  10
482732.850
  20
4576724.186
  30
1216.827
  0
VERTEX
  8
PNOA-H_AMS_1956-57_33k_ES_PAN_21mic_H50_0405_fot_45B-36171_E_tif
  70
32
  10
482728.000
  20
4576725.500
  30
1216.895
  0
VERTEX
  8
PNOA-H_AMS_1956-57_33k_ES_PAN_21mic_H50_0405_fot_45B-36171_E_tif
  70
32
  10
482789.500
  20
4580938.500
  30
1205.031
  0
VERTEX
  8
PNOA-H_AMS_1956-57_33k_ES_PAN_21mic_H50_0405_fot_45B-36171_E_tif
  70
32
  10
482789.989
  20
4580939.721
  30
1205.038
  0
VERTEX
  8
PNOA-H_AMS_1956-57_33k_ES_PAN_21mic_H50_0405_fot_45B-36171_E_tif
  70
32
  10
482790.302
  20
4580940.504
  30
1205.043
  0
VERTEX
  8
PNOA-H_AMS_1956-57_33k_ES_PAN_21mic_H50_0405_fot_45B-36171_E_tif
  70
32
  10
482790.500
  20
4580941.000
  30
1205.046
  0
VERTEX
  8
PNOA-H_AMS_1956-57_33k_ES_PAN_21mic_H50_0405_fot_45B-36171_E_tif
  70
32
  10
482825.038
  20
4580959.371
  30
1204.232
  0
VERTEX
  8
PNOA-H_AMS_1956-57_33k_ES_PAN_21mic_H50_0405_fot_45B-36171_E_tif
  70
32
  10
482837.500
  20
4580966.000
  30
1203.938
  0
VERTEX
  8
PNOA-H_AMS_1956-57_33k_ES_PAN_21mic_H50_0405_fot_45B-36171_E_tif
  70
32
  10
482837.624
  20
4580966.248
  30
1203.96
  0
VERTEX
  8
PNOA-H_AMS_1956-57_33k_ES_PAN_21mic_H50_0405_fot_45B-36171_E_tif
  70
32
  10
482838.000
  20
4580967.000
  30
1203.93
  0
VERTEX
  8
PNOA-H_AMS_1956-57_33k_ES_PAN_21mic_H50_0405_fot_45B-36171_E_tif
  70
32
  10
482838.969
  20
4580966.983
  30
1203.931
  0
VERTEX
  8
PNOA-H_AMS_1956-57_33k_ES_PAN_21mic_H50_0405_fot_45B-36171_E_tif
  70
32
  10
483034.863
  20
4580963.605
  30
1204.196
  0
VERTEX
  8
PNOA-H_AMS_1956-57_33k_ES_PAN_21mic_H50_0405_fot_45B-36171_E_tif
  70
32
  10
484321.835
  20
4580941.407
  30
1205.937
  0
VERTEX
  8
PNOA-H_AMS_1956-57_33k_ES_PAN_21mic_H50_0405_fot_45B-36171_E_tif
  70
32
  10
484321.835
  20
4580941.294
  30
0
  0
VERTEX
  8
PNOA-H_AMS_1956-57_33k_ES_PAN_21mic_H50_0405_fot_45B-36171_E_tif
  70
32
  10
484320.672
  20
4580403.936
  30
0
  0
VERTEX
  8
PNOA-H_AMS_1956-57_33k_ES_PAN_21mic_H50_0405_fot_45B-36171_E_tif
  70
32
  10
484315.671
  20
4578091.090
  30
0
  0
VERTEX
  8
PNOA-H_AMS_1956-57_33k_ES_PAN_21mic_H50_0405_fot_45B-36171_E_tif
  70
32
  10
484311.910
  20
4576351.641
  30
0
  0
VERTEX
  8
PNOA-H_AMS_1956-57_33k_ES_PAN_21mic_H50_0405_fot_45B-36171_E_tif
  70
32
  10
484311.910
  20
4576351.438
  30
1196.799
  0
SEQEND
  8
PNOA-H_AMS_1956-57_33k_ES_PAN_21mic_H50_0405_fot_45B-36171_E_tif
  0
INSERT
  8
FeatureAttribs
  2
FEATURE
  41
1
  42
1
  43
1
  50
0
  10
483011.924
  20
4576251.923
 66
1
  0
ATTRIB
  8
FeatureAttribs
 70
0
  1
PNOA-H_AMS_1956-57_33k_ES_PAN_21mic_H50_0432_fot_46B-29792_E.tif
  2
NAME
  10
483011.924
  20
4576251.923
 40
33.56784
  0
SEQEND
  0
POLYLINE
  8
PNOA-H_AMS_1956-57_33k_ES_PAN_21mic_H50_0432_fot_46B-29792_E_tif
  70
9
  66
1
  0
VERTEX
  8
PNOA-H_AMS_1956-57_33k_ES_PAN_21mic_H50_0432_fot_46B-29792_E_tif
  70
32
  10
483428.494
  20
4576535.749
  30
1208.145
  0
VERTEX
  8
PNOA-H_AMS_1956-57_33k_ES_PAN_21mic_H50_0432_fot_46B-29792_E_tif
  70
32
  10
483786.500
  20
4576438.500
  30
1203.431
  0
VERTEX
  8
PNOA-H_AMS_1956-57_33k_ES_PAN_21mic_H50_0432_fot_46B-29792_E_tif
  70
32
  10
483787.502
  20
4576438.500
  30
1203.426
  0
VERTEX
  8
PNOA-H_AMS_1956-57_33k_ES_PAN_21mic_H50_0432_fot_46B-29792_E_tif
  70
32
  10
483788.000
  20
4576438.500
  30
1203.423
  0
VERTEX
  8
PNOA-H_AMS_1956-57_33k_ES_PAN_21mic_H50_0432_fot_46B-29792_E_tif
  70
32
  10
484008.456
  20
4576378.648
  30
1199.46
  0
VERTEX
  8
PNOA-H_AMS_1956-57_33k_ES_PAN_21mic_H50_0432_fot_46B-29792_E_tif
  70
32
  10
484230.000
  20
4576318.500
  30
1195.477
  0
VERTEX
  8
PNOA-H_AMS_1956-57_33k_ES_PAN_21mic_H50_0432_fot_46B-29792_E_tif
  70
32
  10
484271.562
  20
4575778.346
  30
1225.167
  0
VERTEX
  8
PNOA-H_AMS_1956-57_33k_ES_PAN_21mic_H50_0432_fot_46B-29792_E_tif
  70
32
  10
481797.537
  20
4575784.288
  30
1187.735
  0
VERTEX
  8
PNOA-H_AMS_1956-57_33k_ES_PAN_21mic_H50_0432_fot_46B-29792_E_tif
  70
32
  10
481787.000
  20
4576343.500
  30
1155.515
  0
VERTEX
  8
PNOA-H_AMS_1956-57_33k_ES_PAN_21mic_H50_0432_fot_46B-29792_E_tif
  70
32
  10
481787.468
  20
4576343.690
  30
1155.546
  0
VERTEX
  8
PNOA-H_AMS_1956-57_33k_ES_PAN_21mic_H50_0432_fot_46B-29792_E_tif
  70
32
  10
482726.500
  20
4576725.500
  30
1216.895
  0
VERTEX
  8
PNOA-H_AMS_1956-57_33k_ES_PAN_21mic_H50_0432_fot_46B-29792_E_tif
  70
32
  10
482727.494
  20
4576725.294
  30
1216.915
  0
VERTEX
  8
PNOA-H_AMS_1956-57_33k_ES_PAN_21mic_H50_0432_fot_46B-29792_E_tif
  70
32
  10
482732.850
  20
4576724.186
  30
1217.027
  0
VERTEX
  8
PNOA-H_AMS_1956-57_33k_ES_PAN_21mic_H50_0432_fot_46B-29792_E_tif
  70
32
  10
482741.000
  20
4576722.500
  30
1217.196
  0
VERTEX
  8
PNOA-H_AMS_1956-57_33k_ES_PAN_21mic_H50_0432_fot_46B-29792_E_tif
  70
32
  10
483428.494
  20
4576535.749
  30
1208.145
  0
SEQEND
  8
PNOA-H_AMS_1956-57_33k_ES_PAN_21mic_H50_0432_fot_46B-29792_E_tif
  0
INSERT
  8
FeatureAttribs
  2
FEATURE
  41
1
  42
1
  43
1
  50
0
  10
480590.401
  20
4576239.644
 66
1
  0
ATTRIB
  8
FeatureAttribs
 70
0
  1
PNOA-H_AMS_1956-57_33k_ES_PAN_21mic_H50_0432_fot_46B-29793_E.tif
  2
NAME
  10
480590.401
  20
4576239.644
 40
33.56784
  0
SEQEND
  0
POLYLINE
  8
PNOA-H_AMS_1956-57_33k_ES_PAN_21mic_H50_0432_fot_46B-29793_E_tif
  70
9
  66
1
  0
VERTEX
  8
PNOA-H_AMS_1956-57_33k_ES_PAN_21mic_H50_0432_fot_46B-29793_E_tif
  70
32
  10
481787.000
  20
4576343.500
  30
1155.515
  0
VERTEX
  8
PNOA-H_AMS_1956-57_33k_ES_PAN_21mic_H50_0432_fot_46B-29793_E_tif
  70
32
  10
481797.537
  20
4575784.288
  30
1187.735
  0
VERTEX
  8
PNOA-H_AMS_1956-57_33k_ES_PAN_21mic_H50_0432_fot_46B-29793_E_tif
  70
32
  10
480824.151
  20
4575786.625
  30
0
  0
VERTEX
  8
PNOA-H_AMS_1956-57_33k_ES_PAN_21mic_H50_0432_fot_46B-29793_E_tif
  70
32
  10
479384.355
  20
4575790.774
  30
0
  0
VERTEX
  8
PNOA-H_AMS_1956-57_33k_ES_PAN_21mic_H50_0432_fot_46B-29793_E_tif
  70
32
  10
479383.968
  20
4575790.775
  30
1176.725
  0
VERTEX
  8
PNOA-H_AMS_1956-57_33k_ES_PAN_21mic_H50_0432_fot_46B-29793_E_tif
  70
32
  10
479395.500
  20
4576448.000
  30
1161.338
  0
VERTEX
  8
PNOA-H_AMS_1956-57_33k_ES_PAN_21mic_H50_0432_fot_46B-29793_E_tif
  70
32
  10
479395.986
  20
4576449.215
  30
1161.335
  0
VERTEX
  8
PNOA-H_AMS_1956-57_33k_ES_PAN_21mic_H50_0432_fot_46B-29793_E_tif
  70
32
  10
479396.307
  20
4576450.018
  30
1161.334
  0
VERTEX
  8
PNOA-H_AMS_1956-57_33k_ES_PAN_21mic_H50_0432_fot_46B-29793_E_tif
  70
32
  10
479396.500
  20
4576450.500
  30
1161.333
  0
VERTEX
  8
PNOA-H_AMS_1956-57_33k_ES_PAN_21mic_H50_0432_fot_46B-29793_E_tif
  70
32
  10
479690.500
  20
4576598.000
  30
1151.239
  0
VERTEX
  8
PNOA-H_AMS_1956-57_33k_ES_PAN_21mic_H50_0432_fot_46B-29793_E_tif
  70
32
  10
479691.500
  20
4576598.500
  30
1151.192
  0
VERTEX
  8
PNOA-H_AMS_1956-57_33k_ES_PAN_21mic_H50_0432_fot_46B-29793_E_tif
  70
32
  10
479882.015
  20
4576693.512
  30
1145.173
  0
VERTEX
  8
PNOA-H_AMS_1956-57_33k_ES_PAN_21mic_H50_0432_fot_46B-29793_E_tif
  70
32
  10
479884.730
  20
4576694.865
  30
1145.087
  0
VERTEX
  8
PNOA-H_AMS_1956-57_33k_ES_PAN_21mic_H50_0432_fot_46B-29793_E_tif
  70
32
  10
479885.000
  20
4576695.000
  30
1145.078
  0
VERTEX
  8
PNOA-H_AMS_1956-57_33k_ES_PAN_21mic_H50_0432_fot_46B-29793_E_tif
  70
32
  10
480645.800
  20
4576554.400
  30
1149.253
  0
VERTEX
  8
PNOA-H_AMS_1956-57_33k_ES_PAN_21mic_H50_0432_fot_46B-29793_E_tif
  70
32
  10
481787.000
  20
4576343.500
  30
1155.515
  0
SEQEND
  8
PNOA-H_AMS_1956-57_33k_ES_PAN_21mic_H50_0432_fot_46B-29793_E_tif
  0
INSERT
  8
FeatureAttribs
  2
FEATURE
  41
1
  42
1
  43
1
  50
0
  10
484280.400
  20
4576064.947
 66
1
  0
ATTRIB
  8
FeatureAttribs
 70
0
  1
PNOA-H_AMS_1956-57_33k_ES_PAN_21mic_H50_0433_fot_46B-29791_E.tif
  2
NAME
  10
484280.400
  20
4576064.947
 40
33.56784
  0
SEQEND
  0
POLYLINE
  8
PNOA-H_AMS_1956-57_33k_ES_PAN_21mic_H50_0433_fot_46B-29791_E_tif
  70
9
  66
1
  0
VERTEX
  8
PNOA-H_AMS_1956-57_33k_ES_PAN_21mic_H50_0433_fot_46B-29791_E_tif
  70
32
  10
484311.910
  20
4576351.438
  30
0
  0
VERTEX
  8
PNOA-H_AMS_1956-57_33k_ES_PAN_21mic_H50_0433_fot_46B-29791_E_tif
  70
32
  10
484310.671
  20
4575778.252
  30
0
  0
VERTEX
  8
PNOA-H_AMS_1956-57_33k_ES_PAN_21mic_H50_0433_fot_46B-29791_E_tif
  70
32
  10
484271.562
  20
4575778.346
  30
1225.167
  0
VERTEX
  8
PNOA-H_AMS_1956-57_33k_ES_PAN_21mic_H50_0433_fot_46B-29791_E_tif
  70
32
  10
484230.000
  20
4576318.500
  30
1195.477
  0
VERTEX
  8
PNOA-H_AMS_1956-57_33k_ES_PAN_21mic_H50_0433_fot_46B-29791_E_tif
  70
32
  10
484230.201
  20
4576318.581
  30
1195.48
  0
VERTEX
  8
PNOA-H_AMS_1956-57_33k_ES_PAN_21mic_H50_0433_fot_46B-29791_E_tif
  70
32
  10
484311.910
  20
4576351.641
  30
1196.711
  0
VERTEX
  8
PNOA-H_AMS_1956-57_33k_ES_PAN_21mic_H50_0433_fot_46B-29791_E_tif
  70
32
  10
484311.910
  20
4576351.438
  30
0
  0
SEQEND
  8
PNOA-H_AMS_1956-57_33k_ES_PAN_21mic_H50_0433_fot_46B-29791_E_tif
  0
ENDSEC
  0
EOF
