  0
SECTION
  2
HEADER
  9
$ACADVER
  1
AC1009
  9
$LUNITS
  70
2
  9
$LIMMIN
  10
428526.063
  20
4575892.122
  9
$LIMMAX
  10
456529.733
  20
4594616.357
  9
$EXTMIN
  10
428526.063
  20
4575892.122
  9
$EXTMAX
  10
456529.733
  20
4594616.357
  999
Created by Global Mapper
  999
Projection: UTM
  999
Datum: ETRS89
  999
Ground Units: meters
  999
ZONE: 30
  0
ENDSEC
  0
SECTION
  2
TABLES
  0
ENDSEC
  0
SECTION
  2
BLOCKS
  0
BLOCK
  8
FeatureAttribs
  70
0
  2
FEATURE
  3
FEATURE
  10
0.00000000
  20
0.00000000
  0
ATTDEF
  8
FeatureAttribs
  70
0
  1
 
  2
NAME
  3
NAME
  10
0.00000000
  20
0.00000000
  40
1.00000000
  0
ENDBLK
  0
ENDSEC
  0
SECTION
  2
ENTITIES
  0
INSERT
  8
FeatureAttribs
  2
FEATURE
  41
1
  42
1
  43
1
  50
0
  10
436387.214
  20
4592268.159
 66
1
  0
ATTRIB
  8
FeatureAttribs
 70
0
  1
PNOA-H_AMS_1956-57_33k_ES_PAN_21mic_H50_0403_fot_42B-36294_E.tif
  2
NAME
  10
436387.214
  20
4592268.159
 40
33.68683
  0
SEQEND
  0
POLYLINE
  8
PNOA-H_AMS_1956-57_33k_ES_PAN_21mic_H50_0403_fot_42B-36294_E_tif
  70
9
  66
1
  0
VERTEX
  8
PNOA-H_AMS_1956-57_33k_ES_PAN_21mic_H50_0403_fot_42B-36294_E_tif
  70
32
  10
435051.474
  20
4589986.515
  30
1143.333
  0
VERTEX
  8
PNOA-H_AMS_1956-57_33k_ES_PAN_21mic_H50_0403_fot_42B-36294_E_tif
  70
32
  10
435051.000
  20
4589986.500
  30
1143.331
  0
VERTEX
  8
PNOA-H_AMS_1956-57_33k_ES_PAN_21mic_H50_0403_fot_42B-36294_E_tif
  70
32
  10
434927.000
  20
4590060.000
  30
1136.362
  0
VERTEX
  8
PNOA-H_AMS_1956-57_33k_ES_PAN_21mic_H50_0403_fot_42B-36294_E_tif
  70
32
  10
434925.584
  20
4590061.062
  30
1136.298
  0
VERTEX
  8
PNOA-H_AMS_1956-57_33k_ES_PAN_21mic_H50_0403_fot_42B-36294_E_tif
  70
32
  10
434925.000
  20
4590061.500
  30
1136.271
  0
VERTEX
  8
PNOA-H_AMS_1956-57_33k_ES_PAN_21mic_H50_0403_fot_42B-36294_E_tif
  70
32
  10
434925.000
  20
4590064.500
  30
1136.293
  0
VERTEX
  8
PNOA-H_AMS_1956-57_33k_ES_PAN_21mic_H50_0403_fot_42B-36294_E_tif
  70
32
  10
435520.500
  20
4594496.500
  30
1035.725
  0
VERTEX
  8
PNOA-H_AMS_1956-57_33k_ES_PAN_21mic_H50_0403_fot_42B-36294_E_tif
  70
32
  10
435521.116
  20
4594496.618
  30
1035.684
  0
VERTEX
  8
PNOA-H_AMS_1956-57_33k_ES_PAN_21mic_H50_0403_fot_42B-36294_E_tif
  70
32
  10
435799.719
  20
4594549.819
  30
1017.234
  0
VERTEX
  8
PNOA-H_AMS_1956-57_33k_ES_PAN_21mic_H50_0403_fot_42B-36294_E_tif
  70
32
  10
435801.542
  20
4594549.803
  30
0
  0
VERTEX
  8
PNOA-H_AMS_1956-57_33k_ES_PAN_21mic_H50_0403_fot_42B-36294_E_tif
  70
32
  10
436799.574
  20
4594541.146
  30
972.447
  0
VERTEX
  8
PNOA-H_AMS_1956-57_33k_ES_PAN_21mic_H50_0403_fot_42B-36294_E_tif
  70
32
  10
436940.885
  20
4594485.081
  30
980.624
  0
VERTEX
  8
PNOA-H_AMS_1956-57_33k_ES_PAN_21mic_H50_0403_fot_42B-36294_E_tif
  70
32
  10
437546.000
  20
4594245.000
  30
1015.642
  0
VERTEX
  8
PNOA-H_AMS_1956-57_33k_ES_PAN_21mic_H50_0403_fot_42B-36294_E_tif
  70
32
  10
437561.500
  20
4590068.000
  30
1152.237
  0
VERTEX
  8
PNOA-H_AMS_1956-57_33k_ES_PAN_21mic_H50_0403_fot_42B-36294_E_tif
  70
32
  10
435150.026
  20
4589989.715
  30
1143.682
  0
VERTEX
  8
PNOA-H_AMS_1956-57_33k_ES_PAN_21mic_H50_0403_fot_42B-36294_E_tif
  70
32
  10
435051.474
  20
4589986.515
  30
1143.333
  0
SEQEND
  8
PNOA-H_AMS_1956-57_33k_ES_PAN_21mic_H50_0403_fot_42B-36294_E_tif
  0
INSERT
  8
FeatureAttribs
  2
FEATURE
  41
1
  42
1
  43
1
  50
0
  10
430312.205
  20
4594591.947
 66
1
  0
ATTRIB
  8
FeatureAttribs
 70
0
  1
PNOA-H_AMS_1956-57_33k_ES_PAN_21mic_H50_0375_fot_41B-37426_W.tif
  2
NAME
  10
430312.205
  20
4594591.947
 40
33.68683
  0
SEQEND
  0
POLYLINE
  8
PNOA-H_AMS_1956-57_33k_ES_PAN_21mic_H50_0375_fot_41B-37426_W_tif
  70
9
  66
1
  0
VERTEX
  8
PNOA-H_AMS_1956-57_33k_ES_PAN_21mic_H50_0375_fot_41B-37426_W_tif
  70
32
  10
430389.536
  20
4594600.156
  30
976.453
  0
VERTEX
  8
PNOA-H_AMS_1956-57_33k_ES_PAN_21mic_H50_0375_fot_41B-37426_W_tif
  70
32
  10
430348.500
  20
4594581.500
  30
976.245
  0
VERTEX
  8
PNOA-H_AMS_1956-57_33k_ES_PAN_21mic_H50_0375_fot_41B-37426_W_tif
  70
32
  10
430348.097
  20
4594581.544
  30
976.242
  0
VERTEX
  8
PNOA-H_AMS_1956-57_33k_ES_PAN_21mic_H50_0375_fot_41B-37426_W_tif
  70
32
  10
430348.005
  20
4594581.554
  30
976.242
  0
VERTEX
  8
PNOA-H_AMS_1956-57_33k_ES_PAN_21mic_H50_0375_fot_41B-37426_W_tif
  70
32
  10
430157.364
  20
4594602.393
  30
975.112
  0
VERTEX
  8
PNOA-H_AMS_1956-57_33k_ES_PAN_21mic_H50_0375_fot_41B-37426_W_tif
  70
32
  10
430161.386
  20
4594602.355
  30
0
  0
VERTEX
  8
PNOA-H_AMS_1956-57_33k_ES_PAN_21mic_H50_0375_fot_41B-37426_W_tif
  70
32
  10
430388.884
  20
4594600.162
  30
0
  0
VERTEX
  8
PNOA-H_AMS_1956-57_33k_ES_PAN_21mic_H50_0375_fot_41B-37426_W_tif
  70
32
  10
430389.536
  20
4594600.156
  30
976.453
  0
SEQEND
  8
PNOA-H_AMS_1956-57_33k_ES_PAN_21mic_H50_0375_fot_41B-37426_W_tif
  0
INSERT
  8
FeatureAttribs
  2
FEATURE
  41
1
  42
1
  43
1
  50
0
  10
435512.700
  20
4594525.969
 66
1
  0
ATTRIB
  8
FeatureAttribs
 70
0
  1
PNOA-H_AMS_1956-57_33k_ES_PAN_21mic_H50_0375_fot_41B-37424_W.tif
  2
NAME
  10
435512.700
  20
4594525.969
 40
33.68683
  0
SEQEND
  0
POLYLINE
  8
PNOA-H_AMS_1956-57_33k_ES_PAN_21mic_H50_0375_fot_41B-37424_W_tif
  70
9
  66
1
  0
VERTEX
  8
PNOA-H_AMS_1956-57_33k_ES_PAN_21mic_H50_0375_fot_41B-37424_W_tif
  70
32
  10
435801.542
  20
4594549.803
  30
1017.156
  0
VERTEX
  8
PNOA-H_AMS_1956-57_33k_ES_PAN_21mic_H50_0375_fot_41B-37424_W_tif
  70
32
  10
435523.000
  20
4594496.500
  30
1035.729
  0
VERTEX
  8
PNOA-H_AMS_1956-57_33k_ES_PAN_21mic_H50_0375_fot_41B-37424_W_tif
  70
32
  10
435521.116
  20
4594496.618
  30
1035.719
  0
VERTEX
  8
PNOA-H_AMS_1956-57_33k_ES_PAN_21mic_H50_0375_fot_41B-37424_W_tif
  70
32
  10
435519.093
  20
4594496.744
  30
1035.708
  0
VERTEX
  8
PNOA-H_AMS_1956-57_33k_ES_PAN_21mic_H50_0375_fot_41B-37424_W_tif
  70
32
  10
435515.000
  20
4594497.000
  30
1035.685
  0
VERTEX
  8
PNOA-H_AMS_1956-57_33k_ES_PAN_21mic_H50_0375_fot_41B-37424_W_tif
  70
32
  10
435178.939
  20
4594555.437
  30
1030.755
  0
VERTEX
  8
PNOA-H_AMS_1956-57_33k_ES_PAN_21mic_H50_0375_fot_41B-37424_W_tif
  70
32
  10
435180.999
  20
4594555.418
  30
0
  0
VERTEX
  8
PNOA-H_AMS_1956-57_33k_ES_PAN_21mic_H50_0375_fot_41B-37424_W_tif
  70
32
  10
435663.874
  20
4594550.997
  30
0
  0
VERTEX
  8
PNOA-H_AMS_1956-57_33k_ES_PAN_21mic_H50_0375_fot_41B-37424_W_tif
  70
32
  10
435799.719
  20
4594549.819
  30
0
  0
VERTEX
  8
PNOA-H_AMS_1956-57_33k_ES_PAN_21mic_H50_0375_fot_41B-37424_W_tif
  70
32
  10
435801.542
  20
4594549.803
  30
1017.156
  0
SEQEND
  8
PNOA-H_AMS_1956-57_33k_ES_PAN_21mic_H50_0375_fot_41B-37424_W_tif
  0
INSERT
  8
FeatureAttribs
  2
FEATURE
  41
1
  42
1
  43
1
  50
0
  10
433060.139
  20
4594561.488
 66
1
  0
ATTRIB
  8
FeatureAttribs
 70
0
  1
PNOA-H_AMS_1956-57_33k_ES_PAN_21mic_H50_0375_fot_41B-37425_W.tif
  2
NAME
  10
433060.139
  20
4594561.488
 40
33.68683
  0
SEQEND
  0
POLYLINE
  8
PNOA-H_AMS_1956-57_33k_ES_PAN_21mic_H50_0375_fot_41B-37425_W_tif
  70
9
  66
1
  0
VERTEX
  8
PNOA-H_AMS_1956-57_33k_ES_PAN_21mic_H50_0375_fot_41B-37425_W_tif
  70
32
  10
433159.652
  20
4594573.926
  30
1003.467
  0
VERTEX
  8
PNOA-H_AMS_1956-57_33k_ES_PAN_21mic_H50_0375_fot_41B-37425_W_tif
  70
32
  10
433097.000
  20
4594546.500
  30
1002.817
  0
VERTEX
  8
PNOA-H_AMS_1956-57_33k_ES_PAN_21mic_H50_0375_fot_41B-37425_W_tif
  70
32
  10
433096.978
  20
4594546.503
  30
1002.816
  0
VERTEX
  8
PNOA-H_AMS_1956-57_33k_ES_PAN_21mic_H50_0375_fot_41B-37425_W_tif
  70
32
  10
432881.077
  20
4594576.477
  30
1000.462
  0
VERTEX
  8
PNOA-H_AMS_1956-57_33k_ES_PAN_21mic_H50_0375_fot_41B-37425_W_tif
  70
32
  10
432881.504
  20
4594576.473
  30
0
  0
VERTEX
  8
PNOA-H_AMS_1956-57_33k_ES_PAN_21mic_H50_0375_fot_41B-37425_W_tif
  70
32
  10
433158.597
  20
4594573.936
  30
0
  0
VERTEX
  8
PNOA-H_AMS_1956-57_33k_ES_PAN_21mic_H50_0375_fot_41B-37425_W_tif
  70
32
  10
433159.652
  20
4594573.926
  30
1003.467
  0
SEQEND
  8
PNOA-H_AMS_1956-57_33k_ES_PAN_21mic_H50_0375_fot_41B-37425_W_tif
  0
INSERT
  8
FeatureAttribs
  2
FEATURE
  41
1
  42
1
  43
1
  50
0
  10
434113.242
  20
4592317.718
 66
1
  0
ATTRIB
  8
FeatureAttribs
 70
0
  1
PNOA-H_AMS_1956-57_33k_ES_PAN_21mic_H50_0403_fot_42A-29465_W.tif
  2
NAME
  10
434113.242
  20
4592317.718
 40
33.68683
  0
SEQEND
  0
POLYLINE
  8
PNOA-H_AMS_1956-57_33k_ES_PAN_21mic_H50_0403_fot_42A-29465_W_tif
  70
9
  66
1
  0
VERTEX
  8
PNOA-H_AMS_1956-57_33k_ES_PAN_21mic_H50_0403_fot_42A-29465_W_tif
  70
32
  10
435520.500
  20
4594496.500
  30
1035.725
  0
VERTEX
  8
PNOA-H_AMS_1956-57_33k_ES_PAN_21mic_H50_0403_fot_42A-29465_W_tif
  70
32
  10
434925.000
  20
4590061.500
  30
1136.271
  0
VERTEX
  8
PNOA-H_AMS_1956-57_33k_ES_PAN_21mic_H50_0403_fot_42A-29465_W_tif
  70
32
  10
434924.793
  20
4590061.531
  30
1136.266
  0
VERTEX
  8
PNOA-H_AMS_1956-57_33k_ES_PAN_21mic_H50_0403_fot_42A-29465_W_tif
  70
32
  10
432912.381
  20
4590358.444
  30
1085.5
  0
VERTEX
  8
PNOA-H_AMS_1956-57_33k_ES_PAN_21mic_H50_0403_fot_42A-29465_W_tif
  70
32
  10
432912.022
  20
4590358.497
  30
1085.491
  0
VERTEX
  8
PNOA-H_AMS_1956-57_33k_ES_PAN_21mic_H50_0403_fot_42A-29465_W_tif
  70
32
  10
432912.000
  20
4590358.500
  30
1085.491
  0
VERTEX
  8
PNOA-H_AMS_1956-57_33k_ES_PAN_21mic_H50_0403_fot_42A-29465_W_tif
  70
32
  10
433096.978
  20
4594546.503
  30
1002.854
  0
VERTEX
  8
PNOA-H_AMS_1956-57_33k_ES_PAN_21mic_H50_0403_fot_42A-29465_W_tif
  70
32
  10
433097.000
  20
4594547.000
  30
1002.844
  0
VERTEX
  8
PNOA-H_AMS_1956-57_33k_ES_PAN_21mic_H50_0403_fot_42A-29465_W_tif
  70
32
  10
433158.597
  20
4594573.936
  30
1003.481
  0
VERTEX
  8
PNOA-H_AMS_1956-57_33k_ES_PAN_21mic_H50_0403_fot_42A-29465_W_tif
  70
32
  10
433159.652
  20
4594573.926
  30
0
  0
VERTEX
  8
PNOA-H_AMS_1956-57_33k_ES_PAN_21mic_H50_0403_fot_42A-29465_W_tif
  70
32
  10
435178.939
  20
4594555.437
  30
0
  0
VERTEX
  8
PNOA-H_AMS_1956-57_33k_ES_PAN_21mic_H50_0403_fot_42A-29465_W_tif
  70
32
  10
435180.999
  20
4594555.418
  30
1017.31
  0
VERTEX
  8
PNOA-H_AMS_1956-57_33k_ES_PAN_21mic_H50_0403_fot_42A-29465_W_tif
  70
32
  10
435519.093
  20
4594496.744
  30
1035.649
  0
VERTEX
  8
PNOA-H_AMS_1956-57_33k_ES_PAN_21mic_H50_0403_fot_42A-29465_W_tif
  70
32
  10
435520.500
  20
4594496.500
  30
1035.725
  0
SEQEND
  8
PNOA-H_AMS_1956-57_33k_ES_PAN_21mic_H50_0403_fot_42A-29465_W_tif
  0
INSERT
  8
FeatureAttribs
  2
FEATURE
  41
1
  42
1
  43
1
  50
0
  10
431686.854
  20
4592367.081
 66
1
  0
ATTRIB
  8
FeatureAttribs
 70
0
  1
PNOA-H_AMS_1956-57_33k_ES_PAN_21mic_H50_0403_fot_42A-29466_W.tif
  2
NAME
  10
431686.854
  20
4592367.081
 40
33.68683
  0
SEQEND
  0
POLYLINE
  8
PNOA-H_AMS_1956-57_33k_ES_PAN_21mic_H50_0403_fot_42A-29466_W_tif
  70
9
  66
1
  0
VERTEX
  8
PNOA-H_AMS_1956-57_33k_ES_PAN_21mic_H50_0403_fot_42A-29466_W_tif
  70
32
  10
432438.225
  20
4590134.106
  30
1098.544
  0
VERTEX
  8
PNOA-H_AMS_1956-57_33k_ES_PAN_21mic_H50_0403_fot_42A-29466_W_tif
  70
32
  10
432438.000
  20
4590134.000
  30
1098.55
  0
VERTEX
  8
PNOA-H_AMS_1956-57_33k_ES_PAN_21mic_H50_0403_fot_42A-29466_W_tif
  70
32
  10
430537.535
  20
4590394.000
  30
1041.41
  0
VERTEX
  8
PNOA-H_AMS_1956-57_33k_ES_PAN_21mic_H50_0403_fot_42A-29466_W_tif
  70
32
  10
430395.000
  20
4590413.500
  30
1037.124
  0
VERTEX
  8
PNOA-H_AMS_1956-57_33k_ES_PAN_21mic_H50_0403_fot_42A-29466_W_tif
  70
32
  10
430348.000
  20
4594581.500
  30
976.248
  0
VERTEX
  8
PNOA-H_AMS_1956-57_33k_ES_PAN_21mic_H50_0403_fot_42A-29466_W_tif
  70
32
  10
430348.006
  20
4594581.503
  30
976.248
  0
VERTEX
  8
PNOA-H_AMS_1956-57_33k_ES_PAN_21mic_H50_0403_fot_42A-29466_W_tif
  70
32
  10
430348.097
  20
4594581.544
  30
976.248
  0
VERTEX
  8
PNOA-H_AMS_1956-57_33k_ES_PAN_21mic_H50_0403_fot_42A-29466_W_tif
  70
32
  10
430388.884
  20
4594600.162
  30
976.231
  0
VERTEX
  8
PNOA-H_AMS_1956-57_33k_ES_PAN_21mic_H50_0403_fot_42A-29466_W_tif
  70
32
  10
430389.536
  20
4594600.156
  30
0
  0
VERTEX
  8
PNOA-H_AMS_1956-57_33k_ES_PAN_21mic_H50_0403_fot_42A-29466_W_tif
  70
32
  10
432186.217
  20
4594582.839
  30
0
  0
VERTEX
  8
PNOA-H_AMS_1956-57_33k_ES_PAN_21mic_H50_0403_fot_42A-29466_W_tif
  70
32
  10
432881.077
  20
4594576.477
  30
0
  0
VERTEX
  8
PNOA-H_AMS_1956-57_33k_ES_PAN_21mic_H50_0403_fot_42A-29466_W_tif
  70
32
  10
432881.504
  20
4594576.473
  30
1000.466
  0
VERTEX
  8
PNOA-H_AMS_1956-57_33k_ES_PAN_21mic_H50_0403_fot_42A-29466_W_tif
  70
32
  10
433096.978
  20
4594546.503
  30
1002.816
  0
VERTEX
  8
PNOA-H_AMS_1956-57_33k_ES_PAN_21mic_H50_0403_fot_42A-29466_W_tif
  70
32
  10
433097.000
  20
4594546.500
  30
1002.817
  0
VERTEX
  8
PNOA-H_AMS_1956-57_33k_ES_PAN_21mic_H50_0403_fot_42A-29466_W_tif
  70
32
  10
432912.022
  20
4590358.497
  30
1085.513
  0
VERTEX
  8
PNOA-H_AMS_1956-57_33k_ES_PAN_21mic_H50_0403_fot_42A-29466_W_tif
  70
32
  10
432912.012
  20
4590358.269
  30
1085.518
  0
VERTEX
  8
PNOA-H_AMS_1956-57_33k_ES_PAN_21mic_H50_0403_fot_42A-29466_W_tif
  70
32
  10
432912.000
  20
4590358.000
  30
1085.523
  0
VERTEX
  8
PNOA-H_AMS_1956-57_33k_ES_PAN_21mic_H50_0403_fot_42A-29466_W_tif
  70
32
  10
432438.999
  20
4590134.472
  30
1098.522
  0
VERTEX
  8
PNOA-H_AMS_1956-57_33k_ES_PAN_21mic_H50_0403_fot_42A-29466_W_tif
  70
32
  10
432438.225
  20
4590134.106
  30
1098.544
  0
SEQEND
  8
PNOA-H_AMS_1956-57_33k_ES_PAN_21mic_H50_0403_fot_42A-29466_W_tif
  0
INSERT
  8
FeatureAttribs
  2
FEATURE
  41
1
  42
1
  43
1
  50
0
  10
429529.718
  20
4592278.929
 66
1
  0
ATTRIB
  8
FeatureAttribs
 70
0
  1
PNOA-H_AMS_1956-57_33k_ES_PAN_21mic_H50_0402_fot_42A-29467_W.tif
  2
NAME
  10
429529.718
  20
4592278.929
 40
33.68683
  0
SEQEND
  0
POLYLINE
  8
PNOA-H_AMS_1956-57_33k_ES_PAN_21mic_H50_0402_fot_42A-29467_W_tif
  70
9
  66
1
  0
VERTEX
  8
PNOA-H_AMS_1956-57_33k_ES_PAN_21mic_H50_0402_fot_42A-29467_W_tif
  70
32
  10
430394.775
  20
4590413.395
  30
1037.124
  0
VERTEX
  8
PNOA-H_AMS_1956-57_33k_ES_PAN_21mic_H50_0402_fot_42A-29467_W_tif
  70
32
  10
429386.500
  20
4589941.500
  30
1034.853
  0
VERTEX
  8
PNOA-H_AMS_1956-57_33k_ES_PAN_21mic_H50_0402_fot_42A-29467_W_tif
  70
32
  10
429386.117
  20
4589941.555
  30
1034.848
  0
VERTEX
  8
PNOA-H_AMS_1956-57_33k_ES_PAN_21mic_H50_0402_fot_42A-29467_W_tif
  70
32
  10
428943.500
  20
4590004.775
  30
1029.397
  0
VERTEX
  8
PNOA-H_AMS_1956-57_33k_ES_PAN_21mic_H50_0402_fot_42A-29467_W_tif
  70
32
  10
428663.412
  20
4590044.782
  30
1025.948
  0
VERTEX
  8
PNOA-H_AMS_1956-57_33k_ES_PAN_21mic_H50_0402_fot_42A-29467_W_tif
  70
32
  10
428663.412
  20
4590044.827
  30
0
  0
VERTEX
  8
PNOA-H_AMS_1956-57_33k_ES_PAN_21mic_H50_0402_fot_42A-29467_W_tif
  70
32
  10
428685.712
  20
4592303.430
  30
0
  0
VERTEX
  8
PNOA-H_AMS_1956-57_33k_ES_PAN_21mic_H50_0402_fot_42A-29467_W_tif
  70
32
  10
428708.556
  20
4594616.357
  30
0
  0
VERTEX
  8
PNOA-H_AMS_1956-57_33k_ES_PAN_21mic_H50_0402_fot_42A-29467_W_tif
  70
32
  10
430157.364
  20
4594602.393
  30
0
  0
VERTEX
  8
PNOA-H_AMS_1956-57_33k_ES_PAN_21mic_H50_0402_fot_42A-29467_W_tif
  70
32
  10
430161.386
  20
4594602.355
  30
975.137
  0
VERTEX
  8
PNOA-H_AMS_1956-57_33k_ES_PAN_21mic_H50_0402_fot_42A-29467_W_tif
  70
32
  10
430348.000
  20
4594582.000
  30
976.242
  0
VERTEX
  8
PNOA-H_AMS_1956-57_33k_ES_PAN_21mic_H50_0402_fot_42A-29467_W_tif
  70
32
  10
430348.005
  20
4594581.554
  30
976.249
  0
VERTEX
  8
PNOA-H_AMS_1956-57_33k_ES_PAN_21mic_H50_0402_fot_42A-29467_W_tif
  70
32
  10
430348.006
  20
4594581.503
  30
976.249
  0
VERTEX
  8
PNOA-H_AMS_1956-57_33k_ES_PAN_21mic_H50_0402_fot_42A-29467_W_tif
  70
32
  10
430395.000
  20
4590413.500
  30
1037.124
  0
VERTEX
  8
PNOA-H_AMS_1956-57_33k_ES_PAN_21mic_H50_0402_fot_42A-29467_W_tif
  70
32
  10
430394.775
  20
4590413.395
  30
1037.124
  0
SEQEND
  8
PNOA-H_AMS_1956-57_33k_ES_PAN_21mic_H50_0402_fot_42A-29467_W_tif
  0
INSERT
  8
FeatureAttribs
  2
FEATURE
  41
1
  42
1
  43
1
  50
0
  10
438990.472
  20
4592220.637
 66
1
  0
ATTRIB
  8
FeatureAttribs
 70
0
  1
PNOA-H_AMS_1956-57_33k_ES_PAN_21mic_H50_0403_fot_42B-36295_E.tif
  2
NAME
  10
438990.472
  20
4592220.637
 40
33.68683
  0
SEQEND
  0
POLYLINE
  8
PNOA-H_AMS_1956-57_33k_ES_PAN_21mic_H50_0403_fot_42B-36295_E_tif
  70
9
  66
1
  0
VERTEX
  8
PNOA-H_AMS_1956-57_33k_ES_PAN_21mic_H50_0403_fot_42B-36295_E_tif
  70
32
  10
440402.000
  20
4589938.000
  30
1165.991
  0
VERTEX
  8
PNOA-H_AMS_1956-57_33k_ES_PAN_21mic_H50_0403_fot_42B-36295_E_tif
  70
32
  10
440368.500
  20
4589917.500
  30
1170.489
  0
VERTEX
  8
PNOA-H_AMS_1956-57_33k_ES_PAN_21mic_H50_0403_fot_42B-36295_E_tif
  70
32
  10
440367.548
  20
4589917.529
  30
1170.485
  0
VERTEX
  8
PNOA-H_AMS_1956-57_33k_ES_PAN_21mic_H50_0403_fot_42B-36295_E_tif
  70
32
  10
438383.675
  20
4589978.769
  30
1161.657
  0
VERTEX
  8
PNOA-H_AMS_1956-57_33k_ES_PAN_21mic_H50_0403_fot_42B-36295_E_tif
  70
32
  10
437663.500
  20
4590001.000
  30
1158.453
  0
VERTEX
  8
PNOA-H_AMS_1956-57_33k_ES_PAN_21mic_H50_0403_fot_42B-36295_E_tif
  70
32
  10
437660.848
  20
4590001.442
  30
1158.473
  0
VERTEX
  8
PNOA-H_AMS_1956-57_33k_ES_PAN_21mic_H50_0403_fot_42B-36295_E_tif
  70
32
  10
437658.534
  20
4590001.828
  30
1158.492
  0
VERTEX
  8
PNOA-H_AMS_1956-57_33k_ES_PAN_21mic_H50_0403_fot_42B-36295_E_tif
  70
32
  10
437657.500
  20
4590002.000
  30
1158.5
  0
VERTEX
  8
PNOA-H_AMS_1956-57_33k_ES_PAN_21mic_H50_0403_fot_42B-36295_E_tif
  70
32
  10
437561.500
  20
4590068.000
  30
1152.237
  0
VERTEX
  8
PNOA-H_AMS_1956-57_33k_ES_PAN_21mic_H50_0403_fot_42B-36295_E_tif
  70
32
  10
437546.000
  20
4594245.000
  30
1015.642
  0
VERTEX
  8
PNOA-H_AMS_1956-57_33k_ES_PAN_21mic_H50_0403_fot_42B-36295_E_tif
  70
32
  10
438802.389
  20
4594523.773
  30
989.081
  0
VERTEX
  8
PNOA-H_AMS_1956-57_33k_ES_PAN_21mic_H50_0403_fot_42B-36295_E_tif
  70
32
  10
438803.760
  20
4594523.761
  30
0
  0
VERTEX
  8
PNOA-H_AMS_1956-57_33k_ES_PAN_21mic_H50_0403_fot_42B-36295_E_tif
  70
32
  10
439141.526
  20
4594520.831
  30
0
  0
VERTEX
  8
PNOA-H_AMS_1956-57_33k_ES_PAN_21mic_H50_0403_fot_42B-36295_E_tif
  70
32
  10
439460.576
  20
4594518.218
  30
993.075
  0
VERTEX
  8
PNOA-H_AMS_1956-57_33k_ES_PAN_21mic_H50_0403_fot_42B-36295_E_tif
  70
32
  10
440448.500
  20
4594177.500
  30
1042.791
  0
VERTEX
  8
PNOA-H_AMS_1956-57_33k_ES_PAN_21mic_H50_0403_fot_42B-36295_E_tif
  70
32
  10
440403.000
  20
4589951.500
  30
1165.67
  0
VERTEX
  8
PNOA-H_AMS_1956-57_33k_ES_PAN_21mic_H50_0403_fot_42B-36295_E_tif
  70
32
  10
440402.579
  20
4589945.823
  30
1165.805
  0
VERTEX
  8
PNOA-H_AMS_1956-57_33k_ES_PAN_21mic_H50_0403_fot_42B-36295_E_tif
  70
32
  10
440402.037
  20
4589938.499
  30
1165.979
  0
VERTEX
  8
PNOA-H_AMS_1956-57_33k_ES_PAN_21mic_H50_0403_fot_42B-36295_E_tif
  70
32
  10
440402.000
  20
4589938.000
  30
1165.991
  0
SEQEND
  8
PNOA-H_AMS_1956-57_33k_ES_PAN_21mic_H50_0403_fot_42B-36295_E_tif
  0
INSERT
  8
FeatureAttribs
  2
FEATURE
  41
1
  42
1
  43
1
  50
0
  10
441787.634
  20
4592173.950
 66
1
  0
ATTRIB
  8
FeatureAttribs
 70
0
  1
PNOA-H_AMS_1956-57_33k_ES_PAN_21mic_H50_0403_fot_42B-36296_E.tif
  2
NAME
  10
441787.634
  20
4592173.950
 40
33.68683
  0
SEQEND
  0
POLYLINE
  8
PNOA-H_AMS_1956-57_33k_ES_PAN_21mic_H50_0403_fot_42B-36296_E_tif
  70
9
  66
1
  0
VERTEX
  8
PNOA-H_AMS_1956-57_33k_ES_PAN_21mic_H50_0403_fot_42B-36296_E_tif
  70
32
  10
443107.000
  20
4589848.023
  30
1206.265
  0
VERTEX
  8
PNOA-H_AMS_1956-57_33k_ES_PAN_21mic_H50_0403_fot_42B-36296_E_tif
  70
32
  10
443107.000
  20
4589848.000
  30
1206.266
  0
VERTEX
  8
PNOA-H_AMS_1956-57_33k_ES_PAN_21mic_H50_0403_fot_42B-36296_E_tif
  70
32
  10
440674.613
  20
4589929.394
  30
1169.999
  0
VERTEX
  8
PNOA-H_AMS_1956-57_33k_ES_PAN_21mic_H50_0403_fot_42B-36296_E_tif
  70
32
  10
440402.500
  20
4589938.500
  30
1165.941
  0
VERTEX
  8
PNOA-H_AMS_1956-57_33k_ES_PAN_21mic_H50_0403_fot_42B-36296_E_tif
  70
32
  10
440402.579
  20
4589945.823
  30
1165.729
  0
VERTEX
  8
PNOA-H_AMS_1956-57_33k_ES_PAN_21mic_H50_0403_fot_42B-36296_E_tif
  70
32
  10
440448.500
  20
4594177.500
  30
1042.791
  0
VERTEX
  8
PNOA-H_AMS_1956-57_33k_ES_PAN_21mic_H50_0403_fot_42B-36296_E_tif
  70
32
  10
440449.071
  20
4594177.648
  30
1042.802
  0
VERTEX
  8
PNOA-H_AMS_1956-57_33k_ES_PAN_21mic_H50_0403_fot_42B-36296_E_tif
  70
32
  10
440776.500
  20
4594262.500
  30
1049.328
  0
VERTEX
  8
PNOA-H_AMS_1956-57_33k_ES_PAN_21mic_H50_0403_fot_42B-36296_E_tif
  70
32
  10
440778.500
  20
4594263.000
  30
1049.269
  0
VERTEX
  8
PNOA-H_AMS_1956-57_33k_ES_PAN_21mic_H50_0403_fot_42B-36296_E_tif
  70
32
  10
441647.112
  20
4594487.121
  30
1034.996
  0
VERTEX
  8
PNOA-H_AMS_1956-57_33k_ES_PAN_21mic_H50_0403_fot_42B-36296_E_tif
  70
32
  10
441696.639
  20
4594499.899
  30
1034.182
  0
VERTEX
  8
PNOA-H_AMS_1956-57_33k_ES_PAN_21mic_H50_0403_fot_42B-36296_E_tif
  70
32
  10
442070.788
  20
4594496.834
  30
1038.204
  0
VERTEX
  8
PNOA-H_AMS_1956-57_33k_ES_PAN_21mic_H50_0403_fot_42B-36296_E_tif
  70
32
  10
442071.374
  20
4594496.829
  30
1038.211
  0
VERTEX
  8
PNOA-H_AMS_1956-57_33k_ES_PAN_21mic_H50_0403_fot_42B-36296_E_tif
  70
32
  10
443183.500
  20
4594134.500
  30
1086.236
  0
VERTEX
  8
PNOA-H_AMS_1956-57_33k_ES_PAN_21mic_H50_0403_fot_42B-36296_E_tif
  70
32
  10
443183.494
  20
4594134.165
  30
1086.245
  0
VERTEX
  8
PNOA-H_AMS_1956-57_33k_ES_PAN_21mic_H50_0403_fot_42B-36296_E_tif
  70
32
  10
443180.440
  20
4593963.040
  30
1091.037
  0
VERTEX
  8
PNOA-H_AMS_1956-57_33k_ES_PAN_21mic_H50_0403_fot_42B-36296_E_tif
  70
32
  10
443107.000
  20
4589848.023
  30
1206.265
  0
SEQEND
  8
PNOA-H_AMS_1956-57_33k_ES_PAN_21mic_H50_0403_fot_42B-36296_E_tif
  0
INSERT
  8
FeatureAttribs
  2
FEATURE
  41
1
  42
1
  43
1
  50
0
  10
443268.263
  20
4594315.417
 66
1
  0
ATTRIB
  8
FeatureAttribs
 70
0
  1
PNOA-H_AMS_1956-57_33k_ES_PAN_21mic_H50_0375_fot_41B-37421_W.tif
  2
NAME
  10
443268.263
  20
4594315.417
 40
33.68683
  0
SEQEND
  0
POLYLINE
  8
PNOA-H_AMS_1956-57_33k_ES_PAN_21mic_H50_0375_fot_41B-37421_W_tif
  70
9
  66
1
  0
VERTEX
  8
PNOA-H_AMS_1956-57_33k_ES_PAN_21mic_H50_0375_fot_41B-37421_W_tif
  70
32
  10
444535.000
  20
4594472.000
  30
1123.813
  0
VERTEX
  8
PNOA-H_AMS_1956-57_33k_ES_PAN_21mic_H50_0375_fot_41B-37421_W_tif
  70
32
  10
443184.000
  20
4594134.000
  30
1086.259
  0
VERTEX
  8
PNOA-H_AMS_1956-57_33k_ES_PAN_21mic_H50_0375_fot_41B-37421_W_tif
  70
32
  10
443183.783
  20
4594134.071
  30
1086.25
  0
VERTEX
  8
PNOA-H_AMS_1956-57_33k_ES_PAN_21mic_H50_0375_fot_41B-37421_W_tif
  70
32
  10
443183.494
  20
4594134.165
  30
1086.237
  0
VERTEX
  8
PNOA-H_AMS_1956-57_33k_ES_PAN_21mic_H50_0375_fot_41B-37421_W_tif
  70
32
  10
442070.788
  20
4594496.834
  30
1038.102
  0
VERTEX
  8
PNOA-H_AMS_1956-57_33k_ES_PAN_21mic_H50_0375_fot_41B-37421_W_tif
  70
32
  10
442071.374
  20
4594496.829
  30
0
  0
VERTEX
  8
PNOA-H_AMS_1956-57_33k_ES_PAN_21mic_H50_0375_fot_41B-37421_W_tif
  70
32
  10
442619.175
  20
4594492.342
  30
0
  0
VERTEX
  8
PNOA-H_AMS_1956-57_33k_ES_PAN_21mic_H50_0375_fot_41B-37421_W_tif
  70
32
  10
444535.169
  20
4594477.569
  30
1123.629
  0
VERTEX
  8
PNOA-H_AMS_1956-57_33k_ES_PAN_21mic_H50_0375_fot_41B-37421_W_tif
  70
32
  10
444535.000
  20
4594472.000
  30
1123.813
  0
SEQEND
  8
PNOA-H_AMS_1956-57_33k_ES_PAN_21mic_H50_0375_fot_41B-37421_W_tif
  0
INSERT
  8
FeatureAttribs
  2
FEATURE
  41
1
  42
1
  43
1
  50
0
  10
440532.089
  20
4594347.853
 66
1
  0
ATTRIB
  8
FeatureAttribs
 70
0
  1
PNOA-H_AMS_1956-57_33k_ES_PAN_21mic_H50_0375_fot_41B-37422_W.tif
  2
NAME
  10
440532.089
  20
4594347.853
 40
33.68683
  0
SEQEND
  0
POLYLINE
  8
PNOA-H_AMS_1956-57_33k_ES_PAN_21mic_H50_0375_fot_41B-37422_W_tif
  70
9
  66
1
  0
VERTEX
  8
PNOA-H_AMS_1956-57_33k_ES_PAN_21mic_H50_0375_fot_41B-37422_W_tif
  70
32
  10
441647.112
  20
4594487.121
  30
1032.853
  0
VERTEX
  8
PNOA-H_AMS_1956-57_33k_ES_PAN_21mic_H50_0375_fot_41B-37422_W_tif
  70
32
  10
440449.500
  20
4594177.500
  30
1042.984
  0
VERTEX
  8
PNOA-H_AMS_1956-57_33k_ES_PAN_21mic_H50_0375_fot_41B-37422_W_tif
  70
32
  10
440449.071
  20
4594177.648
  30
1042.962
  0
VERTEX
  8
PNOA-H_AMS_1956-57_33k_ES_PAN_21mic_H50_0375_fot_41B-37422_W_tif
  70
32
  10
439462.003
  20
4594518.206
  30
992.381
  0
VERTEX
  8
PNOA-H_AMS_1956-57_33k_ES_PAN_21mic_H50_0375_fot_41B-37422_W_tif
  70
32
  10
441696.544
  20
4594499.900
  30
1032.435
  0
VERTEX
  8
PNOA-H_AMS_1956-57_33k_ES_PAN_21mic_H50_0375_fot_41B-37422_W_tif
  70
32
  10
441647.112
  20
4594487.121
  30
1032.853
  0
SEQEND
  8
PNOA-H_AMS_1956-57_33k_ES_PAN_21mic_H50_0375_fot_41B-37422_W_tif
  0
INSERT
  8
FeatureAttribs
  2
FEATURE
  41
1
  42
1
  43
1
  50
0
  10
437693.592
  20
4594393.071
 66
1
  0
ATTRIB
  8
FeatureAttribs
 70
0
  1
PNOA-H_AMS_1956-57_33k_ES_PAN_21mic_H50_0375_fot_41B-37423_W.tif
  2
NAME
  10
437693.592
  20
4594393.071
 40
33.68683
  0
SEQEND
  0
POLYLINE
  8
PNOA-H_AMS_1956-57_33k_ES_PAN_21mic_H50_0375_fot_41B-37423_W_tif
  70
9
  66
1
  0
VERTEX
  8
PNOA-H_AMS_1956-57_33k_ES_PAN_21mic_H50_0375_fot_41B-37423_W_tif
  70
32
  10
437546.000
  20
4594245.000
  30
1015.662
  0
VERTEX
  8
PNOA-H_AMS_1956-57_33k_ES_PAN_21mic_H50_0375_fot_41B-37423_W_tif
  70
32
  10
437544.500
  20
4594245.000
  30
1015.952
  0
VERTEX
  8
PNOA-H_AMS_1956-57_33k_ES_PAN_21mic_H50_0375_fot_41B-37423_W_tif
  70
32
  10
437528.000
  20
4594251.500
  30
1019.442
  0
VERTEX
  8
PNOA-H_AMS_1956-57_33k_ES_PAN_21mic_H50_0375_fot_41B-37423_W_tif
  70
32
  10
436940.885
  20
4594485.081
  30
993.987
  0
VERTEX
  8
PNOA-H_AMS_1956-57_33k_ES_PAN_21mic_H50_0375_fot_41B-37423_W_tif
  70
32
  10
436799.970
  20
4594541.143
  30
987.878
  0
VERTEX
  8
PNOA-H_AMS_1956-57_33k_ES_PAN_21mic_H50_0375_fot_41B-37423_W_tif
  70
32
  10
438802.389
  20
4594523.773
  30
0
  0
VERTEX
  8
PNOA-H_AMS_1956-57_33k_ES_PAN_21mic_H50_0375_fot_41B-37423_W_tif
  70
32
  10
438803.760
  20
4594523.761
  30
987.36
  0
VERTEX
  8
PNOA-H_AMS_1956-57_33k_ES_PAN_21mic_H50_0375_fot_41B-37423_W_tif
  70
32
  10
437548.000
  20
4594245.000
  30
1015.275
  0
VERTEX
  8
PNOA-H_AMS_1956-57_33k_ES_PAN_21mic_H50_0375_fot_41B-37423_W_tif
  70
32
  10
437546.000
  20
4594245.000
  30
1015.662
  0
SEQEND
  8
PNOA-H_AMS_1956-57_33k_ES_PAN_21mic_H50_0375_fot_41B-37423_W_tif
  0
INSERT
  8
FeatureAttribs
  2
FEATURE
  41
1
  42
1
  43
1
  50
0
  10
445892.043
  20
4594264.284
 66
1
  0
ATTRIB
  8
FeatureAttribs
 70
0
  1
PNOA-H_AMS_1956-57_33k_ES_PAN_21mic_H50_0375_fot_41B-37420_W.tif
  2
NAME
  10
445892.043
  20
4594264.284
 40
33.68683
  0
SEQEND
  0
POLYLINE
  8
PNOA-H_AMS_1956-57_33k_ES_PAN_21mic_H50_0375_fot_41B-37420_W_tif
  70
9
  66
1
  0
VERTEX
  8
PNOA-H_AMS_1956-57_33k_ES_PAN_21mic_H50_0375_fot_41B-37420_W_tif
  70
32
  10
445882.753
  20
4594051.077
  30
1204.352
  0
VERTEX
  8
PNOA-H_AMS_1956-57_33k_ES_PAN_21mic_H50_0375_fot_41B-37420_W_tif
  70
32
  10
445882.500
  20
4594051.000
  30
1204.356
  0
VERTEX
  8
PNOA-H_AMS_1956-57_33k_ES_PAN_21mic_H50_0375_fot_41B-37420_W_tif
  70
32
  10
444875.379
  20
4594365.655
  30
1144.159
  0
VERTEX
  8
PNOA-H_AMS_1956-57_33k_ES_PAN_21mic_H50_0375_fot_41B-37420_W_tif
  70
32
  10
444831.697
  20
4594379.303
  30
1141.548
  0
VERTEX
  8
PNOA-H_AMS_1956-57_33k_ES_PAN_21mic_H50_0375_fot_41B-37420_W_tif
  70
32
  10
444535.000
  20
4594472.000
  30
1123.813
  0
VERTEX
  8
PNOA-H_AMS_1956-57_33k_ES_PAN_21mic_H50_0375_fot_41B-37420_W_tif
  70
32
  10
444535.169
  20
4594477.569
  30
1123.629
  0
VERTEX
  8
PNOA-H_AMS_1956-57_33k_ES_PAN_21mic_H50_0375_fot_41B-37420_W_tif
  70
32
  10
446096.819
  20
4594465.528
  30
0
  0
VERTEX
  8
PNOA-H_AMS_1956-57_33k_ES_PAN_21mic_H50_0375_fot_41B-37420_W_tif
  70
32
  10
447192.089
  20
4594457.611
  30
1182.615
  0
VERTEX
  8
PNOA-H_AMS_1956-57_33k_ES_PAN_21mic_H50_0375_fot_41B-37420_W_tif
  70
32
  10
447192.000
  20
4594449.000
  30
1182.926
  0
VERTEX
  8
PNOA-H_AMS_1956-57_33k_ES_PAN_21mic_H50_0375_fot_41B-37420_W_tif
  70
32
  10
446235.041
  20
4594158.149
  30
1198.587
  0
VERTEX
  8
PNOA-H_AMS_1956-57_33k_ES_PAN_21mic_H50_0375_fot_41B-37420_W_tif
  70
32
  10
445882.753
  20
4594051.077
  30
1204.352
  0
SEQEND
  8
PNOA-H_AMS_1956-57_33k_ES_PAN_21mic_H50_0375_fot_41B-37420_W_tif
  0
INSERT
  8
FeatureAttribs
  2
FEATURE
  41
1
  42
1
  43
1
  50
0
  10
444508.896
  20
4592148.000
 66
1
  0
ATTRIB
  8
FeatureAttribs
 70
0
  1
PNOA-H_AMS_1956-57_33k_ES_PAN_21mic_H50_0403_fot_42B-36297_E.tif
  2
NAME
  10
444508.896
  20
4592148.000
 40
33.68683
  0
SEQEND
  0
POLYLINE
  8
PNOA-H_AMS_1956-57_33k_ES_PAN_21mic_H50_0403_fot_42B-36297_E_tif
  70
9
  66
1
  0
VERTEX
  8
PNOA-H_AMS_1956-57_33k_ES_PAN_21mic_H50_0403_fot_42B-36297_E_tif
  70
32
  10
443143.981
  20
4589824.012
  30
1205.664
  0
VERTEX
  8
PNOA-H_AMS_1956-57_33k_ES_PAN_21mic_H50_0403_fot_42B-36297_E_tif
  70
32
  10
443143.000
  20
4589824.000
  30
1205.677
  0
VERTEX
  8
PNOA-H_AMS_1956-57_33k_ES_PAN_21mic_H50_0403_fot_42B-36297_E_tif
  70
32
  10
443108.000
  20
4589847.000
  30
1206.237
  0
VERTEX
  8
PNOA-H_AMS_1956-57_33k_ES_PAN_21mic_H50_0403_fot_42B-36297_E_tif
  70
32
  10
443107.000
  20
4589848.000
  30
1206.266
  0
VERTEX
  8
PNOA-H_AMS_1956-57_33k_ES_PAN_21mic_H50_0403_fot_42B-36297_E_tif
  70
32
  10
443107.000
  20
4589848.023
  30
1206.267
  0
VERTEX
  8
PNOA-H_AMS_1956-57_33k_ES_PAN_21mic_H50_0403_fot_42B-36297_E_tif
  70
32
  10
443107.000
  20
4589860.000
  30
1206.813
  0
VERTEX
  8
PNOA-H_AMS_1956-57_33k_ES_PAN_21mic_H50_0403_fot_42B-36297_E_tif
  70
32
  10
443180.440
  20
4593963.040
  30
1091.023
  0
VERTEX
  8
PNOA-H_AMS_1956-57_33k_ES_PAN_21mic_H50_0403_fot_42B-36297_E_tif
  70
32
  10
443183.500
  20
4594134.000
  30
1086.199
  0
VERTEX
  8
PNOA-H_AMS_1956-57_33k_ES_PAN_21mic_H50_0403_fot_42B-36297_E_tif
  70
32
  10
443183.783
  20
4594134.071
  30
1086.207
  0
VERTEX
  8
PNOA-H_AMS_1956-57_33k_ES_PAN_21mic_H50_0403_fot_42B-36297_E_tif
  70
32
  10
444533.000
  20
4594472.000
  30
1123.721
  0
VERTEX
  8
PNOA-H_AMS_1956-57_33k_ES_PAN_21mic_H50_0403_fot_42B-36297_E_tif
  70
32
  10
444535.000
  20
4594472.000
  30
1123.813
  0
VERTEX
  8
PNOA-H_AMS_1956-57_33k_ES_PAN_21mic_H50_0403_fot_42B-36297_E_tif
  70
32
  10
444536.500
  20
4594472.000
  30
1123.883
  0
VERTEX
  8
PNOA-H_AMS_1956-57_33k_ES_PAN_21mic_H50_0403_fot_42B-36297_E_tif
  70
32
  10
444556.000
  20
4594466.000
  30
1124.317
  0
VERTEX
  8
PNOA-H_AMS_1956-57_33k_ES_PAN_21mic_H50_0403_fot_42B-36297_E_tif
  70
32
  10
444831.697
  20
4594379.303
  30
1134.104
  0
VERTEX
  8
PNOA-H_AMS_1956-57_33k_ES_PAN_21mic_H50_0403_fot_42B-36297_E_tif
  70
32
  10
444874.000
  20
4594366.000
  30
1135.605
  0
VERTEX
  8
PNOA-H_AMS_1956-57_33k_ES_PAN_21mic_H50_0403_fot_42B-36297_E_tif
  70
32
  10
444875.379
  20
4594365.655
  30
1135.503
  0
VERTEX
  8
PNOA-H_AMS_1956-57_33k_ES_PAN_21mic_H50_0403_fot_42B-36297_E_tif
  70
32
  10
444876.000
  20
4594365.500
  30
1135.457
  0
VERTEX
  8
PNOA-H_AMS_1956-57_33k_ES_PAN_21mic_H50_0403_fot_42B-36297_E_tif
  70
32
  10
445882.753
  20
4594051.077
  30
1204.348
  0
VERTEX
  8
PNOA-H_AMS_1956-57_33k_ES_PAN_21mic_H50_0403_fot_42B-36297_E_tif
  70
32
  10
445883.000
  20
4594051.000
  30
1204.365
  0
VERTEX
  8
PNOA-H_AMS_1956-57_33k_ES_PAN_21mic_H50_0403_fot_42B-36297_E_tif
  70
32
  10
445854.000
  20
4589858.000
  30
1168.834
  0
VERTEX
  8
PNOA-H_AMS_1956-57_33k_ES_PAN_21mic_H50_0403_fot_42B-36297_E_tif
  70
32
  10
445840.366
  20
4589857.829
  30
1169.019
  0
VERTEX
  8
PNOA-H_AMS_1956-57_33k_ES_PAN_21mic_H50_0403_fot_42B-36297_E_tif
  70
32
  10
443261.023
  20
4589825.480
  30
1204.073
  0
VERTEX
  8
PNOA-H_AMS_1956-57_33k_ES_PAN_21mic_H50_0403_fot_42B-36297_E_tif
  70
32
  10
443143.981
  20
4589824.012
  30
1205.664
  0
SEQEND
  8
PNOA-H_AMS_1956-57_33k_ES_PAN_21mic_H50_0403_fot_42B-36297_E_tif
  0
INSERT
  8
FeatureAttribs
  2
FEATURE
  41
1
  42
1
  43
1
  50
0
  10
447249.312
  20
4592117.000
 66
1
  0
ATTRIB
  8
FeatureAttribs
 70
0
  1
PNOA-H_AMS_1956-57_33k_ES_PAN_21mic_H50_0403_fot_42B-36298_E.tif
  2
NAME
  10
447249.312
  20
4592117.000
 40
33.68683
  0
SEQEND
  0
POLYLINE
  8
PNOA-H_AMS_1956-57_33k_ES_PAN_21mic_H50_0403_fot_42B-36298_E_tif
  70
9
  66
1
  0
VERTEX
  8
PNOA-H_AMS_1956-57_33k_ES_PAN_21mic_H50_0403_fot_42B-36298_E_tif
  70
32
  10
448609.001
  20
4589785.111
  30
1112.55
  0
VERTEX
  8
PNOA-H_AMS_1956-57_33k_ES_PAN_21mic_H50_0403_fot_42B-36298_E_tif
  70
32
  10
448609.000
  20
4589785.000
  30
1112.549
  0
VERTEX
  8
PNOA-H_AMS_1956-57_33k_ES_PAN_21mic_H50_0403_fot_42B-36298_E_tif
  70
32
  10
446912.136
  20
4589795.500
  30
1146.003
  0
VERTEX
  8
PNOA-H_AMS_1956-57_33k_ES_PAN_21mic_H50_0403_fot_42B-36298_E_tif
  70
32
  10
445942.500
  20
4589801.500
  30
1165.12
  0
VERTEX
  8
PNOA-H_AMS_1956-57_33k_ES_PAN_21mic_H50_0403_fot_42B-36298_E_tif
  70
32
  10
445942.486
  20
4589801.509
  30
1165.12
  0
VERTEX
  8
PNOA-H_AMS_1956-57_33k_ES_PAN_21mic_H50_0403_fot_42B-36298_E_tif
  70
32
  10
445854.758
  20
4589857.516
  30
1168.802
  0
VERTEX
  8
PNOA-H_AMS_1956-57_33k_ES_PAN_21mic_H50_0403_fot_42B-36298_E_tif
  70
32
  10
445854.000
  20
4589858.000
  30
1168.834
  0
VERTEX
  8
PNOA-H_AMS_1956-57_33k_ES_PAN_21mic_H50_0403_fot_42B-36298_E_tif
  70
32
  10
445883.000
  20
4594051.000
  30
1204.365
  0
VERTEX
  8
PNOA-H_AMS_1956-57_33k_ES_PAN_21mic_H50_0403_fot_42B-36298_E_tif
  70
32
  10
446235.041
  20
4594158.149
  30
1198.632
  0
VERTEX
  8
PNOA-H_AMS_1956-57_33k_ES_PAN_21mic_H50_0403_fot_42B-36298_E_tif
  70
32
  10
447189.000
  20
4594448.500
  30
1183.098
  0
VERTEX
  8
PNOA-H_AMS_1956-57_33k_ES_PAN_21mic_H50_0403_fot_42B-36298_E_tif
  70
32
  10
447190.500
  20
4594449.000
  30
1183.006
  0
VERTEX
  8
PNOA-H_AMS_1956-57_33k_ES_PAN_21mic_H50_0403_fot_42B-36298_E_tif
  70
32
  10
447192.000
  20
4594449.000
  30
1182.93
  0
VERTEX
  8
PNOA-H_AMS_1956-57_33k_ES_PAN_21mic_H50_0403_fot_42B-36298_E_tif
  70
32
  10
447194.000
  20
4594449.000
  30
1182.828
  0
VERTEX
  8
PNOA-H_AMS_1956-57_33k_ES_PAN_21mic_H50_0403_fot_42B-36298_E_tif
  70
32
  10
447212.000
  20
4594444.000
  30
1182.018
  0
VERTEX
  8
PNOA-H_AMS_1956-57_33k_ES_PAN_21mic_H50_0403_fot_42B-36298_E_tif
  70
32
  10
448378.193
  20
4594116.148
  30
1162.334
  0
VERTEX
  8
PNOA-H_AMS_1956-57_33k_ES_PAN_21mic_H50_0403_fot_42B-36298_E_tif
  70
32
  10
448645.500
  20
4594041.000
  30
1157.822
  0
VERTEX
  8
PNOA-H_AMS_1956-57_33k_ES_PAN_21mic_H50_0403_fot_42B-36298_E_tif
  70
32
  10
448609.001
  20
4589785.111
  30
1112.55
  0
SEQEND
  8
PNOA-H_AMS_1956-57_33k_ES_PAN_21mic_H50_0403_fot_42B-36298_E_tif
  0
INSERT
  8
FeatureAttribs
  2
FEATURE
  41
1
  42
1
  43
1
  50
0
  10
449992.530
  20
4592096.000
 66
1
  0
ATTRIB
  8
FeatureAttribs
 70
0
  1
PNOA-H_AMS_1956-57_33k_ES_PAN_21mic_H50_0403_fot_42B-36299_E.tif
  2
NAME
  10
449992.530
  20
4592096.000
 40
33.68683
  0
SEQEND
  0
POLYLINE
  8
PNOA-H_AMS_1956-57_33k_ES_PAN_21mic_H50_0403_fot_42B-36299_E_tif
  70
9
  66
1
  0
VERTEX
  8
PNOA-H_AMS_1956-57_33k_ES_PAN_21mic_H50_0403_fot_42B-36299_E_tif
  70
32
  10
451317.694
  20
4589773.415
  30
1039.578
  0
VERTEX
  8
PNOA-H_AMS_1956-57_33k_ES_PAN_21mic_H50_0403_fot_42B-36299_E_tif
  70
32
  10
448647.500
  20
4589761.000
  30
1109.588
  0
VERTEX
  8
PNOA-H_AMS_1956-57_33k_ES_PAN_21mic_H50_0403_fot_42B-36299_E_tif
  70
32
  10
448647.495
  20
4589761.003
  30
1109.588
  0
VERTEX
  8
PNOA-H_AMS_1956-57_33k_ES_PAN_21mic_H50_0403_fot_42B-36299_E_tif
  70
32
  10
448609.000
  20
4589785.000
  30
1112.549
  0
VERTEX
  8
PNOA-H_AMS_1956-57_33k_ES_PAN_21mic_H50_0403_fot_42B-36299_E_tif
  70
32
  10
448609.001
  20
4589785.111
  30
1112.55
  0
VERTEX
  8
PNOA-H_AMS_1956-57_33k_ES_PAN_21mic_H50_0403_fot_42B-36299_E_tif
  70
32
  10
448645.500
  20
4594041.000
  30
1157.822
  0
VERTEX
  8
PNOA-H_AMS_1956-57_33k_ES_PAN_21mic_H50_0403_fot_42B-36299_E_tif
  70
32
  10
448645.734
  20
4594041.075
  30
1157.809
  0
VERTEX
  8
PNOA-H_AMS_1956-57_33k_ES_PAN_21mic_H50_0403_fot_42B-36299_E_tif
  70
32
  10
448969.500
  20
4594144.000
  30
1140.509
  0
VERTEX
  8
PNOA-H_AMS_1956-57_33k_ES_PAN_21mic_H50_0403_fot_42B-36299_E_tif
  70
32
  10
448971.000
  20
4594144.500
  30
1140.52
  0
VERTEX
  8
PNOA-H_AMS_1956-57_33k_ES_PAN_21mic_H50_0403_fot_42B-36299_E_tif
  70
32
  10
449503.095
  20
4594312.762
  30
1125.711
  0
VERTEX
  8
PNOA-H_AMS_1956-57_33k_ES_PAN_21mic_H50_0403_fot_42B-36299_E_tif
  70
32
  10
449876.535
  20
4594430.853
  30
1115.318
  0
VERTEX
  8
PNOA-H_AMS_1956-57_33k_ES_PAN_21mic_H50_0403_fot_42B-36299_E_tif
  70
32
  10
449877.000
  20
4594431.000
  30
1115.305
  0
VERTEX
  8
PNOA-H_AMS_1956-57_33k_ES_PAN_21mic_H50_0403_fot_42B-36299_E_tif
  70
32
  10
450874.333
  20
4594156.333
  30
1090.964
  0
VERTEX
  8
PNOA-H_AMS_1956-57_33k_ES_PAN_21mic_H50_0403_fot_42B-36299_E_tif
  70
32
  10
451373.000
  20
4594019.000
  30
1078.793
  0
VERTEX
  8
PNOA-H_AMS_1956-57_33k_ES_PAN_21mic_H50_0403_fot_42B-36299_E_tif
  70
32
  10
451336.000
  20
4589773.500
  30
1039.098
  0
VERTEX
  8
PNOA-H_AMS_1956-57_33k_ES_PAN_21mic_H50_0403_fot_42B-36299_E_tif
  70
32
  10
451317.694
  20
4589773.415
  30
1039.578
  0
SEQEND
  8
PNOA-H_AMS_1956-57_33k_ES_PAN_21mic_H50_0403_fot_42B-36299_E_tif
  0
INSERT
  8
FeatureAttribs
  2
FEATURE
  41
1
  42
1
  43
1
  50
0
  10
448603.310
  20
4594249.306
 66
1
  0
ATTRIB
  8
FeatureAttribs
 70
0
  1
PNOA-H_AMS_1956-57_33k_ES_PAN_21mic_H50_0375_fot_41B-37419_W.tif
  2
NAME
  10
448603.310
  20
4594249.306
 40
33.68683
  0
SEQEND
  0
POLYLINE
  8
PNOA-H_AMS_1956-57_33k_ES_PAN_21mic_H50_0375_fot_41B-37419_W_tif
  70
9
  66
1
  0
VERTEX
  8
PNOA-H_AMS_1956-57_33k_ES_PAN_21mic_H50_0375_fot_41B-37419_W_tif
  70
32
  10
449503.095
  20
4594312.762
  30
1128.224
  0
VERTEX
  8
PNOA-H_AMS_1956-57_33k_ES_PAN_21mic_H50_0375_fot_41B-37419_W_tif
  70
32
  10
448646.000
  20
4594041.000
  30
1157.847
  0
VERTEX
  8
PNOA-H_AMS_1956-57_33k_ES_PAN_21mic_H50_0375_fot_41B-37419_W_tif
  70
32
  10
448645.734
  20
4594041.075
  30
1157.851
  0
VERTEX
  8
PNOA-H_AMS_1956-57_33k_ES_PAN_21mic_H50_0375_fot_41B-37419_W_tif
  70
32
  10
448378.193
  20
4594116.148
  30
1162.466
  0
VERTEX
  8
PNOA-H_AMS_1956-57_33k_ES_PAN_21mic_H50_0375_fot_41B-37419_W_tif
  70
32
  10
447192.000
  20
4594449.000
  30
1182.926
  0
VERTEX
  8
PNOA-H_AMS_1956-57_33k_ES_PAN_21mic_H50_0375_fot_41B-37419_W_tif
  70
32
  10
447192.089
  20
4594457.611
  30
1182.615
  0
VERTEX
  8
PNOA-H_AMS_1956-57_33k_ES_PAN_21mic_H50_0375_fot_41B-37419_W_tif
  70
32
  10
449574.460
  20
4594440.391
  30
0
  0
VERTEX
  8
PNOA-H_AMS_1956-57_33k_ES_PAN_21mic_H50_0375_fot_41B-37419_W_tif
  70
32
  10
449876.043
  20
4594438.356
  30
1115.102
  0
VERTEX
  8
PNOA-H_AMS_1956-57_33k_ES_PAN_21mic_H50_0375_fot_41B-37419_W_tif
  70
32
  10
449876.000
  20
4594431.000
  30
1115.336
  0
VERTEX
  8
PNOA-H_AMS_1956-57_33k_ES_PAN_21mic_H50_0375_fot_41B-37419_W_tif
  70
32
  10
449503.095
  20
4594312.762
  30
1128.224
  0
SEQEND
  8
PNOA-H_AMS_1956-57_33k_ES_PAN_21mic_H50_0375_fot_41B-37419_W_tif
  0
INSERT
  8
FeatureAttribs
  2
FEATURE
  41
1
  42
1
  43
1
  50
0
  10
454098.189
  20
4594202.360
 66
1
  0
ATTRIB
  8
FeatureAttribs
 70
0
  1
PNOA-H_AMS_1956-57_33k_ES_PAN_21mic_H50_0375_fot_41B-37417_W.tif
  2
NAME
  10
454098.189
  20
4594202.360
 40
33.68683
  0
SEQEND
  0
POLYLINE
  8
PNOA-H_AMS_1956-57_33k_ES_PAN_21mic_H50_0375_fot_41B-37417_W_tif
  70
9
  66
1
  0
VERTEX
  8
PNOA-H_AMS_1956-57_33k_ES_PAN_21mic_H50_0375_fot_41B-37417_W_tif
  70
32
  10
455444.102
  20
4594401.944
  30
925.893
  0
VERTEX
  8
PNOA-H_AMS_1956-57_33k_ES_PAN_21mic_H50_0375_fot_41B-37417_W_tif
  70
32
  10
454127.000
  20
4593985.000
  30
992.899
  0
VERTEX
  8
PNOA-H_AMS_1956-57_33k_ES_PAN_21mic_H50_0375_fot_41B-37417_W_tif
  70
32
  10
454126.995
  20
4593985.001
  30
992.899
  0
VERTEX
  8
PNOA-H_AMS_1956-57_33k_ES_PAN_21mic_H50_0375_fot_41B-37417_W_tif
  70
32
  10
453067.261
  20
4594294.500
  30
1031.317
  0
VERTEX
  8
PNOA-H_AMS_1956-57_33k_ES_PAN_21mic_H50_0375_fot_41B-37417_W_tif
  70
32
  10
452638.506
  20
4594419.719
  30
1046.86
  0
VERTEX
  8
PNOA-H_AMS_1956-57_33k_ES_PAN_21mic_H50_0375_fot_41B-37417_W_tif
  70
32
  10
453052.098
  20
4594416.929
  30
0
  0
VERTEX
  8
PNOA-H_AMS_1956-57_33k_ES_PAN_21mic_H50_0375_fot_41B-37417_W_tif
  70
32
  10
455442.697
  20
4594401.953
  30
0
  0
VERTEX
  8
PNOA-H_AMS_1956-57_33k_ES_PAN_21mic_H50_0375_fot_41B-37417_W_tif
  70
32
  10
455444.102
  20
4594401.944
  30
925.893
  0
SEQEND
  8
PNOA-H_AMS_1956-57_33k_ES_PAN_21mic_H50_0375_fot_41B-37417_W_tif
  0
INSERT
  8
FeatureAttribs
  2
FEATURE
  41
1
  42
1
  43
1
  50
0
  10
451312.754
  20
4594228.678
 66
1
  0
ATTRIB
  8
FeatureAttribs
 70
0
  1
PNOA-H_AMS_1956-57_33k_ES_PAN_21mic_H50_0375_fot_41B-37418_W.tif
  2
NAME
  10
451312.754
  20
4594228.678
 40
33.68683
  0
SEQEND
  0
POLYLINE
  8
PNOA-H_AMS_1956-57_33k_ES_PAN_21mic_H50_0375_fot_41B-37418_W_tif
  70
9
  66
1
  0
VERTEX
  8
PNOA-H_AMS_1956-57_33k_ES_PAN_21mic_H50_0375_fot_41B-37418_W_tif
  70
32
  10
452598.632
  20
4594419.988
  30
1048.1
  0
VERTEX
  8
PNOA-H_AMS_1956-57_33k_ES_PAN_21mic_H50_0375_fot_41B-37418_W_tif
  70
32
  10
451373.500
  20
4594019.000
  30
1078.774
  0
VERTEX
  8
PNOA-H_AMS_1956-57_33k_ES_PAN_21mic_H50_0375_fot_41B-37418_W_tif
  70
32
  10
451373.228
  20
4594019.075
  30
1078.781
  0
VERTEX
  8
PNOA-H_AMS_1956-57_33k_ES_PAN_21mic_H50_0375_fot_41B-37418_W_tif
  70
32
  10
450874.333
  20
4594156.333
  30
1090.961
  0
VERTEX
  8
PNOA-H_AMS_1956-57_33k_ES_PAN_21mic_H50_0375_fot_41B-37418_W_tif
  70
32
  10
449876.535
  20
4594430.853
  30
1115.323
  0
VERTEX
  8
PNOA-H_AMS_1956-57_33k_ES_PAN_21mic_H50_0375_fot_41B-37418_W_tif
  70
32
  10
449876.000
  20
4594431.000
  30
1115.336
  0
VERTEX
  8
PNOA-H_AMS_1956-57_33k_ES_PAN_21mic_H50_0375_fot_41B-37418_W_tif
  70
32
  10
449876.043
  20
4594438.356
  30
1115.102
  0
VERTEX
  8
PNOA-H_AMS_1956-57_33k_ES_PAN_21mic_H50_0375_fot_41B-37418_W_tif
  70
32
  10
452598.142
  20
4594419.991
  30
0
  0
VERTEX
  8
PNOA-H_AMS_1956-57_33k_ES_PAN_21mic_H50_0375_fot_41B-37418_W_tif
  70
32
  10
452598.632
  20
4594419.988
  30
1048.1
  0
SEQEND
  8
PNOA-H_AMS_1956-57_33k_ES_PAN_21mic_H50_0375_fot_41B-37418_W_tif
  0
INSERT
  8
FeatureAttribs
  2
FEATURE
  41
1
  42
1
  43
1
  50
0
  10
452731.882
  20
4592042.996
 66
1
  0
ATTRIB
  8
FeatureAttribs
 70
0
  1
PNOA-H_AMS_1956-57_33k_ES_PAN_21mic_H50_0403_fot_42B-36300_E.tif
  2
NAME
  10
452731.882
  20
4592042.996
 40
33.68683
  0
SEQEND
  0
POLYLINE
  8
PNOA-H_AMS_1956-57_33k_ES_PAN_21mic_H50_0403_fot_42B-36300_E_tif
  70
9
  66
1
  0
VERTEX
  8
PNOA-H_AMS_1956-57_33k_ES_PAN_21mic_H50_0403_fot_42B-36300_E_tif
  70
32
  10
453066.500
  20
4594294.500
  30
1039.941
  0
VERTEX
  8
PNOA-H_AMS_1956-57_33k_ES_PAN_21mic_H50_0403_fot_42B-36300_E_tif
  70
32
  10
453067.261
  20
4594294.500
  30
1039.931
  0
VERTEX
  8
PNOA-H_AMS_1956-57_33k_ES_PAN_21mic_H50_0403_fot_42B-36300_E_tif
  70
32
  10
453068.000
  20
4594294.500
  30
1039.922
  0
VERTEX
  8
PNOA-H_AMS_1956-57_33k_ES_PAN_21mic_H50_0403_fot_42B-36300_E_tif
  70
32
  10
454126.995
  20
4593985.001
  30
992.899
  0
VERTEX
  8
PNOA-H_AMS_1956-57_33k_ES_PAN_21mic_H50_0403_fot_42B-36300_E_tif
  70
32
  10
454127.000
  20
4593985.000
  30
992.899
  0
VERTEX
  8
PNOA-H_AMS_1956-57_33k_ES_PAN_21mic_H50_0403_fot_42B-36300_E_tif
  70
32
  10
454106.500
  20
4591891.250
  30
982.646
  0
VERTEX
  8
PNOA-H_AMS_1956-57_33k_ES_PAN_21mic_H50_0403_fot_42B-36300_E_tif
  70
32
  10
454086.000
  20
4589797.500
  30
972.393
  0
VERTEX
  8
PNOA-H_AMS_1956-57_33k_ES_PAN_21mic_H50_0403_fot_42B-36300_E_tif
  70
32
  10
454085.541
  20
4589797.476
  30
972.403
  0
VERTEX
  8
PNOA-H_AMS_1956-57_33k_ES_PAN_21mic_H50_0403_fot_42B-36300_E_tif
  70
32
  10
451517.500
  20
4589666.000
  30
1025.807
  0
VERTEX
  8
PNOA-H_AMS_1956-57_33k_ES_PAN_21mic_H50_0403_fot_42B-36300_E_tif
  70
32
  10
451512.845
  20
4589666.222
  30
1025.876
  0
VERTEX
  8
PNOA-H_AMS_1956-57_33k_ES_PAN_21mic_H50_0403_fot_42B-36300_E_tif
  70
32
  10
451507.758
  20
4589666.464
  30
1025.953
  0
VERTEX
  8
PNOA-H_AMS_1956-57_33k_ES_PAN_21mic_H50_0403_fot_42B-36300_E_tif
  70
32
  10
451507.000
  20
4589666.500
  30
1025.964
  0
VERTEX
  8
PNOA-H_AMS_1956-57_33k_ES_PAN_21mic_H50_0403_fot_42B-36300_E_tif
  70
32
  10
451336.004
  20
4589773.498
  30
1039.097
  0
VERTEX
  8
PNOA-H_AMS_1956-57_33k_ES_PAN_21mic_H50_0403_fot_42B-36300_E_tif
  70
32
  10
451336.000
  20
4589773.500
  30
1039.098
  0
VERTEX
  8
PNOA-H_AMS_1956-57_33k_ES_PAN_21mic_H50_0403_fot_42B-36300_E_tif
  70
32
  10
451373.000
  20
4594019.000
  30
1078.793
  0
VERTEX
  8
PNOA-H_AMS_1956-57_33k_ES_PAN_21mic_H50_0403_fot_42B-36300_E_tif
  70
32
  10
451373.228
  20
4594019.075
  30
1078.788
  0
VERTEX
  8
PNOA-H_AMS_1956-57_33k_ES_PAN_21mic_H50_0403_fot_42B-36300_E_tif
  70
32
  10
452598.142
  20
4594419.991
  30
1048.129
  0
VERTEX
  8
PNOA-H_AMS_1956-57_33k_ES_PAN_21mic_H50_0403_fot_42B-36300_E_tif
  70
32
  10
452598.632
  20
4594419.988
  30
1048.118
  0
VERTEX
  8
PNOA-H_AMS_1956-57_33k_ES_PAN_21mic_H50_0403_fot_42B-36300_E_tif
  70
32
  10
452637.981
  20
4594419.723
  30
1047.3
  0
VERTEX
  8
PNOA-H_AMS_1956-57_33k_ES_PAN_21mic_H50_0403_fot_42B-36300_E_tif
  70
32
  10
453066.500
  20
4594294.500
  30
1039.941
  0
SEQEND
  8
PNOA-H_AMS_1956-57_33k_ES_PAN_21mic_H50_0403_fot_42B-36300_E_tif
  0
INSERT
  8
FeatureAttribs
  2
FEATURE
  41
1
  42
1
  43
1
  50
0
  10
455311.610
  20
4592021.976
 66
1
  0
ATTRIB
  8
FeatureAttribs
 70
0
  1
PNOA-H_AMS_1956-57_33k_ES_PAN_21mic_H50_0403_fot_42B-36301_E.tif
  2
NAME
  10
455311.610
  20
4592021.976
 40
33.68683
  0
SEQEND
  0
POLYLINE
  8
PNOA-H_AMS_1956-57_33k_ES_PAN_21mic_H50_0403_fot_42B-36301_E_tif
  70
9
  66
1
  0
VERTEX
  8
PNOA-H_AMS_1956-57_33k_ES_PAN_21mic_H50_0403_fot_42B-36301_E_tif
  70
32
  10
454354.438
  20
4589642.036
  30
969.688
  0
VERTEX
  8
PNOA-H_AMS_1956-57_33k_ES_PAN_21mic_H50_0403_fot_42B-36301_E_tif
  70
32
  10
454353.500
  20
4589642.000
  30
969.696
  0
VERTEX
  8
PNOA-H_AMS_1956-57_33k_ES_PAN_21mic_H50_0403_fot_42B-36301_E_tif
  70
32
  10
454086.000
  20
4589797.000
  30
972.405
  0
VERTEX
  8
PNOA-H_AMS_1956-57_33k_ES_PAN_21mic_H50_0403_fot_42B-36301_E_tif
  70
32
  10
454086.002
  20
4589797.210
  30
972.406
  0
VERTEX
  8
PNOA-H_AMS_1956-57_33k_ES_PAN_21mic_H50_0403_fot_42B-36301_E_tif
  70
32
  10
454106.500
  20
4591891.250
  30
982.633
  0
VERTEX
  8
PNOA-H_AMS_1956-57_33k_ES_PAN_21mic_H50_0403_fot_42B-36301_E_tif
  70
32
  10
454126.995
  20
4593985.001
  30
992.859
  0
VERTEX
  8
PNOA-H_AMS_1956-57_33k_ES_PAN_21mic_H50_0403_fot_42B-36301_E_tif
  70
32
  10
454127.000
  20
4593985.500
  30
992.861
  0
VERTEX
  8
PNOA-H_AMS_1956-57_33k_ES_PAN_21mic_H50_0403_fot_42B-36301_E_tif
  70
32
  10
455442.697
  20
4594401.953
  30
925.605
  0
VERTEX
  8
PNOA-H_AMS_1956-57_33k_ES_PAN_21mic_H50_0403_fot_42B-36301_E_tif
  70
32
  10
455444.102
  20
4594401.944
  30
925.584
  0
VERTEX
  8
PNOA-H_AMS_1956-57_33k_ES_PAN_21mic_H50_0403_fot_42B-36301_E_tif
  70
32
  10
455664.086
  20
4594400.566
  30
922.274
  0
VERTEX
  8
PNOA-H_AMS_1956-57_33k_ES_PAN_21mic_H50_0403_fot_42B-36301_E_tif
  70
32
  10
455665.772
  20
4594400.556
  30
922.248
  0
VERTEX
  8
PNOA-H_AMS_1956-57_33k_ES_PAN_21mic_H50_0403_fot_42B-36301_E_tif
  70
32
  10
456504.174
  20
4594105.306
  30
914.489
  0
VERTEX
  8
PNOA-H_AMS_1956-57_33k_ES_PAN_21mic_H50_0403_fot_42B-36301_E_tif
  70
32
  10
456527.937
  20
4594096.938
  30
914.269
  0
VERTEX
  8
PNOA-H_AMS_1956-57_33k_ES_PAN_21mic_H50_0403_fot_42B-36301_E_tif
  70
32
  10
456515.804
  20
4592082.236
  30
0
  0
VERTEX
  8
PNOA-H_AMS_1956-57_33k_ES_PAN_21mic_H50_0403_fot_42B-36301_E_tif
  70
32
  10
456501.881
  20
4589769.338
  30
0
  0
VERTEX
  8
PNOA-H_AMS_1956-57_33k_ES_PAN_21mic_H50_0403_fot_42B-36301_E_tif
  70
32
  10
456501.609
  20
4589724.134
  30
0
  0
VERTEX
  8
PNOA-H_AMS_1956-57_33k_ES_PAN_21mic_H50_0403_fot_42B-36301_E_tif
  70
32
  10
456501.608
  20
4589724.017
  30
951.28
  0
VERTEX
  8
PNOA-H_AMS_1956-57_33k_ES_PAN_21mic_H50_0403_fot_42B-36301_E_tif
  70
32
  10
454882.176
  20
4589662.185
  30
965.163
  0
VERTEX
  8
PNOA-H_AMS_1956-57_33k_ES_PAN_21mic_H50_0403_fot_42B-36301_E_tif
  70
32
  10
454354.438
  20
4589642.036
  30
969.688
  0
SEQEND
  8
PNOA-H_AMS_1956-57_33k_ES_PAN_21mic_H50_0403_fot_42B-36301_E_tif
  0
INSERT
  8
FeatureAttribs
  2
FEATURE
  41
1
  42
1
  43
1
  50
0
  10
456312.432
  20
4594248.760
 66
1
  0
ATTRIB
  8
FeatureAttribs
 70
0
  1
PNOA-H_AMS_1956-57_33k_ES_PAN_21mic_H50_0376_fot_41B-37416_W.tif
  2
NAME
  10
456312.432
  20
4594248.760
 40
33.68683
  0
SEQEND
  0
POLYLINE
  8
PNOA-H_AMS_1956-57_33k_ES_PAN_21mic_H50_0376_fot_41B-37416_W_tif
  70
9
  66
1
  0
VERTEX
  8
PNOA-H_AMS_1956-57_33k_ES_PAN_21mic_H50_0376_fot_41B-37416_W_tif
  70
32
  10
456529.733
  20
4594395.143
  30
0
  0
VERTEX
  8
PNOA-H_AMS_1956-57_33k_ES_PAN_21mic_H50_0376_fot_41B-37416_W_tif
  70
32
  10
456527.937
  20
4594096.954
  30
913.274
  0
VERTEX
  8
PNOA-H_AMS_1956-57_33k_ES_PAN_21mic_H50_0376_fot_41B-37416_W_tif
  70
32
  10
456504.174
  20
4594105.306
  30
913.445
  0
VERTEX
  8
PNOA-H_AMS_1956-57_33k_ES_PAN_21mic_H50_0376_fot_41B-37416_W_tif
  70
32
  10
455664.086
  20
4594400.566
  30
919.475
  0
VERTEX
  8
PNOA-H_AMS_1956-57_33k_ES_PAN_21mic_H50_0376_fot_41B-37416_W_tif
  70
32
  10
455665.772
  20
4594400.556
  30
0
  0
VERTEX
  8
PNOA-H_AMS_1956-57_33k_ES_PAN_21mic_H50_0376_fot_41B-37416_W_tif
  70
32
  10
456529.733
  20
4594395.143
  30
0
  0
SEQEND
  8
PNOA-H_AMS_1956-57_33k_ES_PAN_21mic_H50_0376_fot_41B-37416_W_tif
  0
INSERT
  8
FeatureAttribs
  2
FEATURE
  41
1
  42
1
  43
1
  50
0
  10
431035.537
  20
4588316.750
 66
1
  0
ATTRIB
  8
FeatureAttribs
 70
0
  1
PNOA-H_AMS_1956-57_33k_ES_PAN_21mic_H50_0403_fot_43B-29623_E.tif
  2
NAME
  10
431035.537
  20
4588316.750
 40
33.68683
  0
SEQEND
  0
POLYLINE
  8
PNOA-H_AMS_1956-57_33k_ES_PAN_21mic_H50_0403_fot_43B-29623_E_tif
  70
9
  66
1
  0
VERTEX
  8
PNOA-H_AMS_1956-57_33k_ES_PAN_21mic_H50_0403_fot_43B-29623_E_tif
  70
32
  10
430394.775
  20
4590413.395
  30
1037.161
  0
VERTEX
  8
PNOA-H_AMS_1956-57_33k_ES_PAN_21mic_H50_0403_fot_43B-29623_E_tif
  70
32
  10
430537.500
  20
4590394.000
  30
1055.07
  0
VERTEX
  8
PNOA-H_AMS_1956-57_33k_ES_PAN_21mic_H50_0403_fot_43B-29623_E_tif
  70
32
  10
430537.535
  20
4590394.000
  30
1055.073
  0
VERTEX
  8
PNOA-H_AMS_1956-57_33k_ES_PAN_21mic_H50_0403_fot_43B-29623_E_tif
  70
32
  10
430540.000
  20
4590394.000
  30
1055.259
  0
VERTEX
  8
PNOA-H_AMS_1956-57_33k_ES_PAN_21mic_H50_0403_fot_43B-29623_E_tif
  70
32
  10
432438.225
  20
4590134.106
  30
1098.842
  0
VERTEX
  8
PNOA-H_AMS_1956-57_33k_ES_PAN_21mic_H50_0403_fot_43B-29623_E_tif
  70
32
  10
432438.990
  20
4590134.001
  30
1098.86
  0
VERTEX
  8
PNOA-H_AMS_1956-57_33k_ES_PAN_21mic_H50_0403_fot_43B-29623_E_tif
  70
32
  10
432439.000
  20
4590134.000
  30
1098.86
  0
VERTEX
  8
PNOA-H_AMS_1956-57_33k_ES_PAN_21mic_H50_0403_fot_43B-29623_E_tif
  70
32
  10
432361.000
  20
4586413.000
  30
1268.754
  0
VERTEX
  8
PNOA-H_AMS_1956-57_33k_ES_PAN_21mic_H50_0403_fot_43B-29623_E_tif
  70
32
  10
432360.935
  20
4586412.959
  30
1268.745
  0
VERTEX
  8
PNOA-H_AMS_1956-57_33k_ES_PAN_21mic_H50_0403_fot_43B-29623_E_tif
  70
32
  10
432360.266
  20
4586412.533
  30
1268.649
  0
VERTEX
  8
PNOA-H_AMS_1956-57_33k_ES_PAN_21mic_H50_0403_fot_43B-29623_E_tif
  70
32
  10
432198.862
  20
4586309.724
  30
1245.69
  0
VERTEX
  8
PNOA-H_AMS_1956-57_33k_ES_PAN_21mic_H50_0403_fot_43B-29623_E_tif
  70
32
  10
432058.000
  20
4586220.000
  30
1225.653
  0
VERTEX
  8
PNOA-H_AMS_1956-57_33k_ES_PAN_21mic_H50_0403_fot_43B-29623_E_tif
  70
32
  10
432057.577
  20
4586220.049
  30
1225.638
  0
VERTEX
  8
PNOA-H_AMS_1956-57_33k_ES_PAN_21mic_H50_0403_fot_43B-29623_E_tif
  70
32
  10
431789.574
  20
4586251.162
  30
1216.306
  0
VERTEX
  8
PNOA-H_AMS_1956-57_33k_ES_PAN_21mic_H50_0403_fot_43B-29623_E_tif
  70
32
  10
430537.668
  20
4586396.500
  30
1172.716
  0
VERTEX
  8
PNOA-H_AMS_1956-57_33k_ES_PAN_21mic_H50_0403_fot_43B-29623_E_tif
  70
32
  10
429995.000
  20
4586459.500
  30
1153.821
  0
VERTEX
  8
PNOA-H_AMS_1956-57_33k_ES_PAN_21mic_H50_0403_fot_43B-29623_E_tif
  70
32
  10
429386.000
  20
4589941.500
  30
1034.89
  0
VERTEX
  8
PNOA-H_AMS_1956-57_33k_ES_PAN_21mic_H50_0403_fot_43B-29623_E_tif
  70
32
  10
429386.117
  20
4589941.555
  30
1034.89
  0
VERTEX
  8
PNOA-H_AMS_1956-57_33k_ES_PAN_21mic_H50_0403_fot_43B-29623_E_tif
  70
32
  10
430394.000
  20
4590413.500
  30
1037.064
  0
VERTEX
  8
PNOA-H_AMS_1956-57_33k_ES_PAN_21mic_H50_0403_fot_43B-29623_E_tif
  70
32
  10
430394.775
  20
4590413.395
  30
1037.161
  0
SEQEND
  8
PNOA-H_AMS_1956-57_33k_ES_PAN_21mic_H50_0403_fot_43B-29623_E_tif
  0
INSERT
  8
FeatureAttribs
  2
FEATURE
  41
1
  42
1
  43
1
  50
0
  10
436268.026
  20
4588127.250
 66
1
  0
ATTRIB
  8
FeatureAttribs
 70
0
  1
PNOA-H_AMS_1956-57_33k_ES_PAN_21mic_H50_0403_fot_43B-29625_E.tif
  2
NAME
  10
436268.026
  20
4588127.250
 40
33.68683
  0
SEQEND
  0
POLYLINE
  8
PNOA-H_AMS_1956-57_33k_ES_PAN_21mic_H50_0403_fot_43B-29625_E_tif
  70
9
  66
1
  0
VERTEX
  8
PNOA-H_AMS_1956-57_33k_ES_PAN_21mic_H50_0403_fot_43B-29625_E_tif
  70
32
  10
437507.400
  20
4586949.100
  30
1188.662
  0
VERTEX
  8
PNOA-H_AMS_1956-57_33k_ES_PAN_21mic_H50_0403_fot_43B-29625_E_tif
  70
32
  10
437469.500
  20
4586186.500
  30
1196.01
  0
VERTEX
  8
PNOA-H_AMS_1956-57_33k_ES_PAN_21mic_H50_0403_fot_43B-29625_E_tif
  70
32
  10
436683.153
  20
4586203.000
  30
1203.276
  0
VERTEX
  8
PNOA-H_AMS_1956-57_33k_ES_PAN_21mic_H50_0403_fot_43B-29625_E_tif
  70
32
  10
435798.076
  20
4586221.572
  30
1211.454
  0
VERTEX
  8
PNOA-H_AMS_1956-57_33k_ES_PAN_21mic_H50_0403_fot_43B-29625_E_tif
  70
32
  10
434896.000
  20
4586240.500
  30
1219.789
  0
VERTEX
  8
PNOA-H_AMS_1956-57_33k_ES_PAN_21mic_H50_0403_fot_43B-29625_E_tif
  70
32
  10
434888.259
  20
4586240.984
  30
1221.006
  0
VERTEX
  8
PNOA-H_AMS_1956-57_33k_ES_PAN_21mic_H50_0403_fot_43B-29625_E_tif
  70
32
  10
434888.000
  20
4586241.000
  30
1221.047
  0
VERTEX
  8
PNOA-H_AMS_1956-57_33k_ES_PAN_21mic_H50_0403_fot_43B-29625_E_tif
  70
32
  10
434888.000
  20
4586252.000
  30
1221.695
  0
VERTEX
  8
PNOA-H_AMS_1956-57_33k_ES_PAN_21mic_H50_0403_fot_43B-29625_E_tif
  70
32
  10
435051.500
  20
4589986.500
  30
1143.345
  0
VERTEX
  8
PNOA-H_AMS_1956-57_33k_ES_PAN_21mic_H50_0403_fot_43B-29625_E_tif
  70
32
  10
435150.026
  20
4589989.715
  30
1143.712
  0
VERTEX
  8
PNOA-H_AMS_1956-57_33k_ES_PAN_21mic_H50_0403_fot_43B-29625_E_tif
  70
32
  10
437534.000
  20
4590067.500
  30
1152.589
  0
VERTEX
  8
PNOA-H_AMS_1956-57_33k_ES_PAN_21mic_H50_0403_fot_43B-29625_E_tif
  70
32
  10
437549.500
  20
4590068.000
  30
1152.578
  0
VERTEX
  8
PNOA-H_AMS_1956-57_33k_ES_PAN_21mic_H50_0403_fot_43B-29625_E_tif
  70
32
  10
437561.500
  20
4590068.000
  30
1152.241
  0
VERTEX
  8
PNOA-H_AMS_1956-57_33k_ES_PAN_21mic_H50_0403_fot_43B-29625_E_tif
  70
32
  10
437562.000
  20
4590068.000
  30
1152.227
  0
VERTEX
  8
PNOA-H_AMS_1956-57_33k_ES_PAN_21mic_H50_0403_fot_43B-29625_E_tif
  70
32
  10
437658.500
  20
4590002.000
  30
1158.436
  0
VERTEX
  8
PNOA-H_AMS_1956-57_33k_ES_PAN_21mic_H50_0403_fot_43B-29625_E_tif
  70
32
  10
437658.534
  20
4590001.828
  30
1158.494
  0
VERTEX
  8
PNOA-H_AMS_1956-57_33k_ES_PAN_21mic_H50_0403_fot_43B-29625_E_tif
  70
32
  10
437658.920
  20
4589999.898
  30
1159.134
  0
VERTEX
  8
PNOA-H_AMS_1956-57_33k_ES_PAN_21mic_H50_0403_fot_43B-29625_E_tif
  70
32
  10
437659.000
  20
4589999.500
  30
1159.266
  0
VERTEX
  8
PNOA-H_AMS_1956-57_33k_ES_PAN_21mic_H50_0403_fot_43B-29625_E_tif
  70
32
  10
437507.400
  20
4586949.100
  30
1188.662
  0
SEQEND
  8
PNOA-H_AMS_1956-57_33k_ES_PAN_21mic_H50_0403_fot_43B-29625_E_tif
  0
INSERT
  8
FeatureAttribs
  2
FEATURE
  41
1
  42
1
  43
1
  50
0
  10
433688.254
  20
4588270.250
 66
1
  0
ATTRIB
  8
FeatureAttribs
 70
0
  1
PNOA-H_AMS_1956-57_33k_ES_PAN_21mic_H50_0403_fot_43B-29624_E.tif
  2
NAME
  10
433688.254
  20
4588270.250
 40
33.68683
  0
SEQEND
  0
POLYLINE
  8
PNOA-H_AMS_1956-57_33k_ES_PAN_21mic_H50_0403_fot_43B-29624_E_tif
  70
9
  66
1
  0
VERTEX
  8
PNOA-H_AMS_1956-57_33k_ES_PAN_21mic_H50_0403_fot_43B-29624_E_tif
  70
32
  10
434887.985
  20
4586240.990
  30
1221.048
  0
VERTEX
  8
PNOA-H_AMS_1956-57_33k_ES_PAN_21mic_H50_0403_fot_43B-29624_E_tif
  70
32
  10
434800.000
  20
4586182.000
  30
1228.728
  0
VERTEX
  8
PNOA-H_AMS_1956-57_33k_ES_PAN_21mic_H50_0403_fot_43B-29624_E_tif
  70
32
  10
434799.124
  20
4586182.083
  30
1228.742
  0
VERTEX
  8
PNOA-H_AMS_1956-57_33k_ES_PAN_21mic_H50_0403_fot_43B-29624_E_tif
  70
32
  10
432361.000
  20
4586413.000
  30
1268.754
  0
VERTEX
  8
PNOA-H_AMS_1956-57_33k_ES_PAN_21mic_H50_0403_fot_43B-29624_E_tif
  70
32
  10
432438.990
  20
4590134.001
  30
1098.969
  0
VERTEX
  8
PNOA-H_AMS_1956-57_33k_ES_PAN_21mic_H50_0403_fot_43B-29624_E_tif
  70
32
  10
432438.999
  20
4590134.472
  30
1098.948
  0
VERTEX
  8
PNOA-H_AMS_1956-57_33k_ES_PAN_21mic_H50_0403_fot_43B-29624_E_tif
  70
32
  10
432439.000
  20
4590134.500
  30
1098.947
  0
VERTEX
  8
PNOA-H_AMS_1956-57_33k_ES_PAN_21mic_H50_0403_fot_43B-29624_E_tif
  70
32
  10
432586.000
  20
4590204.000
  30
1103.155
  0
VERTEX
  8
PNOA-H_AMS_1956-57_33k_ES_PAN_21mic_H50_0403_fot_43B-29624_E_tif
  70
32
  10
432587.000
  20
4590204.500
  30
1102.986
  0
VERTEX
  8
PNOA-H_AMS_1956-57_33k_ES_PAN_21mic_H50_0403_fot_43B-29624_E_tif
  70
32
  10
432912.012
  20
4590358.269
  30
1085.505
  0
VERTEX
  8
PNOA-H_AMS_1956-57_33k_ES_PAN_21mic_H50_0403_fot_43B-29624_E_tif
  70
32
  10
432912.381
  20
4590358.444
  30
1085.485
  0
VERTEX
  8
PNOA-H_AMS_1956-57_33k_ES_PAN_21mic_H50_0403_fot_43B-29624_E_tif
  70
32
  10
432912.500
  20
4590358.500
  30
1085.479
  0
VERTEX
  8
PNOA-H_AMS_1956-57_33k_ES_PAN_21mic_H50_0403_fot_43B-29624_E_tif
  70
32
  10
434924.000
  20
4590062.000
  30
1136.219
  0
VERTEX
  8
PNOA-H_AMS_1956-57_33k_ES_PAN_21mic_H50_0403_fot_43B-29624_E_tif
  70
32
  10
434924.793
  20
4590061.531
  30
1136.264
  0
VERTEX
  8
PNOA-H_AMS_1956-57_33k_ES_PAN_21mic_H50_0403_fot_43B-29624_E_tif
  70
32
  10
434925.584
  20
4590061.062
  30
1136.308
  0
VERTEX
  8
PNOA-H_AMS_1956-57_33k_ES_PAN_21mic_H50_0403_fot_43B-29624_E_tif
  70
32
  10
435051.474
  20
4589986.515
  30
1143.344
  0
VERTEX
  8
PNOA-H_AMS_1956-57_33k_ES_PAN_21mic_H50_0403_fot_43B-29624_E_tif
  70
32
  10
435051.500
  20
4589986.500
  30
1143.345
  0
VERTEX
  8
PNOA-H_AMS_1956-57_33k_ES_PAN_21mic_H50_0403_fot_43B-29624_E_tif
  70
32
  10
434888.000
  20
4586241.000
  30
1221.047
  0
VERTEX
  8
PNOA-H_AMS_1956-57_33k_ES_PAN_21mic_H50_0403_fot_43B-29624_E_tif
  70
32
  10
434887.985
  20
4586240.990
  30
1221.048
  0
SEQEND
  8
PNOA-H_AMS_1956-57_33k_ES_PAN_21mic_H50_0403_fot_43B-29624_E_tif
  0
INSERT
  8
FeatureAttribs
  2
FEATURE
  41
1
  42
1
  43
1
  50
0
  10
429183.107
  20
4588015.663
 66
1
  0
ATTRIB
  8
FeatureAttribs
 70
0
  1
PNOA-H_AMS_1956-57_33k_ES_PAN_21mic_H50_0403_fot_43A-28058_W.tif
  2
NAME
  10
429183.107
  20
4588015.663
 40
33.68683
  0
SEQEND
  0
POLYLINE
  8
PNOA-H_AMS_1956-57_33k_ES_PAN_21mic_H50_0403_fot_43A-28058_W_tif
  70
9
  66
1
  0
VERTEX
  8
PNOA-H_AMS_1956-57_33k_ES_PAN_21mic_H50_0403_fot_43A-28058_W_tif
  70
32
  10
429344.204
  20
4585986.602
  30
1153.933
  0
VERTEX
  8
PNOA-H_AMS_1956-57_33k_ES_PAN_21mic_H50_0403_fot_43A-28058_W_tif
  70
32
  10
429344.000
  20
4585986.500
  30
1153.901
  0
VERTEX
  8
PNOA-H_AMS_1956-57_33k_ES_PAN_21mic_H50_0403_fot_43A-28058_W_tif
  70
32
  10
428624.275
  20
4586078.481
  30
1136.931
  0
VERTEX
  8
PNOA-H_AMS_1956-57_33k_ES_PAN_21mic_H50_0403_fot_43A-28058_W_tif
  70
32
  10
428624.277
  20
4586078.695
  30
0
  0
VERTEX
  8
PNOA-H_AMS_1956-57_33k_ES_PAN_21mic_H50_0403_fot_43A-28058_W_tif
  70
32
  10
428640.050
  20
4587677.601
  30
0
  0
VERTEX
  8
PNOA-H_AMS_1956-57_33k_ES_PAN_21mic_H50_0403_fot_43A-28058_W_tif
  70
32
  10
428662.876
  20
4589990.512
  30
0
  0
VERTEX
  8
PNOA-H_AMS_1956-57_33k_ES_PAN_21mic_H50_0403_fot_43A-28058_W_tif
  70
32
  10
428663.412
  20
4590044.782
  30
0
  0
VERTEX
  8
PNOA-H_AMS_1956-57_33k_ES_PAN_21mic_H50_0403_fot_43A-28058_W_tif
  70
32
  10
428663.412
  20
4590044.827
  30
1025.979
  0
VERTEX
  8
PNOA-H_AMS_1956-57_33k_ES_PAN_21mic_H50_0403_fot_43A-28058_W_tif
  70
32
  10
428943.500
  20
4590004.775
  30
1029.433
  0
VERTEX
  8
PNOA-H_AMS_1956-57_33k_ES_PAN_21mic_H50_0403_fot_43A-28058_W_tif
  70
32
  10
429386.000
  20
4589941.500
  30
1034.89
  0
VERTEX
  8
PNOA-H_AMS_1956-57_33k_ES_PAN_21mic_H50_0403_fot_43A-28058_W_tif
  70
32
  10
429995.000
  20
4586459.500
  30
1153.821
  0
VERTEX
  8
PNOA-H_AMS_1956-57_33k_ES_PAN_21mic_H50_0403_fot_43A-28058_W_tif
  70
32
  10
429994.931
  20
4586459.450
  30
1153.821
  0
VERTEX
  8
PNOA-H_AMS_1956-57_33k_ES_PAN_21mic_H50_0403_fot_43A-28058_W_tif
  70
32
  10
429349.000
  20
4585989.000
  30
1154.69
  0
VERTEX
  8
PNOA-H_AMS_1956-57_33k_ES_PAN_21mic_H50_0403_fot_43A-28058_W_tif
  70
32
  10
429347.191
  20
4585988.095
  30
1154.404
  0
VERTEX
  8
PNOA-H_AMS_1956-57_33k_ES_PAN_21mic_H50_0403_fot_43A-28058_W_tif
  70
32
  10
429344.204
  20
4585986.602
  30
1153.933
  0
SEQEND
  8
PNOA-H_AMS_1956-57_33k_ES_PAN_21mic_H50_0403_fot_43A-28058_W_tif
  0
INSERT
  8
FeatureAttribs
  2
FEATURE
  41
1
  42
1
  43
1
  50
0
  10
436090.872
  20
4583859.750
 66
1
  0
ATTRIB
  8
FeatureAttribs
 70
0
  1
PNOA-H_AMS_1956-57_33k_ES_PAN_21mic_H50_0403_fot_44B-36289_W.tif
  2
NAME
  10
436090.872
  20
4583859.750
 40
33.68683
  0
SEQEND
  0
POLYLINE
  8
PNOA-H_AMS_1956-57_33k_ES_PAN_21mic_H50_0403_fot_44B-36289_W_tif
  70
9
  66
1
  0
VERTEX
  8
PNOA-H_AMS_1956-57_33k_ES_PAN_21mic_H50_0403_fot_44B-36289_W_tif
  70
32
  10
436668.500
  20
4586203.000
  30
1152.251
  0
VERTEX
  8
PNOA-H_AMS_1956-57_33k_ES_PAN_21mic_H50_0403_fot_44B-36289_W_tif
  70
32
  10
436683.153
  20
4586203.000
  30
1154.056
  0
VERTEX
  8
PNOA-H_AMS_1956-57_33k_ES_PAN_21mic_H50_0403_fot_44B-36289_W_tif
  70
32
  10
436684.000
  20
4586203.000
  30
1154.161
  0
VERTEX
  8
PNOA-H_AMS_1956-57_33k_ES_PAN_21mic_H50_0403_fot_44B-36289_W_tif
  70
32
  10
437469.500
  20
4586186.500
  30
1196.01
  0
VERTEX
  8
PNOA-H_AMS_1956-57_33k_ES_PAN_21mic_H50_0403_fot_44B-36289_W_tif
  70
32
  10
437469.524
  20
4586186.480
  30
1196.006
  0
VERTEX
  8
PNOA-H_AMS_1956-57_33k_ES_PAN_21mic_H50_0403_fot_44B-36289_W_tif
  70
32
  10
437509.000
  20
4586154.000
  30
1189.209
  0
VERTEX
  8
PNOA-H_AMS_1956-57_33k_ES_PAN_21mic_H50_0403_fot_44B-36289_W_tif
  70
32
  10
437508.997
  20
4586153.901
  30
1189.206
  0
VERTEX
  8
PNOA-H_AMS_1956-57_33k_ES_PAN_21mic_H50_0403_fot_44B-36289_W_tif
  70
32
  10
437371.500
  20
4581802.000
  30
1076.599
  0
VERTEX
  8
PNOA-H_AMS_1956-57_33k_ES_PAN_21mic_H50_0403_fot_44B-36289_W_tif
  70
32
  10
437177.561
  20
4581759.780
  30
1077.821
  0
VERTEX
  8
PNOA-H_AMS_1956-57_33k_ES_PAN_21mic_H50_0403_fot_44B-36289_W_tif
  70
32
  10
435885.500
  20
4581478.500
  30
1085.963
  0
VERTEX
  8
PNOA-H_AMS_1956-57_33k_ES_PAN_21mic_H50_0403_fot_44B-36289_W_tif
  70
32
  10
435885.292
  20
4581478.564
  30
1085.967
  0
VERTEX
  8
PNOA-H_AMS_1956-57_33k_ES_PAN_21mic_H50_0403_fot_44B-36289_W_tif
  70
32
  10
435588.750
  20
4581569.250
  30
1092.296
  0
VERTEX
  8
PNOA-H_AMS_1956-57_33k_ES_PAN_21mic_H50_0403_fot_44B-36289_W_tif
  70
32
  10
434698.500
  20
4581841.500
  30
1111.295
  0
VERTEX
  8
PNOA-H_AMS_1956-57_33k_ES_PAN_21mic_H50_0403_fot_44B-36289_W_tif
  70
32
  10
434799.000
  20
4586182.000
  30
1228.963
  0
VERTEX
  8
PNOA-H_AMS_1956-57_33k_ES_PAN_21mic_H50_0403_fot_44B-36289_W_tif
  70
32
  10
434799.124
  20
4586182.083
  30
1228.952
  0
VERTEX
  8
PNOA-H_AMS_1956-57_33k_ES_PAN_21mic_H50_0403_fot_44B-36289_W_tif
  70
32
  10
434887.500
  20
4586241.000
  30
1221.12
  0
VERTEX
  8
PNOA-H_AMS_1956-57_33k_ES_PAN_21mic_H50_0403_fot_44B-36289_W_tif
  70
32
  10
434887.985
  20
4586240.990
  30
1221.102
  0
VERTEX
  8
PNOA-H_AMS_1956-57_33k_ES_PAN_21mic_H50_0403_fot_44B-36289_W_tif
  70
32
  10
434888.259
  20
4586240.984
  30
1221.091
  0
VERTEX
  8
PNOA-H_AMS_1956-57_33k_ES_PAN_21mic_H50_0403_fot_44B-36289_W_tif
  70
32
  10
435798.076
  20
4586221.572
  30
1185.91
  0
VERTEX
  8
PNOA-H_AMS_1956-57_33k_ES_PAN_21mic_H50_0403_fot_44B-36289_W_tif
  70
32
  10
436668.500
  20
4586203.000
  30
1152.251
  0
SEQEND
  8
PNOA-H_AMS_1956-57_33k_ES_PAN_21mic_H50_0403_fot_44B-36289_W_tif
  0
INSERT
  8
FeatureAttribs
  2
FEATURE
  41
1
  42
1
  43
1
  50
0
  10
430672.210
  20
4584019.000
 66
1
  0
ATTRIB
  8
FeatureAttribs
 70
0
  1
PNOA-H_AMS_1956-57_33k_ES_PAN_21mic_H50_0403_fot_44B-36291_W.tif
  2
NAME
  10
430672.210
  20
4584019.000
 40
33.68683
  0
SEQEND
  0
POLYLINE
  8
PNOA-H_AMS_1956-57_33k_ES_PAN_21mic_H50_0403_fot_44B-36291_W_tif
  70
9
  66
1
  0
VERTEX
  8
PNOA-H_AMS_1956-57_33k_ES_PAN_21mic_H50_0403_fot_44B-36291_W_tif
  70
32
  10
429994.931
  20
4586459.450
  30
1153.875
  0
VERTEX
  8
PNOA-H_AMS_1956-57_33k_ES_PAN_21mic_H50_0403_fot_44B-36291_W_tif
  70
32
  10
430536.000
  20
4586396.500
  30
1220.012
  0
VERTEX
  8
PNOA-H_AMS_1956-57_33k_ES_PAN_21mic_H50_0403_fot_44B-36291_W_tif
  70
32
  10
430537.668
  20
4586396.500
  30
1220.13
  0
VERTEX
  8
PNOA-H_AMS_1956-57_33k_ES_PAN_21mic_H50_0403_fot_44B-36291_W_tif
  70
32
  10
430540.000
  20
4586396.500
  30
1220.295
  0
VERTEX
  8
PNOA-H_AMS_1956-57_33k_ES_PAN_21mic_H50_0403_fot_44B-36291_W_tif
  70
32
  10
431789.574
  20
4586251.162
  30
1224.806
  0
VERTEX
  8
PNOA-H_AMS_1956-57_33k_ES_PAN_21mic_H50_0403_fot_44B-36291_W_tif
  70
32
  10
432057.500
  20
4586220.000
  30
1225.774
  0
VERTEX
  8
PNOA-H_AMS_1956-57_33k_ES_PAN_21mic_H50_0403_fot_44B-36291_W_tif
  70
32
  10
431962.000
  20
4581892.000
  30
1121.073
  0
VERTEX
  8
PNOA-H_AMS_1956-57_33k_ES_PAN_21mic_H50_0403_fot_44B-36291_W_tif
  70
32
  10
431699.356
  20
4581842.383
  30
1116.666
  0
VERTEX
  8
PNOA-H_AMS_1956-57_33k_ES_PAN_21mic_H50_0403_fot_44B-36291_W_tif
  70
32
  10
430302.500
  20
4581578.500
  30
1093.223
  0
VERTEX
  8
PNOA-H_AMS_1956-57_33k_ES_PAN_21mic_H50_0403_fot_44B-36291_W_tif
  70
32
  10
430302.150
  20
4581578.623
  30
1093.218
  0
VERTEX
  8
PNOA-H_AMS_1956-57_33k_ES_PAN_21mic_H50_0403_fot_44B-36291_W_tif
  70
32
  10
429841.356
  20
4581741.144
  30
1086.384
  0
VERTEX
  8
PNOA-H_AMS_1956-57_33k_ES_PAN_21mic_H50_0403_fot_44B-36291_W_tif
  70
32
  10
429459.000
  20
4581876.000
  30
1080.714
  0
VERTEX
  8
PNOA-H_AMS_1956-57_33k_ES_PAN_21mic_H50_0403_fot_44B-36291_W_tif
  70
32
  10
429457.709
  20
4581876.749
  30
1080.764
  0
VERTEX
  8
PNOA-H_AMS_1956-57_33k_ES_PAN_21mic_H50_0403_fot_44B-36291_W_tif
  70
32
  10
429424.963
  20
4581895.759
  30
1082.039
  0
VERTEX
  8
PNOA-H_AMS_1956-57_33k_ES_PAN_21mic_H50_0403_fot_44B-36291_W_tif
  70
32
  10
429325.500
  20
4581953.500
  30
1085.911
  0
VERTEX
  8
PNOA-H_AMS_1956-57_33k_ES_PAN_21mic_H50_0403_fot_44B-36291_W_tif
  70
32
  10
429325.502
  20
4581953.999
  30
1085.919
  0
VERTEX
  8
PNOA-H_AMS_1956-57_33k_ES_PAN_21mic_H50_0403_fot_44B-36291_W_tif
  70
32
  10
429345.000
  20
4585986.500
  30
1154.019
  0
VERTEX
  8
PNOA-H_AMS_1956-57_33k_ES_PAN_21mic_H50_0403_fot_44B-36291_W_tif
  70
32
  10
429347.191
  20
4585988.095
  30
1154.018
  0
VERTEX
  8
PNOA-H_AMS_1956-57_33k_ES_PAN_21mic_H50_0403_fot_44B-36291_W_tif
  70
32
  10
429994.500
  20
4586459.500
  30
1153.823
  0
VERTEX
  8
PNOA-H_AMS_1956-57_33k_ES_PAN_21mic_H50_0403_fot_44B-36291_W_tif
  70
32
  10
429994.931
  20
4586459.450
  30
1153.875
  0
SEQEND
  8
PNOA-H_AMS_1956-57_33k_ES_PAN_21mic_H50_0403_fot_44B-36291_W_tif
  0
INSERT
  8
FeatureAttribs
  2
FEATURE
  41
1
  42
1
  43
1
  50
0
  10
433378.067
  20
4583981.000
 66
1
  0
ATTRIB
  8
FeatureAttribs
 70
0
  1
PNOA-H_AMS_1956-57_33k_ES_PAN_21mic_H50_0403_fot_44B-36290_W.tif
  2
NAME
  10
433378.067
  20
4583981.000
 40
33.68683
  0
SEQEND
  0
POLYLINE
  8
PNOA-H_AMS_1956-57_33k_ES_PAN_21mic_H50_0403_fot_44B-36290_W_tif
  70
9
  66
1
  0
VERTEX
  8
PNOA-H_AMS_1956-57_33k_ES_PAN_21mic_H50_0403_fot_44B-36290_W_tif
  70
32
  10
433125.920
  20
4581549.171
  30
1117.274
  0
VERTEX
  8
PNOA-H_AMS_1956-57_33k_ES_PAN_21mic_H50_0403_fot_44B-36290_W_tif
  70
32
  10
433125.000
  20
4581549.000
  30
1117.277
  0
VERTEX
  8
PNOA-H_AMS_1956-57_33k_ES_PAN_21mic_H50_0403_fot_44B-36290_W_tif
  70
32
  10
431962.195
  20
4581891.942
  30
1121.073
  0
VERTEX
  8
PNOA-H_AMS_1956-57_33k_ES_PAN_21mic_H50_0403_fot_44B-36290_W_tif
  70
32
  10
431962.000
  20
4581892.000
  30
1121.073
  0
VERTEX
  8
PNOA-H_AMS_1956-57_33k_ES_PAN_21mic_H50_0403_fot_44B-36290_W_tif
  70
32
  10
432057.500
  20
4586220.000
  30
1225.774
  0
VERTEX
  8
PNOA-H_AMS_1956-57_33k_ES_PAN_21mic_H50_0403_fot_44B-36290_W_tif
  70
32
  10
432057.577
  20
4586220.049
  30
1225.785
  0
VERTEX
  8
PNOA-H_AMS_1956-57_33k_ES_PAN_21mic_H50_0403_fot_44B-36290_W_tif
  70
32
  10
432198.862
  20
4586309.724
  30
1245.807
  0
VERTEX
  8
PNOA-H_AMS_1956-57_33k_ES_PAN_21mic_H50_0403_fot_44B-36290_W_tif
  70
32
  10
432360.000
  20
4586412.000
  30
1268.643
  0
VERTEX
  8
PNOA-H_AMS_1956-57_33k_ES_PAN_21mic_H50_0403_fot_44B-36290_W_tif
  70
32
  10
432360.266
  20
4586412.533
  30
1268.668
  0
VERTEX
  8
PNOA-H_AMS_1956-57_33k_ES_PAN_21mic_H50_0403_fot_44B-36290_W_tif
  70
32
  10
432360.500
  20
4586413.000
  30
1268.691
  0
VERTEX
  8
PNOA-H_AMS_1956-57_33k_ES_PAN_21mic_H50_0403_fot_44B-36290_W_tif
  70
32
  10
432360.935
  20
4586412.959
  30
1268.683
  0
VERTEX
  8
PNOA-H_AMS_1956-57_33k_ES_PAN_21mic_H50_0403_fot_44B-36290_W_tif
  70
32
  10
434799.000
  20
4586182.000
  30
1228.963
  0
VERTEX
  8
PNOA-H_AMS_1956-57_33k_ES_PAN_21mic_H50_0403_fot_44B-36290_W_tif
  70
32
  10
434698.500
  20
4581841.500
  30
1111.295
  0
VERTEX
  8
PNOA-H_AMS_1956-57_33k_ES_PAN_21mic_H50_0403_fot_44B-36290_W_tif
  70
32
  10
433743.388
  20
4581663.953
  30
1114.926
  0
VERTEX
  8
PNOA-H_AMS_1956-57_33k_ES_PAN_21mic_H50_0403_fot_44B-36290_W_tif
  70
32
  10
433125.920
  20
4581549.171
  30
1117.274
  0
SEQEND
  8
PNOA-H_AMS_1956-57_33k_ES_PAN_21mic_H50_0403_fot_44B-36290_W_tif
  0
INSERT
  8
FeatureAttribs
  2
FEATURE
  41
1
  42
1
  43
1
  50
0
  10
428969.579
  20
4584016.347
 66
1
  0
ATTRIB
  8
FeatureAttribs
 70
0
  1
PNOA-H_AMS_1956-57_33k_ES_PAN_21mic_H50_0403_fot_44B-36292_W.tif
  2
NAME
  10
428969.579
  20
4584016.347
 40
33.68683
  0
SEQEND
  0
POLYLINE
  8
PNOA-H_AMS_1956-57_33k_ES_PAN_21mic_H50_0403_fot_44B-36292_W_tif
  70
9
  66
1
  0
VERTEX
  8
PNOA-H_AMS_1956-57_33k_ES_PAN_21mic_H50_0403_fot_44B-36292_W_tif
  70
32
  10
429330.000
  20
4582949.000
  30
1095.269
  0
VERTEX
  8
PNOA-H_AMS_1956-57_33k_ES_PAN_21mic_H50_0403_fot_44B-36292_W_tif
  70
32
  10
429325.500
  20
4581954.000
  30
1085.92
  0
VERTEX
  8
PNOA-H_AMS_1956-57_33k_ES_PAN_21mic_H50_0403_fot_44B-36292_W_tif
  70
32
  10
428911.000
  20
4581979.000
  30
1021.984
  0
VERTEX
  8
PNOA-H_AMS_1956-57_33k_ES_PAN_21mic_H50_0403_fot_44B-36292_W_tif
  70
32
  10
428904.500
  20
4581979.500
  30
1028.321
  0
VERTEX
  8
PNOA-H_AMS_1956-57_33k_ES_PAN_21mic_H50_0403_fot_44B-36292_W_tif
  70
32
  10
428900.000
  20
4581984.500
  30
1037.784
  0
VERTEX
  8
PNOA-H_AMS_1956-57_33k_ES_PAN_21mic_H50_0403_fot_44B-36292_W_tif
  70
32
  10
428890.000
  20
4581984.500
  30
1038.071
  0
VERTEX
  8
PNOA-H_AMS_1956-57_33k_ES_PAN_21mic_H50_0403_fot_44B-36292_W_tif
  70
32
  10
428886.500
  20
4581981.000
  30
1032.522
  0
VERTEX
  8
PNOA-H_AMS_1956-57_33k_ES_PAN_21mic_H50_0403_fot_44B-36292_W_tif
  70
32
  10
428878.500
  20
4581981.000
  30
1033.81
  0
VERTEX
  8
PNOA-H_AMS_1956-57_33k_ES_PAN_21mic_H50_0403_fot_44B-36292_W_tif
  70
32
  10
428584.054
  20
4581999.447
  30
1020.237
  0
VERTEX
  8
PNOA-H_AMS_1956-57_33k_ES_PAN_21mic_H50_0403_fot_44B-36292_W_tif
  70
32
  10
428594.427
  20
4583051.805
  30
0
  0
VERTEX
  8
PNOA-H_AMS_1956-57_33k_ES_PAN_21mic_H50_0403_fot_44B-36292_W_tif
  70
32
  10
428617.234
  20
4585364.699
  30
0
  0
VERTEX
  8
PNOA-H_AMS_1956-57_33k_ES_PAN_21mic_H50_0403_fot_44B-36292_W_tif
  70
32
  10
428624.275
  20
4586078.481
  30
0
  0
VERTEX
  8
PNOA-H_AMS_1956-57_33k_ES_PAN_21mic_H50_0403_fot_44B-36292_W_tif
  70
32
  10
428624.277
  20
4586078.695
  30
1137.034
  0
VERTEX
  8
PNOA-H_AMS_1956-57_33k_ES_PAN_21mic_H50_0403_fot_44B-36292_W_tif
  70
32
  10
429344.204
  20
4585986.602
  30
1154
  0
VERTEX
  8
PNOA-H_AMS_1956-57_33k_ES_PAN_21mic_H50_0403_fot_44B-36292_W_tif
  70
32
  10
429345.000
  20
4585986.500
  30
1154.019
  0
VERTEX
  8
PNOA-H_AMS_1956-57_33k_ES_PAN_21mic_H50_0403_fot_44B-36292_W_tif
  70
32
  10
429330.000
  20
4582965.000
  30
1095.263
  0
VERTEX
  8
PNOA-H_AMS_1956-57_33k_ES_PAN_21mic_H50_0403_fot_44B-36292_W_tif
  70
32
  10
429330.000
  20
4582949.000
  30
1095.269
  0
SEQEND
  8
PNOA-H_AMS_1956-57_33k_ES_PAN_21mic_H50_0403_fot_44B-36292_W_tif
  0
INSERT
  8
FeatureAttribs
  2
FEATURE
  41
1
  42
1
  43
1
  50
0
  10
429394.238
  20
4579444.752
 66
1
  0
ATTRIB
  8
FeatureAttribs
 70
0
  1
PNOA-H_AMS_1956-57_33k_ES_PAN_21mic_H50_0403_fot_45B-36152_E.tif
  2
NAME
  10
429394.238
  20
4579444.752
 40
33.68683
  0
SEQEND
  0
POLYLINE
  8
PNOA-H_AMS_1956-57_33k_ES_PAN_21mic_H50_0403_fot_45B-36152_E_tif
  70
9
  66
1
  0
VERTEX
  8
PNOA-H_AMS_1956-57_33k_ES_PAN_21mic_H50_0403_fot_45B-36152_E_tif
  70
32
  10
429933.795
  20
4577239.380
  30
1082.733
  0
VERTEX
  8
PNOA-H_AMS_1956-57_33k_ES_PAN_21mic_H50_0403_fot_45B-36152_E_tif
  70
32
  10
428534.920
  20
4577012.504
  30
1048.615
  0
VERTEX
  8
PNOA-H_AMS_1956-57_33k_ES_PAN_21mic_H50_0403_fot_45B-36152_E_tif
  70
32
  10
428534.925
  20
4577013.013
  30
0
  0
VERTEX
  8
PNOA-H_AMS_1956-57_33k_ES_PAN_21mic_H50_0403_fot_45B-36152_E_tif
  70
32
  10
428548.841
  20
4578426.041
  30
0
  0
VERTEX
  8
PNOA-H_AMS_1956-57_33k_ES_PAN_21mic_H50_0403_fot_45B-36152_E_tif
  70
32
  10
428564.528
  20
4580018.208
  30
1052.495
  0
VERTEX
  8
PNOA-H_AMS_1956-57_33k_ES_PAN_21mic_H50_0403_fot_45B-36152_E_tif
  70
32
  10
429456.500
  20
4581875.500
  30
1080.7
  0
VERTEX
  8
PNOA-H_AMS_1956-57_33k_ES_PAN_21mic_H50_0403_fot_45B-36152_E_tif
  70
32
  10
429457.000
  20
4581877.000
  30
1080.838
  0
VERTEX
  8
PNOA-H_AMS_1956-57_33k_ES_PAN_21mic_H50_0403_fot_45B-36152_E_tif
  70
32
  10
429457.709
  20
4581876.749
  30
1080.848
  0
VERTEX
  8
PNOA-H_AMS_1956-57_33k_ES_PAN_21mic_H50_0403_fot_45B-36152_E_tif
  70
32
  10
429841.356
  20
4581741.144
  30
1086.481
  0
VERTEX
  8
PNOA-H_AMS_1956-57_33k_ES_PAN_21mic_H50_0403_fot_45B-36152_E_tif
  70
32
  10
430301.500
  20
4581578.500
  30
1093.238
  0
VERTEX
  8
PNOA-H_AMS_1956-57_33k_ES_PAN_21mic_H50_0403_fot_45B-36152_E_tif
  70
32
  10
430156.500
  20
4577275.500
  30
1088.165
  0
VERTEX
  8
PNOA-H_AMS_1956-57_33k_ES_PAN_21mic_H50_0403_fot_45B-36152_E_tif
  70
32
  10
429933.795
  20
4577239.380
  30
1082.733
  0
SEQEND
  8
PNOA-H_AMS_1956-57_33k_ES_PAN_21mic_H50_0403_fot_45B-36152_E_tif
  0
INSERT
  8
FeatureAttribs
  2
FEATURE
  41
1
  42
1
  43
1
  50
0
  10
434489.492
  20
4579346.250
 66
1
  0
ATTRIB
  8
FeatureAttribs
 70
0
  1
PNOA-H_AMS_1956-57_33k_ES_PAN_21mic_H50_0403_fot_45B-36154_E.tif
  2
NAME
  10
434489.492
  20
4579346.250
 40
33.68683
  0
SEQEND
  0
POLYLINE
  8
PNOA-H_AMS_1956-57_33k_ES_PAN_21mic_H50_0403_fot_45B-36154_E_tif
  70
9
  66
1
  0
VERTEX
  8
PNOA-H_AMS_1956-57_33k_ES_PAN_21mic_H50_0403_fot_45B-36154_E_tif
  70
32
  10
433493.926
  20
4576851.046
  30
1089.248
  0
VERTEX
  8
PNOA-H_AMS_1956-57_33k_ES_PAN_21mic_H50_0403_fot_45B-36154_E_tif
  70
32
  10
433493.500
  20
4576851.000
  30
1089.246
  0
VERTEX
  8
PNOA-H_AMS_1956-57_33k_ES_PAN_21mic_H50_0403_fot_45B-36154_E_tif
  70
32
  10
433050.563
  20
4577130.460
  30
1107.966
  0
VERTEX
  8
PNOA-H_AMS_1956-57_33k_ES_PAN_21mic_H50_0403_fot_45B-36154_E_tif
  70
32
  10
433050.500
  20
4577130.500
  30
1107.969
  0
VERTEX
  8
PNOA-H_AMS_1956-57_33k_ES_PAN_21mic_H50_0403_fot_45B-36154_E_tif
  70
32
  10
433126.500
  20
4581549.000
  30
1117.305
  0
VERTEX
  8
PNOA-H_AMS_1956-57_33k_ES_PAN_21mic_H50_0403_fot_45B-36154_E_tif
  70
32
  10
433743.388
  20
4581663.953
  30
1114.879
  0
VERTEX
  8
PNOA-H_AMS_1956-57_33k_ES_PAN_21mic_H50_0403_fot_45B-36154_E_tif
  70
32
  10
434693.500
  20
4581841.000
  30
1111.142
  0
VERTEX
  8
PNOA-H_AMS_1956-57_33k_ES_PAN_21mic_H50_0403_fot_45B-36154_E_tif
  70
32
  10
434696.000
  20
4581841.500
  30
1111.237
  0
VERTEX
  8
PNOA-H_AMS_1956-57_33k_ES_PAN_21mic_H50_0403_fot_45B-36154_E_tif
  70
32
  10
434698.500
  20
4581841.500
  30
1111.292
  0
VERTEX
  8
PNOA-H_AMS_1956-57_33k_ES_PAN_21mic_H50_0403_fot_45B-36154_E_tif
  70
32
  10
434700.000
  20
4581841.500
  30
1111.325
  0
VERTEX
  8
PNOA-H_AMS_1956-57_33k_ES_PAN_21mic_H50_0403_fot_45B-36154_E_tif
  70
32
  10
435588.750
  20
4581569.250
  30
1092.278
  0
VERTEX
  8
PNOA-H_AMS_1956-57_33k_ES_PAN_21mic_H50_0403_fot_45B-36154_E_tif
  70
32
  10
435885.000
  20
4581478.500
  30
1085.93
  0
VERTEX
  8
PNOA-H_AMS_1956-57_33k_ES_PAN_21mic_H50_0403_fot_45B-36154_E_tif
  70
32
  10
435895.999
  20
4577113.445
  30
1104.065
  0
VERTEX
  8
PNOA-H_AMS_1956-57_33k_ES_PAN_21mic_H50_0403_fot_45B-36154_E_tif
  70
32
  10
435896.000
  20
4577113.000
  30
1104.067
  0
VERTEX
  8
PNOA-H_AMS_1956-57_33k_ES_PAN_21mic_H50_0403_fot_45B-36154_E_tif
  70
32
  10
433679.229
  20
4576871.254
  30
1090.391
  0
VERTEX
  8
PNOA-H_AMS_1956-57_33k_ES_PAN_21mic_H50_0403_fot_45B-36154_E_tif
  70
32
  10
433493.926
  20
4576851.046
  30
1089.248
  0
SEQEND
  8
PNOA-H_AMS_1956-57_33k_ES_PAN_21mic_H50_0403_fot_45B-36154_E_tif
  0
INSERT
  8
FeatureAttribs
  2
FEATURE
  41
1
  42
1
  43
1
  50
0
  10
431658.921
  20
4579404.250
 66
1
  0
ATTRIB
  8
FeatureAttribs
 70
0
  1
PNOA-H_AMS_1956-57_33k_ES_PAN_21mic_H50_0403_fot_45B-36153_E.tif
  2
NAME
  10
431658.921
  20
4579404.250
 40
33.68683
  0
SEQEND
  0
POLYLINE
  8
PNOA-H_AMS_1956-57_33k_ES_PAN_21mic_H50_0403_fot_45B-36153_E_tif
  70
9
  66
1
  0
VERTEX
  8
PNOA-H_AMS_1956-57_33k_ES_PAN_21mic_H50_0403_fot_45B-36153_E_tif
  70
32
  10
430716.937
  20
4576916.540
  30
1075.542
  0
VERTEX
  8
PNOA-H_AMS_1956-57_33k_ES_PAN_21mic_H50_0403_fot_45B-36153_E_tif
  70
32
  10
430716.500
  20
4576916.500
  30
1075.536
  0
VERTEX
  8
PNOA-H_AMS_1956-57_33k_ES_PAN_21mic_H50_0403_fot_45B-36153_E_tif
  70
32
  10
430156.601
  20
4577275.435
  30
1088.162
  0
VERTEX
  8
PNOA-H_AMS_1956-57_33k_ES_PAN_21mic_H50_0403_fot_45B-36153_E_tif
  70
32
  10
430156.500
  20
4577275.500
  30
1088.165
  0
VERTEX
  8
PNOA-H_AMS_1956-57_33k_ES_PAN_21mic_H50_0403_fot_45B-36153_E_tif
  70
32
  10
430301.500
  20
4581578.500
  30
1093.238
  0
VERTEX
  8
PNOA-H_AMS_1956-57_33k_ES_PAN_21mic_H50_0403_fot_45B-36153_E_tif
  70
32
  10
430302.150
  20
4581578.623
  30
1093.239
  0
VERTEX
  8
PNOA-H_AMS_1956-57_33k_ES_PAN_21mic_H50_0403_fot_45B-36153_E_tif
  70
32
  10
430536.000
  20
4581623.000
  30
1093.868
  0
VERTEX
  8
PNOA-H_AMS_1956-57_33k_ES_PAN_21mic_H50_0403_fot_45B-36153_E_tif
  70
32
  10
430538.500
  20
4581623.500
  30
1093.746
  0
VERTEX
  8
PNOA-H_AMS_1956-57_33k_ES_PAN_21mic_H50_0403_fot_45B-36153_E_tif
  70
32
  10
431699.356
  20
4581842.383
  30
1116.042
  0
VERTEX
  8
PNOA-H_AMS_1956-57_33k_ES_PAN_21mic_H50_0403_fot_45B-36153_E_tif
  70
32
  10
431962.195
  20
4581891.942
  30
1121.09
  0
VERTEX
  8
PNOA-H_AMS_1956-57_33k_ES_PAN_21mic_H50_0403_fot_45B-36153_E_tif
  70
32
  10
431962.500
  20
4581892.000
  30
1121.096
  0
VERTEX
  8
PNOA-H_AMS_1956-57_33k_ES_PAN_21mic_H50_0403_fot_45B-36153_E_tif
  70
32
  10
433125.920
  20
4581549.171
  30
1117.307
  0
VERTEX
  8
PNOA-H_AMS_1956-57_33k_ES_PAN_21mic_H50_0403_fot_45B-36153_E_tif
  70
32
  10
433126.500
  20
4581549.000
  30
1117.305
  0
VERTEX
  8
PNOA-H_AMS_1956-57_33k_ES_PAN_21mic_H50_0403_fot_45B-36153_E_tif
  70
32
  10
433050.500
  20
4577130.500
  30
1107.969
  0
VERTEX
  8
PNOA-H_AMS_1956-57_33k_ES_PAN_21mic_H50_0403_fot_45B-36153_E_tif
  70
32
  10
432983.747
  20
4577124.380
  30
1107.041
  0
VERTEX
  8
PNOA-H_AMS_1956-57_33k_ES_PAN_21mic_H50_0403_fot_45B-36153_E_tif
  70
32
  10
430981.516
  20
4576940.799
  30
1079.219
  0
VERTEX
  8
PNOA-H_AMS_1956-57_33k_ES_PAN_21mic_H50_0403_fot_45B-36153_E_tif
  70
32
  10
430716.937
  20
4576916.540
  30
1075.542
  0
SEQEND
  8
PNOA-H_AMS_1956-57_33k_ES_PAN_21mic_H50_0403_fot_45B-36153_E_tif
  0
INSERT
  8
FeatureAttribs
  2
FEATURE
  41
1
  42
1
  43
1
  50
0
  10
428807.198
  20
4581008.850
 66
1
  0
ATTRIB
  8
FeatureAttribs
 70
0
  1
PNOA-H_AMS_1956-57_33k_ES_PAN_21mic_H50_0402_fot_45A-27351_W.tif
  2
NAME
  10
428807.198
  20
4581008.850
 40
33.68683
  0
SEQEND
  0
POLYLINE
  8
PNOA-H_AMS_1956-57_33k_ES_PAN_21mic_H50_0402_fot_45A-27351_W_tif
  70
9
  66
1
  0
VERTEX
  8
PNOA-H_AMS_1956-57_33k_ES_PAN_21mic_H50_0402_fot_45A-27351_W_tif
  70
32
  10
428878.500
  20
4581981.000
  30
1033.81
  0
VERTEX
  8
PNOA-H_AMS_1956-57_33k_ES_PAN_21mic_H50_0402_fot_45A-27351_W_tif
  70
32
  10
428886.500
  20
4581981.000
  30
1032.522
  0
VERTEX
  8
PNOA-H_AMS_1956-57_33k_ES_PAN_21mic_H50_0402_fot_45A-27351_W_tif
  70
32
  10
428890.000
  20
4581984.500
  30
1038.071
  0
VERTEX
  8
PNOA-H_AMS_1956-57_33k_ES_PAN_21mic_H50_0402_fot_45A-27351_W_tif
  70
32
  10
428900.000
  20
4581984.500
  30
1037.784
  0
VERTEX
  8
PNOA-H_AMS_1956-57_33k_ES_PAN_21mic_H50_0402_fot_45A-27351_W_tif
  70
32
  10
428904.500
  20
4581979.500
  30
1028.321
  0
VERTEX
  8
PNOA-H_AMS_1956-57_33k_ES_PAN_21mic_H50_0402_fot_45A-27351_W_tif
  70
32
  10
428911.000
  20
4581979.000
  30
1021.984
  0
VERTEX
  8
PNOA-H_AMS_1956-57_33k_ES_PAN_21mic_H50_0402_fot_45A-27351_W_tif
  70
32
  10
429325.500
  20
4581954.000
  30
1085.92
  0
VERTEX
  8
PNOA-H_AMS_1956-57_33k_ES_PAN_21mic_H50_0402_fot_45A-27351_W_tif
  70
32
  10
429325.502
  20
4581953.999
  30
1085.92
  0
VERTEX
  8
PNOA-H_AMS_1956-57_33k_ES_PAN_21mic_H50_0402_fot_45A-27351_W_tif
  70
32
  10
429424.963
  20
4581895.759
  30
1082.076
  0
VERTEX
  8
PNOA-H_AMS_1956-57_33k_ES_PAN_21mic_H50_0402_fot_45A-27351_W_tif
  70
32
  10
429457.000
  20
4581877.000
  30
1080.838
  0
VERTEX
  8
PNOA-H_AMS_1956-57_33k_ES_PAN_21mic_H50_0402_fot_45A-27351_W_tif
  70
32
  10
428564.531
  20
4580018.504
  30
1052.572
  0
VERTEX
  8
PNOA-H_AMS_1956-57_33k_ES_PAN_21mic_H50_0402_fot_45A-27351_W_tif
  70
32
  10
428571.629
  20
4580738.919
  30
0
  0
VERTEX
  8
PNOA-H_AMS_1956-57_33k_ES_PAN_21mic_H50_0402_fot_45A-27351_W_tif
  70
32
  10
428584.051
  20
4581999.196
  30
1020.308
  0
VERTEX
  8
PNOA-H_AMS_1956-57_33k_ES_PAN_21mic_H50_0402_fot_45A-27351_W_tif
  70
32
  10
428878.500
  20
4581981.000
  30
1033.81
  0
SEQEND
  8
PNOA-H_AMS_1956-57_33k_ES_PAN_21mic_H50_0402_fot_45A-27351_W_tif
  0
INSERT
  8
FeatureAttribs
  2
FEATURE
  41
1
  42
1
  43
1
  50
0
  10
429623.225
  20
4576683.851
 66
1
  0
ATTRIB
  8
FeatureAttribs
 70
0
  1
PNOA-H_AMS_1956-57_33k_ES_PAN_21mic_H50_0431_fot_46B-29812_E.tif
  2
NAME
  10
429623.225
  20
4576683.851
 40
33.68683
  0
SEQEND
  0
POLYLINE
  8
PNOA-H_AMS_1956-57_33k_ES_PAN_21mic_H50_0431_fot_46B-29812_E_tif
  70
9
  66
1
  0
VERTEX
  8
PNOA-H_AMS_1956-57_33k_ES_PAN_21mic_H50_0431_fot_46B-29812_E_tif
  70
32
  10
430717.000
  20
4576916.500
  30
1075.525
  0
VERTEX
  8
PNOA-H_AMS_1956-57_33k_ES_PAN_21mic_H50_0431_fot_46B-29812_E_tif
  70
32
  10
430709.089
  20
4576092.201
  30
1064.325
  0
VERTEX
  8
PNOA-H_AMS_1956-57_33k_ES_PAN_21mic_H50_0431_fot_46B-29812_E_tif
  70
32
  10
428526.063
  20
4576113.172
  30
0
  0
VERTEX
  8
PNOA-H_AMS_1956-57_33k_ES_PAN_21mic_H50_0431_fot_46B-29812_E_tif
  70
32
  10
428534.920
  20
4577012.504
  30
0
  0
VERTEX
  8
PNOA-H_AMS_1956-57_33k_ES_PAN_21mic_H50_0431_fot_46B-29812_E_tif
  70
32
  10
428534.925
  20
4577013.013
  30
1054.066
  0
VERTEX
  8
PNOA-H_AMS_1956-57_33k_ES_PAN_21mic_H50_0431_fot_46B-29812_E_tif
  70
32
  10
429933.795
  20
4577239.380
  30
1083.504
  0
VERTEX
  8
PNOA-H_AMS_1956-57_33k_ES_PAN_21mic_H50_0431_fot_46B-29812_E_tif
  70
32
  10
430156.601
  20
4577275.435
  30
1088.192
  0
VERTEX
  8
PNOA-H_AMS_1956-57_33k_ES_PAN_21mic_H50_0431_fot_46B-29812_E_tif
  70
32
  10
430157.000
  20
4577275.500
  30
1088.201
  0
VERTEX
  8
PNOA-H_AMS_1956-57_33k_ES_PAN_21mic_H50_0431_fot_46B-29812_E_tif
  70
32
  10
430716.937
  20
4576916.540
  30
1075.527
  0
VERTEX
  8
PNOA-H_AMS_1956-57_33k_ES_PAN_21mic_H50_0431_fot_46B-29812_E_tif
  70
32
  10
430717.000
  20
4576916.500
  30
1075.525
  0
SEQEND
  8
PNOA-H_AMS_1956-57_33k_ES_PAN_21mic_H50_0431_fot_46B-29812_E_tif
  0
INSERT
  8
FeatureAttribs
  2
FEATURE
  41
1
  42
1
  43
1
  50
0
  10
432101.584
  20
4576598.398
 66
1
  0
ATTRIB
  8
FeatureAttribs
 70
0
  1
PNOA-H_AMS_1956-57_33k_ES_PAN_21mic_H50_0431_fot_46B-29811_E.tif
  2
NAME
  10
432101.584
  20
4576598.398
 40
33.68683
  0
SEQEND
  0
POLYLINE
  8
PNOA-H_AMS_1956-57_33k_ES_PAN_21mic_H50_0431_fot_46B-29811_E_tif
  70
9
  66
1
  0
VERTEX
  8
PNOA-H_AMS_1956-57_33k_ES_PAN_21mic_H50_0431_fot_46B-29811_E_tif
  70
32
  10
433494.000
  20
4576851.000
  30
1089.246
  0
VERTEX
  8
PNOA-H_AMS_1956-57_33k_ES_PAN_21mic_H50_0431_fot_46B-29811_E_tif
  70
32
  10
433479.154
  20
4576066.295
  30
1080.375
  0
VERTEX
  8
PNOA-H_AMS_1956-57_33k_ES_PAN_21mic_H50_0431_fot_46B-29811_E_tif
  70
32
  10
432012.627
  20
4576079.679
  30
0
  0
VERTEX
  8
PNOA-H_AMS_1956-57_33k_ES_PAN_21mic_H50_0431_fot_46B-29811_E_tif
  70
32
  10
430709.089
  20
4576092.201
  30
1064.325
  0
VERTEX
  8
PNOA-H_AMS_1956-57_33k_ES_PAN_21mic_H50_0431_fot_46B-29811_E_tif
  70
32
  10
430717.000
  20
4576916.500
  30
1075.525
  0
VERTEX
  8
PNOA-H_AMS_1956-57_33k_ES_PAN_21mic_H50_0431_fot_46B-29811_E_tif
  70
32
  10
430981.516
  20
4576940.799
  30
1078.713
  0
VERTEX
  8
PNOA-H_AMS_1956-57_33k_ES_PAN_21mic_H50_0431_fot_46B-29811_E_tif
  70
32
  10
432578.500
  20
4577087.500
  30
1097.961
  0
VERTEX
  8
PNOA-H_AMS_1956-57_33k_ES_PAN_21mic_H50_0431_fot_46B-29811_E_tif
  70
32
  10
432584.000
  20
4577088.000
  30
1098.209
  0
VERTEX
  8
PNOA-H_AMS_1956-57_33k_ES_PAN_21mic_H50_0431_fot_46B-29811_E_tif
  70
32
  10
432983.747
  20
4577124.380
  30
1106.562
  0
VERTEX
  8
PNOA-H_AMS_1956-57_33k_ES_PAN_21mic_H50_0431_fot_46B-29811_E_tif
  70
32
  10
433050.563
  20
4577130.460
  30
1107.958
  0
VERTEX
  8
PNOA-H_AMS_1956-57_33k_ES_PAN_21mic_H50_0431_fot_46B-29811_E_tif
  70
32
  10
433051.000
  20
4577130.500
  30
1107.967
  0
VERTEX
  8
PNOA-H_AMS_1956-57_33k_ES_PAN_21mic_H50_0431_fot_46B-29811_E_tif
  70
32
  10
433493.926
  20
4576851.046
  30
1089.249
  0
VERTEX
  8
PNOA-H_AMS_1956-57_33k_ES_PAN_21mic_H50_0431_fot_46B-29811_E_tif
  70
32
  10
433494.000
  20
4576851.000
  30
1089.246
  0
SEQEND
  8
PNOA-H_AMS_1956-57_33k_ES_PAN_21mic_H50_0431_fot_46B-29811_E_tif
  0
INSERT
  8
FeatureAttribs
  2
FEATURE
  41
1
  42
1
  43
1
  50
0
  10
434882.845
  20
4576577.399
 66
1
  0
ATTRIB
  8
FeatureAttribs
 70
0
  1
PNOA-H_AMS_1956-57_33k_ES_PAN_21mic_H50_0431_fot_46B-29810_E.tif
  2
NAME
  10
434882.845
  20
4576577.399
 40
33.68683
  0
SEQEND
  0
POLYLINE
  8
PNOA-H_AMS_1956-57_33k_ES_PAN_21mic_H50_0431_fot_46B-29810_E_tif
  70
9
  66
1
  0
VERTEX
  8
PNOA-H_AMS_1956-57_33k_ES_PAN_21mic_H50_0431_fot_46B-29810_E_tif
  70
32
  10
436286.500
  20
4576856.000
  30
1108.186
  0
VERTEX
  8
PNOA-H_AMS_1956-57_33k_ES_PAN_21mic_H50_0431_fot_46B-29810_E_tif
  70
32
  10
436258.331
  20
4576041.297
  30
1071.646
  0
VERTEX
  8
PNOA-H_AMS_1956-57_33k_ES_PAN_21mic_H50_0431_fot_46B-29810_E_tif
  70
32
  10
435499.187
  20
4576047.861
  30
0
  0
VERTEX
  8
PNOA-H_AMS_1956-57_33k_ES_PAN_21mic_H50_0431_fot_46B-29810_E_tif
  70
32
  10
433479.154
  20
4576066.295
  30
1080.375
  0
VERTEX
  8
PNOA-H_AMS_1956-57_33k_ES_PAN_21mic_H50_0431_fot_46B-29810_E_tif
  70
32
  10
433494.000
  20
4576851.000
  30
1089.246
  0
VERTEX
  8
PNOA-H_AMS_1956-57_33k_ES_PAN_21mic_H50_0431_fot_46B-29810_E_tif
  70
32
  10
433679.229
  20
4576871.254
  30
1093.351
  0
VERTEX
  8
PNOA-H_AMS_1956-57_33k_ES_PAN_21mic_H50_0431_fot_46B-29810_E_tif
  70
32
  10
434628.000
  20
4576975.000
  30
1114.378
  0
VERTEX
  8
PNOA-H_AMS_1956-57_33k_ES_PAN_21mic_H50_0431_fot_46B-29810_E_tif
  70
32
  10
434632.500
  20
4576975.500
  30
1114.312
  0
VERTEX
  8
PNOA-H_AMS_1956-57_33k_ES_PAN_21mic_H50_0431_fot_46B-29810_E_tif
  70
32
  10
435895.999
  20
4577113.445
  30
1103.893
  0
VERTEX
  8
PNOA-H_AMS_1956-57_33k_ES_PAN_21mic_H50_0431_fot_46B-29810_E_tif
  70
32
  10
435896.499
  20
4577113.500
  30
1103.889
  0
VERTEX
  8
PNOA-H_AMS_1956-57_33k_ES_PAN_21mic_H50_0431_fot_46B-29810_E_tif
  70
32
  10
436286.456
  20
4576856.029
  30
1108.185
  0
VERTEX
  8
PNOA-H_AMS_1956-57_33k_ES_PAN_21mic_H50_0431_fot_46B-29810_E_tif
  70
32
  10
436286.500
  20
4576856.000
  30
1108.186
  0
SEQEND
  8
PNOA-H_AMS_1956-57_33k_ES_PAN_21mic_H50_0431_fot_46B-29810_E_tif
  0
INSERT
  8
FeatureAttribs
  2
FEATURE
  41
1
  42
1
  43
1
  50
0
  10
438928.780
  20
4588028.000
 66
1
  0
ATTRIB
  8
FeatureAttribs
 70
0
  1
PNOA-H_AMS_1956-57_33k_ES_PAN_21mic_H50_0403_fot_43B-29626_E.tif
  2
NAME
  10
438928.780
  20
4588028.000
 40
33.68683
  0
SEQEND
  0
POLYLINE
  8
PNOA-H_AMS_1956-57_33k_ES_PAN_21mic_H50_0403_fot_43B-29626_E_tif
  70
9
  66
1
  0
VERTEX
  8
PNOA-H_AMS_1956-57_33k_ES_PAN_21mic_H50_0403_fot_43B-29626_E_tif
  70
32
  10
438383.675
  20
4589978.769
  30
1220.833
  0
VERTEX
  8
PNOA-H_AMS_1956-57_33k_ES_PAN_21mic_H50_0403_fot_43B-29626_E_tif
  70
32
  10
438727.000
  20
4589968.000
  30
1250.328
  0
VERTEX
  8
PNOA-H_AMS_1956-57_33k_ES_PAN_21mic_H50_0403_fot_43B-29626_E_tif
  70
32
  10
438732.000
  20
4589968.000
  30
1250.952
  0
VERTEX
  8
PNOA-H_AMS_1956-57_33k_ES_PAN_21mic_H50_0403_fot_43B-29626_E_tif
  70
32
  10
440367.500
  20
4589917.500
  30
1170.793
  0
VERTEX
  8
PNOA-H_AMS_1956-57_33k_ES_PAN_21mic_H50_0403_fot_43B-29626_E_tif
  70
32
  10
440222.500
  20
4586054.500
  30
1157.446
  0
VERTEX
  8
PNOA-H_AMS_1956-57_33k_ES_PAN_21mic_H50_0403_fot_43B-29626_E_tif
  70
32
  10
440218.218
  20
4586054.656
  30
1157.496
  0
VERTEX
  8
PNOA-H_AMS_1956-57_33k_ES_PAN_21mic_H50_0403_fot_43B-29626_E_tif
  70
32
  10
438729.806
  20
4586109.000
  30
1174.9
  0
VERTEX
  8
PNOA-H_AMS_1956-57_33k_ES_PAN_21mic_H50_0403_fot_43B-29626_E_tif
  70
32
  10
438491.333
  20
4586117.707
  30
1177.689
  0
VERTEX
  8
PNOA-H_AMS_1956-57_33k_ES_PAN_21mic_H50_0403_fot_43B-29626_E_tif
  70
32
  10
437511.000
  20
4586153.500
  30
1189.152
  0
VERTEX
  8
PNOA-H_AMS_1956-57_33k_ES_PAN_21mic_H50_0403_fot_43B-29626_E_tif
  70
32
  10
437508.997
  20
4586153.901
  30
1189.201
  0
VERTEX
  8
PNOA-H_AMS_1956-57_33k_ES_PAN_21mic_H50_0403_fot_43B-29626_E_tif
  70
32
  10
437508.500
  20
4586154.000
  30
1189.213
  0
VERTEX
  8
PNOA-H_AMS_1956-57_33k_ES_PAN_21mic_H50_0403_fot_43B-29626_E_tif
  70
32
  10
437469.500
  20
4586186.000
  30
1195.974
  0
VERTEX
  8
PNOA-H_AMS_1956-57_33k_ES_PAN_21mic_H50_0403_fot_43B-29626_E_tif
  70
32
  10
437469.524
  20
4586186.480
  30
1195.97
  0
VERTEX
  8
PNOA-H_AMS_1956-57_33k_ES_PAN_21mic_H50_0403_fot_43B-29626_E_tif
  70
32
  10
437507.400
  20
4586949.100
  30
1188.495
  0
VERTEX
  8
PNOA-H_AMS_1956-57_33k_ES_PAN_21mic_H50_0403_fot_43B-29626_E_tif
  70
32
  10
437658.920
  20
4589999.898
  30
1158.593
  0
VERTEX
  8
PNOA-H_AMS_1956-57_33k_ES_PAN_21mic_H50_0403_fot_43B-29626_E_tif
  70
32
  10
437659.000
  20
4590001.500
  30
1158.577
  0
VERTEX
  8
PNOA-H_AMS_1956-57_33k_ES_PAN_21mic_H50_0403_fot_43B-29626_E_tif
  70
32
  10
437660.848
  20
4590001.442
  30
1158.736
  0
VERTEX
  8
PNOA-H_AMS_1956-57_33k_ES_PAN_21mic_H50_0403_fot_43B-29626_E_tif
  70
32
  10
438383.675
  20
4589978.769
  30
1220.833
  0
SEQEND
  8
PNOA-H_AMS_1956-57_33k_ES_PAN_21mic_H50_0403_fot_43B-29626_E_tif
  0
INSERT
  8
FeatureAttribs
  2
FEATURE
  41
1
  42
1
  43
1
  50
0
  10
441699.915
  20
4587956.750
 66
1
  0
ATTRIB
  8
FeatureAttribs
 70
0
  1
PNOA-H_AMS_1956-57_33k_ES_PAN_21mic_H50_0403_fot_43B-29627_E.tif
  2
NAME
  10
441699.915
  20
4587956.750
 40
33.68683
  0
SEQEND
  0
POLYLINE
  8
PNOA-H_AMS_1956-57_33k_ES_PAN_21mic_H50_0403_fot_43B-29627_E_tif
  70
9
  66
1
  0
VERTEX
  8
PNOA-H_AMS_1956-57_33k_ES_PAN_21mic_H50_0403_fot_43B-29627_E_tif
  70
32
  10
443144.000
  20
4589824.000
  30
1205.761
  0
VERTEX
  8
PNOA-H_AMS_1956-57_33k_ES_PAN_21mic_H50_0403_fot_43B-29627_E_tif
  70
32
  10
443065.500
  20
4585975.000
  30
1125.555
  0
VERTEX
  8
PNOA-H_AMS_1956-57_33k_ES_PAN_21mic_H50_0403_fot_43B-29627_E_tif
  70
32
  10
443060.813
  20
4585975.038
  30
1125.596
  0
VERTEX
  8
PNOA-H_AMS_1956-57_33k_ES_PAN_21mic_H50_0403_fot_43B-29627_E_tif
  70
32
  10
440288.000
  20
4585997.500
  30
1149.748
  0
VERTEX
  8
PNOA-H_AMS_1956-57_33k_ES_PAN_21mic_H50_0403_fot_43B-29627_E_tif
  70
32
  10
440287.978
  20
4585997.519
  30
1149.751
  0
VERTEX
  8
PNOA-H_AMS_1956-57_33k_ES_PAN_21mic_H50_0403_fot_43B-29627_E_tif
  70
32
  10
440222.802
  20
4586053.740
  30
1157.354
  0
VERTEX
  8
PNOA-H_AMS_1956-57_33k_ES_PAN_21mic_H50_0403_fot_43B-29627_E_tif
  70
32
  10
440222.500
  20
4586054.000
  30
1157.389
  0
VERTEX
  8
PNOA-H_AMS_1956-57_33k_ES_PAN_21mic_H50_0403_fot_43B-29627_E_tif
  70
32
  10
440367.500
  20
4589917.500
  30
1170.793
  0
VERTEX
  8
PNOA-H_AMS_1956-57_33k_ES_PAN_21mic_H50_0403_fot_43B-29627_E_tif
  70
32
  10
440367.548
  20
4589917.529
  30
1170.786
  0
VERTEX
  8
PNOA-H_AMS_1956-57_33k_ES_PAN_21mic_H50_0403_fot_43B-29627_E_tif
  70
32
  10
440401.000
  20
4589938.000
  30
1166.074
  0
VERTEX
  8
PNOA-H_AMS_1956-57_33k_ES_PAN_21mic_H50_0403_fot_43B-29627_E_tif
  70
32
  10
440402.000
  20
4589938.500
  30
1165.984
  0
VERTEX
  8
PNOA-H_AMS_1956-57_33k_ES_PAN_21mic_H50_0403_fot_43B-29627_E_tif
  70
32
  10
440402.037
  20
4589938.499
  30
1165.984
  0
VERTEX
  8
PNOA-H_AMS_1956-57_33k_ES_PAN_21mic_H50_0403_fot_43B-29627_E_tif
  70
32
  10
440674.613
  20
4589929.394
  30
1170.058
  0
VERTEX
  8
PNOA-H_AMS_1956-57_33k_ES_PAN_21mic_H50_0403_fot_43B-29627_E_tif
  70
32
  10
443096.500
  20
4589848.500
  30
1206.254
  0
VERTEX
  8
PNOA-H_AMS_1956-57_33k_ES_PAN_21mic_H50_0403_fot_43B-29627_E_tif
  70
32
  10
443107.000
  20
4589848.023
  30
1206.276
  0
VERTEX
  8
PNOA-H_AMS_1956-57_33k_ES_PAN_21mic_H50_0403_fot_43B-29627_E_tif
  70
32
  10
443107.500
  20
4589848.000
  30
1206.277
  0
VERTEX
  8
PNOA-H_AMS_1956-57_33k_ES_PAN_21mic_H50_0403_fot_43B-29627_E_tif
  70
32
  10
443143.981
  20
4589824.012
  30
1205.761
  0
VERTEX
  8
PNOA-H_AMS_1956-57_33k_ES_PAN_21mic_H50_0403_fot_43B-29627_E_tif
  70
32
  10
443144.000
  20
4589824.000
  30
1205.761
  0
SEQEND
  8
PNOA-H_AMS_1956-57_33k_ES_PAN_21mic_H50_0403_fot_43B-29627_E_tif
  0
INSERT
  8
FeatureAttribs
  2
FEATURE
  41
1
  42
1
  43
1
  50
0
  10
438810.624
  20
4583799.000
 66
1
  0
ATTRIB
  8
FeatureAttribs
 70
0
  1
PNOA-H_AMS_1956-57_33k_ES_PAN_21mic_H50_0403_fot_44B-36288_W.tif
  2
NAME
  10
438810.624
  20
4583799.000
 40
33.68683
  0
SEQEND
  0
POLYLINE
  8
PNOA-H_AMS_1956-57_33k_ES_PAN_21mic_H50_0403_fot_44B-36288_W_tif
  70
9
  66
1
  0
VERTEX
  8
PNOA-H_AMS_1956-57_33k_ES_PAN_21mic_H50_0403_fot_44B-36288_W_tif
  70
32
  10
438491.333
  20
4586117.707
  30
1183.816
  0
VERTEX
  8
PNOA-H_AMS_1956-57_33k_ES_PAN_21mic_H50_0403_fot_44B-36288_W_tif
  70
32
  10
438727.000
  20
4586109.000
  30
1182.523
  0
VERTEX
  8
PNOA-H_AMS_1956-57_33k_ES_PAN_21mic_H50_0403_fot_44B-36288_W_tif
  70
32
  10
438729.806
  20
4586109.000
  30
1182.388
  0
VERTEX
  8
PNOA-H_AMS_1956-57_33k_ES_PAN_21mic_H50_0403_fot_44B-36288_W_tif
  70
32
  10
438732.000
  20
4586109.000
  30
1182.282
  0
VERTEX
  8
PNOA-H_AMS_1956-57_33k_ES_PAN_21mic_H50_0403_fot_44B-36288_W_tif
  70
32
  10
440216.500
  20
4586055.000
  30
1157.606
  0
VERTEX
  8
PNOA-H_AMS_1956-57_33k_ES_PAN_21mic_H50_0403_fot_44B-36288_W_tif
  70
32
  10
440218.218
  20
4586054.656
  30
1157.532
  0
VERTEX
  8
PNOA-H_AMS_1956-57_33k_ES_PAN_21mic_H50_0403_fot_44B-36288_W_tif
  70
32
  10
440222.802
  20
4586053.740
  30
1157.335
  0
VERTEX
  8
PNOA-H_AMS_1956-57_33k_ES_PAN_21mic_H50_0403_fot_44B-36288_W_tif
  70
32
  10
440224.000
  20
4586053.500
  30
1157.283
  0
VERTEX
  8
PNOA-H_AMS_1956-57_33k_ES_PAN_21mic_H50_0403_fot_44B-36288_W_tif
  70
32
  10
440288.000
  20
4585998.000
  30
1149.802
  0
VERTEX
  8
PNOA-H_AMS_1956-57_33k_ES_PAN_21mic_H50_0403_fot_44B-36288_W_tif
  70
32
  10
440287.978
  20
4585997.519
  30
1149.792
  0
VERTEX
  8
PNOA-H_AMS_1956-57_33k_ES_PAN_21mic_H50_0403_fot_44B-36288_W_tif
  70
32
  10
440094.500
  20
4581799.500
  30
1068.162
  0
VERTEX
  8
PNOA-H_AMS_1956-57_33k_ES_PAN_21mic_H50_0403_fot_44B-36288_W_tif
  70
32
  10
440094.249
  20
4581799.433
  30
1068.161
  0
VERTEX
  8
PNOA-H_AMS_1956-57_33k_ES_PAN_21mic_H50_0403_fot_44B-36288_W_tif
  70
32
  10
438760.500
  20
4581444.000
  30
1065.948
  0
VERTEX
  8
PNOA-H_AMS_1956-57_33k_ES_PAN_21mic_H50_0403_fot_44B-36288_W_tif
  70
32
  10
438759.992
  20
4581444.131
  30
1065.952
  0
VERTEX
  8
PNOA-H_AMS_1956-57_33k_ES_PAN_21mic_H50_0403_fot_44B-36288_W_tif
  70
32
  10
437834.500
  20
4581682.667
  30
1073.049
  0
VERTEX
  8
PNOA-H_AMS_1956-57_33k_ES_PAN_21mic_H50_0403_fot_44B-36288_W_tif
  70
32
  10
437371.729
  20
4581801.941
  30
1076.597
  0
VERTEX
  8
PNOA-H_AMS_1956-57_33k_ES_PAN_21mic_H50_0403_fot_44B-36288_W_tif
  70
32
  10
437371.500
  20
4581802.000
  30
1076.599
  0
VERTEX
  8
PNOA-H_AMS_1956-57_33k_ES_PAN_21mic_H50_0403_fot_44B-36288_W_tif
  70
32
  10
437508.997
  20
4586153.901
  30
1189.206
  0
VERTEX
  8
PNOA-H_AMS_1956-57_33k_ES_PAN_21mic_H50_0403_fot_44B-36288_W_tif
  70
32
  10
437509.000
  20
4586154.000
  30
1189.209
  0
VERTEX
  8
PNOA-H_AMS_1956-57_33k_ES_PAN_21mic_H50_0403_fot_44B-36288_W_tif
  70
32
  10
438491.333
  20
4586117.707
  30
1183.816
  0
SEQEND
  8
PNOA-H_AMS_1956-57_33k_ES_PAN_21mic_H50_0403_fot_44B-36288_W_tif
  0
INSERT
  8
FeatureAttribs
  2
FEATURE
  41
1
  42
1
  43
1
  50
0
  10
441612.432
  20
4583682.250
 66
1
  0
ATTRIB
  8
FeatureAttribs
 70
0
  1
PNOA-H_AMS_1956-57_33k_ES_PAN_21mic_H50_0403_fot_44B-36287_W.tif
  2
NAME
  10
441612.432
  20
4583682.250
 40
33.68683
  0
SEQEND
  0
POLYLINE
  8
PNOA-H_AMS_1956-57_33k_ES_PAN_21mic_H50_0403_fot_44B-36287_W_tif
  70
9
  66
1
  0
VERTEX
  8
PNOA-H_AMS_1956-57_33k_ES_PAN_21mic_H50_0403_fot_44B-36287_W_tif
  70
32
  10
441704.742
  20
4581367.069
  30
1059.316
  0
VERTEX
  8
PNOA-H_AMS_1956-57_33k_ES_PAN_21mic_H50_0403_fot_44B-36287_W_tif
  70
32
  10
441704.500
  20
4581367.000
  30
1059.318
  0
VERTEX
  8
PNOA-H_AMS_1956-57_33k_ES_PAN_21mic_H50_0403_fot_44B-36287_W_tif
  70
32
  10
440094.500
  20
4581799.000
  30
1068.134
  0
VERTEX
  8
PNOA-H_AMS_1956-57_33k_ES_PAN_21mic_H50_0403_fot_44B-36287_W_tif
  70
32
  10
440094.517
  20
4581799.361
  30
1068.141
  0
VERTEX
  8
PNOA-H_AMS_1956-57_33k_ES_PAN_21mic_H50_0403_fot_44B-36287_W_tif
  70
32
  10
440288.000
  20
4585989.500
  30
1148.298
  0
VERTEX
  8
PNOA-H_AMS_1956-57_33k_ES_PAN_21mic_H50_0403_fot_44B-36287_W_tif
  70
32
  10
440288.000
  20
4585997.500
  30
1149.748
  0
VERTEX
  8
PNOA-H_AMS_1956-57_33k_ES_PAN_21mic_H50_0403_fot_44B-36287_W_tif
  70
32
  10
443055.500
  20
4585975.500
  30
1125.88
  0
VERTEX
  8
PNOA-H_AMS_1956-57_33k_ES_PAN_21mic_H50_0403_fot_44B-36287_W_tif
  70
32
  10
443060.813
  20
4585975.038
  30
1125.739
  0
VERTEX
  8
PNOA-H_AMS_1956-57_33k_ES_PAN_21mic_H50_0403_fot_44B-36287_W_tif
  70
32
  10
443065.993
  20
4585974.588
  30
1125.602
  0
VERTEX
  8
PNOA-H_AMS_1956-57_33k_ES_PAN_21mic_H50_0403_fot_44B-36287_W_tif
  70
32
  10
443067.000
  20
4585974.500
  30
1125.575
  0
VERTEX
  8
PNOA-H_AMS_1956-57_33k_ES_PAN_21mic_H50_0403_fot_44B-36287_W_tif
  70
32
  10
443126.500
  20
4585924.500
  30
1125.755
  0
VERTEX
  8
PNOA-H_AMS_1956-57_33k_ES_PAN_21mic_H50_0403_fot_44B-36287_W_tif
  70
32
  10
443126.482
  20
4585924.015
  30
1125.746
  0
VERTEX
  8
PNOA-H_AMS_1956-57_33k_ES_PAN_21mic_H50_0403_fot_44B-36287_W_tif
  70
32
  10
443116.781
  20
4585662.250
  30
1120.81
  0
VERTEX
  8
PNOA-H_AMS_1956-57_33k_ES_PAN_21mic_H50_0403_fot_44B-36287_W_tif
  70
32
  10
442971.000
  20
4581728.500
  30
1046.635
  0
VERTEX
  8
PNOA-H_AMS_1956-57_33k_ES_PAN_21mic_H50_0403_fot_44B-36287_W_tif
  70
32
  10
442409.321
  20
4581568.179
  30
1052.26
  0
VERTEX
  8
PNOA-H_AMS_1956-57_33k_ES_PAN_21mic_H50_0403_fot_44B-36287_W_tif
  70
32
  10
441704.999
  20
4581367.142
  30
1059.313
  0
VERTEX
  8
PNOA-H_AMS_1956-57_33k_ES_PAN_21mic_H50_0403_fot_44B-36287_W_tif
  70
32
  10
441704.742
  20
4581367.069
  30
1059.316
  0
SEQEND
  8
PNOA-H_AMS_1956-57_33k_ES_PAN_21mic_H50_0403_fot_44B-36287_W_tif
  0
INSERT
  8
FeatureAttribs
  2
FEATURE
  41
1
  42
1
  43
1
  50
0
  10
440240.936
  20
4579340.250
 66
1
  0
ATTRIB
  8
FeatureAttribs
 70
0
  1
PNOA-H_AMS_1956-57_33k_ES_PAN_21mic_H50_0403_fot_45B-36156_E.tif
  2
NAME
  10
440240.936
  20
4579340.250
 40
33.68683
  0
SEQEND
  0
POLYLINE
  8
PNOA-H_AMS_1956-57_33k_ES_PAN_21mic_H50_0403_fot_45B-36156_E_tif
  70
9
  66
1
  0
VERTEX
  8
PNOA-H_AMS_1956-57_33k_ES_PAN_21mic_H50_0403_fot_45B-36156_E_tif
  70
32
  10
440094.517
  20
4581799.361
  30
1068.121
  0
VERTEX
  8
PNOA-H_AMS_1956-57_33k_ES_PAN_21mic_H50_0403_fot_45B-36156_E_tif
  70
32
  10
440778.500
  20
4581615.500
  30
1054.053
  0
VERTEX
  8
PNOA-H_AMS_1956-57_33k_ES_PAN_21mic_H50_0403_fot_45B-36156_E_tif
  70
32
  10
440780.000
  20
4581615.500
  30
1053.963
  0
VERTEX
  8
PNOA-H_AMS_1956-57_33k_ES_PAN_21mic_H50_0403_fot_45B-36156_E_tif
  70
32
  10
441704.742
  20
4581367.069
  30
1059.3
  0
VERTEX
  8
PNOA-H_AMS_1956-57_33k_ES_PAN_21mic_H50_0403_fot_45B-36156_E_tif
  70
32
  10
441704.999
  20
4581367.000
  30
1059.301
  0
VERTEX
  8
PNOA-H_AMS_1956-57_33k_ES_PAN_21mic_H50_0403_fot_45B-36156_E_tif
  70
32
  10
441693.000
  20
4576893.500
  30
1013.259
  0
VERTEX
  8
PNOA-H_AMS_1956-57_33k_ES_PAN_21mic_H50_0403_fot_45B-36156_E_tif
  70
32
  10
441692.971
  20
4576893.480
  30
1013.26
  0
VERTEX
  8
PNOA-H_AMS_1956-57_33k_ES_PAN_21mic_H50_0403_fot_45B-36156_E_tif
  70
32
  10
441692.234
  20
4576892.968
  30
1013.293
  0
VERTEX
  8
PNOA-H_AMS_1956-57_33k_ES_PAN_21mic_H50_0403_fot_45B-36156_E_tif
  70
32
  10
441683.809
  20
4576887.117
  30
1013.66
  0
VERTEX
  8
PNOA-H_AMS_1956-57_33k_ES_PAN_21mic_H50_0403_fot_45B-36156_E_tif
  70
32
  10
441675.000
  20
4576881.000
  30
1014.044
  0
VERTEX
  8
PNOA-H_AMS_1956-57_33k_ES_PAN_21mic_H50_0403_fot_45B-36156_E_tif
  70
32
  10
441674.500
  20
4576881.000
  30
1014.051
  0
VERTEX
  8
PNOA-H_AMS_1956-57_33k_ES_PAN_21mic_H50_0403_fot_45B-36156_E_tif
  70
32
  10
439001.500
  20
4576887.997
  30
1051.519
  0
VERTEX
  8
PNOA-H_AMS_1956-57_33k_ES_PAN_21mic_H50_0403_fot_45B-36156_E_tif
  70
32
  10
439000.500
  20
4576888.000
  30
1051.533
  0
VERTEX
  8
PNOA-H_AMS_1956-57_33k_ES_PAN_21mic_H50_0403_fot_45B-36156_E_tif
  70
32
  10
438845.741
  20
4576991.440
  30
1053.567
  0
VERTEX
  8
PNOA-H_AMS_1956-57_33k_ES_PAN_21mic_H50_0403_fot_45B-36156_E_tif
  70
32
  10
438807.500
  20
4577017.000
  30
1054.07
  0
VERTEX
  8
PNOA-H_AMS_1956-57_33k_ES_PAN_21mic_H50_0403_fot_45B-36156_E_tif
  70
32
  10
438807.495
  20
4577017.497
  30
1054.071
  0
VERTEX
  8
PNOA-H_AMS_1956-57_33k_ES_PAN_21mic_H50_0403_fot_45B-36156_E_tif
  70
32
  10
438759.500
  20
4581444.000
  30
1066.087
  0
VERTEX
  8
PNOA-H_AMS_1956-57_33k_ES_PAN_21mic_H50_0403_fot_45B-36156_E_tif
  70
32
  10
438759.992
  20
4581444.131
  30
1066.088
  0
VERTEX
  8
PNOA-H_AMS_1956-57_33k_ES_PAN_21mic_H50_0403_fot_45B-36156_E_tif
  70
32
  10
440094.000
  20
4581799.500
  30
1068.132
  0
VERTEX
  8
PNOA-H_AMS_1956-57_33k_ES_PAN_21mic_H50_0403_fot_45B-36156_E_tif
  70
32
  10
440094.249
  20
4581799.433
  30
1068.127
  0
VERTEX
  8
PNOA-H_AMS_1956-57_33k_ES_PAN_21mic_H50_0403_fot_45B-36156_E_tif
  70
32
  10
440094.517
  20
4581799.361
  30
1068.121
  0
SEQEND
  8
PNOA-H_AMS_1956-57_33k_ES_PAN_21mic_H50_0403_fot_45B-36156_E_tif
  0
INSERT
  8
FeatureAttribs
  2
FEATURE
  41
1
  42
1
  43
1
  50
0
  10
443179.086
  20
4579253.250
 66
1
  0
ATTRIB
  8
FeatureAttribs
 70
0
  1
PNOA-H_AMS_1956-57_33k_ES_PAN_21mic_H50_0403_fot_45B-36157_E.tif
  2
NAME
  10
443179.086
  20
4579253.250
 40
33.68683
  0
SEQEND
  0
POLYLINE
  8
PNOA-H_AMS_1956-57_33k_ES_PAN_21mic_H50_0403_fot_45B-36157_E_tif
  70
9
  66
1
  0
VERTEX
  8
PNOA-H_AMS_1956-57_33k_ES_PAN_21mic_H50_0403_fot_45B-36157_E_tif
  70
32
  10
444396.413
  20
4576778.196
  30
963.812
  0
VERTEX
  8
PNOA-H_AMS_1956-57_33k_ES_PAN_21mic_H50_0403_fot_45B-36157_E_tif
  70
32
  10
444392.500
  20
4576778.000
  30
963.902
  0
VERTEX
  8
PNOA-H_AMS_1956-57_33k_ES_PAN_21mic_H50_0403_fot_45B-36157_E_tif
  70
32
  10
441842.972
  20
4576887.083
  30
1010.517
  0
VERTEX
  8
PNOA-H_AMS_1956-57_33k_ES_PAN_21mic_H50_0403_fot_45B-36157_E_tif
  70
32
  10
441693.000
  20
4576893.500
  30
1013.259
  0
VERTEX
  8
PNOA-H_AMS_1956-57_33k_ES_PAN_21mic_H50_0403_fot_45B-36157_E_tif
  70
32
  10
441704.999
  20
4581367.000
  30
1059.32
  0
VERTEX
  8
PNOA-H_AMS_1956-57_33k_ES_PAN_21mic_H50_0403_fot_45B-36157_E_tif
  70
32
  10
441704.999
  20
4581367.142
  30
1059.322
  0
VERTEX
  8
PNOA-H_AMS_1956-57_33k_ES_PAN_21mic_H50_0403_fot_45B-36157_E_tif
  70
32
  10
441705.000
  20
4581367.500
  30
1059.325
  0
VERTEX
  8
PNOA-H_AMS_1956-57_33k_ES_PAN_21mic_H50_0403_fot_45B-36157_E_tif
  70
32
  10
442409.321
  20
4581568.179
  30
1052.239
  0
VERTEX
  8
PNOA-H_AMS_1956-57_33k_ES_PAN_21mic_H50_0403_fot_45B-36157_E_tif
  70
32
  10
442971.363
  20
4581728.319
  30
1046.584
  0
VERTEX
  8
PNOA-H_AMS_1956-57_33k_ES_PAN_21mic_H50_0403_fot_45B-36157_E_tif
  70
32
  10
442972.000
  20
4581728.500
  30
1046.578
  0
VERTEX
  8
PNOA-H_AMS_1956-57_33k_ES_PAN_21mic_H50_0403_fot_45B-36157_E_tif
  70
32
  10
444122.008
  20
4581443.004
  30
1031.485
  0
VERTEX
  8
PNOA-H_AMS_1956-57_33k_ES_PAN_21mic_H50_0403_fot_45B-36157_E_tif
  70
32
  10
444692.000
  20
4581301.500
  30
1024.005
  0
VERTEX
  8
PNOA-H_AMS_1956-57_33k_ES_PAN_21mic_H50_0403_fot_45B-36157_E_tif
  70
32
  10
444621.000
  20
4576915.500
  30
957.82
  0
VERTEX
  8
PNOA-H_AMS_1956-57_33k_ES_PAN_21mic_H50_0403_fot_45B-36157_E_tif
  70
32
  10
444620.879
  20
4576915.424
  30
957.823
  0
VERTEX
  8
PNOA-H_AMS_1956-57_33k_ES_PAN_21mic_H50_0403_fot_45B-36157_E_tif
  70
32
  10
444445.500
  20
4576805.500
  30
962.793
  0
VERTEX
  8
PNOA-H_AMS_1956-57_33k_ES_PAN_21mic_H50_0403_fot_45B-36157_E_tif
  70
32
  10
444444.008
  20
4576805.003
  30
962.839
  0
VERTEX
  8
PNOA-H_AMS_1956-57_33k_ES_PAN_21mic_H50_0403_fot_45B-36157_E_tif
  70
32
  10
444444.000
  20
4576805.000
  30
962.839
  0
VERTEX
  8
PNOA-H_AMS_1956-57_33k_ES_PAN_21mic_H50_0403_fot_45B-36157_E_tif
  70
32
  10
444443.787
  20
4576804.864
  30
962.843
  0
VERTEX
  8
PNOA-H_AMS_1956-57_33k_ES_PAN_21mic_H50_0403_fot_45B-36157_E_tif
  70
32
  10
444402.500
  20
4576778.500
  30
963.671
  0
VERTEX
  8
PNOA-H_AMS_1956-57_33k_ES_PAN_21mic_H50_0403_fot_45B-36157_E_tif
  70
32
  10
444401.735
  20
4576778.462
  30
963.689
  0
VERTEX
  8
PNOA-H_AMS_1956-57_33k_ES_PAN_21mic_H50_0403_fot_45B-36157_E_tif
  70
32
  10
444396.413
  20
4576778.196
  30
963.812
  0
SEQEND
  8
PNOA-H_AMS_1956-57_33k_ES_PAN_21mic_H50_0403_fot_45B-36157_E_tif
  0
INSERT
  8
FeatureAttribs
  2
FEATURE
  41
1
  42
1
  43
1
  50
0
  10
437336.597
  20
4579329.000
 66
1
  0
ATTRIB
  8
FeatureAttribs
 70
0
  1
PNOA-H_AMS_1956-57_33k_ES_PAN_21mic_H50_0403_fot_45B-36155_E.tif
  2
NAME
  10
437336.597
  20
4579329.000
 40
33.68683
  0
SEQEND
  0
POLYLINE
  8
PNOA-H_AMS_1956-57_33k_ES_PAN_21mic_H50_0403_fot_45B-36155_E_tif
  70
9
  66
1
  0
VERTEX
  8
PNOA-H_AMS_1956-57_33k_ES_PAN_21mic_H50_0403_fot_45B-36155_E_tif
  70
32
  10
436286.456
  20
4576856.029
  30
1108.2
  0
VERTEX
  8
PNOA-H_AMS_1956-57_33k_ES_PAN_21mic_H50_0403_fot_45B-36155_E_tif
  70
32
  10
436286.000
  20
4576856.000
  30
1108.21
  0
VERTEX
  8
PNOA-H_AMS_1956-57_33k_ES_PAN_21mic_H50_0403_fot_45B-36155_E_tif
  70
32
  10
435896.500
  20
4577113.000
  30
1104.043
  0
VERTEX
  8
PNOA-H_AMS_1956-57_33k_ES_PAN_21mic_H50_0403_fot_45B-36155_E_tif
  70
32
  10
435896.499
  20
4577113.500
  30
1104.041
  0
VERTEX
  8
PNOA-H_AMS_1956-57_33k_ES_PAN_21mic_H50_0403_fot_45B-36155_E_tif
  70
32
  10
435885.000
  20
4581478.500
  30
1085.93
  0
VERTEX
  8
PNOA-H_AMS_1956-57_33k_ES_PAN_21mic_H50_0403_fot_45B-36155_E_tif
  70
32
  10
435885.292
  20
4581478.564
  30
1085.932
  0
VERTEX
  8
PNOA-H_AMS_1956-57_33k_ES_PAN_21mic_H50_0403_fot_45B-36155_E_tif
  70
32
  10
436681.000
  20
4581652.000
  30
1091.834
  0
VERTEX
  8
PNOA-H_AMS_1956-57_33k_ES_PAN_21mic_H50_0403_fot_45B-36155_E_tif
  70
32
  10
436683.500
  20
4581652.500
  30
1092.034
  0
VERTEX
  8
PNOA-H_AMS_1956-57_33k_ES_PAN_21mic_H50_0403_fot_45B-36155_E_tif
  70
32
  10
437177.561
  20
4581759.780
  30
1080.943
  0
VERTEX
  8
PNOA-H_AMS_1956-57_33k_ES_PAN_21mic_H50_0403_fot_45B-36155_E_tif
  70
32
  10
437371.729
  20
4581801.941
  30
1076.584
  0
VERTEX
  8
PNOA-H_AMS_1956-57_33k_ES_PAN_21mic_H50_0403_fot_45B-36155_E_tif
  70
32
  10
437372.000
  20
4581802.000
  30
1076.578
  0
VERTEX
  8
PNOA-H_AMS_1956-57_33k_ES_PAN_21mic_H50_0403_fot_45B-36155_E_tif
  70
32
  10
437834.500
  20
4581682.667
  30
1073.081
  0
VERTEX
  8
PNOA-H_AMS_1956-57_33k_ES_PAN_21mic_H50_0403_fot_45B-36155_E_tif
  70
32
  10
438759.500
  20
4581444.000
  30
1066.087
  0
VERTEX
  8
PNOA-H_AMS_1956-57_33k_ES_PAN_21mic_H50_0403_fot_45B-36155_E_tif
  70
32
  10
438807.500
  20
4577036.000
  30
1052.665
  0
VERTEX
  8
PNOA-H_AMS_1956-57_33k_ES_PAN_21mic_H50_0403_fot_45B-36155_E_tif
  70
32
  10
438807.500
  20
4577017.500
  30
1054.041
  0
VERTEX
  8
PNOA-H_AMS_1956-57_33k_ES_PAN_21mic_H50_0403_fot_45B-36155_E_tif
  70
32
  10
438807.495
  20
4577017.497
  30
1054.041
  0
VERTEX
  8
PNOA-H_AMS_1956-57_33k_ES_PAN_21mic_H50_0403_fot_45B-36155_E_tif
  70
32
  10
438806.930
  20
4577017.215
  30
1054.063
  0
VERTEX
  8
PNOA-H_AMS_1956-57_33k_ES_PAN_21mic_H50_0403_fot_45B-36155_E_tif
  70
32
  10
438806.500
  20
4577017.000
  30
1054.08
  0
VERTEX
  8
PNOA-H_AMS_1956-57_33k_ES_PAN_21mic_H50_0403_fot_45B-36155_E_tif
  70
32
  10
436434.265
  20
4576865.471
  30
1105.026
  0
VERTEX
  8
PNOA-H_AMS_1956-57_33k_ES_PAN_21mic_H50_0403_fot_45B-36155_E_tif
  70
32
  10
436286.456
  20
4576856.029
  30
1108.2
  0
SEQEND
  8
PNOA-H_AMS_1956-57_33k_ES_PAN_21mic_H50_0403_fot_45B-36155_E_tif
  0
INSERT
  8
FeatureAttribs
  2
FEATURE
  41
1
  42
1
  43
1
  50
0
  10
440319.921
  20
4576442.003
 66
1
  0
ATTRIB
  8
FeatureAttribs
 70
0
  1
PNOA-H_AMS_1956-57_33k_ES_PAN_21mic_H50_0431_fot_46B-29808_E.tif
  2
NAME
  10
440319.921
  20
4576442.003
 40
33.68683
  0
SEQEND
  0
POLYLINE
  8
PNOA-H_AMS_1956-57_33k_ES_PAN_21mic_H50_0431_fot_46B-29808_E_tif
  70
9
  66
1
  0
VERTEX
  8
PNOA-H_AMS_1956-57_33k_ES_PAN_21mic_H50_0431_fot_46B-29808_E_tif
  70
32
  10
441674.500
  20
4576881.000
  30
1014.031
  0
VERTEX
  8
PNOA-H_AMS_1956-57_33k_ES_PAN_21mic_H50_0431_fot_46B-29808_E_tif
  70
32
  10
441644.744
  20
4575996.006
  30
1002.382
  0
VERTEX
  8
PNOA-H_AMS_1956-57_33k_ES_PAN_21mic_H50_0431_fot_46B-29808_E_tif
  70
32
  10
441644.519
  20
4575996.008
  30
0
  0
VERTEX
  8
PNOA-H_AMS_1956-57_33k_ES_PAN_21mic_H50_0431_fot_46B-29808_E_tif
  70
32
  10
438985.743
  20
4576017.717
  30
0
  0
VERTEX
  8
PNOA-H_AMS_1956-57_33k_ES_PAN_21mic_H50_0431_fot_46B-29808_E_tif
  70
32
  10
438959.642
  20
4576017.943
  30
1024.208
  0
VERTEX
  8
PNOA-H_AMS_1956-57_33k_ES_PAN_21mic_H50_0431_fot_46B-29808_E_tif
  70
32
  10
439001.500
  20
4576885.500
  30
1051.234
  0
VERTEX
  8
PNOA-H_AMS_1956-57_33k_ES_PAN_21mic_H50_0431_fot_46B-29808_E_tif
  70
32
  10
439001.500
  20
4576887.997
  30
1051.52
  0
VERTEX
  8
PNOA-H_AMS_1956-57_33k_ES_PAN_21mic_H50_0431_fot_46B-29808_E_tif
  70
32
  10
439001.500
  20
4576888.000
  30
1051.521
  0
VERTEX
  8
PNOA-H_AMS_1956-57_33k_ES_PAN_21mic_H50_0431_fot_46B-29808_E_tif
  70
32
  10
441674.500
  20
4576881.000
  30
1014.031
  0
SEQEND
  8
PNOA-H_AMS_1956-57_33k_ES_PAN_21mic_H50_0431_fot_46B-29808_E_tif
  0
INSERT
  8
FeatureAttribs
  2
FEATURE
  41
1
  42
1
  43
1
  50
0
  10
443028.998
  20
4576433.983
 66
1
  0
ATTRIB
  8
FeatureAttribs
 70
0
  1
PNOA-H_AMS_1956-57_33k_ES_PAN_21mic_H50_0431_fot_46B-29807_E.tif
  2
NAME
  10
443028.998
  20
4576433.983
 40
33.68683
  0
SEQEND
  0
POLYLINE
  8
PNOA-H_AMS_1956-57_33k_ES_PAN_21mic_H50_0431_fot_46B-29807_E_tif
  70
9
  66
1
  0
VERTEX
  8
PNOA-H_AMS_1956-57_33k_ES_PAN_21mic_H50_0431_fot_46B-29807_E_tif
  70
32
  10
444401.000
  20
4576778.000
  30
963.7
  0
VERTEX
  8
PNOA-H_AMS_1956-57_33k_ES_PAN_21mic_H50_0431_fot_46B-29807_E_tif
  70
32
  10
444395.812
  20
4575974.466
  30
961.28
  0
VERTEX
  8
PNOA-H_AMS_1956-57_33k_ES_PAN_21mic_H50_0431_fot_46B-29807_E_tif
  70
32
  10
442472.294
  20
4575989.249
  30
0
  0
VERTEX
  8
PNOA-H_AMS_1956-57_33k_ES_PAN_21mic_H50_0431_fot_46B-29807_E_tif
  70
32
  10
441644.744
  20
4575996.006
  30
1002.382
  0
VERTEX
  8
PNOA-H_AMS_1956-57_33k_ES_PAN_21mic_H50_0431_fot_46B-29807_E_tif
  70
32
  10
441644.519
  20
4575996.008
  30
1002.87
  0
VERTEX
  8
PNOA-H_AMS_1956-57_33k_ES_PAN_21mic_H50_0431_fot_46B-29807_E_tif
  70
32
  10
441674.000
  20
4576874.500
  30
1014.557
  0
VERTEX
  8
PNOA-H_AMS_1956-57_33k_ES_PAN_21mic_H50_0431_fot_46B-29807_E_tif
  70
32
  10
441674.500
  20
4576881.000
  30
1014.031
  0
VERTEX
  8
PNOA-H_AMS_1956-57_33k_ES_PAN_21mic_H50_0431_fot_46B-29807_E_tif
  70
32
  10
441683.809
  20
4576887.117
  30
1013.663
  0
VERTEX
  8
PNOA-H_AMS_1956-57_33k_ES_PAN_21mic_H50_0431_fot_46B-29807_E_tif
  70
32
  10
441692.000
  20
4576892.500
  30
1013.338
  0
VERTEX
  8
PNOA-H_AMS_1956-57_33k_ES_PAN_21mic_H50_0431_fot_46B-29807_E_tif
  70
32
  10
441692.234
  20
4576892.968
  30
1013.281
  0
VERTEX
  8
PNOA-H_AMS_1956-57_33k_ES_PAN_21mic_H50_0431_fot_46B-29807_E_tif
  70
32
  10
441692.500
  20
4576893.500
  30
1013.256
  0
VERTEX
  8
PNOA-H_AMS_1956-57_33k_ES_PAN_21mic_H50_0431_fot_46B-29807_E_tif
  70
32
  10
441692.971
  20
4576893.480
  30
1013.248
  0
VERTEX
  8
PNOA-H_AMS_1956-57_33k_ES_PAN_21mic_H50_0431_fot_46B-29807_E_tif
  70
32
  10
441842.972
  20
4576887.083
  30
1010.503
  0
VERTEX
  8
PNOA-H_AMS_1956-57_33k_ES_PAN_21mic_H50_0431_fot_46B-29807_E_tif
  70
32
  10
444396.413
  20
4576778.196
  30
963.784
  0
VERTEX
  8
PNOA-H_AMS_1956-57_33k_ES_PAN_21mic_H50_0431_fot_46B-29807_E_tif
  70
32
  10
444401.000
  20
4576778.000
  30
963.7
  0
SEQEND
  8
PNOA-H_AMS_1956-57_33k_ES_PAN_21mic_H50_0431_fot_46B-29807_E_tif
  0
INSERT
  8
FeatureAttribs
  2
FEATURE
  41
1
  42
1
  43
1
  50
0
  10
437629.280
  20
4576517.721
 66
1
  0
ATTRIB
  8
FeatureAttribs
 70
0
  1
PNOA-H_AMS_1956-57_33k_ES_PAN_21mic_H50_0431_fot_46B-29809_E.tif
  2
NAME
  10
437629.280
  20
4576517.721
 40
33.68683
  0
SEQEND
  0
POLYLINE
  8
PNOA-H_AMS_1956-57_33k_ES_PAN_21mic_H50_0431_fot_46B-29809_E_tif
  70
9
  66
1
  0
VERTEX
  8
PNOA-H_AMS_1956-57_33k_ES_PAN_21mic_H50_0431_fot_46B-29809_E_tif
  70
32
  10
439001.500
  20
4576885.500
  30
1051.234
  0
VERTEX
  8
PNOA-H_AMS_1956-57_33k_ES_PAN_21mic_H50_0431_fot_46B-29809_E_tif
  70
32
  10
438959.642
  20
4576017.943
  30
1024.208
  0
VERTEX
  8
PNOA-H_AMS_1956-57_33k_ES_PAN_21mic_H50_0431_fot_46B-29809_E_tif
  70
32
  10
436258.334
  20
4576041.297
  30
1071.639
  0
VERTEX
  8
PNOA-H_AMS_1956-57_33k_ES_PAN_21mic_H50_0431_fot_46B-29809_E_tif
  70
32
  10
436286.500
  20
4576856.000
  30
1108.186
  0
VERTEX
  8
PNOA-H_AMS_1956-57_33k_ES_PAN_21mic_H50_0431_fot_46B-29809_E_tif
  70
32
  10
436434.265
  20
4576865.471
  30
1105.006
  0
VERTEX
  8
PNOA-H_AMS_1956-57_33k_ES_PAN_21mic_H50_0431_fot_46B-29809_E_tif
  70
32
  10
438798.500
  20
4577017.000
  30
1054.13
  0
VERTEX
  8
PNOA-H_AMS_1956-57_33k_ES_PAN_21mic_H50_0431_fot_46B-29809_E_tif
  70
32
  10
438806.500
  20
4577017.500
  30
1054.051
  0
VERTEX
  8
PNOA-H_AMS_1956-57_33k_ES_PAN_21mic_H50_0431_fot_46B-29809_E_tif
  70
32
  10
438806.930
  20
4577017.215
  30
1054.046
  0
VERTEX
  8
PNOA-H_AMS_1956-57_33k_ES_PAN_21mic_H50_0431_fot_46B-29809_E_tif
  70
32
  10
438845.741
  20
4576991.440
  30
1053.542
  0
VERTEX
  8
PNOA-H_AMS_1956-57_33k_ES_PAN_21mic_H50_0431_fot_46B-29809_E_tif
  70
32
  10
439001.500
  20
4576888.000
  30
1051.521
  0
VERTEX
  8
PNOA-H_AMS_1956-57_33k_ES_PAN_21mic_H50_0431_fot_46B-29809_E_tif
  70
32
  10
439001.500
  20
4576887.997
  30
1051.52
  0
VERTEX
  8
PNOA-H_AMS_1956-57_33k_ES_PAN_21mic_H50_0431_fot_46B-29809_E_tif
  70
32
  10
439001.500
  20
4576885.500
  30
1051.234
  0
SEQEND
  8
PNOA-H_AMS_1956-57_33k_ES_PAN_21mic_H50_0431_fot_46B-29809_E_tif
  0
INSERT
  8
FeatureAttribs
  2
FEATURE
  41
1
  42
1
  43
1
  50
0
  10
447257.021
  20
4587804.250
 66
1
  0
ATTRIB
  8
FeatureAttribs
 70
0
  1
PNOA-H_AMS_1956-57_33k_ES_PAN_21mic_H50_0403_fot_43B-29629_E.tif
  2
NAME
  10
447257.021
  20
4587804.250
 40
33.68683
  0
SEQEND
  0
POLYLINE
  8
PNOA-H_AMS_1956-57_33k_ES_PAN_21mic_H50_0403_fot_43B-29629_E_tif
  70
9
  66
1
  0
VERTEX
  8
PNOA-H_AMS_1956-57_33k_ES_PAN_21mic_H50_0403_fot_43B-29629_E_tif
  70
32
  10
445942.500
  20
4589801.500
  30
1165.12
  0
VERTEX
  8
PNOA-H_AMS_1956-57_33k_ES_PAN_21mic_H50_0403_fot_43B-29629_E_tif
  70
32
  10
446895.500
  20
4589795.500
  30
1176.404
  0
VERTEX
  8
PNOA-H_AMS_1956-57_33k_ES_PAN_21mic_H50_0403_fot_43B-29629_E_tif
  70
32
  10
446912.136
  20
4589795.500
  30
1176.605
  0
VERTEX
  8
PNOA-H_AMS_1956-57_33k_ES_PAN_21mic_H50_0403_fot_43B-29629_E_tif
  70
32
  10
446924.000
  20
4589795.500
  30
1176.749
  0
VERTEX
  8
PNOA-H_AMS_1956-57_33k_ES_PAN_21mic_H50_0403_fot_43B-29629_E_tif
  70
32
  10
448605.500
  20
4589785.500
  30
1112.659
  0
VERTEX
  8
PNOA-H_AMS_1956-57_33k_ES_PAN_21mic_H50_0403_fot_43B-29629_E_tif
  70
32
  10
448609.001
  20
4589785.111
  30
1112.548
  0
VERTEX
  8
PNOA-H_AMS_1956-57_33k_ES_PAN_21mic_H50_0403_fot_43B-29629_E_tif
  70
32
  10
448610.000
  20
4589785.000
  30
1112.516
  0
VERTEX
  8
PNOA-H_AMS_1956-57_33k_ES_PAN_21mic_H50_0403_fot_43B-29629_E_tif
  70
32
  10
448647.500
  20
4589761.500
  30
1109.59
  0
VERTEX
  8
PNOA-H_AMS_1956-57_33k_ES_PAN_21mic_H50_0403_fot_43B-29629_E_tif
  70
32
  10
448647.495
  20
4589761.003
  30
1109.581
  0
VERTEX
  8
PNOA-H_AMS_1956-57_33k_ES_PAN_21mic_H50_0403_fot_43B-29629_E_tif
  70
32
  10
448646.692
  20
4589685.750
  30
1108.275
  0
VERTEX
  8
PNOA-H_AMS_1956-57_33k_ES_PAN_21mic_H50_0403_fot_43B-29629_E_tif
  70
32
  10
448605.500
  20
4585822.500
  30
1041.213
  0
VERTEX
  8
PNOA-H_AMS_1956-57_33k_ES_PAN_21mic_H50_0403_fot_43B-29629_E_tif
  70
32
  10
446019.000
  20
4585807.000
  30
1075.23
  0
VERTEX
  8
PNOA-H_AMS_1956-57_33k_ES_PAN_21mic_H50_0403_fot_43B-29629_E_tif
  70
32
  10
445934.500
  20
4585807.000
  30
1072.072
  0
VERTEX
  8
PNOA-H_AMS_1956-57_33k_ES_PAN_21mic_H50_0403_fot_43B-29629_E_tif
  70
32
  10
445933.500
  20
4585807.000
  30
1072.035
  0
VERTEX
  8
PNOA-H_AMS_1956-57_33k_ES_PAN_21mic_H50_0403_fot_43B-29629_E_tif
  70
32
  10
445834.500
  20
4585886.000
  30
1084.312
  0
VERTEX
  8
PNOA-H_AMS_1956-57_33k_ES_PAN_21mic_H50_0403_fot_43B-29629_E_tif
  70
32
  10
445834.513
  20
4585886.489
  30
1084.322
  0
VERTEX
  8
PNOA-H_AMS_1956-57_33k_ES_PAN_21mic_H50_0403_fot_43B-29629_E_tif
  70
32
  10
445942.500
  20
4589801.500
  30
1165.12
  0
SEQEND
  8
PNOA-H_AMS_1956-57_33k_ES_PAN_21mic_H50_0403_fot_43B-29629_E_tif
  0
INSERT
  8
FeatureAttribs
  2
FEATURE
  41
1
  42
1
  43
1
  50
0
  10
444496.733
  20
4587872.250
 66
1
  0
ATTRIB
  8
FeatureAttribs
 70
0
  1
PNOA-H_AMS_1956-57_33k_ES_PAN_21mic_H50_0403_fot_43B-29628_E.tif
  2
NAME
  10
444496.733
  20
4587872.250
 40
33.68683
  0
SEQEND
  0
POLYLINE
  8
PNOA-H_AMS_1956-57_33k_ES_PAN_21mic_H50_0403_fot_43B-29628_E_tif
  70
9
  66
1
  0
VERTEX
  8
PNOA-H_AMS_1956-57_33k_ES_PAN_21mic_H50_0403_fot_43B-29628_E_tif
  70
32
  10
445942.486
  20
4589801.509
  30
1165.101
  0
VERTEX
  8
PNOA-H_AMS_1956-57_33k_ES_PAN_21mic_H50_0403_fot_43B-29628_E_tif
  70
32
  10
445834.500
  20
4585886.500
  30
1084.424
  0
VERTEX
  8
PNOA-H_AMS_1956-57_33k_ES_PAN_21mic_H50_0403_fot_43B-29628_E_tif
  70
32
  10
444859.620
  20
4585900.000
  30
1099.317
  0
VERTEX
  8
PNOA-H_AMS_1956-57_33k_ES_PAN_21mic_H50_0403_fot_43B-29628_E_tif
  70
32
  10
443126.500
  20
4585924.000
  30
1125.794
  0
VERTEX
  8
PNOA-H_AMS_1956-57_33k_ES_PAN_21mic_H50_0403_fot_43B-29628_E_tif
  70
32
  10
443126.482
  20
4585924.015
  30
1125.794
  0
VERTEX
  8
PNOA-H_AMS_1956-57_33k_ES_PAN_21mic_H50_0403_fot_43B-29628_E_tif
  70
32
  10
443065.993
  20
4585974.588
  30
1125.557
  0
VERTEX
  8
PNOA-H_AMS_1956-57_33k_ES_PAN_21mic_H50_0403_fot_43B-29628_E_tif
  70
32
  10
443065.500
  20
4585975.000
  30
1125.555
  0
VERTEX
  8
PNOA-H_AMS_1956-57_33k_ES_PAN_21mic_H50_0403_fot_43B-29628_E_tif
  70
32
  10
443144.000
  20
4589824.000
  30
1205.761
  0
VERTEX
  8
PNOA-H_AMS_1956-57_33k_ES_PAN_21mic_H50_0403_fot_43B-29628_E_tif
  70
32
  10
443261.023
  20
4589825.480
  30
1204.467
  0
VERTEX
  8
PNOA-H_AMS_1956-57_33k_ES_PAN_21mic_H50_0403_fot_43B-29628_E_tif
  70
32
  10
445792.500
  20
4589857.500
  30
1176.472
  0
VERTEX
  8
PNOA-H_AMS_1956-57_33k_ES_PAN_21mic_H50_0403_fot_43B-29628_E_tif
  70
32
  10
445832.500
  20
4589858.000
  30
1172.151
  0
VERTEX
  8
PNOA-H_AMS_1956-57_33k_ES_PAN_21mic_H50_0403_fot_43B-29628_E_tif
  70
32
  10
445840.366
  20
4589857.829
  30
1170.983
  0
VERTEX
  8
PNOA-H_AMS_1956-57_33k_ES_PAN_21mic_H50_0403_fot_43B-29628_E_tif
  70
32
  10
445854.758
  20
4589857.516
  30
1168.845
  0
VERTEX
  8
PNOA-H_AMS_1956-57_33k_ES_PAN_21mic_H50_0403_fot_43B-29628_E_tif
  70
32
  10
445855.500
  20
4589857.500
  30
1168.735
  0
VERTEX
  8
PNOA-H_AMS_1956-57_33k_ES_PAN_21mic_H50_0403_fot_43B-29628_E_tif
  70
32
  10
445942.500
  20
4589802.000
  30
1165.111
  0
VERTEX
  8
PNOA-H_AMS_1956-57_33k_ES_PAN_21mic_H50_0403_fot_43B-29628_E_tif
  70
32
  10
445942.486
  20
4589801.509
  30
1165.101
  0
SEQEND
  8
PNOA-H_AMS_1956-57_33k_ES_PAN_21mic_H50_0403_fot_43B-29628_E_tif
  0
INSERT
  8
FeatureAttribs
  2
FEATURE
  41
1
  42
1
  43
1
  50
0
  10
450053.001
  20
4587741.000
 66
1
  0
ATTRIB
  8
FeatureAttribs
 70
0
  1
PNOA-H_AMS_1956-57_33k_ES_PAN_21mic_H50_0403_fot_43B-29630_E.tif
  2
NAME
  10
450053.001
  20
4587741.000
 40
33.68683
  0
SEQEND
  0
POLYLINE
  8
PNOA-H_AMS_1956-57_33k_ES_PAN_21mic_H50_0403_fot_43B-29630_E_tif
  70
9
  66
1
  0
VERTEX
  8
PNOA-H_AMS_1956-57_33k_ES_PAN_21mic_H50_0403_fot_43B-29630_E_tif
  70
32
  10
451407.032
  20
4585756.206
  30
1011.483
  0
VERTEX
  8
PNOA-H_AMS_1956-57_33k_ES_PAN_21mic_H50_0403_fot_43B-29630_E_tif
  70
32
  10
448765.000
  20
4585708.500
  30
1031.857
  0
VERTEX
  8
PNOA-H_AMS_1956-57_33k_ES_PAN_21mic_H50_0403_fot_43B-29630_E_tif
  70
32
  10
448760.948
  20
4585708.656
  30
1032.073
  0
VERTEX
  8
PNOA-H_AMS_1956-57_33k_ES_PAN_21mic_H50_0403_fot_43B-29630_E_tif
  70
32
  10
448752.998
  20
4585708.962
  30
1032.498
  0
VERTEX
  8
PNOA-H_AMS_1956-57_33k_ES_PAN_21mic_H50_0403_fot_43B-29630_E_tif
  70
32
  10
448752.000
  20
4585709.000
  30
1032.551
  0
VERTEX
  8
PNOA-H_AMS_1956-57_33k_ES_PAN_21mic_H50_0403_fot_43B-29630_E_tif
  70
32
  10
448607.000
  20
4585821.000
  30
1041.143
  0
VERTEX
  8
PNOA-H_AMS_1956-57_33k_ES_PAN_21mic_H50_0403_fot_43B-29630_E_tif
  70
32
  10
448605.500
  20
4585822.500
  30
1041.213
  0
VERTEX
  8
PNOA-H_AMS_1956-57_33k_ES_PAN_21mic_H50_0403_fot_43B-29630_E_tif
  70
32
  10
448605.500
  20
4585848.000
  30
1042.102
  0
VERTEX
  8
PNOA-H_AMS_1956-57_33k_ES_PAN_21mic_H50_0403_fot_43B-29630_E_tif
  70
32
  10
448646.692
  20
4589685.750
  30
1108.29
  0
VERTEX
  8
PNOA-H_AMS_1956-57_33k_ES_PAN_21mic_H50_0403_fot_43B-29630_E_tif
  70
32
  10
448647.500
  20
4589761.000
  30
1109.588
  0
VERTEX
  8
PNOA-H_AMS_1956-57_33k_ES_PAN_21mic_H50_0403_fot_43B-29630_E_tif
  70
32
  10
448796.500
  20
4589762.000
  30
1101.365
  0
VERTEX
  8
PNOA-H_AMS_1956-57_33k_ES_PAN_21mic_H50_0403_fot_43B-29630_E_tif
  70
32
  10
448906.000
  20
4589762.500
  30
1095.826
  0
VERTEX
  8
PNOA-H_AMS_1956-57_33k_ES_PAN_21mic_H50_0403_fot_43B-29630_E_tif
  70
32
  10
451317.694
  20
4589773.415
  30
1039.53
  0
VERTEX
  8
PNOA-H_AMS_1956-57_33k_ES_PAN_21mic_H50_0403_fot_43B-29630_E_tif
  70
32
  10
451336.004
  20
4589773.498
  30
1039.103
  0
VERTEX
  8
PNOA-H_AMS_1956-57_33k_ES_PAN_21mic_H50_0403_fot_43B-29630_E_tif
  70
32
  10
451336.500
  20
4589773.500
  30
1039.091
  0
VERTEX
  8
PNOA-H_AMS_1956-57_33k_ES_PAN_21mic_H50_0403_fot_43B-29630_E_tif
  70
32
  10
451507.758
  20
4589666.464
  30
1025.961
  0
VERTEX
  8
PNOA-H_AMS_1956-57_33k_ES_PAN_21mic_H50_0403_fot_43B-29630_E_tif
  70
32
  10
451508.500
  20
4589666.000
  30
1025.904
  0
VERTEX
  8
PNOA-H_AMS_1956-57_33k_ES_PAN_21mic_H50_0403_fot_43B-29630_E_tif
  70
32
  10
451451.000
  20
4585757.000
  30
1011.144
  0
VERTEX
  8
PNOA-H_AMS_1956-57_33k_ES_PAN_21mic_H50_0403_fot_43B-29630_E_tif
  70
32
  10
451407.032
  20
4585756.206
  30
1011.483
  0
SEQEND
  8
PNOA-H_AMS_1956-57_33k_ES_PAN_21mic_H50_0403_fot_43B-29630_E_tif
  0
INSERT
  8
FeatureAttribs
  2
FEATURE
  41
1
  42
1
  43
1
  50
0
  10
447247.622
  20
4583530.750
 66
1
  0
ATTRIB
  8
FeatureAttribs
 70
0
  1
PNOA-H_AMS_1956-57_33k_ES_PAN_21mic_H50_0403_fot_44B-36285_W.tif
  2
NAME
  10
447247.622
  20
4583530.750
 40
33.68683
  0
SEQEND
  0
POLYLINE
  8
PNOA-H_AMS_1956-57_33k_ES_PAN_21mic_H50_0403_fot_44B-36285_W_tif
  70
9
  66
1
  0
VERTEX
  8
PNOA-H_AMS_1956-57_33k_ES_PAN_21mic_H50_0403_fot_44B-36285_W_tif
  70
32
  10
448551.821
  20
4581566.937
  30
1000.709
  0
VERTEX
  8
PNOA-H_AMS_1956-57_33k_ES_PAN_21mic_H50_0403_fot_44B-36285_W_tif
  70
32
  10
447617.000
  20
4581239.000
  30
1021.025
  0
VERTEX
  8
PNOA-H_AMS_1956-57_33k_ES_PAN_21mic_H50_0403_fot_44B-36285_W_tif
  70
32
  10
447616.025
  20
4581239.184
  30
1021.046
  0
VERTEX
  8
PNOA-H_AMS_1956-57_33k_ES_PAN_21mic_H50_0403_fot_44B-36285_W_tif
  70
32
  10
447606.173
  20
4581241.043
  30
1021.256
  0
VERTEX
  8
PNOA-H_AMS_1956-57_33k_ES_PAN_21mic_H50_0403_fot_44B-36285_W_tif
  70
32
  10
447590.500
  20
4581244.000
  30
1021.592
  0
VERTEX
  8
PNOA-H_AMS_1956-57_33k_ES_PAN_21mic_H50_0403_fot_44B-36285_W_tif
  70
32
  10
446348.520
  20
4581516.496
  30
1043.044
  0
VERTEX
  8
PNOA-H_AMS_1956-57_33k_ES_PAN_21mic_H50_0403_fot_44B-36285_W_tif
  70
32
  10
445776.500
  20
4581642.000
  30
1052.924
  0
VERTEX
  8
PNOA-H_AMS_1956-57_33k_ES_PAN_21mic_H50_0403_fot_44B-36285_W_tif
  70
32
  10
445934.000
  20
4585805.500
  30
1071.637
  0
VERTEX
  8
PNOA-H_AMS_1956-57_33k_ES_PAN_21mic_H50_0403_fot_44B-36285_W_tif
  70
32
  10
445934.500
  20
4585807.000
  30
1072.121
  0
VERTEX
  8
PNOA-H_AMS_1956-57_33k_ES_PAN_21mic_H50_0403_fot_44B-36285_W_tif
  70
32
  10
448462.500
  20
4585822.000
  30
1038.357
  0
VERTEX
  8
PNOA-H_AMS_1956-57_33k_ES_PAN_21mic_H50_0403_fot_44B-36285_W_tif
  70
32
  10
448546.500
  20
4585822.500
  30
1040.778
  0
VERTEX
  8
PNOA-H_AMS_1956-57_33k_ES_PAN_21mic_H50_0403_fot_44B-36285_W_tif
  70
32
  10
448605.500
  20
4585822.500
  30
1041.206
  0
VERTEX
  8
PNOA-H_AMS_1956-57_33k_ES_PAN_21mic_H50_0403_fot_44B-36285_W_tif
  70
32
  10
448606.000
  20
4585822.500
  30
1041.209
  0
VERTEX
  8
PNOA-H_AMS_1956-57_33k_ES_PAN_21mic_H50_0403_fot_44B-36285_W_tif
  70
32
  10
448753.000
  20
4585709.000
  30
1032.495
  0
VERTEX
  8
PNOA-H_AMS_1956-57_33k_ES_PAN_21mic_H50_0403_fot_44B-36285_W_tif
  70
32
  10
448752.998
  20
4585708.962
  30
1032.495
  0
VERTEX
  8
PNOA-H_AMS_1956-57_33k_ES_PAN_21mic_H50_0403_fot_44B-36285_W_tif
  70
32
  10
448552.000
  20
4581567.000
  30
1000.705
  0
VERTEX
  8
PNOA-H_AMS_1956-57_33k_ES_PAN_21mic_H50_0403_fot_44B-36285_W_tif
  70
32
  10
448551.821
  20
4581566.937
  30
1000.709
  0
SEQEND
  8
PNOA-H_AMS_1956-57_33k_ES_PAN_21mic_H50_0403_fot_44B-36285_W_tif
  0
INSERT
  8
FeatureAttribs
  2
FEATURE
  41
1
  42
1
  43
1
  50
0
  10
444445.979
  20
4583612.750
 66
1
  0
ATTRIB
  8
FeatureAttribs
 70
0
  1
PNOA-H_AMS_1956-57_33k_ES_PAN_21mic_H50_0403_fot_44B-36286_W.tif
  2
NAME
  10
444445.979
  20
4583612.750
 40
33.68683
  0
SEQEND
  0
POLYLINE
  8
PNOA-H_AMS_1956-57_33k_ES_PAN_21mic_H50_0403_fot_44B-36286_W_tif
  70
9
  66
1
  0
VERTEX
  8
PNOA-H_AMS_1956-57_33k_ES_PAN_21mic_H50_0403_fot_44B-36286_W_tif
  70
32
  10
443126.500
  20
4585924.000
  30
1125.794
  0
VERTEX
  8
PNOA-H_AMS_1956-57_33k_ES_PAN_21mic_H50_0403_fot_44B-36286_W_tif
  70
32
  10
444853.000
  20
4585900.000
  30
1106.77
  0
VERTEX
  8
PNOA-H_AMS_1956-57_33k_ES_PAN_21mic_H50_0403_fot_44B-36286_W_tif
  70
32
  10
444859.620
  20
4585900.000
  30
1099.317
  0
VERTEX
  8
PNOA-H_AMS_1956-57_33k_ES_PAN_21mic_H50_0403_fot_44B-36286_W_tif
  70
32
  10
444876.000
  20
4585900.000
  30
1105.034
  0
VERTEX
  8
PNOA-H_AMS_1956-57_33k_ES_PAN_21mic_H50_0403_fot_44B-36286_W_tif
  70
32
  10
445834.500
  20
4585886.500
  30
1084.424
  0
VERTEX
  8
PNOA-H_AMS_1956-57_33k_ES_PAN_21mic_H50_0403_fot_44B-36286_W_tif
  70
32
  10
445834.513
  20
4585886.489
  30
1084.423
  0
VERTEX
  8
PNOA-H_AMS_1956-57_33k_ES_PAN_21mic_H50_0403_fot_44B-36286_W_tif
  70
32
  10
445934.500
  20
4585807.000
  30
1072.121
  0
VERTEX
  8
PNOA-H_AMS_1956-57_33k_ES_PAN_21mic_H50_0403_fot_44B-36286_W_tif
  70
32
  10
445777.000
  20
4581654.500
  30
1052.83
  0
VERTEX
  8
PNOA-H_AMS_1956-57_33k_ES_PAN_21mic_H50_0403_fot_44B-36286_W_tif
  70
32
  10
445776.500
  20
4581642.000
  30
1052.924
  0
VERTEX
  8
PNOA-H_AMS_1956-57_33k_ES_PAN_21mic_H50_0403_fot_44B-36286_W_tif
  70
32
  10
445776.120
  20
4581641.864
  30
1052.932
  0
VERTEX
  8
PNOA-H_AMS_1956-57_33k_ES_PAN_21mic_H50_0403_fot_44B-36286_W_tif
  70
32
  10
445769.500
  20
4581639.500
  30
1053.078
  0
VERTEX
  8
PNOA-H_AMS_1956-57_33k_ES_PAN_21mic_H50_0403_fot_44B-36286_W_tif
  70
32
  10
444693.000
  20
4581301.500
  30
1024.064
  0
VERTEX
  8
PNOA-H_AMS_1956-57_33k_ES_PAN_21mic_H50_0403_fot_44B-36286_W_tif
  70
32
  10
444692.441
  20
4581301.639
  30
1024.072
  0
VERTEX
  8
PNOA-H_AMS_1956-57_33k_ES_PAN_21mic_H50_0403_fot_44B-36286_W_tif
  70
32
  10
444122.008
  20
4581443.004
  30
1031.543
  0
VERTEX
  8
PNOA-H_AMS_1956-57_33k_ES_PAN_21mic_H50_0403_fot_44B-36286_W_tif
  70
32
  10
442972.000
  20
4581728.000
  30
1046.605
  0
VERTEX
  8
PNOA-H_AMS_1956-57_33k_ES_PAN_21mic_H50_0403_fot_44B-36286_W_tif
  70
32
  10
442971.363
  20
4581728.319
  30
1046.624
  0
VERTEX
  8
PNOA-H_AMS_1956-57_33k_ES_PAN_21mic_H50_0403_fot_44B-36286_W_tif
  70
32
  10
442971.000
  20
4581728.500
  30
1046.635
  0
VERTEX
  8
PNOA-H_AMS_1956-57_33k_ES_PAN_21mic_H50_0403_fot_44B-36286_W_tif
  70
32
  10
442971.000
  20
4581736.000
  30
1046.233
  0
VERTEX
  8
PNOA-H_AMS_1956-57_33k_ES_PAN_21mic_H50_0403_fot_44B-36286_W_tif
  70
32
  10
443116.781
  20
4585662.250
  30
1120.821
  0
VERTEX
  8
PNOA-H_AMS_1956-57_33k_ES_PAN_21mic_H50_0403_fot_44B-36286_W_tif
  70
32
  10
443126.500
  20
4585924.000
  30
1125.794
  0
SEQEND
  8
PNOA-H_AMS_1956-57_33k_ES_PAN_21mic_H50_0403_fot_44B-36286_W_tif
  0
INSERT
  8
FeatureAttribs
  2
FEATURE
  41
1
  42
1
  43
1
  50
0
  10
450074.974
  20
4583461.750
 66
1
  0
ATTRIB
  8
FeatureAttribs
 70
0
  1
PNOA-H_AMS_1956-57_33k_ES_PAN_21mic_H50_0403_fot_44B-36284_W.tif
  2
NAME
  10
450074.974
  20
4583461.750
 40
33.68683
  0
SEQEND
  0
POLYLINE
  8
PNOA-H_AMS_1956-57_33k_ES_PAN_21mic_H50_0403_fot_44B-36284_W_tif
  70
9
  66
1
  0
VERTEX
  8
PNOA-H_AMS_1956-57_33k_ES_PAN_21mic_H50_0403_fot_44B-36284_W_tif
  70
32
  10
451407.341
  20
4581485.937
  30
1020.56
  0
VERTEX
  8
PNOA-H_AMS_1956-57_33k_ES_PAN_21mic_H50_0403_fot_44B-36284_W_tif
  70
32
  10
450596.000
  20
4581166.500
  30
1007.779
  0
VERTEX
  8
PNOA-H_AMS_1956-57_33k_ES_PAN_21mic_H50_0403_fot_44B-36284_W_tif
  70
32
  10
450595.332
  20
4581166.631
  30
1007.777
  0
VERTEX
  8
PNOA-H_AMS_1956-57_33k_ES_PAN_21mic_H50_0403_fot_44B-36284_W_tif
  70
32
  10
448552.000
  20
4581567.000
  30
1000.705
  0
VERTEX
  8
PNOA-H_AMS_1956-57_33k_ES_PAN_21mic_H50_0403_fot_44B-36284_W_tif
  70
32
  10
448753.000
  20
4585708.500
  30
1032.472
  0
VERTEX
  8
PNOA-H_AMS_1956-57_33k_ES_PAN_21mic_H50_0403_fot_44B-36284_W_tif
  70
32
  10
448760.948
  20
4585708.656
  30
1032.123
  0
VERTEX
  8
PNOA-H_AMS_1956-57_33k_ES_PAN_21mic_H50_0403_fot_44B-36284_W_tif
  70
32
  10
448931.500
  20
4585712.000
  30
1024.645
  0
VERTEX
  8
PNOA-H_AMS_1956-57_33k_ES_PAN_21mic_H50_0403_fot_44B-36284_W_tif
  70
32
  10
448959.000
  20
4585712.500
  30
1023.898
  0
VERTEX
  8
PNOA-H_AMS_1956-57_33k_ES_PAN_21mic_H50_0403_fot_44B-36284_W_tif
  70
32
  10
451407.032
  20
4585756.206
  30
1011.367
  0
VERTEX
  8
PNOA-H_AMS_1956-57_33k_ES_PAN_21mic_H50_0403_fot_44B-36284_W_tif
  70
32
  10
451451.011
  20
4585756.991
  30
1011.142
  0
VERTEX
  8
PNOA-H_AMS_1956-57_33k_ES_PAN_21mic_H50_0403_fot_44B-36284_W_tif
  70
32
  10
451451.500
  20
4585757.000
  30
1011.14
  0
VERTEX
  8
PNOA-H_AMS_1956-57_33k_ES_PAN_21mic_H50_0403_fot_44B-36284_W_tif
  70
32
  10
451614.000
  20
4585628.500
  30
1014.966
  0
VERTEX
  8
PNOA-H_AMS_1956-57_33k_ES_PAN_21mic_H50_0403_fot_44B-36284_W_tif
  70
32
  10
451613.976
  20
4585628.019
  30
1014.966
  0
VERTEX
  8
PNOA-H_AMS_1956-57_33k_ES_PAN_21mic_H50_0403_fot_44B-36284_W_tif
  70
32
  10
451407.500
  20
4581486.000
  30
1020.562
  0
VERTEX
  8
PNOA-H_AMS_1956-57_33k_ES_PAN_21mic_H50_0403_fot_44B-36284_W_tif
  70
32
  10
451407.341
  20
4581485.937
  30
1020.56
  0
SEQEND
  8
PNOA-H_AMS_1956-57_33k_ES_PAN_21mic_H50_0403_fot_44B-36284_W_tif
  0
INSERT
  8
FeatureAttribs
  2
FEATURE
  41
1
  42
1
  43
1
  50
0
  10
449092.016
  20
4579096.250
 66
1
  0
ATTRIB
  8
FeatureAttribs
 70
0
  1
PNOA-H_AMS_1956-57_33k_ES_PAN_21mic_H50_0403_fot_45B-36159_E.tif
  2
NAME
  10
449092.016
  20
4579096.250
 40
33.68683
  0
SEQEND
  0
POLYLINE
  8
PNOA-H_AMS_1956-57_33k_ES_PAN_21mic_H50_0403_fot_45B-36159_E_tif
  70
9
  66
1
  0
VERTEX
  8
PNOA-H_AMS_1956-57_33k_ES_PAN_21mic_H50_0403_fot_45B-36159_E_tif
  70
32
  10
450557.403
  20
4576870.945
  30
1027.622
  0
VERTEX
  8
PNOA-H_AMS_1956-57_33k_ES_PAN_21mic_H50_0403_fot_45B-36159_E_tif
  70
32
  10
450124.500
  20
4576625.500
  30
1035.931
  0
VERTEX
  8
PNOA-H_AMS_1956-57_33k_ES_PAN_21mic_H50_0403_fot_45B-36159_E_tif
  70
32
  10
450123.661
  20
4576625.591
  30
1035.91
  0
VERTEX
  8
PNOA-H_AMS_1956-57_33k_ES_PAN_21mic_H50_0403_fot_45B-36159_E_tif
  70
32
  10
447598.500
  20
4576899.500
  30
971.328
  0
VERTEX
  8
PNOA-H_AMS_1956-57_33k_ES_PAN_21mic_H50_0403_fot_45B-36159_E_tif
  70
32
  10
447615.500
  20
4581239.000
  30
1021.061
  0
VERTEX
  8
PNOA-H_AMS_1956-57_33k_ES_PAN_21mic_H50_0403_fot_45B-36159_E_tif
  70
32
  10
447616.025
  20
4581239.184
  30
1021.049
  0
VERTEX
  8
PNOA-H_AMS_1956-57_33k_ES_PAN_21mic_H50_0403_fot_45B-36159_E_tif
  70
32
  10
448550.000
  20
4581566.500
  30
1000.751
  0
VERTEX
  8
PNOA-H_AMS_1956-57_33k_ES_PAN_21mic_H50_0403_fot_45B-36159_E_tif
  70
32
  10
448551.500
  20
4581567.000
  30
1000.716
  0
VERTEX
  8
PNOA-H_AMS_1956-57_33k_ES_PAN_21mic_H50_0403_fot_45B-36159_E_tif
  70
32
  10
448551.821
  20
4581566.937
  30
1000.717
  0
VERTEX
  8
PNOA-H_AMS_1956-57_33k_ES_PAN_21mic_H50_0403_fot_45B-36159_E_tif
  70
32
  10
450595.000
  20
4581166.500
  30
1007.739
  0
VERTEX
  8
PNOA-H_AMS_1956-57_33k_ES_PAN_21mic_H50_0403_fot_45B-36159_E_tif
  70
32
  10
450557.500
  20
4576871.000
  30
1027.62
  0
VERTEX
  8
PNOA-H_AMS_1956-57_33k_ES_PAN_21mic_H50_0403_fot_45B-36159_E_tif
  70
32
  10
450557.403
  20
4576870.945
  30
1027.622
  0
SEQEND
  8
PNOA-H_AMS_1956-57_33k_ES_PAN_21mic_H50_0403_fot_45B-36159_E_tif
  0
INSERT
  8
FeatureAttribs
  2
FEATURE
  41
1
  42
1
  43
1
  50
0
  10
446132.402
  20
4579165.750
 66
1
  0
ATTRIB
  8
FeatureAttribs
 70
0
  1
PNOA-H_AMS_1956-57_33k_ES_PAN_21mic_H50_0403_fot_45B-36158_E.tif
  2
NAME
  10
446132.402
  20
4579165.750
 40
33.68683
  0
SEQEND
  0
POLYLINE
  8
PNOA-H_AMS_1956-57_33k_ES_PAN_21mic_H50_0403_fot_45B-36158_E_tif
  70
9
  66
1
  0
VERTEX
  8
PNOA-H_AMS_1956-57_33k_ES_PAN_21mic_H50_0403_fot_45B-36158_E_tif
  70
32
  10
447247.563
  20
4576689.538
  30
966.155
  0
VERTEX
  8
PNOA-H_AMS_1956-57_33k_ES_PAN_21mic_H50_0403_fot_45B-36158_E_tif
  70
32
  10
447247.500
  20
4576689.500
  30
966.154
  0
VERTEX
  8
PNOA-H_AMS_1956-57_33k_ES_PAN_21mic_H50_0403_fot_45B-36158_E_tif
  70
32
  10
446240.346
  20
4576776.162
  30
962.958
  0
VERTEX
  8
PNOA-H_AMS_1956-57_33k_ES_PAN_21mic_H50_0403_fot_45B-36158_E_tif
  70
32
  10
444621.000
  20
4576915.500
  30
957.82
  0
VERTEX
  8
PNOA-H_AMS_1956-57_33k_ES_PAN_21mic_H50_0403_fot_45B-36158_E_tif
  70
32
  10
444692.000
  20
4581301.500
  30
1024.005
  0
VERTEX
  8
PNOA-H_AMS_1956-57_33k_ES_PAN_21mic_H50_0403_fot_45B-36158_E_tif
  70
32
  10
444692.441
  20
4581301.639
  30
1024.017
  0
VERTEX
  8
PNOA-H_AMS_1956-57_33k_ES_PAN_21mic_H50_0403_fot_45B-36158_E_tif
  70
32
  10
445775.500
  20
4581642.000
  30
1052.943
  0
VERTEX
  8
PNOA-H_AMS_1956-57_33k_ES_PAN_21mic_H50_0403_fot_45B-36158_E_tif
  70
32
  10
445776.120
  20
4581641.864
  30
1052.932
  0
VERTEX
  8
PNOA-H_AMS_1956-57_33k_ES_PAN_21mic_H50_0403_fot_45B-36158_E_tif
  70
32
  10
446348.520
  20
4581516.496
  30
1043.014
  0
VERTEX
  8
PNOA-H_AMS_1956-57_33k_ES_PAN_21mic_H50_0403_fot_45B-36158_E_tif
  70
32
  10
447606.173
  20
4581241.043
  30
1021.222
  0
VERTEX
  8
PNOA-H_AMS_1956-57_33k_ES_PAN_21mic_H50_0403_fot_45B-36158_E_tif
  70
32
  10
447615.500
  20
4581239.000
  30
1021.061
  0
VERTEX
  8
PNOA-H_AMS_1956-57_33k_ES_PAN_21mic_H50_0403_fot_45B-36158_E_tif
  70
32
  10
447598.500
  20
4576899.500
  30
971.328
  0
VERTEX
  8
PNOA-H_AMS_1956-57_33k_ES_PAN_21mic_H50_0403_fot_45B-36158_E_tif
  70
32
  10
447598.423
  20
4576899.454
  30
971.327
  0
VERTEX
  8
PNOA-H_AMS_1956-57_33k_ES_PAN_21mic_H50_0403_fot_45B-36158_E_tif
  70
32
  10
447441.000
  20
4576805.000
  30
969.008
  0
VERTEX
  8
PNOA-H_AMS_1956-57_33k_ES_PAN_21mic_H50_0403_fot_45B-36158_E_tif
  70
32
  10
447440.500
  20
4576805.000
  30
968.992
  0
VERTEX
  8
PNOA-H_AMS_1956-57_33k_ES_PAN_21mic_H50_0403_fot_45B-36158_E_tif
  70
32
  10
447440.000
  20
4576805.000
  30
968.975
  0
VERTEX
  8
PNOA-H_AMS_1956-57_33k_ES_PAN_21mic_H50_0403_fot_45B-36158_E_tif
  70
32
  10
447247.563
  20
4576689.538
  30
966.155
  0
SEQEND
  8
PNOA-H_AMS_1956-57_33k_ES_PAN_21mic_H50_0403_fot_45B-36158_E_tif
  0
INSERT
  8
FeatureAttribs
  2
FEATURE
  41
1
  42
1
  43
1
  50
0
  10
448679.293
  20
4576416.213
 66
1
  0
ATTRIB
  8
FeatureAttribs
 70
0
  1
PNOA-H_AMS_1956-57_33k_ES_PAN_21mic_H50_0431_fot_46B-29805_E.tif
  2
NAME
  10
448679.293
  20
4576416.213
 40
33.68683
  0
SEQEND
  0
POLYLINE
  8
PNOA-H_AMS_1956-57_33k_ES_PAN_21mic_H50_0431_fot_46B-29805_E_tif
  70
9
  66
1
  0
VERTEX
  8
PNOA-H_AMS_1956-57_33k_ES_PAN_21mic_H50_0431_fot_46B-29805_E_tif
  70
32
  10
450123.500
  20
4576625.500
  30
1035.88
  0
VERTEX
  8
PNOA-H_AMS_1956-57_33k_ES_PAN_21mic_H50_0431_fot_46B-29805_E_tif
  70
32
  10
450101.122
  20
4575932.926
  30
1041.234
  0
VERTEX
  8
PNOA-H_AMS_1956-57_33k_ES_PAN_21mic_H50_0431_fot_46B-29805_E_tif
  70
32
  10
449445.385
  20
4575937.336
  30
0
  0
VERTEX
  8
PNOA-H_AMS_1956-57_33k_ES_PAN_21mic_H50_0431_fot_46B-29805_E_tif
  70
32
  10
447231.428
  20
4575953.286
  30
971.22
  0
VERTEX
  8
PNOA-H_AMS_1956-57_33k_ES_PAN_21mic_H50_0431_fot_46B-29805_E_tif
  70
32
  10
447248.000
  20
4576689.500
  30
966.156
  0
VERTEX
  8
PNOA-H_AMS_1956-57_33k_ES_PAN_21mic_H50_0431_fot_46B-29805_E_tif
  70
32
  10
447440.500
  20
4576805.000
  30
968.989
  0
VERTEX
  8
PNOA-H_AMS_1956-57_33k_ES_PAN_21mic_H50_0431_fot_46B-29805_E_tif
  70
32
  10
447598.000
  20
4576899.500
  30
971.306
  0
VERTEX
  8
PNOA-H_AMS_1956-57_33k_ES_PAN_21mic_H50_0431_fot_46B-29805_E_tif
  70
32
  10
447598.423
  20
4576899.454
  30
971.317
  0
VERTEX
  8
PNOA-H_AMS_1956-57_33k_ES_PAN_21mic_H50_0431_fot_46B-29805_E_tif
  70
32
  10
450123.500
  20
4576625.500
  30
1035.88
  0
SEQEND
  8
PNOA-H_AMS_1956-57_33k_ES_PAN_21mic_H50_0431_fot_46B-29805_E_tif
  0
INSERT
  8
FeatureAttribs
  2
FEATURE
  41
1
  42
1
  43
1
  50
0
  10
445820.520
  20
4576434.393
 66
1
  0
ATTRIB
  8
FeatureAttribs
 70
0
  1
PNOA-H_AMS_1956-57_33k_ES_PAN_21mic_H50_0431_fot_46B-29806_E.tif
  2
NAME
  10
445820.520
  20
4576434.393
 40
33.68683
  0
SEQEND
  0
POLYLINE
  8
PNOA-H_AMS_1956-57_33k_ES_PAN_21mic_H50_0431_fot_46B-29806_E_tif
  70
9
  66
1
  0
VERTEX
  8
PNOA-H_AMS_1956-57_33k_ES_PAN_21mic_H50_0431_fot_46B-29806_E_tif
  70
32
  10
447248.000
  20
4576689.500
  30
966.156
  0
VERTEX
  8
PNOA-H_AMS_1956-57_33k_ES_PAN_21mic_H50_0431_fot_46B-29806_E_tif
  70
32
  10
447231.428
  20
4575953.286
  30
971.22
  0
VERTEX
  8
PNOA-H_AMS_1956-57_33k_ES_PAN_21mic_H50_0431_fot_46B-29806_E_tif
  70
32
  10
445958.841
  20
4575962.455
  30
0
  0
VERTEX
  8
PNOA-H_AMS_1956-57_33k_ES_PAN_21mic_H50_0431_fot_46B-29806_E_tif
  70
32
  10
444395.812
  20
4575974.466
  30
961.28
  0
VERTEX
  8
PNOA-H_AMS_1956-57_33k_ES_PAN_21mic_H50_0431_fot_46B-29806_E_tif
  70
32
  10
444401.000
  20
4576778.000
  30
963.7
  0
VERTEX
  8
PNOA-H_AMS_1956-57_33k_ES_PAN_21mic_H50_0431_fot_46B-29806_E_tif
  70
32
  10
444401.735
  20
4576778.462
  30
963.681
  0
VERTEX
  8
PNOA-H_AMS_1956-57_33k_ES_PAN_21mic_H50_0431_fot_46B-29806_E_tif
  70
32
  10
444443.787
  20
4576804.864
  30
962.557
  0
VERTEX
  8
PNOA-H_AMS_1956-57_33k_ES_PAN_21mic_H50_0431_fot_46B-29806_E_tif
  70
32
  10
444444.008
  20
4576805.003
  30
962.551
  0
VERTEX
  8
PNOA-H_AMS_1956-57_33k_ES_PAN_21mic_H50_0431_fot_46B-29806_E_tif
  70
32
  10
444620.000
  20
4576915.500
  30
957.848
  0
VERTEX
  8
PNOA-H_AMS_1956-57_33k_ES_PAN_21mic_H50_0431_fot_46B-29806_E_tif
  70
32
  10
444620.879
  20
4576915.424
  30
957.836
  0
VERTEX
  8
PNOA-H_AMS_1956-57_33k_ES_PAN_21mic_H50_0431_fot_46B-29806_E_tif
  70
32
  10
444869.500
  20
4576894.000
  30
954.519
  0
VERTEX
  8
PNOA-H_AMS_1956-57_33k_ES_PAN_21mic_H50_0431_fot_46B-29806_E_tif
  70
32
  10
444876.000
  20
4576893.500
  30
954.445
  0
VERTEX
  8
PNOA-H_AMS_1956-57_33k_ES_PAN_21mic_H50_0431_fot_46B-29806_E_tif
  70
32
  10
446240.346
  20
4576776.162
  30
961.181
  0
VERTEX
  8
PNOA-H_AMS_1956-57_33k_ES_PAN_21mic_H50_0431_fot_46B-29806_E_tif
  70
32
  10
447247.563
  20
4576689.538
  30
966.154
  0
VERTEX
  8
PNOA-H_AMS_1956-57_33k_ES_PAN_21mic_H50_0431_fot_46B-29806_E_tif
  70
32
  10
447248.000
  20
4576689.500
  30
966.156
  0
SEQEND
  8
PNOA-H_AMS_1956-57_33k_ES_PAN_21mic_H50_0431_fot_46B-29806_E_tif
  0
INSERT
  8
FeatureAttribs
  2
FEATURE
  41
1
  42
1
  43
1
  50
0
  10
452894.561
  20
4587712.750
 66
1
  0
ATTRIB
  8
FeatureAttribs
 70
0
  1
PNOA-H_AMS_1956-57_33k_ES_PAN_21mic_H50_0403_fot_43B-29631_E.tif
  2
NAME
  10
452894.561
  20
4587712.750
 40
33.68683
  0
SEQEND
  0
POLYLINE
  8
PNOA-H_AMS_1956-57_33k_ES_PAN_21mic_H50_0403_fot_43B-29631_E_tif
  70
9
  66
1
  0
VERTEX
  8
PNOA-H_AMS_1956-57_33k_ES_PAN_21mic_H50_0403_fot_43B-29631_E_tif
  70
32
  10
454261.000
  20
4585646.500
  30
982.648
  0
VERTEX
  8
PNOA-H_AMS_1956-57_33k_ES_PAN_21mic_H50_0403_fot_43B-29631_E_tif
  70
32
  10
451614.000
  20
4585628.000
  30
1014.99
  0
VERTEX
  8
PNOA-H_AMS_1956-57_33k_ES_PAN_21mic_H50_0403_fot_43B-29631_E_tif
  70
32
  10
451613.976
  20
4585628.019
  30
1014.99
  0
VERTEX
  8
PNOA-H_AMS_1956-57_33k_ES_PAN_21mic_H50_0403_fot_43B-29631_E_tif
  70
32
  10
451451.011
  20
4585756.991
  30
1011.144
  0
VERTEX
  8
PNOA-H_AMS_1956-57_33k_ES_PAN_21mic_H50_0403_fot_43B-29631_E_tif
  70
32
  10
451451.000
  20
4585757.000
  30
1011.144
  0
VERTEX
  8
PNOA-H_AMS_1956-57_33k_ES_PAN_21mic_H50_0403_fot_43B-29631_E_tif
  70
32
  10
451508.500
  20
4589666.000
  30
1025.904
  0
VERTEX
  8
PNOA-H_AMS_1956-57_33k_ES_PAN_21mic_H50_0403_fot_43B-29631_E_tif
  70
32
  10
451512.845
  20
4589666.222
  30
1025.814
  0
VERTEX
  8
PNOA-H_AMS_1956-57_33k_ES_PAN_21mic_H50_0403_fot_43B-29631_E_tif
  70
32
  10
454076.000
  20
4589797.000
  30
972.663
  0
VERTEX
  8
PNOA-H_AMS_1956-57_33k_ES_PAN_21mic_H50_0403_fot_43B-29631_E_tif
  70
32
  10
454085.500
  20
4589797.500
  30
972.404
  0
VERTEX
  8
PNOA-H_AMS_1956-57_33k_ES_PAN_21mic_H50_0403_fot_43B-29631_E_tif
  70
32
  10
454085.541
  20
4589797.476
  30
972.404
  0
VERTEX
  8
PNOA-H_AMS_1956-57_33k_ES_PAN_21mic_H50_0403_fot_43B-29631_E_tif
  70
32
  10
454086.002
  20
4589797.210
  30
972.399
  0
VERTEX
  8
PNOA-H_AMS_1956-57_33k_ES_PAN_21mic_H50_0403_fot_43B-29631_E_tif
  70
32
  10
454354.438
  20
4589642.036
  30
969.674
  0
VERTEX
  8
PNOA-H_AMS_1956-57_33k_ES_PAN_21mic_H50_0403_fot_43B-29631_E_tif
  70
32
  10
454354.500
  20
4589642.000
  30
969.673
  0
VERTEX
  8
PNOA-H_AMS_1956-57_33k_ES_PAN_21mic_H50_0403_fot_43B-29631_E_tif
  70
32
  10
454261.000
  20
4585646.500
  30
982.648
  0
SEQEND
  8
PNOA-H_AMS_1956-57_33k_ES_PAN_21mic_H50_0403_fot_43B-29631_E_tif
  0
INSERT
  8
FeatureAttribs
  2
FEATURE
  41
1
  42
1
  43
1
  50
0
  10
455397.426
  20
4587576.567
 66
1
  0
ATTRIB
  8
FeatureAttribs
 70
0
  1
PNOA-H_AMS_1956-57_33k_ES_PAN_21mic_H50_0403_fot_43B-29632_E.tif
  2
NAME
  10
455397.426
  20
4587576.567
 40
33.68683
  0
SEQEND
  0
POLYLINE
  8
PNOA-H_AMS_1956-57_33k_ES_PAN_21mic_H50_0403_fot_43B-29632_E_tif
  70
9
  66
1
  0
VERTEX
  8
PNOA-H_AMS_1956-57_33k_ES_PAN_21mic_H50_0403_fot_43B-29632_E_tif
  70
32
  10
456476.717
  20
4585586.794
  30
951.187
  0
VERTEX
  8
PNOA-H_AMS_1956-57_33k_ES_PAN_21mic_H50_0403_fot_43B-29632_E_tif
  70
32
  10
454566.000
  20
4585429.000
  30
976.683
  0
VERTEX
  8
PNOA-H_AMS_1956-57_33k_ES_PAN_21mic_H50_0403_fot_43B-29632_E_tif
  70
32
  10
454564.506
  20
4585429.166
  30
976.771
  0
VERTEX
  8
PNOA-H_AMS_1956-57_33k_ES_PAN_21mic_H50_0403_fot_43B-29632_E_tif
  70
32
  10
454562.495
  20
4585429.389
  30
976.889
  0
VERTEX
  8
PNOA-H_AMS_1956-57_33k_ES_PAN_21mic_H50_0403_fot_43B-29632_E_tif
  70
32
  10
454561.500
  20
4585429.500
  30
976.948
  0
VERTEX
  8
PNOA-H_AMS_1956-57_33k_ES_PAN_21mic_H50_0403_fot_43B-29632_E_tif
  70
32
  10
454261.000
  20
4585646.500
  30
982.648
  0
VERTEX
  8
PNOA-H_AMS_1956-57_33k_ES_PAN_21mic_H50_0403_fot_43B-29632_E_tif
  70
32
  10
454354.500
  20
4589642.000
  30
969.673
  0
VERTEX
  8
PNOA-H_AMS_1956-57_33k_ES_PAN_21mic_H50_0403_fot_43B-29632_E_tif
  70
32
  10
454882.176
  20
4589662.185
  30
965.205
  0
VERTEX
  8
PNOA-H_AMS_1956-57_33k_ES_PAN_21mic_H50_0403_fot_43B-29632_E_tif
  70
32
  10
456501.609
  20
4589724.134
  30
951.49
  0
VERTEX
  8
PNOA-H_AMS_1956-57_33k_ES_PAN_21mic_H50_0403_fot_43B-29632_E_tif
  70
32
  10
456501.608
  20
4589724.017
  30
0
  0
VERTEX
  8
PNOA-H_AMS_1956-57_33k_ES_PAN_21mic_H50_0403_fot_43B-29632_E_tif
  70
32
  10
456487.963
  20
4587456.448
  30
0
  0
VERTEX
  8
PNOA-H_AMS_1956-57_33k_ES_PAN_21mic_H50_0403_fot_43B-29632_E_tif
  70
32
  10
456476.718
  20
4585586.910
  30
0
  0
VERTEX
  8
PNOA-H_AMS_1956-57_33k_ES_PAN_21mic_H50_0403_fot_43B-29632_E_tif
  70
32
  10
456476.717
  20
4585586.794
  30
951.187
  0
SEQEND
  8
PNOA-H_AMS_1956-57_33k_ES_PAN_21mic_H50_0403_fot_43B-29632_E_tif
  0
INSERT
  8
FeatureAttribs
  2
FEATURE
  41
1
  42
1
  43
1
  50
0
  10
452981.637
  20
4583367.750
 66
1
  0
ATTRIB
  8
FeatureAttribs
 70
0
  1
PNOA-H_AMS_1956-57_33k_ES_PAN_21mic_H50_0403_fot_44B-36283_W.tif
  2
NAME
  10
452981.637
  20
4583367.750
 40
33.68683
  0
SEQEND
  0
POLYLINE
  8
PNOA-H_AMS_1956-57_33k_ES_PAN_21mic_H50_0403_fot_44B-36283_W_tif
  70
9
  66
1
  0
VERTEX
  8
PNOA-H_AMS_1956-57_33k_ES_PAN_21mic_H50_0403_fot_44B-36283_W_tif
  70
32
  10
454367.000
  20
4581420.500
  30
969.682
  0
VERTEX
  8
PNOA-H_AMS_1956-57_33k_ES_PAN_21mic_H50_0403_fot_44B-36283_W_tif
  70
32
  10
453561.500
  20
4581089.000
  30
990.562
  0
VERTEX
  8
PNOA-H_AMS_1956-57_33k_ES_PAN_21mic_H50_0403_fot_44B-36283_W_tif
  70
32
  10
453561.155
  20
4581089.064
  30
990.566
  0
VERTEX
  8
PNOA-H_AMS_1956-57_33k_ES_PAN_21mic_H50_0403_fot_44B-36283_W_tif
  70
32
  10
451407.500
  20
4581486.000
  30
1020.562
  0
VERTEX
  8
PNOA-H_AMS_1956-57_33k_ES_PAN_21mic_H50_0403_fot_44B-36283_W_tif
  70
32
  10
451614.000
  20
4585628.000
  30
1014.99
  0
VERTEX
  8
PNOA-H_AMS_1956-57_33k_ES_PAN_21mic_H50_0403_fot_44B-36283_W_tif
  70
32
  10
454138.000
  20
4585646.000
  30
985.499
  0
VERTEX
  8
PNOA-H_AMS_1956-57_33k_ES_PAN_21mic_H50_0403_fot_44B-36283_W_tif
  70
32
  10
454209.500
  20
4585646.500
  30
983.694
  0
VERTEX
  8
PNOA-H_AMS_1956-57_33k_ES_PAN_21mic_H50_0403_fot_44B-36283_W_tif
  70
32
  10
454261.000
  20
4585646.500
  30
982.649
  0
VERTEX
  8
PNOA-H_AMS_1956-57_33k_ES_PAN_21mic_H50_0403_fot_44B-36283_W_tif
  70
32
  10
454261.500
  20
4585646.500
  30
982.638
  0
VERTEX
  8
PNOA-H_AMS_1956-57_33k_ES_PAN_21mic_H50_0403_fot_44B-36283_W_tif
  70
32
  10
454562.500
  20
4585429.500
  30
976.903
  0
VERTEX
  8
PNOA-H_AMS_1956-57_33k_ES_PAN_21mic_H50_0403_fot_44B-36283_W_tif
  70
32
  10
454562.495
  20
4585429.389
  30
976.903
  0
VERTEX
  8
PNOA-H_AMS_1956-57_33k_ES_PAN_21mic_H50_0403_fot_44B-36283_W_tif
  70
32
  10
454367.000
  20
4581420.500
  30
969.682
  0
SEQEND
  8
PNOA-H_AMS_1956-57_33k_ES_PAN_21mic_H50_0403_fot_44B-36283_W_tif
  0
INSERT
  8
FeatureAttribs
  2
FEATURE
  41
1
  42
1
  43
1
  50
0
  10
455460.701
  20
4583295.778
 66
1
  0
ATTRIB
  8
FeatureAttribs
 70
0
  1
PNOA-H_AMS_1956-57_33k_ES_PAN_21mic_H50_0403_fot_44B-36282_W.tif
  2
NAME
  10
455460.701
  20
4583295.778
 40
33.68683
  0
SEQEND
  0
POLYLINE
  8
PNOA-H_AMS_1956-57_33k_ES_PAN_21mic_H50_0403_fot_44B-36282_W_tif
  70
9
  66
1
  0
VERTEX
  8
PNOA-H_AMS_1956-57_33k_ES_PAN_21mic_H50_0403_fot_44B-36282_W_tif
  70
32
  10
456460.146
  20
4582830.692
  30
0
  0
VERTEX
  8
PNOA-H_AMS_1956-57_33k_ES_PAN_21mic_H50_0403_fot_44B-36282_W_tif
  70
32
  10
456449.171
  20
4581004.645
  30
992.839
  0
VERTEX
  8
PNOA-H_AMS_1956-57_33k_ES_PAN_21mic_H50_0403_fot_44B-36282_W_tif
  70
32
  10
455906.643
  20
4581113.000
  30
986.805
  0
VERTEX
  8
PNOA-H_AMS_1956-57_33k_ES_PAN_21mic_H50_0403_fot_44B-36282_W_tif
  70
32
  10
454367.000
  20
4581420.500
  30
969.682
  0
VERTEX
  8
PNOA-H_AMS_1956-57_33k_ES_PAN_21mic_H50_0403_fot_44B-36282_W_tif
  70
32
  10
454562.500
  20
4585429.000
  30
976.845
  0
VERTEX
  8
PNOA-H_AMS_1956-57_33k_ES_PAN_21mic_H50_0403_fot_44B-36282_W_tif
  70
32
  10
454564.506
  20
4585429.166
  30
976.805
  0
VERTEX
  8
PNOA-H_AMS_1956-57_33k_ES_PAN_21mic_H50_0403_fot_44B-36282_W_tif
  70
32
  10
455106.000
  20
4585474.000
  30
965.929
  0
VERTEX
  8
PNOA-H_AMS_1956-57_33k_ES_PAN_21mic_H50_0403_fot_44B-36282_W_tif
  70
32
  10
455112.000
  20
4585474.500
  30
965.506
  0
VERTEX
  8
PNOA-H_AMS_1956-57_33k_ES_PAN_21mic_H50_0403_fot_44B-36282_W_tif
  70
32
  10
456476.718
  20
4585586.910
  30
950.091
  0
VERTEX
  8
PNOA-H_AMS_1956-57_33k_ES_PAN_21mic_H50_0403_fot_44B-36282_W_tif
  70
32
  10
456476.717
  20
4585586.794
  30
0
  0
VERTEX
  8
PNOA-H_AMS_1956-57_33k_ES_PAN_21mic_H50_0403_fot_44B-36282_W_tif
  70
32
  10
456474.051
  20
4585143.566
  30
0
  0
VERTEX
  8
PNOA-H_AMS_1956-57_33k_ES_PAN_21mic_H50_0403_fot_44B-36282_W_tif
  70
32
  10
456460.146
  20
4582830.692
  30
0
  0
SEQEND
  8
PNOA-H_AMS_1956-57_33k_ES_PAN_21mic_H50_0403_fot_44B-36282_W_tif
  0
INSERT
  8
FeatureAttribs
  2
FEATURE
  41
1
  42
1
  43
1
  50
0
  10
454989.782
  20
4578950.750
 66
1
  0
ATTRIB
  8
FeatureAttribs
 70
0
  1
PNOA-H_AMS_1956-57_33k_ES_PAN_21mic_H50_0403_fot_45B-36161_E.tif
  2
NAME
  10
454989.782
  20
4578950.750
 40
33.68683
  0
SEQEND
  0
POLYLINE
  8
PNOA-H_AMS_1956-57_33k_ES_PAN_21mic_H50_0403_fot_45B-36161_E_tif
  70
9
  66
1
  0
VERTEX
  8
PNOA-H_AMS_1956-57_33k_ES_PAN_21mic_H50_0403_fot_45B-36161_E_tif
  70
32
  10
456424.282
  20
4576861.168
  30
1053.307
  0
VERTEX
  8
PNOA-H_AMS_1956-57_33k_ES_PAN_21mic_H50_0403_fot_45B-36161_E_tif
  70
32
  10
455569.500
  20
4576481.000
  30
1057.793
  0
VERTEX
  8
PNOA-H_AMS_1956-57_33k_ES_PAN_21mic_H50_0403_fot_45B-36161_E_tif
  70
32
  10
455568.748
  20
4576481.111
  30
1057.82
  0
VERTEX
  8
PNOA-H_AMS_1956-57_33k_ES_PAN_21mic_H50_0403_fot_45B-36161_E_tif
  70
32
  10
455565.285
  20
4576481.620
  30
1057.946
  0
VERTEX
  8
PNOA-H_AMS_1956-57_33k_ES_PAN_21mic_H50_0403_fot_45B-36161_E_tif
  70
32
  10
455552.500
  20
4576483.500
  30
1058.409
  0
VERTEX
  8
PNOA-H_AMS_1956-57_33k_ES_PAN_21mic_H50_0403_fot_45B-36161_E_tif
  70
32
  10
453525.081
  20
4576874.984
  30
1020.5
  0
VERTEX
  8
PNOA-H_AMS_1956-57_33k_ES_PAN_21mic_H50_0403_fot_45B-36161_E_tif
  70
32
  10
453525.000
  20
4576875.000
  30
1020.498
  0
VERTEX
  8
PNOA-H_AMS_1956-57_33k_ES_PAN_21mic_H50_0403_fot_45B-36161_E_tif
  70
32
  10
453561.000
  20
4581089.000
  30
990.545
  0
VERTEX
  8
PNOA-H_AMS_1956-57_33k_ES_PAN_21mic_H50_0403_fot_45B-36161_E_tif
  70
32
  10
453561.155
  20
4581089.064
  30
990.541
  0
VERTEX
  8
PNOA-H_AMS_1956-57_33k_ES_PAN_21mic_H50_0403_fot_45B-36161_E_tif
  70
32
  10
454364.500
  20
4581420.000
  30
969.857
  0
VERTEX
  8
PNOA-H_AMS_1956-57_33k_ES_PAN_21mic_H50_0403_fot_45B-36161_E_tif
  70
32
  10
454365.500
  20
4581420.500
  30
969.801
  0
VERTEX
  8
PNOA-H_AMS_1956-57_33k_ES_PAN_21mic_H50_0403_fot_45B-36161_E_tif
  70
32
  10
454367.000
  20
4581420.500
  30
969.682
  0
VERTEX
  8
PNOA-H_AMS_1956-57_33k_ES_PAN_21mic_H50_0403_fot_45B-36161_E_tif
  70
32
  10
454369.500
  20
4581420.500
  30
969.484
  0
VERTEX
  8
PNOA-H_AMS_1956-57_33k_ES_PAN_21mic_H50_0403_fot_45B-36161_E_tif
  70
32
  10
455906.643
  20
4581113.000
  30
986.689
  0
VERTEX
  8
PNOA-H_AMS_1956-57_33k_ES_PAN_21mic_H50_0403_fot_45B-36161_E_tif
  70
32
  10
456449.170
  20
4581004.469
  30
992.762
  0
VERTEX
  8
PNOA-H_AMS_1956-57_33k_ES_PAN_21mic_H50_0403_fot_45B-36161_E_tif
  70
32
  10
456446.245
  20
4580517.827
  30
0
  0
VERTEX
  8
PNOA-H_AMS_1956-57_33k_ES_PAN_21mic_H50_0403_fot_45B-36161_E_tif
  70
32
  10
456432.351
  20
4578204.970
  30
0
  0
VERTEX
  8
PNOA-H_AMS_1956-57_33k_ES_PAN_21mic_H50_0403_fot_45B-36161_E_tif
  70
32
  10
456424.284
  20
4576861.614
  30
0
  0
VERTEX
  8
PNOA-H_AMS_1956-57_33k_ES_PAN_21mic_H50_0403_fot_45B-36161_E_tif
  70
32
  10
456424.282
  20
4576861.168
  30
1053.307
  0
SEQEND
  8
PNOA-H_AMS_1956-57_33k_ES_PAN_21mic_H50_0403_fot_45B-36161_E_tif
  0
INSERT
  8
FeatureAttribs
  2
FEATURE
  41
1
  42
1
  43
1
  50
0
  10
452059.906
  20
4579019.500
 66
1
  0
ATTRIB
  8
FeatureAttribs
 70
0
  1
PNOA-H_AMS_1956-57_33k_ES_PAN_21mic_H50_0403_fot_45B-36160_E.tif
  2
NAME
  10
452059.906
  20
4579019.500
 40
33.68683
  0
SEQEND
  0
POLYLINE
  8
PNOA-H_AMS_1956-57_33k_ES_PAN_21mic_H50_0403_fot_45B-36160_E_tif
  70
9
  66
1
  0
VERTEX
  8
PNOA-H_AMS_1956-57_33k_ES_PAN_21mic_H50_0403_fot_45B-36160_E_tif
  70
32
  10
453525.000
  20
4576874.500
  30
1020.515
  0
VERTEX
  8
PNOA-H_AMS_1956-57_33k_ES_PAN_21mic_H50_0403_fot_45B-36160_E_tif
  70
32
  10
453385.500
  20
4576805.000
  30
1022.191
  0
VERTEX
  8
PNOA-H_AMS_1956-57_33k_ES_PAN_21mic_H50_0403_fot_45B-36160_E_tif
  70
32
  10
453384.500
  20
4576805.000
  30
1022.078
  0
VERTEX
  8
PNOA-H_AMS_1956-57_33k_ES_PAN_21mic_H50_0403_fot_45B-36160_E_tif
  70
32
  10
452879.495
  20
4576553.247
  30
1028.952
  0
VERTEX
  8
PNOA-H_AMS_1956-57_33k_ES_PAN_21mic_H50_0403_fot_45B-36160_E_tif
  70
32
  10
452879.108
  20
4576553.054
  30
1028.958
  0
VERTEX
  8
PNOA-H_AMS_1956-57_33k_ES_PAN_21mic_H50_0403_fot_45B-36160_E_tif
  70
32
  10
452879.000
  20
4576553.000
  30
1028.959
  0
VERTEX
  8
PNOA-H_AMS_1956-57_33k_ES_PAN_21mic_H50_0403_fot_45B-36160_E_tif
  70
32
  10
451718.250
  20
4576712.000
  30
1028.29
  0
VERTEX
  8
PNOA-H_AMS_1956-57_33k_ES_PAN_21mic_H50_0403_fot_45B-36160_E_tif
  70
32
  10
450557.500
  20
4576871.000
  30
1027.62
  0
VERTEX
  8
PNOA-H_AMS_1956-57_33k_ES_PAN_21mic_H50_0403_fot_45B-36160_E_tif
  70
32
  10
450595.000
  20
4581166.500
  30
1007.739
  0
VERTEX
  8
PNOA-H_AMS_1956-57_33k_ES_PAN_21mic_H50_0403_fot_45B-36160_E_tif
  70
32
  10
450595.332
  20
4581166.631
  30
1007.744
  0
VERTEX
  8
PNOA-H_AMS_1956-57_33k_ES_PAN_21mic_H50_0403_fot_45B-36160_E_tif
  70
32
  10
451407.000
  20
4581486.000
  30
1020.575
  0
VERTEX
  8
PNOA-H_AMS_1956-57_33k_ES_PAN_21mic_H50_0403_fot_45B-36160_E_tif
  70
32
  10
451407.341
  20
4581485.937
  30
1020.57
  0
VERTEX
  8
PNOA-H_AMS_1956-57_33k_ES_PAN_21mic_H50_0403_fot_45B-36160_E_tif
  70
32
  10
453561.000
  20
4581089.000
  30
990.545
  0
VERTEX
  8
PNOA-H_AMS_1956-57_33k_ES_PAN_21mic_H50_0403_fot_45B-36160_E_tif
  70
32
  10
453525.500
  20
4576877.500
  30
1020.408
  0
VERTEX
  8
PNOA-H_AMS_1956-57_33k_ES_PAN_21mic_H50_0403_fot_45B-36160_E_tif
  70
32
  10
453525.081
  20
4576874.984
  30
1020.497
  0
VERTEX
  8
PNOA-H_AMS_1956-57_33k_ES_PAN_21mic_H50_0403_fot_45B-36160_E_tif
  70
32
  10
453525.000
  20
4576874.500
  30
1020.515
  0
SEQEND
  8
PNOA-H_AMS_1956-57_33k_ES_PAN_21mic_H50_0403_fot_45B-36160_E_tif
  0
INSERT
  8
FeatureAttribs
  2
FEATURE
  41
1
  42
1
  43
1
  50
0
  10
451496.263
  20
4576392.662
 66
1
  0
ATTRIB
  8
FeatureAttribs
 70
0
  1
PNOA-H_AMS_1956-57_33k_ES_PAN_21mic_H50_0431_fot_46B-29804_E.tif
  2
NAME
  10
451496.263
  20
4576392.662
 40
33.68683
  0
SEQEND
  0
POLYLINE
  8
PNOA-H_AMS_1956-57_33k_ES_PAN_21mic_H50_0431_fot_46B-29804_E_tif
  70
9
  66
1
  0
VERTEX
  8
PNOA-H_AMS_1956-57_33k_ES_PAN_21mic_H50_0431_fot_46B-29804_E_tif
  70
32
  10
452879.500
  20
4576553.000
  30
1028.924
  0
VERTEX
  8
PNOA-H_AMS_1956-57_33k_ES_PAN_21mic_H50_0431_fot_46B-29804_E_tif
  70
32
  10
452867.678
  20
4575914.324
  30
1038.432
  0
VERTEX
  8
PNOA-H_AMS_1956-57_33k_ES_PAN_21mic_H50_0431_fot_46B-29804_E_tif
  70
32
  10
452867.671
  20
4575914.324
  30
1038.432
  0
VERTEX
  8
PNOA-H_AMS_1956-57_33k_ES_PAN_21mic_H50_0431_fot_46B-29804_E_tif
  70
32
  10
450101.172
  20
4575932.926
  30
1041.489
  0
VERTEX
  8
PNOA-H_AMS_1956-57_33k_ES_PAN_21mic_H50_0431_fot_46B-29804_E_tif
  70
32
  10
450123.500
  20
4576625.500
  30
1035.88
  0
VERTEX
  8
PNOA-H_AMS_1956-57_33k_ES_PAN_21mic_H50_0431_fot_46B-29804_E_tif
  70
32
  10
450123.661
  20
4576625.591
  30
1035.877
  0
VERTEX
  8
PNOA-H_AMS_1956-57_33k_ES_PAN_21mic_H50_0431_fot_46B-29804_E_tif
  70
32
  10
450556.000
  20
4576870.500
  30
1027.642
  0
VERTEX
  8
PNOA-H_AMS_1956-57_33k_ES_PAN_21mic_H50_0431_fot_46B-29804_E_tif
  70
32
  10
450557.000
  20
4576871.000
  30
1027.626
  0
VERTEX
  8
PNOA-H_AMS_1956-57_33k_ES_PAN_21mic_H50_0431_fot_46B-29804_E_tif
  70
32
  10
450557.403
  20
4576870.945
  30
1027.626
  0
VERTEX
  8
PNOA-H_AMS_1956-57_33k_ES_PAN_21mic_H50_0431_fot_46B-29804_E_tif
  70
32
  10
451718.250
  20
4576712.000
  30
1028.275
  0
VERTEX
  8
PNOA-H_AMS_1956-57_33k_ES_PAN_21mic_H50_0431_fot_46B-29804_E_tif
  70
32
  10
452879.108
  20
4576553.054
  30
1028.923
  0
VERTEX
  8
PNOA-H_AMS_1956-57_33k_ES_PAN_21mic_H50_0431_fot_46B-29804_E_tif
  70
32
  10
452879.491
  20
4576553.001
  30
1028.924
  0
VERTEX
  8
PNOA-H_AMS_1956-57_33k_ES_PAN_21mic_H50_0431_fot_46B-29804_E_tif
  70
32
  10
452879.500
  20
4576553.000
  30
1028.924
  0
SEQEND
  8
PNOA-H_AMS_1956-57_33k_ES_PAN_21mic_H50_0431_fot_46B-29804_E_tif
  0
INSERT
  8
FeatureAttribs
  2
FEATURE
  41
1
  42
1
  43
1
  50
0
  10
454222.115
  20
4576386.227
 66
1
  0
ATTRIB
  8
FeatureAttribs
 70
0
  1
PNOA-H_AMS_1956-57_33k_ES_PAN_21mic_H50_0431_fot_46B-29803_E.tif
  2
NAME
  10
454222.115
  20
4576386.227
 40
33.68683
  0
SEQEND
  0
POLYLINE
  8
PNOA-H_AMS_1956-57_33k_ES_PAN_21mic_H50_0431_fot_46B-29803_E_tif
  70
9
  66
1
  0
VERTEX
  8
PNOA-H_AMS_1956-57_33k_ES_PAN_21mic_H50_0431_fot_46B-29803_E_tif
  70
32
  10
455568.500
  20
4576481.000
  30
1057.809
  0
VERTEX
  8
PNOA-H_AMS_1956-57_33k_ES_PAN_21mic_H50_0431_fot_46B-29803_E_tif
  70
32
  10
455564.347
  20
4575897.455
  30
1067.92
  0
VERTEX
  8
PNOA-H_AMS_1956-57_33k_ES_PAN_21mic_H50_0431_fot_46B-29803_E_tif
  70
32
  10
452931.925
  20
4575913.892
  30
0
  0
VERTEX
  8
PNOA-H_AMS_1956-57_33k_ES_PAN_21mic_H50_0431_fot_46B-29803_E_tif
  70
32
  10
452867.678
  20
4575914.324
  30
0
  0
VERTEX
  8
PNOA-H_AMS_1956-57_33k_ES_PAN_21mic_H50_0431_fot_46B-29803_E_tif
  70
32
  10
452867.671
  20
4575914.324
  30
1038.407
  0
VERTEX
  8
PNOA-H_AMS_1956-57_33k_ES_PAN_21mic_H50_0431_fot_46B-29803_E_tif
  70
32
  10
452879.491
  20
4576553.001
  30
1028.895
  0
VERTEX
  8
PNOA-H_AMS_1956-57_33k_ES_PAN_21mic_H50_0431_fot_46B-29803_E_tif
  70
32
  10
452879.495
  20
4576553.247
  30
1028.891
  0
VERTEX
  8
PNOA-H_AMS_1956-57_33k_ES_PAN_21mic_H50_0431_fot_46B-29803_E_tif
  70
32
  10
452879.500
  20
4576553.500
  30
1028.887
  0
VERTEX
  8
PNOA-H_AMS_1956-57_33k_ES_PAN_21mic_H50_0431_fot_46B-29803_E_tif
  70
32
  10
453525.000
  20
4576875.000
  30
1020.498
  0
VERTEX
  8
PNOA-H_AMS_1956-57_33k_ES_PAN_21mic_H50_0431_fot_46B-29803_E_tif
  70
32
  10
453525.081
  20
4576874.984
  30
1020.5
  0
VERTEX
  8
PNOA-H_AMS_1956-57_33k_ES_PAN_21mic_H50_0431_fot_46B-29803_E_tif
  70
32
  10
455565.285
  20
4576481.620
  30
1057.751
  0
VERTEX
  8
PNOA-H_AMS_1956-57_33k_ES_PAN_21mic_H50_0431_fot_46B-29803_E_tif
  70
32
  10
455568.500
  20
4576481.000
  30
1057.809
  0
SEQEND
  8
PNOA-H_AMS_1956-57_33k_ES_PAN_21mic_H50_0431_fot_46B-29803_E_tif
  0
INSERT
  8
FeatureAttribs
  2
FEATURE
  41
1
  42
1
  43
1
  50
0
  10
455994.569
  20
4576376.868
 66
1
  0
ATTRIB
  8
FeatureAttribs
 70
0
  1
PNOA-H_AMS_1956-57_33k_ES_PAN_21mic_H50_0432_fot_46B-29802_E.tif
  2
NAME
  10
455994.569
  20
4576376.868
 40
33.68683
  0
SEQEND
  0
POLYLINE
  8
PNOA-H_AMS_1956-57_33k_ES_PAN_21mic_H50_0432_fot_46B-29802_E_tif
  70
9
  66
1
  0
VERTEX
  8
PNOA-H_AMS_1956-57_33k_ES_PAN_21mic_H50_0432_fot_46B-29802_E_tif
  70
32
  10
456424.282
  20
4576861.168
  30
0
  0
VERTEX
  8
PNOA-H_AMS_1956-57_33k_ES_PAN_21mic_H50_0432_fot_46B-29802_E_tif
  70
32
  10
456418.462
  20
4575892.122
  30
0
  0
VERTEX
  8
PNOA-H_AMS_1956-57_33k_ES_PAN_21mic_H50_0432_fot_46B-29802_E_tif
  70
32
  10
455564.379
  20
4575897.455
  30
1067.738
  0
VERTEX
  8
PNOA-H_AMS_1956-57_33k_ES_PAN_21mic_H50_0432_fot_46B-29802_E_tif
  70
32
  10
455568.500
  20
4576481.000
  30
1057.809
  0
VERTEX
  8
PNOA-H_AMS_1956-57_33k_ES_PAN_21mic_H50_0432_fot_46B-29802_E_tif
  70
32
  10
455568.748
  20
4576481.111
  30
1057.808
  0
VERTEX
  8
PNOA-H_AMS_1956-57_33k_ES_PAN_21mic_H50_0432_fot_46B-29802_E_tif
  70
32
  10
456424.284
  20
4576861.614
  30
1053.338
  0
VERTEX
  8
PNOA-H_AMS_1956-57_33k_ES_PAN_21mic_H50_0432_fot_46B-29802_E_tif
  70
32
  10
456424.282
  20
4576861.168
  30
0
  0
SEQEND
  8
PNOA-H_AMS_1956-57_33k_ES_PAN_21mic_H50_0432_fot_46B-29802_E_tif
  0
ENDSEC
  0
EOF
