  0
SECTION
  2
HEADER
  9
$ACADVER
  1
AC1009
  9
$LUNITS
  70
2
  9
$LIMMIN
  10
233263.640
  20
4579691.883
  9
$LIMMAX
  10
261771.189
  20
4599170.747
  9
$EXTMIN
  10
233263.640
  20
4579691.883
  9
$EXTMAX
  10
261771.189
  20
4599170.747
  999
Created by Global Mapper
  999
Projection: UTM
  999
Datum: ETRS89
  999
Ground Units: meters
  999
ZONE: 30
  0
ENDSEC
  0
SECTION
  2
TABLES
  0
ENDSEC
  0
SECTION
  2
BLOCKS
  0
BLOCK
  8
FeatureAttribs
  70
0
  2
FEATURE
  3
FEATURE
  10
0.00000000
  20
0.00000000
  0
ATTDEF
  8
FeatureAttribs
  70
0
  1
 
  2
NAME
  3
NAME
  10
0.00000000
  20
0.00000000
  40
1.00000000
  0
ENDBLK
  0
ENDSEC
  0
SECTION
  2
ENTITIES
  0
INSERT
  8
FeatureAttribs
  2
FEATURE
  41
1
  42
1
  43
1
  50
0
  10
233577.929
  20
4588387.820
 66
1
  0
ATTRIB
  8
FeatureAttribs
 70
0
  1
PNOA-H_AMS_1956-57_33k_ES_PAN_2
  2
NAME
  10
233577.929
  20
4588387.820
 40
34.52690
  0
SEQEND
  0
POLYLINE
  8
Unknown_Area_Type
  70
1
  66
1
  0
VERTEX
  8
Unknown_Area_Type
  10
233625.463
  20
4590492.210
  0
VERTEX
  8
Unknown_Area_Type
  10
233642.500
  20
4590485.000
  0
VERTEX
  8
Unknown_Area_Type
  10
233573.500
  20
4586301.000
  0
VERTEX
  8
Unknown_Area_Type
  10
233470.452
  20
4586283.430
  0
VERTEX
  8
Unknown_Area_Type
  10
233519.076
  20
4587604.098
  0
VERTEX
  8
Unknown_Area_Type
  10
233604.282
  20
4589917.412
  0
VERTEX
  8
Unknown_Area_Type
  10
233625.463
  20
4590492.210
  0
SEQEND
  8
Unknown_Area_Type
  0
INSERT
  8
FeatureAttribs
  2
FEATURE
  41
1
  42
1
  43
1
  50
0
  10
233577.929
  20
4588387.820
 66
1
  0
ATTRIB
  8
FeatureAttribs
 70
0
  1
PNOA-H_AMS_1956-57_33k_ES_PAN_2
  2
NAME
  10
233577.929
  20
4588387.820
 40
34.52690
  0
SEQEND
  0
POLYLINE
  8
Unknown_Area_Type
  70
1
  66
1
  0
VERTEX
  8
Unknown_Area_Type
  10
233625.463
  20
4590492.210
  0
VERTEX
  8
Unknown_Area_Type
  10
233642.500
  20
4590485.000
  0
VERTEX
  8
Unknown_Area_Type
  10
233573.500
  20
4586301.000
  0
VERTEX
  8
Unknown_Area_Type
  10
233470.452
  20
4586283.430
  0
VERTEX
  8
Unknown_Area_Type
  10
233519.076
  20
4587604.098
  0
VERTEX
  8
Unknown_Area_Type
  10
233604.282
  20
4589917.412
  0
VERTEX
  8
Unknown_Area_Type
  10
233625.463
  20
4590492.210
  0
SEQEND
  8
Unknown_Area_Type
  0
INSERT
  8
FeatureAttribs
  2
FEATURE
  41
1
  42
1
  43
1
  50
0
  10
233406.876
  20
4588446.749
 66
1
  0
ATTRIB
  8
FeatureAttribs
 70
0
  1
PNOA-H_AMS_1956-57_33k_ES_PAN_2
  2
NAME
  10
233406.876
  20
4588446.749
 40
34.52690
  0
SEQEND
  0
POLYLINE
  8
Unknown_Area_Type
  70
1
  66
1
  0
VERTEX
  8
Unknown_Area_Type
  10
233625.463
  20
4590492.210
  0
VERTEX
  8
Unknown_Area_Type
  10
233604.282
  20
4589917.412
  0
VERTEX
  8
Unknown_Area_Type
  10
233519.076
  20
4587604.098
  0
VERTEX
  8
Unknown_Area_Type
  10
233470.452
  20
4586283.430
  0
VERTEX
  8
Unknown_Area_Type
  10
233263.640
  20
4586248.167
  0
VERTEX
  8
Unknown_Area_Type
  10
233263.640
  20
4590645.332
  0
VERTEX
  8
Unknown_Area_Type
  10
233625.463
  20
4590492.210
  0
SEQEND
  8
Unknown_Area_Type
  0
INSERT
  8
FeatureAttribs
  2
FEATURE
  41
1
  42
1
  43
1
  50
0
  10
259585.922
  20
4587693.656
 66
1
  0
ATTRIB
  8
FeatureAttribs
 70
0
  1
PNOA-H_AMS_1956-57_33k_ES_PAN_2
  2
NAME
  10
259585.922
  20
4587693.656
 40
34.52690
  0
SEQEND
  0
POLYLINE
  8
Unknown_Area_Type
  70
1
  66
1
  0
VERTEX
  8
Unknown_Area_Type
  10
258248.000
  20
4589940.000
  0
VERTEX
  8
Unknown_Area_Type
  10
260541.500
  20
4590068.500
  0
VERTEX
  8
Unknown_Area_Type
  10
260550.500
  20
4590069.000
  0
VERTEX
  8
Unknown_Area_Type
  10
260557.500
  20
4590069.000
  0
VERTEX
  8
Unknown_Area_Type
  10
260562.000
  20
4590066.500
  0
VERTEX
  8
Unknown_Area_Type
  10
261134.500
  20
4589733.000
  0
VERTEX
  8
Unknown_Area_Type
  10
260875.000
  20
4585349.500
  0
VERTEX
  8
Unknown_Area_Type
  10
258334.000
  20
4585395.000
  0
VERTEX
  8
Unknown_Area_Type
  10
258061.000
  20
4585564.500
  0
VERTEX
  8
Unknown_Area_Type
  10
258248.000
  20
4589940.000
  0
SEQEND
  8
Unknown_Area_Type
  0
INSERT
  8
FeatureAttribs
  2
FEATURE
  41
1
  42
1
  43
1
  50
0
  10
259585.922
  20
4587693.656
 66
1
  0
ATTRIB
  8
FeatureAttribs
 70
0
  1
PNOA-H_AMS_1956-57_33k_ES_PAN_2
  2
NAME
  10
259585.922
  20
4587693.656
 40
34.52690
  0
SEQEND
  0
POLYLINE
  8
Unknown_Area_Type
  70
1
  66
1
  0
VERTEX
  8
Unknown_Area_Type
  10
258248.000
  20
4589940.000
  0
VERTEX
  8
Unknown_Area_Type
  10
258061.000
  20
4585564.500
  0
VERTEX
  8
Unknown_Area_Type
  10
258334.000
  20
4585395.000
  0
VERTEX
  8
Unknown_Area_Type
  10
260875.000
  20
4585349.500
  0
VERTEX
  8
Unknown_Area_Type
  10
261134.500
  20
4589733.000
  0
VERTEX
  8
Unknown_Area_Type
  10
260562.000
  20
4590066.500
  0
VERTEX
  8
Unknown_Area_Type
  10
260557.500
  20
4590069.000
  0
VERTEX
  8
Unknown_Area_Type
  10
260550.500
  20
4590069.000
  0
VERTEX
  8
Unknown_Area_Type
  10
260541.500
  20
4590068.500
  0
VERTEX
  8
Unknown_Area_Type
  10
258248.000
  20
4589940.000
  0
SEQEND
  8
Unknown_Area_Type
  0
INSERT
  8
FeatureAttribs
  2
FEATURE
  41
1
  42
1
  43
1
  50
0
  10
253975.477
  20
4587985.678
 66
1
  0
ATTRIB
  8
FeatureAttribs
 70
0
  1
PNOA-H_AMS_1956-57_33k_ES_PAN_2
  2
NAME
  10
253975.477
  20
4587985.678
 40
34.52690
  0
SEQEND
  0
POLYLINE
  8
Unknown_Area_Type
  70
1
  66
1
  0
VERTEX
  8
Unknown_Area_Type
  10
254956.500
  20
4590388.500
  0
VERTEX
  8
Unknown_Area_Type
  10
254960.000
  20
4590388.000
  0
VERTEX
  8
Unknown_Area_Type
  10
255436.000
  20
4590126.500
  0
VERTEX
  8
Unknown_Area_Type
  10
255269.500
  20
4585707.500
  0
VERTEX
  8
Unknown_Area_Type
  10
252929.500
  20
4585624.000
  0
VERTEX
  8
Unknown_Area_Type
  10
252489.500
  20
4585877.000
  0
VERTEX
  8
Unknown_Area_Type
  10
252697.000
  20
4590240.500
  0
VERTEX
  8
Unknown_Area_Type
  10
254949.000
  20
4590388.000
  0
VERTEX
  8
Unknown_Area_Type
  10
254956.500
  20
4590388.500
  0
SEQEND
  8
Unknown_Area_Type
  0
INSERT
  8
FeatureAttribs
  2
FEATURE
  41
1
  42
1
  43
1
  50
0
  10
253975.477
  20
4587985.678
 66
1
  0
ATTRIB
  8
FeatureAttribs
 70
0
  1
PNOA-H_AMS_1956-57_33k_ES_PAN_2
  2
NAME
  10
253975.477
  20
4587985.678
 40
34.52690
  0
SEQEND
  0
POLYLINE
  8
Unknown_Area_Type
  70
1
  66
1
  0
VERTEX
  8
Unknown_Area_Type
  10
254956.500
  20
4590388.500
  0
VERTEX
  8
Unknown_Area_Type
  10
254949.000
  20
4590388.000
  0
VERTEX
  8
Unknown_Area_Type
  10
252697.000
  20
4590240.500
  0
VERTEX
  8
Unknown_Area_Type
  10
252489.500
  20
4585877.000
  0
VERTEX
  8
Unknown_Area_Type
  10
252929.500
  20
4585624.000
  0
VERTEX
  8
Unknown_Area_Type
  10
255269.500
  20
4585707.500
  0
VERTEX
  8
Unknown_Area_Type
  10
255436.000
  20
4590126.500
  0
VERTEX
  8
Unknown_Area_Type
  10
254960.000
  20
4590388.000
  0
VERTEX
  8
Unknown_Area_Type
  10
254956.500
  20
4590388.500
  0
SEQEND
  8
Unknown_Area_Type
  0
INSERT
  8
FeatureAttribs
  2
FEATURE
  41
1
  42
1
  43
1
  50
0
  10
251205.987
  20
4588148.116
 66
1
  0
ATTRIB
  8
FeatureAttribs
 70
0
  1
PNOA-H_AMS_1956-57_33k_ES_PAN_2
  2
NAME
  10
251205.987
  20
4588148.116
 40
34.52690
  0
SEQEND
  0
POLYLINE
  8
Unknown_Area_Type
  70
1
  66
1
  0
VERTEX
  8
Unknown_Area_Type
  10
252203.000
  20
4590502.500
  0
VERTEX
  8
Unknown_Area_Type
  10
252209.000
  20
4590502.500
  0
VERTEX
  8
Unknown_Area_Type
  10
252213.000
  20
4590500.500
  0
VERTEX
  8
Unknown_Area_Type
  10
252697.000
  20
4590240.500
  0
VERTEX
  8
Unknown_Area_Type
  10
252489.500
  20
4585877.000
  0
VERTEX
  8
Unknown_Area_Type
  10
250246.000
  20
4585738.500
  0
VERTEX
  8
Unknown_Area_Type
  10
250239.000
  20
4585738.500
  0
VERTEX
  8
Unknown_Area_Type
  10
250236.000
  20
4585740.000
  0
VERTEX
  8
Unknown_Area_Type
  10
249803.000
  20
4585978.000
  0
VERTEX
  8
Unknown_Area_Type
  10
249831.500
  20
4590377.000
  0
VERTEX
  8
Unknown_Area_Type
  10
252193.500
  20
4590502.000
  0
VERTEX
  8
Unknown_Area_Type
  10
252203.000
  20
4590502.500
  0
SEQEND
  8
Unknown_Area_Type
  0
INSERT
  8
FeatureAttribs
  2
FEATURE
  41
1
  42
1
  43
1
  50
0
  10
251205.987
  20
4588148.116
 66
1
  0
ATTRIB
  8
FeatureAttribs
 70
0
  1
PNOA-H_AMS_1956-57_33k_ES_PAN_2
  2
NAME
  10
251205.987
  20
4588148.116
 40
34.52690
  0
SEQEND
  0
POLYLINE
  8
Unknown_Area_Type
  70
1
  66
1
  0
VERTEX
  8
Unknown_Area_Type
  10
252203.000
  20
4590502.500
  0
VERTEX
  8
Unknown_Area_Type
  10
252193.500
  20
4590502.000
  0
VERTEX
  8
Unknown_Area_Type
  10
249831.500
  20
4590377.000
  0
VERTEX
  8
Unknown_Area_Type
  10
249803.000
  20
4585978.000
  0
VERTEX
  8
Unknown_Area_Type
  10
250236.000
  20
4585740.000
  0
VERTEX
  8
Unknown_Area_Type
  10
250239.000
  20
4585738.500
  0
VERTEX
  8
Unknown_Area_Type
  10
250246.000
  20
4585738.500
  0
VERTEX
  8
Unknown_Area_Type
  10
252489.500
  20
4585877.000
  0
VERTEX
  8
Unknown_Area_Type
  10
252697.000
  20
4590240.500
  0
VERTEX
  8
Unknown_Area_Type
  10
252213.000
  20
4590500.500
  0
VERTEX
  8
Unknown_Area_Type
  10
252209.000
  20
4590502.500
  0
VERTEX
  8
Unknown_Area_Type
  10
252203.000
  20
4590502.500
  0
SEQEND
  8
Unknown_Area_Type
  0
INSERT
  8
FeatureAttribs
  2
FEATURE
  41
1
  42
1
  43
1
  50
0
  10
245908.295
  20
4588272.525
 66
1
  0
ATTRIB
  8
FeatureAttribs
 70
0
  1
PNOA-H_AMS_1956-57_33k_ES_PAN_2
  2
NAME
  10
245908.295
  20
4588272.525
 40
34.52690
  0
SEQEND
  0
POLYLINE
  8
Unknown_Area_Type
  70
1
  66
1
  0
VERTEX
  8
Unknown_Area_Type
  10
246692.000
  20
4590666.500
  0
VERTEX
  8
Unknown_Area_Type
  10
246697.000
  20
4590666.500
  0
VERTEX
  8
Unknown_Area_Type
  10
246700.500
  20
4590665.000
  0
VERTEX
  8
Unknown_Area_Type
  10
247233.000
  20
4590427.000
  0
VERTEX
  8
Unknown_Area_Type
  10
247199.000
  20
4586070.500
  0
VERTEX
  8
Unknown_Area_Type
  10
247198.500
  20
4586017.000
  0
VERTEX
  8
Unknown_Area_Type
  10
247195.000
  20
4586016.500
  0
VERTEX
  8
Unknown_Area_Type
  10
244898.000
  20
4585908.500
  0
VERTEX
  8
Unknown_Area_Type
  10
244618.000
  20
4586072.500
  0
VERTEX
  8
Unknown_Area_Type
  10
244571.500
  20
4590445.000
  0
VERTEX
  8
Unknown_Area_Type
  10
246687.500
  20
4590666.000
  0
VERTEX
  8
Unknown_Area_Type
  10
246692.000
  20
4590666.500
  0
SEQEND
  8
Unknown_Area_Type
  0
INSERT
  8
FeatureAttribs
  2
FEATURE
  41
1
  42
1
  43
1
  50
0
  10
245908.295
  20
4588272.525
 66
1
  0
ATTRIB
  8
FeatureAttribs
 70
0
  1
PNOA-H_AMS_1956-57_33k_ES_PAN_2
  2
NAME
  10
245908.295
  20
4588272.525
 40
34.52690
  0
SEQEND
  0
POLYLINE
  8
Unknown_Area_Type
  70
1
  66
1
  0
VERTEX
  8
Unknown_Area_Type
  10
246692.000
  20
4590666.500
  0
VERTEX
  8
Unknown_Area_Type
  10
246687.500
  20
4590666.000
  0
VERTEX
  8
Unknown_Area_Type
  10
244571.500
  20
4590445.000
  0
VERTEX
  8
Unknown_Area_Type
  10
244618.000
  20
4586072.500
  0
VERTEX
  8
Unknown_Area_Type
  10
244898.000
  20
4585908.500
  0
VERTEX
  8
Unknown_Area_Type
  10
247195.000
  20
4586016.500
  0
VERTEX
  8
Unknown_Area_Type
  10
247198.500
  20
4586017.000
  0
VERTEX
  8
Unknown_Area_Type
  10
247199.000
  20
4586070.500
  0
VERTEX
  8
Unknown_Area_Type
  10
247233.000
  20
4590427.000
  0
VERTEX
  8
Unknown_Area_Type
  10
246700.500
  20
4590665.000
  0
VERTEX
  8
Unknown_Area_Type
  10
246697.000
  20
4590666.500
  0
VERTEX
  8
Unknown_Area_Type
  10
246692.000
  20
4590666.500
  0
SEQEND
  8
Unknown_Area_Type
  0
INSERT
  8
FeatureAttribs
  2
FEATURE
  41
1
  42
1
  43
1
  50
0
  10
243215.646
  20
4588293.511
 66
1
  0
ATTRIB
  8
FeatureAttribs
 70
0
  1
PNOA-H_AMS_1956-57_33k_ES_PAN_2
  2
NAME
  10
243215.646
  20
4588293.511
 40
34.52690
  0
SEQEND
  0
POLYLINE
  8
Unknown_Area_Type
  70
1
  66
1
  0
VERTEX
  8
Unknown_Area_Type
  10
244010.000
  20
4590701.000
  0
VERTEX
  8
Unknown_Area_Type
  10
244012.500
  20
4590701.000
  0
VERTEX
  8
Unknown_Area_Type
  10
244028.000
  20
4590694.000
  0
VERTEX
  8
Unknown_Area_Type
  10
244571.500
  20
4590445.000
  0
VERTEX
  8
Unknown_Area_Type
  10
244618.000
  20
4586072.500
  0
VERTEX
  8
Unknown_Area_Type
  10
242231.500
  20
4585894.000
  0
VERTEX
  8
Unknown_Area_Type
  10
241892.000
  20
4586088.000
  0
VERTEX
  8
Unknown_Area_Type
  10
241782.500
  20
4590472.500
  0
VERTEX
  8
Unknown_Area_Type
  10
244005.500
  20
4590700.500
  0
VERTEX
  8
Unknown_Area_Type
  10
244010.000
  20
4590701.000
  0
SEQEND
  8
Unknown_Area_Type
  0
INSERT
  8
FeatureAttribs
  2
FEATURE
  41
1
  42
1
  43
1
  50
0
  10
243215.646
  20
4588293.511
 66
1
  0
ATTRIB
  8
FeatureAttribs
 70
0
  1
PNOA-H_AMS_1956-57_33k_ES_PAN_2
  2
NAME
  10
243215.646
  20
4588293.511
 40
34.52690
  0
SEQEND
  0
POLYLINE
  8
Unknown_Area_Type
  70
1
  66
1
  0
VERTEX
  8
Unknown_Area_Type
  10
244010.000
  20
4590701.000
  0
VERTEX
  8
Unknown_Area_Type
  10
244005.500
  20
4590700.500
  0
VERTEX
  8
Unknown_Area_Type
  10
241782.500
  20
4590472.500
  0
VERTEX
  8
Unknown_Area_Type
  10
241892.000
  20
4586088.000
  0
VERTEX
  8
Unknown_Area_Type
  10
242231.500
  20
4585894.000
  0
VERTEX
  8
Unknown_Area_Type
  10
244618.000
  20
4586072.500
  0
VERTEX
  8
Unknown_Area_Type
  10
244571.500
  20
4590445.000
  0
VERTEX
  8
Unknown_Area_Type
  10
244028.000
  20
4590694.000
  0
VERTEX
  8
Unknown_Area_Type
  10
244012.500
  20
4590701.000
  0
VERTEX
  8
Unknown_Area_Type
  10
244010.000
  20
4590701.000
  0
SEQEND
  8
Unknown_Area_Type
  0
INSERT
  8
FeatureAttribs
  2
FEATURE
  41
1
  42
1
  43
1
  50
0
  10
256753.766
  20
4587855.997
 66
1
  0
ATTRIB
  8
FeatureAttribs
 70
0
  1
PNOA-H_AMS_1956-57_33k_ES_PAN_2
  2
NAME
  10
256753.766
  20
4587855.997
 40
34.52690
  0
SEQEND
  0
POLYLINE
  8
Unknown_Area_Type
  70
1
  66
1
  0
VERTEX
  8
Unknown_Area_Type
  10
255630.000
  20
4590135.000
  0
VERTEX
  8
Unknown_Area_Type
  10
257759.000
  20
4590226.500
  0
VERTEX
  8
Unknown_Area_Type
  10
258248.000
  20
4589940.000
  0
VERTEX
  8
Unknown_Area_Type
  10
258061.000
  20
4585565.000
  0
VERTEX
  8
Unknown_Area_Type
  10
258053.500
  20
4585564.500
  0
VERTEX
  8
Unknown_Area_Type
  10
255615.000
  20
4585507.500
  0
VERTEX
  8
Unknown_Area_Type
  10
255269.500
  20
4585707.500
  0
VERTEX
  8
Unknown_Area_Type
  10
255435.500
  20
4590121.000
  0
VERTEX
  8
Unknown_Area_Type
  10
255436.000
  20
4590126.500
  0
VERTEX
  8
Unknown_Area_Type
  10
255618.500
  20
4590134.500
  0
VERTEX
  8
Unknown_Area_Type
  10
255630.000
  20
4590135.000
  0
SEQEND
  8
Unknown_Area_Type
  0
INSERT
  8
FeatureAttribs
  2
FEATURE
  41
1
  42
1
  43
1
  50
0
  10
256753.766
  20
4587855.997
 66
1
  0
ATTRIB
  8
FeatureAttribs
 70
0
  1
PNOA-H_AMS_1956-57_33k_ES_PAN_2
  2
NAME
  10
256753.766
  20
4587855.997
 40
34.52690
  0
SEQEND
  0
POLYLINE
  8
Unknown_Area_Type
  70
1
  66
1
  0
VERTEX
  8
Unknown_Area_Type
  10
255630.000
  20
4590135.000
  0
VERTEX
  8
Unknown_Area_Type
  10
255618.500
  20
4590134.500
  0
VERTEX
  8
Unknown_Area_Type
  10
255436.000
  20
4590126.500
  0
VERTEX
  8
Unknown_Area_Type
  10
255435.500
  20
4590121.000
  0
VERTEX
  8
Unknown_Area_Type
  10
255269.500
  20
4585707.500
  0
VERTEX
  8
Unknown_Area_Type
  10
255615.000
  20
4585507.500
  0
VERTEX
  8
Unknown_Area_Type
  10
258053.500
  20
4585564.500
  0
VERTEX
  8
Unknown_Area_Type
  10
258061.000
  20
4585565.000
  0
VERTEX
  8
Unknown_Area_Type
  10
258248.000
  20
4589940.000
  0
VERTEX
  8
Unknown_Area_Type
  10
257759.000
  20
4590226.500
  0
VERTEX
  8
Unknown_Area_Type
  10
255630.000
  20
4590135.000
  0
SEQEND
  8
Unknown_Area_Type
  0
INSERT
  8
FeatureAttribs
  2
FEATURE
  41
1
  42
1
  43
1
  50
0
  10
248515.454
  20
4588193.615
 66
1
  0
ATTRIB
  8
FeatureAttribs
 70
0
  1
PNOA-H_AMS_1956-57_33k_ES_PAN_2
  2
NAME
  10
248515.454
  20
4588193.615
 40
34.52690
  0
SEQEND
  0
POLYLINE
  8
Unknown_Area_Type
  70
1
  66
1
  0
VERTEX
  8
Unknown_Area_Type
  10
247435.500
  20
4590440.000
  0
VERTEX
  8
Unknown_Area_Type
  10
249466.000
  20
4590570.000
  0
VERTEX
  8
Unknown_Area_Type
  10
249831.500
  20
4590377.000
  0
VERTEX
  8
Unknown_Area_Type
  10
249803.000
  20
4585978.000
  0
VERTEX
  8
Unknown_Area_Type
  10
247605.000
  20
4585805.000
  0
VERTEX
  8
Unknown_Area_Type
  10
247597.000
  20
4585805.500
  0
VERTEX
  8
Unknown_Area_Type
  10
247198.500
  20
4586016.500
  0
VERTEX
  8
Unknown_Area_Type
  10
247233.000
  20
4590427.000
  0
VERTEX
  8
Unknown_Area_Type
  10
247427.500
  20
4590439.500
  0
VERTEX
  8
Unknown_Area_Type
  10
247435.500
  20
4590440.000
  0
SEQEND
  8
Unknown_Area_Type
  0
INSERT
  8
FeatureAttribs
  2
FEATURE
  41
1
  42
1
  43
1
  50
0
  10
248515.454
  20
4588193.615
 66
1
  0
ATTRIB
  8
FeatureAttribs
 70
0
  1
PNOA-H_AMS_1956-57_33k_ES_PAN_2
  2
NAME
  10
248515.454
  20
4588193.615
 40
34.52690
  0
SEQEND
  0
POLYLINE
  8
Unknown_Area_Type
  70
1
  66
1
  0
VERTEX
  8
Unknown_Area_Type
  10
247435.500
  20
4590440.000
  0
VERTEX
  8
Unknown_Area_Type
  10
247427.500
  20
4590439.500
  0
VERTEX
  8
Unknown_Area_Type
  10
247233.000
  20
4590427.000
  0
VERTEX
  8
Unknown_Area_Type
  10
247198.500
  20
4586016.500
  0
VERTEX
  8
Unknown_Area_Type
  10
247597.000
  20
4585805.500
  0
VERTEX
  8
Unknown_Area_Type
  10
247605.000
  20
4585805.000
  0
VERTEX
  8
Unknown_Area_Type
  10
249803.000
  20
4585978.000
  0
VERTEX
  8
Unknown_Area_Type
  10
249831.500
  20
4590377.000
  0
VERTEX
  8
Unknown_Area_Type
  10
249466.000
  20
4590570.000
  0
VERTEX
  8
Unknown_Area_Type
  10
247435.500
  20
4590440.000
  0
SEQEND
  8
Unknown_Area_Type
  0
INSERT
  8
FeatureAttribs
  2
FEATURE
  41
1
  42
1
  43
1
  50
0
  10
237716.805
  20
4588280.632
 66
1
  0
ATTRIB
  8
FeatureAttribs
 70
0
  1
PNOA-H_AMS_1956-57_33k_ES_PAN_2
  2
NAME
  10
237716.805
  20
4588280.632
 40
34.52690
  0
SEQEND
  0
POLYLINE
  8
Unknown_Area_Type
  70
1
  66
1
  0
VERTEX
  8
Unknown_Area_Type
  10
238574.500
  20
4590688.000
  0
VERTEX
  8
Unknown_Area_Type
  10
238581.000
  20
4590688.000
  0
VERTEX
  8
Unknown_Area_Type
  10
238584.500
  20
4590686.500
  0
VERTEX
  8
Unknown_Area_Type
  10
239095.500
  20
4590462.500
  0
VERTEX
  8
Unknown_Area_Type
  10
239103.500
  20
4586155.500
  0
VERTEX
  8
Unknown_Area_Type
  10
236903.500
  20
4585884.500
  0
VERTEX
  8
Unknown_Area_Type
  10
236900.000
  20
4585884.500
  0
VERTEX
  8
Unknown_Area_Type
  10
236893.500
  20
4585888.000
  0
VERTEX
  8
Unknown_Area_Type
  10
236263.500
  20
4586252.000
  0
VERTEX
  8
Unknown_Area_Type
  10
236402.000
  20
4590459.500
  0
VERTEX
  8
Unknown_Area_Type
  10
238570.000
  20
4590687.500
  0
VERTEX
  8
Unknown_Area_Type
  10
238574.500
  20
4590688.000
  0
SEQEND
  8
Unknown_Area_Type
  0
INSERT
  8
FeatureAttribs
  2
FEATURE
  41
1
  42
1
  43
1
  50
0
  10
237716.805
  20
4588280.632
 66
1
  0
ATTRIB
  8
FeatureAttribs
 70
0
  1
PNOA-H_AMS_1956-57_33k_ES_PAN_2
  2
NAME
  10
237716.805
  20
4588280.632
 40
34.52690
  0
SEQEND
  0
POLYLINE
  8
Unknown_Area_Type
  70
1
  66
1
  0
VERTEX
  8
Unknown_Area_Type
  10
238574.500
  20
4590688.000
  0
VERTEX
  8
Unknown_Area_Type
  10
238570.000
  20
4590687.500
  0
VERTEX
  8
Unknown_Area_Type
  10
236402.000
  20
4590459.500
  0
VERTEX
  8
Unknown_Area_Type
  10
236263.500
  20
4586252.000
  0
VERTEX
  8
Unknown_Area_Type
  10
236893.500
  20
4585888.000
  0
VERTEX
  8
Unknown_Area_Type
  10
236900.000
  20
4585884.500
  0
VERTEX
  8
Unknown_Area_Type
  10
236903.500
  20
4585884.500
  0
VERTEX
  8
Unknown_Area_Type
  10
239103.500
  20
4586155.500
  0
VERTEX
  8
Unknown_Area_Type
  10
239095.500
  20
4590462.500
  0
VERTEX
  8
Unknown_Area_Type
  10
238584.500
  20
4590686.500
  0
VERTEX
  8
Unknown_Area_Type
  10
238581.000
  20
4590688.000
  0
VERTEX
  8
Unknown_Area_Type
  10
238574.500
  20
4590688.000
  0
SEQEND
  8
Unknown_Area_Type
  0
INSERT
  8
FeatureAttribs
  2
FEATURE
  41
1
  42
1
  43
1
  50
0
  10
234971.207
  20
4588368.661
 66
1
  0
ATTRIB
  8
FeatureAttribs
 70
0
  1
PNOA-H_AMS_1956-57_33k_ES_PAN_2
  2
NAME
  10
234971.207
  20
4588368.661
 40
34.52690
  0
SEQEND
  0
POLYLINE
  8
Unknown_Area_Type
  70
1
  66
1
  0
VERTEX
  8
Unknown_Area_Type
  10
233642.500
  20
4590485.000
  0
VERTEX
  8
Unknown_Area_Type
  10
235810.500
  20
4590721.000
  0
VERTEX
  8
Unknown_Area_Type
  10
235815.500
  20
4590721.500
  0
VERTEX
  8
Unknown_Area_Type
  10
236402.000
  20
4590460.000
  0
VERTEX
  8
Unknown_Area_Type
  10
236263.500
  20
4586252.000
  0
VERTEX
  8
Unknown_Area_Type
  10
234240.000
  20
4585970.500
  0
VERTEX
  8
Unknown_Area_Type
  10
234237.000
  20
4585970.500
  0
VERTEX
  8
Unknown_Area_Type
  10
234179.500
  20
4585999.000
  0
VERTEX
  8
Unknown_Area_Type
  10
233573.500
  20
4586301.000
  0
VERTEX
  8
Unknown_Area_Type
  10
233642.500
  20
4590485.000
  0
SEQEND
  8
Unknown_Area_Type
  0
INSERT
  8
FeatureAttribs
  2
FEATURE
  41
1
  42
1
  43
1
  50
0
  10
234971.207
  20
4588368.661
 66
1
  0
ATTRIB
  8
FeatureAttribs
 70
0
  1
PNOA-H_AMS_1956-57_33k_ES_PAN_2
  2
NAME
  10
234971.207
  20
4588368.661
 40
34.52690
  0
SEQEND
  0
POLYLINE
  8
Unknown_Area_Type
  70
1
  66
1
  0
VERTEX
  8
Unknown_Area_Type
  10
233642.500
  20
4590485.000
  0
VERTEX
  8
Unknown_Area_Type
  10
233573.500
  20
4586301.000
  0
VERTEX
  8
Unknown_Area_Type
  10
234179.500
  20
4585999.000
  0
VERTEX
  8
Unknown_Area_Type
  10
234237.000
  20
4585970.500
  0
VERTEX
  8
Unknown_Area_Type
  10
234240.000
  20
4585970.500
  0
VERTEX
  8
Unknown_Area_Type
  10
236263.500
  20
4586252.000
  0
VERTEX
  8
Unknown_Area_Type
  10
236402.000
  20
4590460.000
  0
VERTEX
  8
Unknown_Area_Type
  10
235815.500
  20
4590721.500
  0
VERTEX
  8
Unknown_Area_Type
  10
235810.500
  20
4590721.000
  0
VERTEX
  8
Unknown_Area_Type
  10
233642.500
  20
4590485.000
  0
SEQEND
  8
Unknown_Area_Type
  0
INSERT
  8
FeatureAttribs
  2
FEATURE
  41
1
  42
1
  43
1
  50
0
  10
240472.652
  20
4588276.946
 66
1
  0
ATTRIB
  8
FeatureAttribs
 70
0
  1
PNOA-H_AMS_1956-57_33k_ES_PAN_2
  2
NAME
  10
240472.652
  20
4588276.946
 40
34.52690
  0
SEQEND
  0
POLYLINE
  8
Unknown_Area_Type
  70
1
  66
1
  0
VERTEX
  8
Unknown_Area_Type
  10
239246.500
  20
4590477.500
  0
VERTEX
  8
Unknown_Area_Type
  10
241302.500
  20
4590680.500
  0
VERTEX
  8
Unknown_Area_Type
  10
241782.500
  20
4590473.000
  0
VERTEX
  8
Unknown_Area_Type
  10
241892.000
  20
4586096.500
  0
VERTEX
  8
Unknown_Area_Type
  10
241892.000
  20
4586088.000
  0
VERTEX
  8
Unknown_Area_Type
  10
241888.500
  20
4586087.500
  0
VERTEX
  8
Unknown_Area_Type
  10
240812.500
  20
4585989.500
  0
VERTEX
  8
Unknown_Area_Type
  10
239440.500
  20
4585962.500
  0
VERTEX
  8
Unknown_Area_Type
  10
239103.500
  20
4586155.500
  0
VERTEX
  8
Unknown_Area_Type
  10
239095.500
  20
4590462.500
  0
VERTEX
  8
Unknown_Area_Type
  10
239241.500
  20
4590477.000
  0
VERTEX
  8
Unknown_Area_Type
  10
239246.500
  20
4590477.500
  0
SEQEND
  8
Unknown_Area_Type
  0
INSERT
  8
FeatureAttribs
  2
FEATURE
  41
1
  42
1
  43
1
  50
0
  10
240472.652
  20
4588276.946
 66
1
  0
ATTRIB
  8
FeatureAttribs
 70
0
  1
PNOA-H_AMS_1956-57_33k_ES_PAN_2
  2
NAME
  10
240472.652
  20
4588276.946
 40
34.52690
  0
SEQEND
  0
POLYLINE
  8
Unknown_Area_Type
  70
1
  66
1
  0
VERTEX
  8
Unknown_Area_Type
  10
239246.500
  20
4590477.500
  0
VERTEX
  8
Unknown_Area_Type
  10
239241.500
  20
4590477.000
  0
VERTEX
  8
Unknown_Area_Type
  10
239095.500
  20
4590462.500
  0
VERTEX
  8
Unknown_Area_Type
  10
239103.500
  20
4586155.500
  0
VERTEX
  8
Unknown_Area_Type
  10
239440.500
  20
4585962.500
  0
VERTEX
  8
Unknown_Area_Type
  10
240812.500
  20
4585989.500
  0
VERTEX
  8
Unknown_Area_Type
  10
241888.500
  20
4586087.500
  0
VERTEX
  8
Unknown_Area_Type
  10
241892.000
  20
4586088.000
  0
VERTEX
  8
Unknown_Area_Type
  10
241892.000
  20
4586096.500
  0
VERTEX
  8
Unknown_Area_Type
  10
241782.500
  20
4590473.000
  0
VERTEX
  8
Unknown_Area_Type
  10
241302.500
  20
4590680.500
  0
VERTEX
  8
Unknown_Area_Type
  10
239246.500
  20
4590477.500
  0
SEQEND
  8
Unknown_Area_Type
  0
INSERT
  8
FeatureAttribs
  2
FEATURE
  41
1
  42
1
  43
1
  50
0
  10
261206.567
  20
4587404.296
 66
1
  0
ATTRIB
  8
FeatureAttribs
 70
0
  1
PNOA-H_AMS_1956-57_33k_ES_PAN_2
  2
NAME
  10
261206.567
  20
4587404.296
 40
34.52690
  0
SEQEND
  0
POLYLINE
  8
Unknown_Area_Type
  70
1
  66
1
  0
VERTEX
  8
Unknown_Area_Type
  10
261492.477
  20
4589755.436
  0
VERTEX
  8
Unknown_Area_Type
  10
261465.734
  20
4588944.745
  0
VERTEX
  8
Unknown_Area_Type
  10
261389.457
  20
4586631.520
  0
VERTEX
  8
Unknown_Area_Type
  10
261343.929
  20
4585250.262
  0
VERTEX
  8
Unknown_Area_Type
  10
260995.500
  20
4585271.500
  0
VERTEX
  8
Unknown_Area_Type
  10
260875.000
  20
4585349.500
  0
VERTEX
  8
Unknown_Area_Type
  10
261134.000
  20
4589732.500
  0
VERTEX
  8
Unknown_Area_Type
  10
261492.477
  20
4589755.436
  0
SEQEND
  8
Unknown_Area_Type
  0
INSERT
  8
FeatureAttribs
  2
FEATURE
  41
1
  42
1
  43
1
  50
0
  10
261206.567
  20
4587404.296
 66
1
  0
ATTRIB
  8
FeatureAttribs
 70
0
  1
PNOA-H_AMS_1956-57_33k_ES_PAN_2
  2
NAME
  10
261206.567
  20
4587404.296
 40
34.52690
  0
SEQEND
  0
POLYLINE
  8
Unknown_Area_Type
  70
1
  66
1
  0
VERTEX
  8
Unknown_Area_Type
  10
261492.477
  20
4589755.436
  0
VERTEX
  8
Unknown_Area_Type
  10
261134.000
  20
4589732.500
  0
VERTEX
  8
Unknown_Area_Type
  10
260875.000
  20
4585349.500
  0
VERTEX
  8
Unknown_Area_Type
  10
260995.500
  20
4585271.500
  0
VERTEX
  8
Unknown_Area_Type
  10
261343.929
  20
4585250.262
  0
VERTEX
  8
Unknown_Area_Type
  10
261389.457
  20
4586631.520
  0
VERTEX
  8
Unknown_Area_Type
  10
261465.734
  20
4588944.745
  0
VERTEX
  8
Unknown_Area_Type
  10
261492.477
  20
4589755.436
  0
SEQEND
  8
Unknown_Area_Type
  0
INSERT
  8
FeatureAttribs
  2
FEATURE
  41
1
  42
1
  43
1
  50
0
  10
260232.718
  20
4598687.286
 66
1
  0
ATTRIB
  8
FeatureAttribs
 70
0
  1
PNOA-H_AMS_1956-57_33k_ES_PAN_2
  2
NAME
  10
260232.718
  20
4598687.286
 40
34.52690
  0
SEQEND
  0
POLYLINE
  8
Unknown_Area_Type
  70
1
  66
1
  0
VERTEX
  8
Unknown_Area_Type
  10
261635.750
  20
4599170.747
  0
VERTEX
  8
Unknown_Area_Type
  10
261587.313
  20
4598203.826
  0
VERTEX
  8
Unknown_Area_Type
  10
258826.117
  20
4598295.711
  0
VERTEX
  8
Unknown_Area_Type
  10
258888.215
  20
4599170.747
  0
VERTEX
  8
Unknown_Area_Type
  10
261635.750
  20
4599170.747
  0
SEQEND
  8
Unknown_Area_Type
  0
INSERT
  8
FeatureAttribs
  2
FEATURE
  41
1
  42
1
  43
1
  50
0
  10
260116.465
  20
4596503.438
 66
1
  0
ATTRIB
  8
FeatureAttribs
 70
0
  1
PNOA-H_AMS_1956-57_33k_ES_PAN_2
  2
NAME
  10
260116.465
  20
4596503.438
 40
34.52690
  0
SEQEND
  0
POLYLINE
  8
Unknown_Area_Type
  70
1
  66
1
  0
VERTEX
  8
Unknown_Area_Type
  10
261587.313
  20
4598203.826
  0
VERTEX
  8
Unknown_Area_Type
  10
261416.500
  20
4594794.000
  0
VERTEX
  8
Unknown_Area_Type
  10
260946.000
  20
4594609.500
  0
VERTEX
  8
Unknown_Area_Type
  10
258590.000
  20
4594968.500
  0
VERTEX
  8
Unknown_Area_Type
  10
258826.117
  20
4598295.711
  0
VERTEX
  8
Unknown_Area_Type
  10
261587.313
  20
4598203.826
  0
SEQEND
  8
Unknown_Area_Type
  0
INSERT
  8
FeatureAttribs
  2
FEATURE
  41
1
  42
1
  43
1
  50
0
  10
260116.465
  20
4596503.438
 66
1
  0
ATTRIB
  8
FeatureAttribs
 70
0
  1
PNOA-H_AMS_1956-57_33k_ES_PAN_2
  2
NAME
  10
260116.465
  20
4596503.438
 40
34.52690
  0
SEQEND
  0
POLYLINE
  8
Unknown_Area_Type
  70
1
  66
1
  0
VERTEX
  8
Unknown_Area_Type
  10
261587.313
  20
4598203.826
  0
VERTEX
  8
Unknown_Area_Type
  10
258826.117
  20
4598295.711
  0
VERTEX
  8
Unknown_Area_Type
  10
258590.000
  20
4594968.500
  0
VERTEX
  8
Unknown_Area_Type
  10
260946.000
  20
4594609.500
  0
VERTEX
  8
Unknown_Area_Type
  10
261416.500
  20
4594794.000
  0
VERTEX
  8
Unknown_Area_Type
  10
261587.313
  20
4598203.826
  0
SEQEND
  8
Unknown_Area_Type
  0
INSERT
  8
FeatureAttribs
  2
FEATURE
  41
1
  42
1
  43
1
  50
0
  10
257474.691
  20
4598733.229
 66
1
  0
ATTRIB
  8
FeatureAttribs
 70
0
  1
PNOA-H_AMS_1956-57_33k_ES_PAN_2
  2
NAME
  10
257474.691
  20
4598733.229
 40
34.52690
  0
SEQEND
  0
POLYLINE
  8
Unknown_Area_Type
  70
1
  66
1
  0
VERTEX
  8
Unknown_Area_Type
  10
258888.215
  20
4599170.747
  0
VERTEX
  8
Unknown_Area_Type
  10
258826.117
  20
4598295.711
  0
VERTEX
  8
Unknown_Area_Type
  10
258293.005
  20
4598313.451
  0
VERTEX
  8
Unknown_Area_Type
  10
256072.495
  20
4598388.416
  0
VERTEX
  8
Unknown_Area_Type
  10
256117.238
  20
4599170.747
  0
VERTEX
  8
Unknown_Area_Type
  10
258888.215
  20
4599170.747
  0
SEQEND
  8
Unknown_Area_Type
  0
INSERT
  8
FeatureAttribs
  2
FEATURE
  41
1
  42
1
  43
1
  50
0
  10
257360.244
  20
4596660.299
 66
1
  0
ATTRIB
  8
FeatureAttribs
 70
0
  1
PNOA-H_AMS_1956-57_33k_ES_PAN_2
  2
NAME
  10
257360.244
  20
4596660.299
 40
34.52690
  0
SEQEND
  0
POLYLINE
  8
Unknown_Area_Type
  70
1
  66
1
  0
VERTEX
  8
Unknown_Area_Type
  10
258826.117
  20
4598295.711
  0
VERTEX
  8
Unknown_Area_Type
  10
258590.000
  20
4594968.500
  0
VERTEX
  8
Unknown_Area_Type
  10
258105.500
  20
4594788.500
  0
VERTEX
  8
Unknown_Area_Type
  10
255890.000
  20
4595197.500
  0
VERTEX
  8
Unknown_Area_Type
  10
256072.495
  20
4598388.416
  0
VERTEX
  8
Unknown_Area_Type
  10
258293.005
  20
4598313.451
  0
VERTEX
  8
Unknown_Area_Type
  10
258826.117
  20
4598295.711
  0
SEQEND
  8
Unknown_Area_Type
  0
INSERT
  8
FeatureAttribs
  2
FEATURE
  41
1
  42
1
  43
1
  50
0
  10
257360.244
  20
4596660.299
 66
1
  0
ATTRIB
  8
FeatureAttribs
 70
0
  1
PNOA-H_AMS_1956-57_33k_ES_PAN_2
  2
NAME
  10
257360.244
  20
4596660.299
 40
34.52690
  0
SEQEND
  0
POLYLINE
  8
Unknown_Area_Type
  70
1
  66
1
  0
VERTEX
  8
Unknown_Area_Type
  10
258826.117
  20
4598295.711
  0
VERTEX
  8
Unknown_Area_Type
  10
258293.005
  20
4598313.451
  0
VERTEX
  8
Unknown_Area_Type
  10
256072.495
  20
4598388.416
  0
VERTEX
  8
Unknown_Area_Type
  10
255890.000
  20
4595197.500
  0
VERTEX
  8
Unknown_Area_Type
  10
258105.500
  20
4594788.500
  0
VERTEX
  8
Unknown_Area_Type
  10
258590.000
  20
4594968.500
  0
VERTEX
  8
Unknown_Area_Type
  10
258826.117
  20
4598295.711
  0
SEQEND
  8
Unknown_Area_Type
  0
INSERT
  8
FeatureAttribs
  2
FEATURE
  41
1
  42
1
  43
1
  50
0
  10
233442.142
  20
4597416.692
 66
1
  0
ATTRIB
  8
FeatureAttribs
 70
0
  1
PNOA-H_AMS_1956-57_33k_ES_PAN_2
  2
NAME
  10
233442.142
  20
4597416.692
 40
34.52690
  0
SEQEND
  0
POLYLINE
  8
Unknown_Area_Type
  70
1
  66
1
  0
VERTEX
  8
Unknown_Area_Type
  10
233621.899
  20
4599170.747
  0
VERTEX
  8
Unknown_Area_Type
  10
233619.500
  20
4595814.000
  0
VERTEX
  8
Unknown_Area_Type
  10
233263.640
  20
4595662.637
  0
VERTEX
  8
Unknown_Area_Type
  10
233263.640
  20
4599170.747
  0
VERTEX
  8
Unknown_Area_Type
  10
233621.899
  20
4599170.747
  0
SEQEND
  8
Unknown_Area_Type
  0
INSERT
  8
FeatureAttribs
  2
FEATURE
  41
1
  42
1
  43
1
  50
0
  10
250057.500
  20
4598827.500
 66
1
  0
ATTRIB
  8
FeatureAttribs
 70
0
  1
PNOA-H_AMS_1956-57_33k_ES_PAN_2
  2
NAME
  10
250057.500
  20
4598827.500
 40
34.52690
  0
SEQEND
  0
POLYLINE
  8
Unknown_Area_Type
  70
1
  66
1
  0
VERTEX
  8
Unknown_Area_Type
  10
250059.000
  20
4598834.000
  0
VERTEX
  8
Unknown_Area_Type
  10
250060.000
  20
4598833.500
  0
VERTEX
  8
Unknown_Area_Type
  10
250063.500
  20
4598830.000
  0
VERTEX
  8
Unknown_Area_Type
  10
250064.000
  20
4598826.000
  0
VERTEX
  8
Unknown_Area_Type
  10
250059.000
  20
4598821.000
  0
VERTEX
  8
Unknown_Area_Type
  10
250055.000
  20
4598821.500
  0
VERTEX
  8
Unknown_Area_Type
  10
250051.500
  20
4598825.000
  0
VERTEX
  8
Unknown_Area_Type
  10
250051.000
  20
4598829.000
  0
VERTEX
  8
Unknown_Area_Type
  10
250055.000
  20
4598833.500
  0
VERTEX
  8
Unknown_Area_Type
  10
250059.000
  20
4598834.000
  0
SEQEND
  8
Unknown_Area_Type
  0
INSERT
  8
FeatureAttribs
  2
FEATURE
  41
1
  42
1
  43
1
  50
0
  10
249170.965
  20
4598873.918
 66
1
  0
ATTRIB
  8
FeatureAttribs
 70
0
  1
PNOA-H_AMS_1956-57_33k_ES_PAN_2
  2
NAME
  10
249170.965
  20
4598873.918
 40
34.52690
  0
SEQEND
  0
POLYLINE
  8
Unknown_Area_Type
  70
1
  66
1
  0
VERTEX
  8
Unknown_Area_Type
  10
250577.029
  20
4599170.747
  0
VERTEX
  8
Unknown_Area_Type
  10
250555.979
  20
4598577.090
  0
VERTEX
  8
Unknown_Area_Type
  10
247858.442
  20
4598670.767
  0
VERTEX
  8
Unknown_Area_Type
  10
247764.138
  20
4598674.087
  0
VERTEX
  8
Unknown_Area_Type
  10
247792.191
  20
4599170.747
  0
VERTEX
  8
Unknown_Area_Type
  10
250577.029
  20
4599170.747
  0
SEQEND
  8
Unknown_Area_Type
  0
INSERT
  8
FeatureAttribs
  2
FEATURE
  41
1
  42
1
  43
1
  50
0
  10
249094.398
  20
4596994.727
 66
1
  0
ATTRIB
  8
FeatureAttribs
 70
0
  1
PNOA-H_AMS_1956-57_33k_ES_PAN_2
  2
NAME
  10
249094.398
  20
4596994.727
 40
34.52690
  0
SEQEND
  0
POLYLINE
  8
Unknown_Area_Type
  70
1
  66
1
  0
VERTEX
  8
Unknown_Area_Type
  10
250555.979
  20
4598577.090
  0
VERTEX
  8
Unknown_Area_Type
  10
250447.000
  20
4595503.500
  0
VERTEX
  8
Unknown_Area_Type
  10
249628.000
  20
4595204.000
  0
VERTEX
  8
Unknown_Area_Type
  10
249610.000
  20
4595197.500
  0
VERTEX
  8
Unknown_Area_Type
  10
249605.500
  20
4595197.500
  0
VERTEX
  8
Unknown_Area_Type
  10
247591.500
  20
4595587.500
  0
VERTEX
  8
Unknown_Area_Type
  10
247590.000
  20
4595588.000
  0
VERTEX
  8
Unknown_Area_Type
  10
247590.500
  20
4595600.000
  0
VERTEX
  8
Unknown_Area_Type
  10
247764.138
  20
4598674.087
  0
VERTEX
  8
Unknown_Area_Type
  10
247858.442
  20
4598670.767
  0
VERTEX
  8
Unknown_Area_Type
  10
250555.979
  20
4598577.090
  0
SEQEND
  8
Unknown_Area_Type
  0
INSERT
  8
FeatureAttribs
  2
FEATURE
  41
1
  42
1
  43
1
  50
0
  10
249094.398
  20
4596994.727
 66
1
  0
ATTRIB
  8
FeatureAttribs
 70
0
  1
PNOA-H_AMS_1956-57_33k_ES_PAN_2
  2
NAME
  10
249094.398
  20
4596994.727
 40
34.52690
  0
SEQEND
  0
POLYLINE
  8
Unknown_Area_Type
  70
1
  66
1
  0
VERTEX
  8
Unknown_Area_Type
  10
250555.979
  20
4598577.090
  0
VERTEX
  8
Unknown_Area_Type
  10
247858.442
  20
4598670.767
  0
VERTEX
  8
Unknown_Area_Type
  10
247764.138
  20
4598674.087
  0
VERTEX
  8
Unknown_Area_Type
  10
247590.500
  20
4595600.000
  0
VERTEX
  8
Unknown_Area_Type
  10
247590.000
  20
4595588.000
  0
VERTEX
  8
Unknown_Area_Type
  10
247591.500
  20
4595587.500
  0
VERTEX
  8
Unknown_Area_Type
  10
249605.500
  20
4595197.500
  0
VERTEX
  8
Unknown_Area_Type
  10
249610.000
  20
4595197.500
  0
VERTEX
  8
Unknown_Area_Type
  10
249628.000
  20
4595204.000
  0
VERTEX
  8
Unknown_Area_Type
  10
250447.000
  20
4595503.500
  0
VERTEX
  8
Unknown_Area_Type
  10
250555.979
  20
4598577.090
  0
SEQEND
  8
Unknown_Area_Type
  0
INSERT
  8
FeatureAttribs
  2
FEATURE
  41
1
  42
1
  43
1
  50
0
  10
250057.500
  20
4598827.500
 66
1
  0
ATTRIB
  8
FeatureAttribs
 70
0
  1
PNOA-H_AMS_1956-57_33k_ES_PAN_2
  2
NAME
  10
250057.500
  20
4598827.500
 40
34.52690
  0
SEQEND
  0
POLYLINE
  8
Unknown_Area_Type
  70
1
  66
1
  0
VERTEX
  8
Unknown_Area_Type
  10
250056.000
  20
4598834.000
  0
VERTEX
  8
Unknown_Area_Type
  10
250060.000
  20
4598833.500
  0
VERTEX
  8
Unknown_Area_Type
  10
250064.000
  20
4598829.000
  0
VERTEX
  8
Unknown_Area_Type
  10
250063.500
  20
4598825.000
  0
VERTEX
  8
Unknown_Area_Type
  10
250060.000
  20
4598821.500
  0
VERTEX
  8
Unknown_Area_Type
  10
250056.000
  20
4598821.000
  0
VERTEX
  8
Unknown_Area_Type
  10
250051.000
  20
4598826.000
  0
VERTEX
  8
Unknown_Area_Type
  10
250051.500
  20
4598830.000
  0
VERTEX
  8
Unknown_Area_Type
  10
250055.000
  20
4598833.500
  0
VERTEX
  8
Unknown_Area_Type
  10
250056.000
  20
4598834.000
  0
SEQEND
  8
Unknown_Area_Type
  0
INSERT
  8
FeatureAttribs
  2
FEATURE
  41
1
  42
1
  43
1
  50
0
  10
251958.884
  20
4598826.149
 66
1
  0
ATTRIB
  8
FeatureAttribs
 70
0
  1
PNOA-H_AMS_1956-57_33k_ES_PAN_2
  2
NAME
  10
251958.884
  20
4598826.149
 40
34.52690
  0
SEQEND
  0
POLYLINE
  8
Unknown_Area_Type
  70
1
  66
1
  0
VERTEX
  8
Unknown_Area_Type
  10
253370.958
  20
4599170.747
  0
VERTEX
  8
Unknown_Area_Type
  10
253334.951
  20
4598481.552
  0
VERTEX
  8
Unknown_Area_Type
  10
251336.646
  20
4598549.981
  0
VERTEX
  8
Unknown_Area_Type
  10
250555.984
  20
4598577.090
  0
VERTEX
  8
Unknown_Area_Type
  10
250577.031
  20
4599170.747
  0
VERTEX
  8
Unknown_Area_Type
  10
253370.958
  20
4599170.747
  0
SEQEND
  8
Unknown_Area_Type
  0
INSERT
  8
FeatureAttribs
  2
FEATURE
  41
1
  42
1
  43
1
  50
0
  10
251887.614
  20
4596907.790
 66
1
  0
ATTRIB
  8
FeatureAttribs
 70
0
  1
PNOA-H_AMS_1956-57_33k_ES_PAN_2
  2
NAME
  10
251887.614
  20
4596907.790
 40
34.52690
  0
SEQEND
  0
POLYLINE
  8
Unknown_Area_Type
  70
1
  66
1
  0
VERTEX
  8
Unknown_Area_Type
  10
253334.951
  20
4598481.552
  0
VERTEX
  8
Unknown_Area_Type
  10
253171.500
  20
4595353.000
  0
VERTEX
  8
Unknown_Area_Type
  10
252443.500
  20
4595107.000
  0
VERTEX
  8
Unknown_Area_Type
  10
252412.000
  20
4595097.000
  0
VERTEX
  8
Unknown_Area_Type
  10
250447.000
  20
4595503.000
  0
VERTEX
  8
Unknown_Area_Type
  10
250555.984
  20
4598577.090
  0
VERTEX
  8
Unknown_Area_Type
  10
251336.646
  20
4598549.981
  0
VERTEX
  8
Unknown_Area_Type
  10
253334.951
  20
4598481.552
  0
SEQEND
  8
Unknown_Area_Type
  0
INSERT
  8
FeatureAttribs
  2
FEATURE
  41
1
  42
1
  43
1
  50
0
  10
251887.614
  20
4596907.790
 66
1
  0
ATTRIB
  8
FeatureAttribs
 70
0
  1
PNOA-H_AMS_1956-57_33k_ES_PAN_2
  2
NAME
  10
251887.614
  20
4596907.790
 40
34.52690
  0
SEQEND
  0
POLYLINE
  8
Unknown_Area_Type
  70
1
  66
1
  0
VERTEX
  8
Unknown_Area_Type
  10
253334.951
  20
4598481.552
  0
VERTEX
  8
Unknown_Area_Type
  10
251336.646
  20
4598549.981
  0
VERTEX
  8
Unknown_Area_Type
  10
250555.984
  20
4598577.090
  0
VERTEX
  8
Unknown_Area_Type
  10
250447.000
  20
4595503.000
  0
VERTEX
  8
Unknown_Area_Type
  10
252412.000
  20
4595097.000
  0
VERTEX
  8
Unknown_Area_Type
  10
252443.500
  20
4595107.000
  0
VERTEX
  8
Unknown_Area_Type
  10
253171.500
  20
4595353.000
  0
VERTEX
  8
Unknown_Area_Type
  10
253334.951
  20
4598481.552
  0
SEQEND
  8
Unknown_Area_Type
  0
INSERT
  8
FeatureAttribs
  2
FEATURE
  41
1
  42
1
  43
1
  50
0
  10
243575.663
  20
4598971.133
 66
1
  0
ATTRIB
  8
FeatureAttribs
 70
0
  1
PNOA-H_AMS_1956-57_33k_ES_PAN_2
  2
NAME
  10
243575.663
  20
4598971.133
 40
34.52690
  0
SEQEND
  0
POLYLINE
  8
Unknown_Area_Type
  70
1
  66
1
  0
VERTEX
  8
Unknown_Area_Type
  10
245016.252
  20
4599170.747
  0
VERTEX
  8
Unknown_Area_Type
  10
244996.983
  20
4598771.519
  0
VERTEX
  8
Unknown_Area_Type
  10
244380.223
  20
4598793.235
  0
VERTEX
  8
Unknown_Area_Type
  10
242144.198
  20
4598873.045
  0
VERTEX
  8
Unknown_Area_Type
  10
242145.746
  20
4599170.747
  0
VERTEX
  8
Unknown_Area_Type
  10
245016.252
  20
4599170.747
  0
SEQEND
  8
Unknown_Area_Type
  0
INSERT
  8
FeatureAttribs
  2
FEATURE
  41
1
  42
1
  43
1
  50
0
  10
243537.832
  20
4597234.457
 66
1
  0
ATTRIB
  8
FeatureAttribs
 70
0
  1
PNOA-H_AMS_1956-57_33k_ES_PAN_2
  2
NAME
  10
243537.832
  20
4597234.457
 40
34.52690
  0
SEQEND
  0
POLYLINE
  8
Unknown_Area_Type
  70
1
  66
1
  0
VERTEX
  8
Unknown_Area_Type
  10
244996.983
  20
4598771.519
  0
VERTEX
  8
Unknown_Area_Type
  10
244849.500
  20
4595716.000
  0
VERTEX
  8
Unknown_Area_Type
  10
244151.000
  20
4595458.000
  0
VERTEX
  8
Unknown_Area_Type
  10
242129.500
  20
4595813.000
  0
VERTEX
  8
Unknown_Area_Type
  10
242128.500
  20
4595813.500
  0
VERTEX
  8
Unknown_Area_Type
  10
242128.500
  20
4595855.000
  0
VERTEX
  8
Unknown_Area_Type
  10
242144.198
  20
4598873.045
  0
VERTEX
  8
Unknown_Area_Type
  10
244380.223
  20
4598793.235
  0
VERTEX
  8
Unknown_Area_Type
  10
244996.983
  20
4598771.519
  0
SEQEND
  8
Unknown_Area_Type
  0
INSERT
  8
FeatureAttribs
  2
FEATURE
  41
1
  42
1
  43
1
  50
0
  10
243537.832
  20
4597234.457
 66
1
  0
ATTRIB
  8
FeatureAttribs
 70
0
  1
PNOA-H_AMS_1956-57_33k_ES_PAN_2
  2
NAME
  10
243537.832
  20
4597234.457
 40
34.52690
  0
SEQEND
  0
POLYLINE
  8
Unknown_Area_Type
  70
1
  66
1
  0
VERTEX
  8
Unknown_Area_Type
  10
244996.983
  20
4598771.519
  0
VERTEX
  8
Unknown_Area_Type
  10
244380.223
  20
4598793.235
  0
VERTEX
  8
Unknown_Area_Type
  10
242144.198
  20
4598873.045
  0
VERTEX
  8
Unknown_Area_Type
  10
242128.500
  20
4595855.000
  0
VERTEX
  8
Unknown_Area_Type
  10
242128.500
  20
4595813.500
  0
VERTEX
  8
Unknown_Area_Type
  10
242129.500
  20
4595813.000
  0
VERTEX
  8
Unknown_Area_Type
  10
244151.000
  20
4595458.000
  0
VERTEX
  8
Unknown_Area_Type
  10
244849.500
  20
4595716.000
  0
VERTEX
  8
Unknown_Area_Type
  10
244996.983
  20
4598771.519
  0
SEQEND
  8
Unknown_Area_Type
  0
INSERT
  8
FeatureAttribs
  2
FEATURE
  41
1
  42
1
  43
1
  50
0
  10
254722.682
  20
4598779.582
 66
1
  0
ATTRIB
  8
FeatureAttribs
 70
0
  1
PNOA-H_AMS_1956-57_33k_ES_PAN_2
  2
NAME
  10
254722.682
  20
4598779.582
 40
34.52690
  0
SEQEND
  0
POLYLINE
  8
Unknown_Area_Type
  70
1
  66
1
  0
VERTEX
  8
Unknown_Area_Type
  10
256117.212
  20
4599170.747
  0
VERTEX
  8
Unknown_Area_Type
  10
256072.474
  20
4598388.417
  0
VERTEX
  8
Unknown_Area_Type
  10
254814.833
  20
4598430.875
  0
VERTEX
  8
Unknown_Area_Type
  10
253334.951
  20
4598481.552
  0
VERTEX
  8
Unknown_Area_Type
  10
253370.958
  20
4599170.747
  0
VERTEX
  8
Unknown_Area_Type
  10
256117.212
  20
4599170.747
  0
SEQEND
  8
Unknown_Area_Type
  0
INSERT
  8
FeatureAttribs
  2
FEATURE
  41
1
  42
1
  43
1
  50
0
  10
254627.900
  20
4596785.537
 66
1
  0
ATTRIB
  8
FeatureAttribs
 70
0
  1
PNOA-H_AMS_1956-57_33k_ES_PAN_2
  2
NAME
  10
254627.900
  20
4596785.537
 40
34.52690
  0
SEQEND
  0
POLYLINE
  8
Unknown_Area_Type
  70
1
  66
1
  0
VERTEX
  8
Unknown_Area_Type
  10
256072.474
  20
4598388.417
  0
VERTEX
  8
Unknown_Area_Type
  10
255890.000
  20
4595197.500
  0
VERTEX
  8
Unknown_Area_Type
  10
255238.500
  20
4594957.000
  0
VERTEX
  8
Unknown_Area_Type
  10
255218.500
  20
4594960.000
  0
VERTEX
  8
Unknown_Area_Type
  10
253171.500
  20
4595353.000
  0
VERTEX
  8
Unknown_Area_Type
  10
253334.951
  20
4598481.552
  0
VERTEX
  8
Unknown_Area_Type
  10
254814.833
  20
4598430.875
  0
VERTEX
  8
Unknown_Area_Type
  10
256072.474
  20
4598388.417
  0
SEQEND
  8
Unknown_Area_Type
  0
INSERT
  8
FeatureAttribs
  2
FEATURE
  41
1
  42
1
  43
1
  50
0
  10
254627.900
  20
4596785.537
 66
1
  0
ATTRIB
  8
FeatureAttribs
 70
0
  1
PNOA-H_AMS_1956-57_33k_ES_PAN_2
  2
NAME
  10
254627.900
  20
4596785.537
 40
34.52690
  0
SEQEND
  0
POLYLINE
  8
Unknown_Area_Type
  70
1
  66
1
  0
VERTEX
  8
Unknown_Area_Type
  10
256072.474
  20
4598388.417
  0
VERTEX
  8
Unknown_Area_Type
  10
254814.833
  20
4598430.875
  0
VERTEX
  8
Unknown_Area_Type
  10
253334.951
  20
4598481.552
  0
VERTEX
  8
Unknown_Area_Type
  10
253171.500
  20
4595353.000
  0
VERTEX
  8
Unknown_Area_Type
  10
255218.500
  20
4594960.000
  0
VERTEX
  8
Unknown_Area_Type
  10
255238.500
  20
4594957.000
  0
VERTEX
  8
Unknown_Area_Type
  10
255890.000
  20
4595197.500
  0
VERTEX
  8
Unknown_Area_Type
  10
256072.474
  20
4598388.417
  0
SEQEND
  8
Unknown_Area_Type
  0
INSERT
  8
FeatureAttribs
  2
FEATURE
  41
1
  42
1
  43
1
  50
0
  10
240717.842
  20
4599021.895
 66
1
  0
ATTRIB
  8
FeatureAttribs
 70
0
  1
PNOA-H_AMS_1956-57_33k_ES_PAN_2
  2
NAME
  10
240717.842
  20
4599021.895
 40
34.52690
  0
SEQEND
  0
POLYLINE
  8
Unknown_Area_Type
  70
1
  66
1
  0
VERTEX
  8
Unknown_Area_Type
  10
242145.784
  20
4599170.747
  0
VERTEX
  8
Unknown_Area_Type
  10
242144.252
  20
4598873.043
  0
VERTEX
  8
Unknown_Area_Type
  10
240901.986
  20
4598917.384
  0
VERTEX
  8
Unknown_Area_Type
  10
239290.649
  20
4598975.676
  0
VERTEX
  8
Unknown_Area_Type
  10
239290.720
  20
4599170.747
  0
VERTEX
  8
Unknown_Area_Type
  10
242145.784
  20
4599170.747
  0
SEQEND
  8
Unknown_Area_Type
  0
INSERT
  8
FeatureAttribs
  2
FEATURE
  41
1
  42
1
  43
1
  50
0
  10
240715.549
  20
4597293.839
 66
1
  0
ATTRIB
  8
FeatureAttribs
 70
0
  1
PNOA-H_AMS_1956-57_33k_ES_PAN_2
  2
NAME
  10
240715.549
  20
4597293.839
 40
34.52690
  0
SEQEND
  0
POLYLINE
  8
Unknown_Area_Type
  70
1
  66
1
  0
VERTEX
  8
Unknown_Area_Type
  10
242144.252
  20
4598873.043
  0
VERTEX
  8
Unknown_Area_Type
  10
242128.500
  20
4595813.500
  0
VERTEX
  8
Unknown_Area_Type
  10
241360.000
  20
4595512.000
  0
VERTEX
  8
Unknown_Area_Type
  10
239289.500
  20
4595813.000
  0
VERTEX
  8
Unknown_Area_Type
  10
239290.649
  20
4598975.676
  0
VERTEX
  8
Unknown_Area_Type
  10
240901.986
  20
4598917.384
  0
VERTEX
  8
Unknown_Area_Type
  10
242144.252
  20
4598873.043
  0
SEQEND
  8
Unknown_Area_Type
  0
INSERT
  8
FeatureAttribs
  2
FEATURE
  41
1
  42
1
  43
1
  50
0
  10
240715.549
  20
4597293.839
 66
1
  0
ATTRIB
  8
FeatureAttribs
 70
0
  1
PNOA-H_AMS_1956-57_33k_ES_PAN_2
  2
NAME
  10
240715.549
  20
4597293.839
 40
34.52690
  0
SEQEND
  0
POLYLINE
  8
Unknown_Area_Type
  70
1
  66
1
  0
VERTEX
  8
Unknown_Area_Type
  10
242144.252
  20
4598873.043
  0
VERTEX
  8
Unknown_Area_Type
  10
240901.986
  20
4598917.384
  0
VERTEX
  8
Unknown_Area_Type
  10
239290.649
  20
4598975.676
  0
VERTEX
  8
Unknown_Area_Type
  10
239289.500
  20
4595813.000
  0
VERTEX
  8
Unknown_Area_Type
  10
241360.000
  20
4595512.000
  0
VERTEX
  8
Unknown_Area_Type
  10
242128.500
  20
4595813.500
  0
VERTEX
  8
Unknown_Area_Type
  10
242144.252
  20
4598873.043
  0
SEQEND
  8
Unknown_Area_Type
  0
INSERT
  8
FeatureAttribs
  2
FEATURE
  41
1
  42
1
  43
1
  50
0
  10
233945.331
  20
4599170.737
 66
1
  0
ATTRIB
  8
FeatureAttribs
 70
0
  1
PNOA-H_AMS_1956-57_33k_ES_PAN_2
  2
NAME
  10
233945.331
  20
4599170.737
 40
34.52690
  0
SEQEND
  0
POLYLINE
  8
Unknown_Area_Type
  70
1
  66
1
  0
VERTEX
  8
Unknown_Area_Type
  10
233945.463
  20
4599170.747
  0
VERTEX
  8
Unknown_Area_Type
  10
233945.462
  20
4599170.727
  0
VERTEX
  8
Unknown_Area_Type
  10
233944.938
  20
4599170.747
  0
VERTEX
  8
Unknown_Area_Type
  10
233945.463
  20
4599170.747
  0
SEQEND
  8
Unknown_Area_Type
  0
INSERT
  8
FeatureAttribs
  2
FEATURE
  41
1
  42
1
  43
1
  50
0
  10
235850.121
  20
4599124.197
 66
1
  0
ATTRIB
  8
FeatureAttribs
 70
0
  1
PNOA-H_AMS_1956-57_33k_ES_PAN_2
  2
NAME
  10
235850.121
  20
4599124.197
 40
34.52690
  0
SEQEND
  0
POLYLINE
  8
Unknown_Area_Type
  70
1
  66
1
  0
VERTEX
  8
Unknown_Area_Type
  10
236486.629
  20
4599170.747
  0
VERTEX
  8
Unknown_Area_Type
  10
236484.462
  20
4599077.648
  0
VERTEX
  8
Unknown_Area_Type
  10
233945.462
  20
4599170.727
  0
VERTEX
  8
Unknown_Area_Type
  10
233945.463
  20
4599170.747
  0
VERTEX
  8
Unknown_Area_Type
  10
236486.629
  20
4599170.747
  0
SEQEND
  8
Unknown_Area_Type
  0
INSERT
  8
FeatureAttribs
  2
FEATURE
  41
1
  42
1
  43
1
  50
0
  10
233751.878
  20
4597479.487
 66
1
  0
ATTRIB
  8
FeatureAttribs
 70
0
  1
PNOA-H_AMS_1956-57_33k_ES_PAN_2
  2
NAME
  10
233751.878
  20
4597479.487
 40
34.52690
  0
SEQEND
  0
POLYLINE
  8
Unknown_Area_Type
  70
1
  66
1
  0
VERTEX
  8
Unknown_Area_Type
  10
233820.685
  20
4595788.228
  0
VERTEX
  8
Unknown_Area_Type
  10
233619.500
  20
4595814.500
  0
VERTEX
  8
Unknown_Area_Type
  10
233621.899
  20
4599170.747
  0
VERTEX
  8
Unknown_Area_Type
  10
233944.938
  20
4599170.747
  0
VERTEX
  8
Unknown_Area_Type
  10
233945.462
  20
4599170.727
  0
VERTEX
  8
Unknown_Area_Type
  10
233860.114
  20
4596857.390
  0
VERTEX
  8
Unknown_Area_Type
  10
233820.685
  20
4595788.228
  0
SEQEND
  8
Unknown_Area_Type
  0
INSERT
  8
FeatureAttribs
  2
FEATURE
  41
1
  42
1
  43
1
  50
0
  10
235163.559
  20
4597389.061
 66
1
  0
ATTRIB
  8
FeatureAttribs
 70
0
  1
PNOA-H_AMS_1956-57_33k_ES_PAN_2
  2
NAME
  10
235163.559
  20
4597389.061
 40
34.52690
  0
SEQEND
  0
POLYLINE
  8
Unknown_Area_Type
  70
1
  66
1
  0
VERTEX
  8
Unknown_Area_Type
  10
236484.462
  20
4599077.648
  0
VERTEX
  8
Unknown_Area_Type
  10
236408.500
  20
4595814.000
  0
VERTEX
  8
Unknown_Area_Type
  10
235744.500
  20
4595537.000
  0
VERTEX
  8
Unknown_Area_Type
  10
233820.685
  20
4595788.228
  0
VERTEX
  8
Unknown_Area_Type
  10
233860.114
  20
4596857.390
  0
VERTEX
  8
Unknown_Area_Type
  10
233945.462
  20
4599170.727
  0
VERTEX
  8
Unknown_Area_Type
  10
236484.462
  20
4599077.648
  0
SEQEND
  8
Unknown_Area_Type
  0
INSERT
  8
FeatureAttribs
  2
FEATURE
  41
1
  42
1
  43
1
  50
0
  10
235163.559
  20
4597389.061
 66
1
  0
ATTRIB
  8
FeatureAttribs
 70
0
  1
PNOA-H_AMS_1956-57_33k_ES_PAN_2
  2
NAME
  10
235163.559
  20
4597389.061
 40
34.52690
  0
SEQEND
  0
POLYLINE
  8
Unknown_Area_Type
  70
1
  66
1
  0
VERTEX
  8
Unknown_Area_Type
  10
236484.462
  20
4599077.648
  0
VERTEX
  8
Unknown_Area_Type
  10
233945.462
  20
4599170.727
  0
VERTEX
  8
Unknown_Area_Type
  10
233860.114
  20
4596857.390
  0
VERTEX
  8
Unknown_Area_Type
  10
233820.685
  20
4595788.228
  0
VERTEX
  8
Unknown_Area_Type
  10
235744.500
  20
4595537.000
  0
VERTEX
  8
Unknown_Area_Type
  10
236408.500
  20
4595814.000
  0
VERTEX
  8
Unknown_Area_Type
  10
236484.462
  20
4599077.648
  0
SEQEND
  8
Unknown_Area_Type
  0
INSERT
  8
FeatureAttribs
  2
FEATURE
  41
1
  42
1
  43
1
  50
0
  10
237948.002
  20
4599073.213
 66
1
  0
ATTRIB
  8
FeatureAttribs
 70
0
  1
PNOA-H_AMS_1956-57_33k_ES_PAN_2
  2
NAME
  10
237948.002
  20
4599073.213
 40
34.52690
  0
SEQEND
  0
POLYLINE
  8
Unknown_Area_Type
  70
1
  66
1
  0
VERTEX
  8
Unknown_Area_Type
  10
239290.626
  20
4599170.747
  0
VERTEX
  8
Unknown_Area_Type
  10
239290.532
  20
4598975.680
  0
VERTEX
  8
Unknown_Area_Type
  10
237423.733
  20
4599043.214
  0
VERTEX
  8
Unknown_Area_Type
  10
236484.462
  20
4599077.648
  0
VERTEX
  8
Unknown_Area_Type
  10
236486.629
  20
4599170.747
  0
VERTEX
  8
Unknown_Area_Type
  10
239290.626
  20
4599170.747
  0
SEQEND
  8
Unknown_Area_Type
  0
INSERT
  8
FeatureAttribs
  2
FEATURE
  41
1
  42
1
  43
1
  50
0
  10
237870.839
  20
4597336.795
 66
1
  0
ATTRIB
  8
FeatureAttribs
 70
0
  1
PNOA-H_AMS_1956-57_33k_ES_PAN_2
  2
NAME
  10
237870.839
  20
4597336.795
 40
34.52690
  0
SEQEND
  0
POLYLINE
  8
Unknown_Area_Type
  70
1
  66
1
  0
VERTEX
  8
Unknown_Area_Type
  10
239290.532
  20
4598975.680
  0
VERTEX
  8
Unknown_Area_Type
  10
239289.000
  20
4595812.500
  0
VERTEX
  8
Unknown_Area_Type
  10
238572.000
  20
4595514.500
  0
VERTEX
  8
Unknown_Area_Type
  10
236408.500
  20
4595814.000
  0
VERTEX
  8
Unknown_Area_Type
  10
236484.462
  20
4599077.648
  0
VERTEX
  8
Unknown_Area_Type
  10
237423.733
  20
4599043.214
  0
VERTEX
  8
Unknown_Area_Type
  10
239290.532
  20
4598975.680
  0
SEQEND
  8
Unknown_Area_Type
  0
INSERT
  8
FeatureAttribs
  2
FEATURE
  41
1
  42
1
  43
1
  50
0
  10
237870.839
  20
4597336.795
 66
1
  0
ATTRIB
  8
FeatureAttribs
 70
0
  1
PNOA-H_AMS_1956-57_33k_ES_PAN_2
  2
NAME
  10
237870.839
  20
4597336.795
 40
34.52690
  0
SEQEND
  0
POLYLINE
  8
Unknown_Area_Type
  70
1
  66
1
  0
VERTEX
  8
Unknown_Area_Type
  10
239290.532
  20
4598975.680
  0
VERTEX
  8
Unknown_Area_Type
  10
237423.733
  20
4599043.214
  0
VERTEX
  8
Unknown_Area_Type
  10
236484.462
  20
4599077.648
  0
VERTEX
  8
Unknown_Area_Type
  10
236408.500
  20
4595814.000
  0
VERTEX
  8
Unknown_Area_Type
  10
238572.000
  20
4595514.500
  0
VERTEX
  8
Unknown_Area_Type
  10
239289.000
  20
4595812.500
  0
VERTEX
  8
Unknown_Area_Type
  10
239290.532
  20
4598975.680
  0
SEQEND
  8
Unknown_Area_Type
  0
INSERT
  8
FeatureAttribs
  2
FEATURE
  41
1
  42
1
  43
1
  50
0
  10
246391.088
  20
4598922.416
 66
1
  0
ATTRIB
  8
FeatureAttribs
 70
0
  1
PNOA-H_AMS_1956-57_33k_ES_PAN_2
  2
NAME
  10
246391.088
  20
4598922.416
 40
34.52690
  0
SEQEND
  0
POLYLINE
  8
Unknown_Area_Type
  70
1
  66
1
  0
VERTEX
  8
Unknown_Area_Type
  10
247792.217
  20
4599170.747
  0
VERTEX
  8
Unknown_Area_Type
  10
247764.185
  20
4598674.086
  0
VERTEX
  8
Unknown_Area_Type
  10
244996.706
  20
4598771.528
  0
VERTEX
  8
Unknown_Area_Type
  10
245015.939
  20
4599170.747
  0
VERTEX
  8
Unknown_Area_Type
  10
247792.217
  20
4599170.747
  0
SEQEND
  8
Unknown_Area_Type
  0
INSERT
  8
FeatureAttribs
  2
FEATURE
  41
1
  42
1
  43
1
  50
0
  10
246308.721
  20
4597122.008
 66
1
  0
ATTRIB
  8
FeatureAttribs
 70
0
  1
PNOA-H_AMS_1956-57_33k_ES_PAN_2
  2
NAME
  10
246308.721
  20
4597122.008
 40
34.52690
  0
SEQEND
  0
POLYLINE
  8
Unknown_Area_Type
  70
1
  66
1
  0
VERTEX
  8
Unknown_Area_Type
  10
247764.185
  20
4598674.086
  0
VERTEX
  8
Unknown_Area_Type
  10
247590.000
  20
4595588.000
  0
VERTEX
  8
Unknown_Area_Type
  10
246914.000
  20
4595353.000
  0
VERTEX
  8
Unknown_Area_Type
  10
244849.500
  20
4595716.000
  0
VERTEX
  8
Unknown_Area_Type
  10
244996.706
  20
4598771.528
  0
VERTEX
  8
Unknown_Area_Type
  10
247764.185
  20
4598674.086
  0
SEQEND
  8
Unknown_Area_Type
  0
INSERT
  8
FeatureAttribs
  2
FEATURE
  41
1
  42
1
  43
1
  50
0
  10
246308.721
  20
4597122.008
 66
1
  0
ATTRIB
  8
FeatureAttribs
 70
0
  1
PNOA-H_AMS_1956-57_33k_ES_PAN_2
  2
NAME
  10
246308.721
  20
4597122.008
 40
34.52690
  0
SEQEND
  0
POLYLINE
  8
Unknown_Area_Type
  70
1
  66
1
  0
VERTEX
  8
Unknown_Area_Type
  10
247764.185
  20
4598674.086
  0
VERTEX
  8
Unknown_Area_Type
  10
244996.706
  20
4598771.528
  0
VERTEX
  8
Unknown_Area_Type
  10
244849.500
  20
4595716.000
  0
VERTEX
  8
Unknown_Area_Type
  10
246914.000
  20
4595353.000
  0
VERTEX
  8
Unknown_Area_Type
  10
247590.000
  20
4595588.000
  0
VERTEX
  8
Unknown_Area_Type
  10
247764.185
  20
4598674.086
  0
SEQEND
  8
Unknown_Area_Type
  0
INSERT
  8
FeatureAttribs
  2
FEATURE
  41
1
  42
1
  43
1
  50
0
  10
261691.270
  20
4598684.227
 66
1
  0
ATTRIB
  8
FeatureAttribs
 70
0
  1
PNOA-H_AMS_1956-57_33k_ES_PAN_2
  2
NAME
  10
261691.270
  20
4598684.227
 40
34.52690
  0
SEQEND
  0
POLYLINE
  8
Unknown_Area_Type
  70
1
  66
1
  0
VERTEX
  8
Unknown_Area_Type
  10
261635.744
  20
4599170.747
  0
VERTEX
  8
Unknown_Area_Type
  10
261771.189
  20
4599170.747
  0
VERTEX
  8
Unknown_Area_Type
  10
261771.189
  20
4598198.571
  0
VERTEX
  8
Unknown_Area_Type
  10
261771.161
  20
4598197.708
  0
VERTEX
  8
Unknown_Area_Type
  10
261587.264
  20
4598203.827
  0
VERTEX
  8
Unknown_Area_Type
  10
261635.744
  20
4599170.747
  0
SEQEND
  8
Unknown_Area_Type
  0
INSERT
  8
FeatureAttribs
  2
FEATURE
  41
1
  42
1
  43
1
  50
0
  10
261771.175
  20
4598197.923
 66
1
  0
ATTRIB
  8
FeatureAttribs
 70
0
  1
PNOA-H_AMS_1956-57_33k_ES_PAN_2
  2
NAME
  10
261771.175
  20
4598197.923
 40
34.52690
  0
SEQEND
  0
POLYLINE
  8
Unknown_Area_Type
  70
1
  66
1
  0
VERTEX
  8
Unknown_Area_Type
  10
261771.189
  20
4598198.571
  0
VERTEX
  8
Unknown_Area_Type
  10
261771.189
  20
4598197.707
  0
VERTEX
  8
Unknown_Area_Type
  10
261771.161
  20
4598197.708
  0
VERTEX
  8
Unknown_Area_Type
  10
261771.189
  20
4598198.571
  0
SEQEND
  8
Unknown_Area_Type
  0
INSERT
  8
FeatureAttribs
  2
FEATURE
  41
1
  42
1
  43
1
  50
0
  10
261604.916
  20
4596408.805
 66
1
  0
ATTRIB
  8
FeatureAttribs
 70
0
  1
PNOA-H_AMS_1956-57_33k_ES_PAN_2
  2
NAME
  10
261604.916
  20
4596408.805
 40
34.52690
  0
SEQEND
  0
POLYLINE
  8
Unknown_Area_Type
  70
1
  66
1
  0
VERTEX
  8
Unknown_Area_Type
  10
261657.427
  20
4594753.778
  0
VERTEX
  8
Unknown_Area_Type
  10
261418.000
  20
4594793.500
  0
VERTEX
  8
Unknown_Area_Type
  10
261416.500
  20
4594794.000
  0
VERTEX
  8
Unknown_Area_Type
  10
261416.500
  20
4594798.000
  0
VERTEX
  8
Unknown_Area_Type
  10
261587.264
  20
4598203.827
  0
VERTEX
  8
Unknown_Area_Type
  10
261771.161
  20
4598197.708
  0
VERTEX
  8
Unknown_Area_Type
  10
261694.757
  20
4595884.458
  0
VERTEX
  8
Unknown_Area_Type
  10
261657.427
  20
4594753.778
  0
SEQEND
  8
Unknown_Area_Type
  0
INSERT
  8
FeatureAttribs
  2
FEATURE
  41
1
  42
1
  43
1
  50
0
  10
261604.916
  20
4596408.805
 66
1
  0
ATTRIB
  8
FeatureAttribs
 70
0
  1
PNOA-H_AMS_1956-57_33k_ES_PAN_2
  2
NAME
  10
261604.916
  20
4596408.805
 40
34.52690
  0
SEQEND
  0
POLYLINE
  8
Unknown_Area_Type
  70
1
  66
1
  0
VERTEX
  8
Unknown_Area_Type
  10
261657.427
  20
4594753.778
  0
VERTEX
  8
Unknown_Area_Type
  10
261694.757
  20
4595884.458
  0
VERTEX
  8
Unknown_Area_Type
  10
261771.161
  20
4598197.708
  0
VERTEX
  8
Unknown_Area_Type
  10
261587.264
  20
4598203.827
  0
VERTEX
  8
Unknown_Area_Type
  10
261416.500
  20
4594798.000
  0
VERTEX
  8
Unknown_Area_Type
  10
261416.500
  20
4594794.000
  0
VERTEX
  8
Unknown_Area_Type
  10
261418.000
  20
4594793.500
  0
VERTEX
  8
Unknown_Area_Type
  10
261657.427
  20
4594753.778
  0
SEQEND
  8
Unknown_Area_Type
  0
INSERT
  8
FeatureAttribs
  2
FEATURE
  41
1
  42
1
  43
1
  50
0
  10
259324.844
  20
4592418.521
 66
1
  0
ATTRIB
  8
FeatureAttribs
 70
0
  1
PNOA-H_AMS_1956-57_33k_ES_PAN_2
  2
NAME
  10
259324.844
  20
4592418.521
 40
34.52690
  0
SEQEND
  0
POLYLINE
  8
Unknown_Area_Type
  70
1
  66
1
  0
VERTEX
  8
Unknown_Area_Type
  10
258104.500
  20
4594788.500
  0
VERTEX
  8
Unknown_Area_Type
  10
258589.500
  20
4594968.500
  0
VERTEX
  8
Unknown_Area_Type
  10
260945.000
  20
4594609.500
  0
VERTEX
  8
Unknown_Area_Type
  10
260624.000
  20
4590857.000
  0
VERTEX
  8
Unknown_Area_Type
  10
260624.000
  20
4590856.000
  0
VERTEX
  8
Unknown_Area_Type
  10
260557.000
  20
4590069.000
  0
VERTEX
  8
Unknown_Area_Type
  10
258247.000
  20
4589940.000
  0
VERTEX
  8
Unknown_Area_Type
  10
257758.500
  20
4590226.500
  0
VERTEX
  8
Unknown_Area_Type
  10
258104.500
  20
4594788.500
  0
SEQEND
  8
Unknown_Area_Type
  0
INSERT
  8
FeatureAttribs
  2
FEATURE
  41
1
  42
1
  43
1
  50
0
  10
259324.844
  20
4592418.521
 66
1
  0
ATTRIB
  8
FeatureAttribs
 70
0
  1
PNOA-H_AMS_1956-57_33k_ES_PAN_2
  2
NAME
  10
259324.844
  20
4592418.521
 40
34.52690
  0
SEQEND
  0
POLYLINE
  8
Unknown_Area_Type
  70
1
  66
1
  0
VERTEX
  8
Unknown_Area_Type
  10
258104.500
  20
4594788.500
  0
VERTEX
  8
Unknown_Area_Type
  10
257758.500
  20
4590226.500
  0
VERTEX
  8
Unknown_Area_Type
  10
258247.000
  20
4589940.000
  0
VERTEX
  8
Unknown_Area_Type
  10
260557.000
  20
4590069.000
  0
VERTEX
  8
Unknown_Area_Type
  10
260624.000
  20
4590856.000
  0
VERTEX
  8
Unknown_Area_Type
  10
260624.000
  20
4590857.000
  0
VERTEX
  8
Unknown_Area_Type
  10
260945.000
  20
4594609.500
  0
VERTEX
  8
Unknown_Area_Type
  10
258589.500
  20
4594968.500
  0
VERTEX
  8
Unknown_Area_Type
  10
258104.500
  20
4594788.500
  0
SEQEND
  8
Unknown_Area_Type
  0
INSERT
  8
FeatureAttribs
  2
FEATURE
  41
1
  42
1
  43
1
  50
0
  10
253690.477
  20
4592761.551
 66
1
  0
ATTRIB
  8
FeatureAttribs
 70
0
  1
PNOA-H_AMS_1956-57_33k_ES_PAN_2
  2
NAME
  10
253690.477
  20
4592761.551
 40
34.52690
  0
SEQEND
  0
POLYLINE
  8
Unknown_Area_Type
  70
1
  66
1
  0
VERTEX
  8
Unknown_Area_Type
  10
253170.000
  20
4595353.000
  0
VERTEX
  8
Unknown_Area_Type
  10
255237.000
  20
4594957.000
  0
VERTEX
  8
Unknown_Area_Type
  10
254958.500
  20
4590388.500
  0
VERTEX
  8
Unknown_Area_Type
  10
252696.500
  20
4590240.500
  0
VERTEX
  8
Unknown_Area_Type
  10
252208.500
  20
4590502.500
  0
VERTEX
  8
Unknown_Area_Type
  10
252413.000
  20
4595097.000
  0
VERTEX
  8
Unknown_Area_Type
  10
253168.500
  20
4595352.500
  0
VERTEX
  8
Unknown_Area_Type
  10
253170.000
  20
4595353.000
  0
SEQEND
  8
Unknown_Area_Type
  0
INSERT
  8
FeatureAttribs
  2
FEATURE
  41
1
  42
1
  43
1
  50
0
  10
253690.477
  20
4592761.551
 66
1
  0
ATTRIB
  8
FeatureAttribs
 70
0
  1
PNOA-H_AMS_1956-57_33k_ES_PAN_2
  2
NAME
  10
253690.477
  20
4592761.551
 40
34.52690
  0
SEQEND
  0
POLYLINE
  8
Unknown_Area_Type
  70
1
  66
1
  0
VERTEX
  8
Unknown_Area_Type
  10
253170.000
  20
4595353.000
  0
VERTEX
  8
Unknown_Area_Type
  10
253168.500
  20
4595352.500
  0
VERTEX
  8
Unknown_Area_Type
  10
252413.000
  20
4595097.000
  0
VERTEX
  8
Unknown_Area_Type
  10
252208.500
  20
4590502.500
  0
VERTEX
  8
Unknown_Area_Type
  10
252696.500
  20
4590240.500
  0
VERTEX
  8
Unknown_Area_Type
  10
254958.500
  20
4590388.500
  0
VERTEX
  8
Unknown_Area_Type
  10
255237.000
  20
4594957.000
  0
VERTEX
  8
Unknown_Area_Type
  10
253170.000
  20
4595353.000
  0
SEQEND
  8
Unknown_Area_Type
  0
INSERT
  8
FeatureAttribs
  2
FEATURE
  41
1
  42
1
  43
1
  50
0
  10
250911.430
  20
4592890.504
 66
1
  0
ATTRIB
  8
FeatureAttribs
 70
0
  1
PNOA-H_AMS_1956-57_33k_ES_PAN_2
  2
NAME
  10
250911.430
  20
4592890.504
 40
34.52690
  0
SEQEND
  0
POLYLINE
  8
Unknown_Area_Type
  70
1
  66
1
  0
VERTEX
  8
Unknown_Area_Type
  10
250446.500
  20
4595503.500
  0
VERTEX
  8
Unknown_Area_Type
  10
252413.000
  20
4595097.000
  0
VERTEX
  8
Unknown_Area_Type
  10
252208.500
  20
4590502.500
  0
VERTEX
  8
Unknown_Area_Type
  10
249831.000
  20
4590377.000
  0
VERTEX
  8
Unknown_Area_Type
  10
249466.000
  20
4590569.500
  0
VERTEX
  8
Unknown_Area_Type
  10
249608.500
  20
4595197.500
  0
VERTEX
  8
Unknown_Area_Type
  10
250445.500
  20
4595503.000
  0
VERTEX
  8
Unknown_Area_Type
  10
250446.500
  20
4595503.500
  0
SEQEND
  8
Unknown_Area_Type
  0
INSERT
  8
FeatureAttribs
  2
FEATURE
  41
1
  42
1
  43
1
  50
0
  10
250911.430
  20
4592890.504
 66
1
  0
ATTRIB
  8
FeatureAttribs
 70
0
  1
PNOA-H_AMS_1956-57_33k_ES_PAN_2
  2
NAME
  10
250911.430
  20
4592890.504
 40
34.52690
  0
SEQEND
  0
POLYLINE
  8
Unknown_Area_Type
  70
1
  66
1
  0
VERTEX
  8
Unknown_Area_Type
  10
250446.500
  20
4595503.500
  0
VERTEX
  8
Unknown_Area_Type
  10
250445.500
  20
4595503.000
  0
VERTEX
  8
Unknown_Area_Type
  10
249608.500
  20
4595197.500
  0
VERTEX
  8
Unknown_Area_Type
  10
249466.000
  20
4590569.500
  0
VERTEX
  8
Unknown_Area_Type
  10
249831.000
  20
4590377.000
  0
VERTEX
  8
Unknown_Area_Type
  10
252208.500
  20
4590502.500
  0
VERTEX
  8
Unknown_Area_Type
  10
252413.000
  20
4595097.000
  0
VERTEX
  8
Unknown_Area_Type
  10
250446.500
  20
4595503.500
  0
SEQEND
  8
Unknown_Area_Type
  0
INSERT
  8
FeatureAttribs
  2
FEATURE
  41
1
  42
1
  43
1
  50
0
  10
242691.269
  20
4593128.045
 66
1
  0
ATTRIB
  8
FeatureAttribs
 70
0
  1
PNOA-H_AMS_1956-57_33k_ES_PAN_2
  2
NAME
  10
242691.269
  20
4593128.045
 40
34.52690
  0
SEQEND
  0
POLYLINE
  8
Unknown_Area_Type
  70
1
  66
1
  0
VERTEX
  8
Unknown_Area_Type
  10
242128.000
  20
4595813.500
  0
VERTEX
  8
Unknown_Area_Type
  10
244151.500
  20
4595458.000
  0
VERTEX
  8
Unknown_Area_Type
  10
244012.000
  20
4590701.000
  0
VERTEX
  8
Unknown_Area_Type
  10
241783.500
  20
4590472.500
  0
VERTEX
  8
Unknown_Area_Type
  10
241302.500
  20
4590680.000
  0
VERTEX
  8
Unknown_Area_Type
  10
241360.000
  20
4595512.500
  0
VERTEX
  8
Unknown_Area_Type
  10
242127.000
  20
4595813.000
  0
VERTEX
  8
Unknown_Area_Type
  10
242128.000
  20
4595813.500
  0
SEQEND
  8
Unknown_Area_Type
  0
INSERT
  8
FeatureAttribs
  2
FEATURE
  41
1
  42
1
  43
1
  50
0
  10
242691.269
  20
4593128.045
 66
1
  0
ATTRIB
  8
FeatureAttribs
 70
0
  1
PNOA-H_AMS_1956-57_33k_ES_PAN_2
  2
NAME
  10
242691.269
  20
4593128.045
 40
34.52690
  0
SEQEND
  0
POLYLINE
  8
Unknown_Area_Type
  70
1
  66
1
  0
VERTEX
  8
Unknown_Area_Type
  10
242128.000
  20
4595813.500
  0
VERTEX
  8
Unknown_Area_Type
  10
242127.000
  20
4595813.000
  0
VERTEX
  8
Unknown_Area_Type
  10
241360.000
  20
4595512.500
  0
VERTEX
  8
Unknown_Area_Type
  10
241302.500
  20
4590680.000
  0
VERTEX
  8
Unknown_Area_Type
  10
241783.500
  20
4590472.500
  0
VERTEX
  8
Unknown_Area_Type
  10
244012.000
  20
4590701.000
  0
VERTEX
  8
Unknown_Area_Type
  10
244151.500
  20
4595458.000
  0
VERTEX
  8
Unknown_Area_Type
  10
242128.000
  20
4595813.500
  0
SEQEND
  8
Unknown_Area_Type
  0
INSERT
  8
FeatureAttribs
  2
FEATURE
  41
1
  42
1
  43
1
  50
0
  10
237164.926
  20
4593132.787
 66
1
  0
ATTRIB
  8
FeatureAttribs
 70
0
  1
PNOA-H_AMS_1956-57_33k_ES_PAN_2
  2
NAME
  10
237164.926
  20
4593132.787
 40
34.52690
  0
SEQEND
  0
POLYLINE
  8
Unknown_Area_Type
  70
1
  66
1
  0
VERTEX
  8
Unknown_Area_Type
  10
236408.000
  20
4595814.000
  0
VERTEX
  8
Unknown_Area_Type
  10
238573.000
  20
4595514.500
  0
VERTEX
  8
Unknown_Area_Type
  10
238579.500
  20
4590688.000
  0
VERTEX
  8
Unknown_Area_Type
  10
236402.000
  20
4590459.500
  0
VERTEX
  8
Unknown_Area_Type
  10
235816.000
  20
4590721.000
  0
VERTEX
  8
Unknown_Area_Type
  10
235744.000
  20
4595537.000
  0
VERTEX
  8
Unknown_Area_Type
  10
236407.000
  20
4595813.500
  0
VERTEX
  8
Unknown_Area_Type
  10
236408.000
  20
4595814.000
  0
SEQEND
  8
Unknown_Area_Type
  0
INSERT
  8
FeatureAttribs
  2
FEATURE
  41
1
  42
1
  43
1
  50
0
  10
237164.926
  20
4593132.787
 66
1
  0
ATTRIB
  8
FeatureAttribs
 70
0
  1
PNOA-H_AMS_1956-57_33k_ES_PAN_2
  2
NAME
  10
237164.926
  20
4593132.787
 40
34.52690
  0
SEQEND
  0
POLYLINE
  8
Unknown_Area_Type
  70
1
  66
1
  0
VERTEX
  8
Unknown_Area_Type
  10
236408.000
  20
4595814.000
  0
VERTEX
  8
Unknown_Area_Type
  10
236407.000
  20
4595813.500
  0
VERTEX
  8
Unknown_Area_Type
  10
235744.000
  20
4595537.000
  0
VERTEX
  8
Unknown_Area_Type
  10
235816.000
  20
4590721.000
  0
VERTEX
  8
Unknown_Area_Type
  10
236402.000
  20
4590459.500
  0
VERTEX
  8
Unknown_Area_Type
  10
238579.500
  20
4590688.000
  0
VERTEX
  8
Unknown_Area_Type
  10
238573.000
  20
4595514.500
  0
VERTEX
  8
Unknown_Area_Type
  10
236408.000
  20
4595814.000
  0
SEQEND
  8
Unknown_Area_Type
  0
INSERT
  8
FeatureAttribs
  2
FEATURE
  41
1
  42
1
  43
1
  50
0
  10
256500.951
  20
4592612.515
 66
1
  0
ATTRIB
  8
FeatureAttribs
 70
0
  1
PNOA-H_AMS_1956-57_33k_ES_PAN_2
  2
NAME
  10
256500.951
  20
4592612.515
 40
34.52690
  0
SEQEND
  0
POLYLINE
  8
Unknown_Area_Type
  70
1
  66
1
  0
VERTEX
  8
Unknown_Area_Type
  10
255888.500
  20
4595197.500
  0
VERTEX
  8
Unknown_Area_Type
  10
255901.000
  20
4595196.000
  0
VERTEX
  8
Unknown_Area_Type
  10
258104.500
  20
4594788.500
  0
VERTEX
  8
Unknown_Area_Type
  10
257758.500
  20
4590226.500
  0
VERTEX
  8
Unknown_Area_Type
  10
255435.500
  20
4590126.500
  0
VERTEX
  8
Unknown_Area_Type
  10
254958.500
  20
4590388.500
  0
VERTEX
  8
Unknown_Area_Type
  10
255237.000
  20
4594957.000
  0
VERTEX
  8
Unknown_Area_Type
  10
255887.000
  20
4595197.000
  0
VERTEX
  8
Unknown_Area_Type
  10
255888.500
  20
4595197.500
  0
SEQEND
  8
Unknown_Area_Type
  0
INSERT
  8
FeatureAttribs
  2
FEATURE
  41
1
  42
1
  43
1
  50
0
  10
256500.951
  20
4592612.515
 66
1
  0
ATTRIB
  8
FeatureAttribs
 70
0
  1
PNOA-H_AMS_1956-57_33k_ES_PAN_2
  2
NAME
  10
256500.951
  20
4592612.515
 40
34.52690
  0
SEQEND
  0
POLYLINE
  8
Unknown_Area_Type
  70
1
  66
1
  0
VERTEX
  8
Unknown_Area_Type
  10
255888.500
  20
4595197.500
  0
VERTEX
  8
Unknown_Area_Type
  10
255887.000
  20
4595197.000
  0
VERTEX
  8
Unknown_Area_Type
  10
255237.000
  20
4594957.000
  0
VERTEX
  8
Unknown_Area_Type
  10
254958.500
  20
4590388.500
  0
VERTEX
  8
Unknown_Area_Type
  10
255435.500
  20
4590126.500
  0
VERTEX
  8
Unknown_Area_Type
  10
257758.500
  20
4590226.500
  0
VERTEX
  8
Unknown_Area_Type
  10
258104.500
  20
4594788.500
  0
VERTEX
  8
Unknown_Area_Type
  10
255901.000
  20
4595196.000
  0
VERTEX
  8
Unknown_Area_Type
  10
255888.500
  20
4595197.500
  0
SEQEND
  8
Unknown_Area_Type
  0
INSERT
  8
FeatureAttribs
  2
FEATURE
  41
1
  42
1
  43
1
  50
0
  10
239941.275
  20
4593128.198
 66
1
  0
ATTRIB
  8
FeatureAttribs
 70
0
  1
PNOA-H_AMS_1956-57_33k_ES_PAN_2
  2
NAME
  10
239941.275
  20
4593128.198
 40
34.52690
  0
SEQEND
  0
POLYLINE
  8
Unknown_Area_Type
  70
1
  66
1
  0
VERTEX
  8
Unknown_Area_Type
  10
241298.000
  20
4595521.000
  0
VERTEX
  8
Unknown_Area_Type
  10
241360.000
  20
4595512.000
  0
VERTEX
  8
Unknown_Area_Type
  10
241302.500
  20
4590680.500
  0
VERTEX
  8
Unknown_Area_Type
  10
239094.500
  20
4590462.500
  0
VERTEX
  8
Unknown_Area_Type
  10
238579.500
  20
4590688.000
  0
VERTEX
  8
Unknown_Area_Type
  10
238573.000
  20
4595514.500
  0
VERTEX
  8
Unknown_Area_Type
  10
239289.000
  20
4595813.000
  0
VERTEX
  8
Unknown_Area_Type
  10
241294.000
  20
4595521.500
  0
VERTEX
  8
Unknown_Area_Type
  10
241298.000
  20
4595521.000
  0
SEQEND
  8
Unknown_Area_Type
  0
INSERT
  8
FeatureAttribs
  2
FEATURE
  41
1
  42
1
  43
1
  50
0
  10
239941.275
  20
4593128.198
 66
1
  0
ATTRIB
  8
FeatureAttribs
 70
0
  1
PNOA-H_AMS_1956-57_33k_ES_PAN_2
  2
NAME
  10
239941.275
  20
4593128.198
 40
34.52690
  0
SEQEND
  0
POLYLINE
  8
Unknown_Area_Type
  70
1
  66
1
  0
VERTEX
  8
Unknown_Area_Type
  10
241298.000
  20
4595521.000
  0
VERTEX
  8
Unknown_Area_Type
  10
241294.000
  20
4595521.500
  0
VERTEX
  8
Unknown_Area_Type
  10
239289.000
  20
4595813.000
  0
VERTEX
  8
Unknown_Area_Type
  10
238573.000
  20
4595514.500
  0
VERTEX
  8
Unknown_Area_Type
  10
238579.500
  20
4590688.000
  0
VERTEX
  8
Unknown_Area_Type
  10
239094.500
  20
4590462.500
  0
VERTEX
  8
Unknown_Area_Type
  10
241302.500
  20
4590680.500
  0
VERTEX
  8
Unknown_Area_Type
  10
241360.000
  20
4595512.000
  0
VERTEX
  8
Unknown_Area_Type
  10
241298.000
  20
4595521.000
  0
SEQEND
  8
Unknown_Area_Type
  0
INSERT
  8
FeatureAttribs
  2
FEATURE
  41
1
  42
1
  43
1
  50
0
  10
233493.583
  20
4593153.082
 66
1
  0
ATTRIB
  8
FeatureAttribs
 70
0
  1
PNOA-H_AMS_1956-57_33k_ES_PAN_2
  2
NAME
  10
233493.583
  20
4593153.082
 40
34.52690
  0
SEQEND
  0
POLYLINE
  8
Unknown_Area_Type
  70
1
  66
1
  0
VERTEX
  8
Unknown_Area_Type
  10
233820.684
  20
4595788.196
  0
VERTEX
  8
Unknown_Area_Type
  10
233774.802
  20
4594544.058
  0
VERTEX
  8
Unknown_Area_Type
  10
233689.524
  20
4592230.732
  0
VERTEX
  8
Unknown_Area_Type
  10
233625.443
  20
4590491.664
  0
VERTEX
  8
Unknown_Area_Type
  10
233263.640
  20
4590644.852
  0
VERTEX
  8
Unknown_Area_Type
  10
233263.640
  20
4595663.137
  0
VERTEX
  8
Unknown_Area_Type
  10
233619.500
  20
4595814.500
  0
VERTEX
  8
Unknown_Area_Type
  10
233820.684
  20
4595788.196
  0
SEQEND
  8
Unknown_Area_Type
  0
INSERT
  8
FeatureAttribs
  2
FEATURE
  41
1
  42
1
  43
1
  50
0
  10
234734.167
  20
4593078.752
 66
1
  0
ATTRIB
  8
FeatureAttribs
 70
0
  1
PNOA-H_AMS_1956-57_33k_ES_PAN_2
  2
NAME
  10
234734.167
  20
4593078.752
 40
34.52690
  0
SEQEND
  0
POLYLINE
  8
Unknown_Area_Type
  70
1
  66
1
  0
VERTEX
  8
Unknown_Area_Type
  10
233820.684
  20
4595788.196
  0
VERTEX
  8
Unknown_Area_Type
  10
235153.000
  20
4595614.000
  0
VERTEX
  8
Unknown_Area_Type
  10
235154.000
  20
4595614.000
  0
VERTEX
  8
Unknown_Area_Type
  10
235744.000
  20
4595537.000
  0
VERTEX
  8
Unknown_Area_Type
  10
235816.000
  20
4590721.500
  0
VERTEX
  8
Unknown_Area_Type
  10
233646.500
  20
4590485.000
  0
VERTEX
  8
Unknown_Area_Type
  10
233640.000
  20
4590485.500
  0
VERTEX
  8
Unknown_Area_Type
  10
233625.443
  20
4590491.664
  0
VERTEX
  8
Unknown_Area_Type
  10
233689.524
  20
4592230.732
  0
VERTEX
  8
Unknown_Area_Type
  10
233774.802
  20
4594544.058
  0
VERTEX
  8
Unknown_Area_Type
  10
233820.684
  20
4595788.196
  0
SEQEND
  8
Unknown_Area_Type
  0
INSERT
  8
FeatureAttribs
  2
FEATURE
  41
1
  42
1
  43
1
  50
0
  10
234734.167
  20
4593078.752
 66
1
  0
ATTRIB
  8
FeatureAttribs
 70
0
  1
PNOA-H_AMS_1956-57_33k_ES_PAN_2
  2
NAME
  10
234734.167
  20
4593078.752
 40
34.52690
  0
SEQEND
  0
POLYLINE
  8
Unknown_Area_Type
  70
1
  66
1
  0
VERTEX
  8
Unknown_Area_Type
  10
233820.684
  20
4595788.196
  0
VERTEX
  8
Unknown_Area_Type
  10
233774.802
  20
4594544.058
  0
VERTEX
  8
Unknown_Area_Type
  10
233689.524
  20
4592230.732
  0
VERTEX
  8
Unknown_Area_Type
  10
233625.443
  20
4590491.664
  0
VERTEX
  8
Unknown_Area_Type
  10
233640.000
  20
4590485.500
  0
VERTEX
  8
Unknown_Area_Type
  10
233646.500
  20
4590485.000
  0
VERTEX
  8
Unknown_Area_Type
  10
235816.000
  20
4590721.500
  0
VERTEX
  8
Unknown_Area_Type
  10
235744.000
  20
4595537.000
  0
VERTEX
  8
Unknown_Area_Type
  10
235154.000
  20
4595614.000
  0
VERTEX
  8
Unknown_Area_Type
  10
235153.000
  20
4595614.000
  0
VERTEX
  8
Unknown_Area_Type
  10
233820.684
  20
4595788.196
  0
SEQEND
  8
Unknown_Area_Type
  0
INSERT
  8
FeatureAttribs
  2
FEATURE
  41
1
  42
1
  43
1
  50
0
  10
245428.200
  20
4593067.153
 66
1
  0
ATTRIB
  8
FeatureAttribs
 70
0
  1
PNOA-H_AMS_1956-57_33k_ES_PAN_2
  2
NAME
  10
245428.200
  20
4593067.153
 40
34.52690
  0
SEQEND
  0
POLYLINE
  8
Unknown_Area_Type
  70
1
  66
1
  0
VERTEX
  8
Unknown_Area_Type
  10
244848.500
  20
4595716.000
  0
VERTEX
  8
Unknown_Area_Type
  10
246914.500
  20
4595353.000
  0
VERTEX
  8
Unknown_Area_Type
  10
246696.000
  20
4590666.500
  0
VERTEX
  8
Unknown_Area_Type
  10
244571.000
  20
4590445.000
  0
VERTEX
  8
Unknown_Area_Type
  10
244012.000
  20
4590701.000
  0
VERTEX
  8
Unknown_Area_Type
  10
244151.500
  20
4595458.000
  0
VERTEX
  8
Unknown_Area_Type
  10
244847.500
  20
4595715.500
  0
VERTEX
  8
Unknown_Area_Type
  10
244848.500
  20
4595716.000
  0
SEQEND
  8
Unknown_Area_Type
  0
INSERT
  8
FeatureAttribs
  2
FEATURE
  41
1
  42
1
  43
1
  50
0
  10
245428.200
  20
4593067.153
 66
1
  0
ATTRIB
  8
FeatureAttribs
 70
0
  1
PNOA-H_AMS_1956-57_33k_ES_PAN_2
  2
NAME
  10
245428.200
  20
4593067.153
 40
34.52690
  0
SEQEND
  0
POLYLINE
  8
Unknown_Area_Type
  70
1
  66
1
  0
VERTEX
  8
Unknown_Area_Type
  10
244848.500
  20
4595716.000
  0
VERTEX
  8
Unknown_Area_Type
  10
244847.500
  20
4595715.500
  0
VERTEX
  8
Unknown_Area_Type
  10
244151.500
  20
4595458.000
  0
VERTEX
  8
Unknown_Area_Type
  10
244012.000
  20
4590701.000
  0
VERTEX
  8
Unknown_Area_Type
  10
244571.000
  20
4590445.000
  0
VERTEX
  8
Unknown_Area_Type
  10
246696.000
  20
4590666.500
  0
VERTEX
  8
Unknown_Area_Type
  10
246914.500
  20
4595353.000
  0
VERTEX
  8
Unknown_Area_Type
  10
244848.500
  20
4595716.000
  0
SEQEND
  8
Unknown_Area_Type
  0
INSERT
  8
FeatureAttribs
  2
FEATURE
  41
1
  42
1
  43
1
  50
0
  10
248155.818
  20
4592949.228
 66
1
  0
ATTRIB
  8
FeatureAttribs
 70
0
  1
PNOA-H_AMS_1956-57_33k_ES_PAN_2
  2
NAME
  10
248155.818
  20
4592949.228
 40
34.52690
  0
SEQEND
  0
POLYLINE
  8
Unknown_Area_Type
  70
1
  66
1
  0
VERTEX
  8
Unknown_Area_Type
  10
247589.000
  20
4595588.000
  0
VERTEX
  8
Unknown_Area_Type
  10
249608.500
  20
4595197.500
  0
VERTEX
  8
Unknown_Area_Type
  10
249467.000
  20
4590600.000
  0
VERTEX
  8
Unknown_Area_Type
  10
249466.000
  20
4590570.000
  0
VERTEX
  8
Unknown_Area_Type
  10
249465.000
  20
4590569.500
  0
VERTEX
  8
Unknown_Area_Type
  10
247232.000
  20
4590427.000
  0
VERTEX
  8
Unknown_Area_Type
  10
246696.000
  20
4590666.500
  0
VERTEX
  8
Unknown_Area_Type
  10
246914.500
  20
4595353.000
  0
VERTEX
  8
Unknown_Area_Type
  10
247587.500
  20
4595587.500
  0
VERTEX
  8
Unknown_Area_Type
  10
247589.000
  20
4595588.000
  0
SEQEND
  8
Unknown_Area_Type
  0
INSERT
  8
FeatureAttribs
  2
FEATURE
  41
1
  42
1
  43
1
  50
0
  10
248155.818
  20
4592949.228
 66
1
  0
ATTRIB
  8
FeatureAttribs
 70
0
  1
PNOA-H_AMS_1956-57_33k_ES_PAN_2
  2
NAME
  10
248155.818
  20
4592949.228
 40
34.52690
  0
SEQEND
  0
POLYLINE
  8
Unknown_Area_Type
  70
1
  66
1
  0
VERTEX
  8
Unknown_Area_Type
  10
247589.000
  20
4595588.000
  0
VERTEX
  8
Unknown_Area_Type
  10
247587.500
  20
4595587.500
  0
VERTEX
  8
Unknown_Area_Type
  10
246914.500
  20
4595353.000
  0
VERTEX
  8
Unknown_Area_Type
  10
246696.000
  20
4590666.500
  0
VERTEX
  8
Unknown_Area_Type
  10
247232.000
  20
4590427.000
  0
VERTEX
  8
Unknown_Area_Type
  10
249465.000
  20
4590569.500
  0
VERTEX
  8
Unknown_Area_Type
  10
249466.000
  20
4590570.000
  0
VERTEX
  8
Unknown_Area_Type
  10
249467.000
  20
4590600.000
  0
VERTEX
  8
Unknown_Area_Type
  10
249608.500
  20
4595197.500
  0
VERTEX
  8
Unknown_Area_Type
  10
247589.000
  20
4595588.000
  0
SEQEND
  8
Unknown_Area_Type
  0
INSERT
  8
FeatureAttribs
  2
FEATURE
  41
1
  42
1
  43
1
  50
0
  10
261161.932
  20
4592158.339
 66
1
  0
ATTRIB
  8
FeatureAttribs
 70
0
  1
PNOA-H_AMS_1956-57_33k_ES_PAN_2
  2
NAME
  10
261161.932
  20
4592158.339
 40
34.52690
  0
SEQEND
  0
POLYLINE
  8
Unknown_Area_Type
  70
1
  66
1
  0
VERTEX
  8
Unknown_Area_Type
  10
261657.428
  20
4594753.818
  0
VERTEX
  8
Unknown_Area_Type
  10
261618.384
  20
4593571.214
  0
VERTEX
  8
Unknown_Area_Type
  10
261542.043
  20
4591257.976
  0
VERTEX
  8
Unknown_Area_Type
  10
261492.472
  20
4589755.260
  0
VERTEX
  8
Unknown_Area_Type
  10
261138.500
  20
4589733.000
  0
VERTEX
  8
Unknown_Area_Type
  10
261134.000
  20
4589733.000
  0
VERTEX
  8
Unknown_Area_Type
  10
261128.500
  20
4589736.000
  0
VERTEX
  8
Unknown_Area_Type
  10
260557.000
  20
4590069.000
  0
VERTEX
  8
Unknown_Area_Type
  10
260944.500
  20
4594606.500
  0
VERTEX
  8
Unknown_Area_Type
  10
260945.000
  20
4594609.500
  0
VERTEX
  8
Unknown_Area_Type
  10
260953.500
  20
4594613.000
  0
VERTEX
  8
Unknown_Area_Type
  10
261416.000
  20
4594794.000
  0
VERTEX
  8
Unknown_Area_Type
  10
261657.428
  20
4594753.818
  0
SEQEND
  8
Unknown_Area_Type
  0
INSERT
  8
FeatureAttribs
  2
FEATURE
  41
1
  42
1
  43
1
  50
0
  10
261161.932
  20
4592158.339
 66
1
  0
ATTRIB
  8
FeatureAttribs
 70
0
  1
PNOA-H_AMS_1956-57_33k_ES_PAN_2
  2
NAME
  10
261161.932
  20
4592158.339
 40
34.52690
  0
SEQEND
  0
POLYLINE
  8
Unknown_Area_Type
  70
1
  66
1
  0
VERTEX
  8
Unknown_Area_Type
  10
261657.428
  20
4594753.818
  0
VERTEX
  8
Unknown_Area_Type
  10
261416.000
  20
4594794.000
  0
VERTEX
  8
Unknown_Area_Type
  10
260953.500
  20
4594613.000
  0
VERTEX
  8
Unknown_Area_Type
  10
260945.000
  20
4594609.500
  0
VERTEX
  8
Unknown_Area_Type
  10
260944.500
  20
4594606.500
  0
VERTEX
  8
Unknown_Area_Type
  10
260557.000
  20
4590069.000
  0
VERTEX
  8
Unknown_Area_Type
  10
261128.500
  20
4589736.000
  0
VERTEX
  8
Unknown_Area_Type
  10
261134.000
  20
4589733.000
  0
VERTEX
  8
Unknown_Area_Type
  10
261138.500
  20
4589733.000
  0
VERTEX
  8
Unknown_Area_Type
  10
261492.472
  20
4589755.260
  0
VERTEX
  8
Unknown_Area_Type
  10
261542.043
  20
4591257.976
  0
VERTEX
  8
Unknown_Area_Type
  10
261618.384
  20
4593571.214
  0
VERTEX
  8
Unknown_Area_Type
  10
261657.428
  20
4594753.818
  0
SEQEND
  8
Unknown_Area_Type
  0
INSERT
  8
FeatureAttribs
  2
FEATURE
  41
1
  42
1
  43
1
  50
0
  10
237288.857
  20
4581085.433
 66
1
  0
ATTRIB
  8
FeatureAttribs
 70
0
  1
PNOA-H_AMS_1956-57_33k_ES_PAN_2
  2
NAME
  10
237288.857
  20
4581085.433
 40
34.52690
  0
SEQEND
  0
POLYLINE
  8
Unknown_Area_Type
  70
1
  66
1
  0
VERTEX
  8
Unknown_Area_Type
  10
238745.672
  20
4580464.843
  0
VERTEX
  8
Unknown_Area_Type
  10
236750.872
  20
4580536.770
  0
VERTEX
  8
Unknown_Area_Type
  10
235819.724
  20
4580570.794
  0
VERTEX
  8
Unknown_Area_Type
  10
235863.500
  20
4581502.000
  0
VERTEX
  8
Unknown_Area_Type
  10
236771.500
  20
4581833.500
  0
VERTEX
  8
Unknown_Area_Type
  10
237200.500
  20
4581747.500
  0
VERTEX
  8
Unknown_Area_Type
  10
237202.000
  20
4581747.500
  0
VERTEX
  8
Unknown_Area_Type
  10
238797.500
  20
4581429.500
  0
VERTEX
  8
Unknown_Area_Type
  10
238799.500
  20
4581429.000
  0
VERTEX
  8
Unknown_Area_Type
  10
238799.500
  20
4581421.500
  0
VERTEX
  8
Unknown_Area_Type
  10
238745.672
  20
4580464.843
  0
SEQEND
  8
Unknown_Area_Type
  0
INSERT
  8
FeatureAttribs
  2
FEATURE
  41
1
  42
1
  43
1
  50
0
  10
237288.857
  20
4581085.433
 66
1
  0
ATTRIB
  8
FeatureAttribs
 70
0
  1
PNOA-H_AMS_1956-57_33k_ES_PAN_2
  2
NAME
  10
237288.857
  20
4581085.433
 40
34.52690
  0
SEQEND
  0
POLYLINE
  8
Unknown_Area_Type
  70
1
  66
1
  0
VERTEX
  8
Unknown_Area_Type
  10
238745.672
  20
4580464.843
  0
VERTEX
  8
Unknown_Area_Type
  10
238799.500
  20
4581421.500
  0
VERTEX
  8
Unknown_Area_Type
  10
238799.500
  20
4581429.000
  0
VERTEX
  8
Unknown_Area_Type
  10
238797.500
  20
4581429.500
  0
VERTEX
  8
Unknown_Area_Type
  10
237202.000
  20
4581747.500
  0
VERTEX
  8
Unknown_Area_Type
  10
237200.500
  20
4581747.500
  0
VERTEX
  8
Unknown_Area_Type
  10
236771.500
  20
4581833.500
  0
VERTEX
  8
Unknown_Area_Type
  10
235863.500
  20
4581502.000
  0
VERTEX
  8
Unknown_Area_Type
  10
235819.724
  20
4580570.794
  0
VERTEX
  8
Unknown_Area_Type
  10
236750.872
  20
4580536.770
  0
VERTEX
  8
Unknown_Area_Type
  10
238745.672
  20
4580464.843
  0
SEQEND
  8
Unknown_Area_Type
  0
INSERT
  8
FeatureAttribs
  2
FEATURE
  41
1
  42
1
  43
1
  50
0
  10
243125.454
  20
4580846.395
 66
1
  0
ATTRIB
  8
FeatureAttribs
 70
0
  1
PNOA-H_AMS_1956-57_33k_ES_PAN_2
  2
NAME
  10
243125.454
  20
4580846.395
 40
34.52690
  0
SEQEND
  0
POLYLINE
  8
Unknown_Area_Type
  70
1
  66
1
  0
VERTEX
  8
Unknown_Area_Type
  10
244579.726
  20
4580256.986
  0
VERTEX
  8
Unknown_Area_Type
  10
243725.227
  20
4580286.973
  0
VERTEX
  8
Unknown_Area_Type
  10
241646.966
  20
4580360.909
  0
VERTEX
  8
Unknown_Area_Type
  10
241714.500
  20
4581326.500
  0
VERTEX
  8
Unknown_Area_Type
  10
242112.500
  20
4581496.500
  0
VERTEX
  8
Unknown_Area_Type
  10
242129.000
  20
4581502.500
  0
VERTEX
  8
Unknown_Area_Type
  10
244650.000
  20
4581246.000
  0
VERTEX
  8
Unknown_Area_Type
  10
244579.726
  20
4580256.986
  0
SEQEND
  8
Unknown_Area_Type
  0
INSERT
  8
FeatureAttribs
  2
FEATURE
  41
1
  42
1
  43
1
  50
0
  10
243125.454
  20
4580846.395
 66
1
  0
ATTRIB
  8
FeatureAttribs
 70
0
  1
PNOA-H_AMS_1956-57_33k_ES_PAN_2
  2
NAME
  10
243125.454
  20
4580846.395
 40
34.52690
  0
SEQEND
  0
POLYLINE
  8
Unknown_Area_Type
  70
1
  66
1
  0
VERTEX
  8
Unknown_Area_Type
  10
244579.726
  20
4580256.986
  0
VERTEX
  8
Unknown_Area_Type
  10
244650.000
  20
4581246.000
  0
VERTEX
  8
Unknown_Area_Type
  10
242129.000
  20
4581502.500
  0
VERTEX
  8
Unknown_Area_Type
  10
242112.500
  20
4581496.500
  0
VERTEX
  8
Unknown_Area_Type
  10
241714.500
  20
4581326.500
  0
VERTEX
  8
Unknown_Area_Type
  10
241646.966
  20
4580360.909
  0
VERTEX
  8
Unknown_Area_Type
  10
243725.227
  20
4580286.973
  0
VERTEX
  8
Unknown_Area_Type
  10
244579.726
  20
4580256.986
  0
SEQEND
  8
Unknown_Area_Type
  0
INSERT
  8
FeatureAttribs
  2
FEATURE
  41
1
  42
1
  43
1
  50
0
  10
233273.012
  20
4581172.947
 66
1
  0
ATTRIB
  8
FeatureAttribs
 70
0
  1
PNOA-H_AMS_1956-57_33k_ES_PAN_2
  2
NAME
  10
233273.012
  20
4581172.947
 40
34.52690
  0
SEQEND
  0
POLYLINE
  8
Unknown_Area_Type
  70
1
  66
1
  0
VERTEX
  8
Unknown_Area_Type
  10
233301.100
  20
4581681.705
  0
VERTEX
  8
Unknown_Area_Type
  10
233263.668
  20
4580664.190
  0
VERTEX
  8
Unknown_Area_Type
  10
233263.640
  20
4580664.191
  0
VERTEX
  8
Unknown_Area_Type
  10
233263.640
  20
4581671.403
  0
VERTEX
  8
Unknown_Area_Type
  10
233301.100
  20
4581681.705
  0
SEQEND
  8
Unknown_Area_Type
  0
INSERT
  8
FeatureAttribs
  2
FEATURE
  41
1
  42
1
  43
1
  50
0
  10
234531.081
  20
4581187.936
 66
1
  0
ATTRIB
  8
FeatureAttribs
 70
0
  1
PNOA-H_AMS_1956-57_33k_ES_PAN_2
  2
NAME
  10
234531.081
  20
4581187.936
 40
34.52690
  0
SEQEND
  0
POLYLINE
  8
Unknown_Area_Type
  70
1
  66
1
  0
VERTEX
  8
Unknown_Area_Type
  10
235819.833
  20
4580570.790
  0
VERTEX
  8
Unknown_Area_Type
  10
233263.668
  20
4580664.190
  0
VERTEX
  8
Unknown_Area_Type
  10
233301.100
  20
4581681.705
  0
VERTEX
  8
Unknown_Area_Type
  10
234198.500
  20
4581928.500
  0
VERTEX
  8
Unknown_Area_Type
  10
235863.500
  20
4581502.000
  0
VERTEX
  8
Unknown_Area_Type
  10
235819.833
  20
4580570.790
  0
SEQEND
  8
Unknown_Area_Type
  0
INSERT
  8
FeatureAttribs
  2
FEATURE
  41
1
  42
1
  43
1
  50
0
  10
234531.081
  20
4581187.936
 66
1
  0
ATTRIB
  8
FeatureAttribs
 70
0
  1
PNOA-H_AMS_1956-57_33k_ES_PAN_2
  2
NAME
  10
234531.081
  20
4581187.936
 40
34.52690
  0
SEQEND
  0
POLYLINE
  8
Unknown_Area_Type
  70
1
  66
1
  0
VERTEX
  8
Unknown_Area_Type
  10
235819.833
  20
4580570.790
  0
VERTEX
  8
Unknown_Area_Type
  10
235863.500
  20
4581502.000
  0
VERTEX
  8
Unknown_Area_Type
  10
234198.500
  20
4581928.500
  0
VERTEX
  8
Unknown_Area_Type
  10
233301.100
  20
4581681.705
  0
VERTEX
  8
Unknown_Area_Type
  10
233263.668
  20
4580664.190
  0
VERTEX
  8
Unknown_Area_Type
  10
235819.833
  20
4580570.790
  0
SEQEND
  8
Unknown_Area_Type
  0
INSERT
  8
FeatureAttribs
  2
FEATURE
  41
1
  42
1
  43
1
  50
0
  10
251944.449
  20
4580446.814
 66
1
  0
ATTRIB
  8
FeatureAttribs
 70
0
  1
PNOA-H_AMS_1956-57_33k_ES_PAN_2
  2
NAME
  10
251944.449
  20
4580446.814
 40
34.52690
  0
SEQEND
  0
POLYLINE
  8
Unknown_Area_Type
  70
1
  66
1
  0
VERTEX
  8
Unknown_Area_Type
  10
253309.730
  20
4579954.809
  0
VERTEX
  8
Unknown_Area_Type
  10
250699.513
  20
4580043.898
  0
VERTEX
  8
Unknown_Area_Type
  10
250484.712
  20
4580051.332
  0
VERTEX
  8
Unknown_Area_Type
  10
250543.000
  20
4580838.000
  0
VERTEX
  8
Unknown_Area_Type
  10
251529.000
  20
4580903.000
  0
VERTEX
  8
Unknown_Area_Type
  10
251536.500
  20
4580903.500
  0
VERTEX
  8
Unknown_Area_Type
  10
252672.500
  20
4580978.000
  0
VERTEX
  8
Unknown_Area_Type
  10
253359.000
  20
4580665.000
  0
VERTEX
  8
Unknown_Area_Type
  10
253309.730
  20
4579954.809
  0
SEQEND
  8
Unknown_Area_Type
  0
INSERT
  8
FeatureAttribs
  2
FEATURE
  41
1
  42
1
  43
1
  50
0
  10
251944.449
  20
4580446.814
 66
1
  0
ATTRIB
  8
FeatureAttribs
 70
0
  1
PNOA-H_AMS_1956-57_33k_ES_PAN_2
  2
NAME
  10
251944.449
  20
4580446.814
 40
34.52690
  0
SEQEND
  0
POLYLINE
  8
Unknown_Area_Type
  70
1
  66
1
  0
VERTEX
  8
Unknown_Area_Type
  10
253309.730
  20
4579954.809
  0
VERTEX
  8
Unknown_Area_Type
  10
253359.000
  20
4580665.000
  0
VERTEX
  8
Unknown_Area_Type
  10
252672.500
  20
4580978.000
  0
VERTEX
  8
Unknown_Area_Type
  10
251536.500
  20
4580903.500
  0
VERTEX
  8
Unknown_Area_Type
  10
251529.000
  20
4580903.000
  0
VERTEX
  8
Unknown_Area_Type
  10
250543.000
  20
4580838.000
  0
VERTEX
  8
Unknown_Area_Type
  10
250484.712
  20
4580051.332
  0
VERTEX
  8
Unknown_Area_Type
  10
250699.513
  20
4580043.898
  0
VERTEX
  8
Unknown_Area_Type
  10
253309.730
  20
4579954.809
  0
SEQEND
  8
Unknown_Area_Type
  0
INSERT
  8
FeatureAttribs
  2
FEATURE
  41
1
  42
1
  43
1
  50
0
  10
246073.409
  20
4580725.352
 66
1
  0
ATTRIB
  8
FeatureAttribs
 70
0
  1
PNOA-H_AMS_1956-57_33k_ES_PAN_2
  2
NAME
  10
246073.409
  20
4580725.352
 40
34.52690
  0
SEQEND
  0
POLYLINE
  8
Unknown_Area_Type
  70
1
  66
1
  0
VERTEX
  8
Unknown_Area_Type
  10
247523.298
  20
4580153.834
  0
VERTEX
  8
Unknown_Area_Type
  10
247212.379
  20
4580164.596
  0
VERTEX
  8
Unknown_Area_Type
  10
244579.654
  20
4580256.988
  0
VERTEX
  8
Unknown_Area_Type
  10
244649.500
  20
4581241.500
  0
VERTEX
  8
Unknown_Area_Type
  10
244650.000
  20
4581246.000
  0
VERTEX
  8
Unknown_Area_Type
  10
244654.000
  20
4581248.000
  0
VERTEX
  8
Unknown_Area_Type
  10
244797.000
  20
4581314.500
  0
VERTEX
  8
Unknown_Area_Type
  10
244798.500
  20
4581315.000
  0
VERTEX
  8
Unknown_Area_Type
  10
247350.000
  20
4581191.500
  0
VERTEX
  8
Unknown_Area_Type
  10
247581.500
  20
4581060.000
  0
VERTEX
  8
Unknown_Area_Type
  10
247523.298
  20
4580153.834
  0
SEQEND
  8
Unknown_Area_Type
  0
INSERT
  8
FeatureAttribs
  2
FEATURE
  41
1
  42
1
  43
1
  50
0
  10
246073.409
  20
4580725.352
 66
1
  0
ATTRIB
  8
FeatureAttribs
 70
0
  1
PNOA-H_AMS_1956-57_33k_ES_PAN_2
  2
NAME
  10
246073.409
  20
4580725.352
 40
34.52690
  0
SEQEND
  0
POLYLINE
  8
Unknown_Area_Type
  70
1
  66
1
  0
VERTEX
  8
Unknown_Area_Type
  10
247523.298
  20
4580153.834
  0
VERTEX
  8
Unknown_Area_Type
  10
247581.500
  20
4581060.000
  0
VERTEX
  8
Unknown_Area_Type
  10
247350.000
  20
4581191.500
  0
VERTEX
  8
Unknown_Area_Type
  10
244798.500
  20
4581315.000
  0
VERTEX
  8
Unknown_Area_Type
  10
244797.000
  20
4581314.500
  0
VERTEX
  8
Unknown_Area_Type
  10
244654.000
  20
4581248.000
  0
VERTEX
  8
Unknown_Area_Type
  10
244650.000
  20
4581246.000
  0
VERTEX
  8
Unknown_Area_Type
  10
244649.500
  20
4581241.500
  0
VERTEX
  8
Unknown_Area_Type
  10
244579.654
  20
4580256.988
  0
VERTEX
  8
Unknown_Area_Type
  10
247212.379
  20
4580164.596
  0
VERTEX
  8
Unknown_Area_Type
  10
247523.298
  20
4580153.834
  0
SEQEND
  8
Unknown_Area_Type
  0
INSERT
  8
FeatureAttribs
  2
FEATURE
  41
1
  42
1
  43
1
  50
0
  10
257438.824
  20
4580177.968
 66
1
  0
ATTRIB
  8
FeatureAttribs
 70
0
  1
PNOA-H_AMS_1956-57_33k_ES_PAN_2
  2
NAME
  10
257438.824
  20
4580177.968
 40
34.52690
  0
SEQEND
  0
POLYLINE
  8
Unknown_Area_Type
  70
1
  66
1
  0
VERTEX
  8
Unknown_Area_Type
  10
258791.979
  20
4579770.452
  0
VERTEX
  8
Unknown_Area_Type
  10
257673.730
  20
4579807.542
  0
VERTEX
  8
Unknown_Area_Type
  10
256044.122
  20
4579862.377
  0
VERTEX
  8
Unknown_Area_Type
  10
256089.000
  20
4580485.000
  0
VERTEX
  8
Unknown_Area_Type
  10
256089.500
  20
4580486.000
  0
VERTEX
  8
Unknown_Area_Type
  10
256113.000
  20
4580488.000
  0
VERTEX
  8
Unknown_Area_Type
  10
257674.500
  20
4580616.500
  0
VERTEX
  8
Unknown_Area_Type
  10
257681.000
  20
4580617.000
  0
VERTEX
  8
Unknown_Area_Type
  10
257983.500
  20
4580641.500
  0
VERTEX
  8
Unknown_Area_Type
  10
258819.000
  20
4580276.000
  0
VERTEX
  8
Unknown_Area_Type
  10
258791.979
  20
4579770.452
  0
SEQEND
  8
Unknown_Area_Type
  0
INSERT
  8
FeatureAttribs
  2
FEATURE
  41
1
  42
1
  43
1
  50
0
  10
257438.824
  20
4580177.968
 66
1
  0
ATTRIB
  8
FeatureAttribs
 70
0
  1
PNOA-H_AMS_1956-57_33k_ES_PAN_2
  2
NAME
  10
257438.824
  20
4580177.968
 40
34.52690
  0
SEQEND
  0
POLYLINE
  8
Unknown_Area_Type
  70
1
  66
1
  0
VERTEX
  8
Unknown_Area_Type
  10
258791.979
  20
4579770.452
  0
VERTEX
  8
Unknown_Area_Type
  10
258819.000
  20
4580276.000
  0
VERTEX
  8
Unknown_Area_Type
  10
257983.500
  20
4580641.500
  0
VERTEX
  8
Unknown_Area_Type
  10
257681.000
  20
4580617.000
  0
VERTEX
  8
Unknown_Area_Type
  10
257674.500
  20
4580616.500
  0
VERTEX
  8
Unknown_Area_Type
  10
256113.000
  20
4580488.000
  0
VERTEX
  8
Unknown_Area_Type
  10
256089.500
  20
4580486.000
  0
VERTEX
  8
Unknown_Area_Type
  10
256089.000
  20
4580485.000
  0
VERTEX
  8
Unknown_Area_Type
  10
256044.122
  20
4579862.377
  0
VERTEX
  8
Unknown_Area_Type
  10
257673.730
  20
4579807.542
  0
VERTEX
  8
Unknown_Area_Type
  10
258791.979
  20
4579770.452
  0
SEQEND
  8
Unknown_Area_Type
  0
INSERT
  8
FeatureAttribs
  2
FEATURE
  41
1
  42
1
  43
1
  50
0
  10
240203.202
  20
4580959.400
 66
1
  0
ATTRIB
  8
FeatureAttribs
 70
0
  1
PNOA-H_AMS_1956-57_33k_ES_PAN_2
  2
NAME
  10
240203.202
  20
4580959.400
 40
34.52690
  0
SEQEND
  0
POLYLINE
  8
Unknown_Area_Type
  70
1
  66
1
  0
VERTEX
  8
Unknown_Area_Type
  10
241646.966
  20
4580360.909
  0
VERTEX
  8
Unknown_Area_Type
  10
240238.059
  20
4580411.032
  0
VERTEX
  8
Unknown_Area_Type
  10
238745.342
  20
4580464.855
  0
VERTEX
  8
Unknown_Area_Type
  10
238799.500
  20
4581429.000
  0
VERTEX
  8
Unknown_Area_Type
  10
239248.000
  20
4581600.000
  0
VERTEX
  8
Unknown_Area_Type
  10
239249.000
  20
4581600.500
  0
VERTEX
  8
Unknown_Area_Type
  10
239314.500
  20
4581625.500
  0
VERTEX
  8
Unknown_Area_Type
  10
239318.500
  20
4581625.500
  0
VERTEX
  8
Unknown_Area_Type
  10
240578.500
  20
4581504.000
  0
VERTEX
  8
Unknown_Area_Type
  10
241714.500
  20
4581326.500
  0
VERTEX
  8
Unknown_Area_Type
  10
241646.966
  20
4580360.909
  0
SEQEND
  8
Unknown_Area_Type
  0
INSERT
  8
FeatureAttribs
  2
FEATURE
  41
1
  42
1
  43
1
  50
0
  10
240203.202
  20
4580959.400
 66
1
  0
ATTRIB
  8
FeatureAttribs
 70
0
  1
PNOA-H_AMS_1956-57_33k_ES_PAN_2
  2
NAME
  10
240203.202
  20
4580959.400
 40
34.52690
  0
SEQEND
  0
POLYLINE
  8
Unknown_Area_Type
  70
1
  66
1
  0
VERTEX
  8
Unknown_Area_Type
  10
241646.966
  20
4580360.909
  0
VERTEX
  8
Unknown_Area_Type
  10
241714.500
  20
4581326.500
  0
VERTEX
  8
Unknown_Area_Type
  10
240578.500
  20
4581504.000
  0
VERTEX
  8
Unknown_Area_Type
  10
239318.500
  20
4581625.500
  0
VERTEX
  8
Unknown_Area_Type
  10
239314.500
  20
4581625.500
  0
VERTEX
  8
Unknown_Area_Type
  10
239249.000
  20
4581600.500
  0
VERTEX
  8
Unknown_Area_Type
  10
239248.000
  20
4581600.000
  0
VERTEX
  8
Unknown_Area_Type
  10
238799.500
  20
4581429.000
  0
VERTEX
  8
Unknown_Area_Type
  10
238745.342
  20
4580464.855
  0
VERTEX
  8
Unknown_Area_Type
  10
240238.059
  20
4580411.032
  0
VERTEX
  8
Unknown_Area_Type
  10
241646.966
  20
4580360.909
  0
SEQEND
  8
Unknown_Area_Type
  0
INSERT
  8
FeatureAttribs
  2
FEATURE
  41
1
  42
1
  43
1
  50
0
  10
260046.660
  20
4580056.961
 66
1
  0
ATTRIB
  8
FeatureAttribs
 70
0
  1
PNOA-H_AMS_1956-57_33k_ES_PAN_2
  2
NAME
  10
260046.660
  20
4580056.961
 40
34.52690
  0
SEQEND
  0
POLYLINE
  8
Unknown_Area_Type
  70
1
  66
1
  0
VERTEX
  8
Unknown_Area_Type
  10
261179.852
  20
4580269.932
  0
VERTEX
  8
Unknown_Area_Type
  10
261160.814
  20
4579691.883
  0
VERTEX
  8
Unknown_Area_Type
  10
258791.979
  20
4579770.452
  0
VERTEX
  8
Unknown_Area_Type
  10
258819.000
  20
4580276.000
  0
VERTEX
  8
Unknown_Area_Type
  10
260637.500
  20
4580482.000
  0
VERTEX
  8
Unknown_Area_Type
  10
260642.000
  20
4580482.500
  0
VERTEX
  8
Unknown_Area_Type
  10
261179.852
  20
4580269.932
  0
SEQEND
  8
Unknown_Area_Type
  0
INSERT
  8
FeatureAttribs
  2
FEATURE
  41
1
  42
1
  43
1
  50
0
  10
260046.660
  20
4580056.961
 66
1
  0
ATTRIB
  8
FeatureAttribs
 70
0
  1
PNOA-H_AMS_1956-57_33k_ES_PAN_2
  2
NAME
  10
260046.660
  20
4580056.961
 40
34.52690
  0
SEQEND
  0
POLYLINE
  8
Unknown_Area_Type
  70
1
  66
1
  0
VERTEX
  8
Unknown_Area_Type
  10
261179.852
  20
4580269.932
  0
VERTEX
  8
Unknown_Area_Type
  10
260642.000
  20
4580482.500
  0
VERTEX
  8
Unknown_Area_Type
  10
260637.500
  20
4580482.000
  0
VERTEX
  8
Unknown_Area_Type
  10
258819.000
  20
4580276.000
  0
VERTEX
  8
Unknown_Area_Type
  10
258791.979
  20
4579770.452
  0
VERTEX
  8
Unknown_Area_Type
  10
261160.814
  20
4579691.883
  0
VERTEX
  8
Unknown_Area_Type
  10
261179.852
  20
4580269.932
  0
SEQEND
  8
Unknown_Area_Type
  0
INSERT
  8
FeatureAttribs
  2
FEATURE
  41
1
  42
1
  43
1
  50
0
  10
249044.317
  20
4580585.833
 66
1
  0
ATTRIB
  8
FeatureAttribs
 70
0
  1
PNOA-H_AMS_1956-57_33k_ES_PAN_2
  2
NAME
  10
249044.317
  20
4580585.833
 40
34.52690
  0
SEQEND
  0
POLYLINE
  8
Unknown_Area_Type
  70
1
  66
1
  0
VERTEX
  8
Unknown_Area_Type
  10
250484.705
  20
4580051.333
  0
VERTEX
  8
Unknown_Area_Type
  10
247523.259
  20
4580153.835
  0
VERTEX
  8
Unknown_Area_Type
  10
247581.500
  20
4581059.500
  0
VERTEX
  8
Unknown_Area_Type
  10
249482.500
  20
4581103.000
  0
VERTEX
  8
Unknown_Area_Type
  10
249490.000
  20
4581103.000
  0
VERTEX
  8
Unknown_Area_Type
  10
249998.000
  20
4581114.500
  0
VERTEX
  8
Unknown_Area_Type
  10
250543.000
  20
4580838.000
  0
VERTEX
  8
Unknown_Area_Type
  10
250484.705
  20
4580051.333
  0
SEQEND
  8
Unknown_Area_Type
  0
INSERT
  8
FeatureAttribs
  2
FEATURE
  41
1
  42
1
  43
1
  50
0
  10
249044.317
  20
4580585.833
 66
1
  0
ATTRIB
  8
FeatureAttribs
 70
0
  1
PNOA-H_AMS_1956-57_33k_ES_PAN_2
  2
NAME
  10
249044.317
  20
4580585.833
 40
34.52690
  0
SEQEND
  0
POLYLINE
  8
Unknown_Area_Type
  70
1
  66
1
  0
VERTEX
  8
Unknown_Area_Type
  10
250484.705
  20
4580051.333
  0
VERTEX
  8
Unknown_Area_Type
  10
250543.000
  20
4580838.000
  0
VERTEX
  8
Unknown_Area_Type
  10
249998.000
  20
4581114.500
  0
VERTEX
  8
Unknown_Area_Type
  10
249490.000
  20
4581103.000
  0
VERTEX
  8
Unknown_Area_Type
  10
249482.500
  20
4581103.000
  0
VERTEX
  8
Unknown_Area_Type
  10
247581.500
  20
4581059.500
  0
VERTEX
  8
Unknown_Area_Type
  10
247523.259
  20
4580153.835
  0
VERTEX
  8
Unknown_Area_Type
  10
250484.705
  20
4580051.333
  0
SEQEND
  8
Unknown_Area_Type
  0
INSERT
  8
FeatureAttribs
  2
FEATURE
  41
1
  42
1
  43
1
  50
0
  10
254715.695
  20
4580314.794
 66
1
  0
ATTRIB
  8
FeatureAttribs
 70
0
  1
PNOA-H_AMS_1956-57_33k_ES_PAN_2
  2
NAME
  10
254715.695
  20
4580314.794
 40
34.52690
  0
SEQEND
  0
POLYLINE
  8
Unknown_Area_Type
  70
1
  66
1
  0
VERTEX
  8
Unknown_Area_Type
  10
256044.490
  20
4579862.364
  0
VERTEX
  8
Unknown_Area_Type
  10
254186.630
  20
4579924.880
  0
VERTEX
  8
Unknown_Area_Type
  10
253309.712
  20
4579954.810
  0
VERTEX
  8
Unknown_Area_Type
  10
253359.000
  20
4580665.000
  0
VERTEX
  8
Unknown_Area_Type
  10
255335.500
  20
4580815.500
  0
VERTEX
  8
Unknown_Area_Type
  10
255339.500
  20
4580815.500
  0
VERTEX
  8
Unknown_Area_Type
  10
255633.000
  20
4580686.000
  0
VERTEX
  8
Unknown_Area_Type
  10
255634.000
  20
4580685.500
  0
VERTEX
  8
Unknown_Area_Type
  10
256089.500
  20
4580486.000
  0
VERTEX
  8
Unknown_Area_Type
  10
256044.490
  20
4579862.364
  0
SEQEND
  8
Unknown_Area_Type
  0
INSERT
  8
FeatureAttribs
  2
FEATURE
  41
1
  42
1
  43
1
  50
0
  10
254715.695
  20
4580314.794
 66
1
  0
ATTRIB
  8
FeatureAttribs
 70
0
  1
PNOA-H_AMS_1956-57_33k_ES_PAN_2
  2
NAME
  10
254715.695
  20
4580314.794
 40
34.52690
  0
SEQEND
  0
POLYLINE
  8
Unknown_Area_Type
  70
1
  66
1
  0
VERTEX
  8
Unknown_Area_Type
  10
256044.490
  20
4579862.364
  0
VERTEX
  8
Unknown_Area_Type
  10
256089.500
  20
4580486.000
  0
VERTEX
  8
Unknown_Area_Type
  10
255634.000
  20
4580685.500
  0
VERTEX
  8
Unknown_Area_Type
  10
255633.000
  20
4580686.000
  0
VERTEX
  8
Unknown_Area_Type
  10
255339.500
  20
4580815.500
  0
VERTEX
  8
Unknown_Area_Type
  10
255335.500
  20
4580815.500
  0
VERTEX
  8
Unknown_Area_Type
  10
253359.000
  20
4580665.000
  0
VERTEX
  8
Unknown_Area_Type
  10
253309.712
  20
4579954.810
  0
VERTEX
  8
Unknown_Area_Type
  10
254186.630
  20
4579924.880
  0
VERTEX
  8
Unknown_Area_Type
  10
256044.490
  20
4579862.364
  0
SEQEND
  8
Unknown_Area_Type
  0
INSERT
  8
FeatureAttribs
  2
FEATURE
  41
1
  42
1
  43
1
  50
0
  10
233324.603
  20
4583977.368
 66
1
  0
ATTRIB
  8
FeatureAttribs
 70
0
  1
PNOA-H_AMS_1956-57_33k_ES_PAN_2
  2
NAME
  10
233324.603
  20
4583977.368
 40
34.52690
  0
SEQEND
  0
POLYLINE
  8
Unknown_Area_Type
  70
1
  66
1
  0
VERTEX
  8
Unknown_Area_Type
  10
233301.083
  20
4581681.253
  0
VERTEX
  8
Unknown_Area_Type
  10
233263.640
  20
4581670.952
  0
VERTEX
  8
Unknown_Area_Type
  10
233263.640
  20
4586248.517
  0
VERTEX
  8
Unknown_Area_Type
  10
233470.465
  20
4586283.784
  0
VERTEX
  8
Unknown_Area_Type
  10
233433.905
  20
4585290.789
  0
VERTEX
  8
Unknown_Area_Type
  10
233348.769
  20
4582977.486
  0
VERTEX
  8
Unknown_Area_Type
  10
233301.083
  20
4581681.253
  0
SEQEND
  8
Unknown_Area_Type
  0
INSERT
  8
FeatureAttribs
  2
FEATURE
  41
1
  42
1
  43
1
  50
0
  10
233791.286
  20
4583930.231
 66
1
  0
ATTRIB
  8
FeatureAttribs
 70
0
  1
PNOA-H_AMS_1956-57_33k_ES_PAN_2
  2
NAME
  10
233791.286
  20
4583930.231
 40
34.52690
  0
SEQEND
  0
POLYLINE
  8
Unknown_Area_Type
  70
1
  66
1
  0
VERTEX
  8
Unknown_Area_Type
  10
233470.465
  20
4586283.784
  0
VERTEX
  8
Unknown_Area_Type
  10
233568.500
  20
4586300.500
  0
VERTEX
  8
Unknown_Area_Type
  10
233571.500
  20
4586301.000
  0
VERTEX
  8
Unknown_Area_Type
  10
233574.000
  20
4586301.000
  0
VERTEX
  8
Unknown_Area_Type
  10
234237.500
  20
4585970.500
  0
VERTEX
  8
Unknown_Area_Type
  10
234198.000
  20
4581928.000
  0
VERTEX
  8
Unknown_Area_Type
  10
233301.083
  20
4581681.253
  0
VERTEX
  8
Unknown_Area_Type
  10
233348.769
  20
4582977.486
  0
VERTEX
  8
Unknown_Area_Type
  10
233433.905
  20
4585290.789
  0
VERTEX
  8
Unknown_Area_Type
  10
233470.465
  20
4586283.784
  0
SEQEND
  8
Unknown_Area_Type
  0
INSERT
  8
FeatureAttribs
  2
FEATURE
  41
1
  42
1
  43
1
  50
0
  10
233791.286
  20
4583930.231
 66
1
  0
ATTRIB
  8
FeatureAttribs
 70
0
  1
PNOA-H_AMS_1956-57_33k_ES_PAN_2
  2
NAME
  10
233791.286
  20
4583930.231
 40
34.52690
  0
SEQEND
  0
POLYLINE
  8
Unknown_Area_Type
  70
1
  66
1
  0
VERTEX
  8
Unknown_Area_Type
  10
233470.465
  20
4586283.784
  0
VERTEX
  8
Unknown_Area_Type
  10
233433.905
  20
4585290.789
  0
VERTEX
  8
Unknown_Area_Type
  10
233348.769
  20
4582977.486
  0
VERTEX
  8
Unknown_Area_Type
  10
233301.083
  20
4581681.253
  0
VERTEX
  8
Unknown_Area_Type
  10
234198.000
  20
4581928.000
  0
VERTEX
  8
Unknown_Area_Type
  10
234237.500
  20
4585970.500
  0
VERTEX
  8
Unknown_Area_Type
  10
233574.000
  20
4586301.000
  0
VERTEX
  8
Unknown_Area_Type
  10
233571.500
  20
4586301.000
  0
VERTEX
  8
Unknown_Area_Type
  10
233568.500
  20
4586300.500
  0
VERTEX
  8
Unknown_Area_Type
  10
233470.465
  20
4586283.784
  0
SEQEND
  8
Unknown_Area_Type
  0
INSERT
  8
FeatureAttribs
  2
FEATURE
  41
1
  42
1
  43
1
  50
0
  10
240041.437
  20
4583797.337
 66
1
  0
ATTRIB
  8
FeatureAttribs
 70
0
  1
PNOA-H_AMS_1956-57_33k_ES_PAN_2
  2
NAME
  10
240041.437
  20
4583797.337
 40
34.52690
  0
SEQEND
  0
POLYLINE
  8
Unknown_Area_Type
  70
1
  66
1
  0
VERTEX
  8
Unknown_Area_Type
  10
240639.500
  20
4582664.000
  0
VERTEX
  8
Unknown_Area_Type
  10
240580.500
  20
4581503.500
  0
VERTEX
  8
Unknown_Area_Type
  10
239315.500
  20
4581625.500
  0
VERTEX
  8
Unknown_Area_Type
  10
239441.000
  20
4585962.500
  0
VERTEX
  8
Unknown_Area_Type
  10
240809.500
  20
4585989.500
  0
VERTEX
  8
Unknown_Area_Type
  10
240639.500
  20
4582665.500
  0
VERTEX
  8
Unknown_Area_Type
  10
240639.500
  20
4582664.000
  0
SEQEND
  8
Unknown_Area_Type
  0
INSERT
  8
FeatureAttribs
  2
FEATURE
  41
1
  42
1
  43
1
  50
0
  10
240041.437
  20
4583797.337
 66
1
  0
ATTRIB
  8
FeatureAttribs
 70
0
  1
PNOA-H_AMS_1956-57_33k_ES_PAN_2
  2
NAME
  10
240041.437
  20
4583797.337
 40
34.52690
  0
SEQEND
  0
POLYLINE
  8
Unknown_Area_Type
  70
1
  66
1
  0
VERTEX
  8
Unknown_Area_Type
  10
240639.500
  20
4582664.000
  0
VERTEX
  8
Unknown_Area_Type
  10
240639.500
  20
4582665.500
  0
VERTEX
  8
Unknown_Area_Type
  10
240809.500
  20
4585989.500
  0
VERTEX
  8
Unknown_Area_Type
  10
239441.000
  20
4585962.500
  0
VERTEX
  8
Unknown_Area_Type
  10
239315.500
  20
4581625.500
  0
VERTEX
  8
Unknown_Area_Type
  10
240580.500
  20
4581503.500
  0
VERTEX
  8
Unknown_Area_Type
  10
240639.500
  20
4582664.000
  0
SEQEND
  8
Unknown_Area_Type
  0
INSERT
  8
FeatureAttribs
  2
FEATURE
  41
1
  42
1
  43
1
  50
0
  10
259483.786
  20
4582886.256
 66
1
  0
ATTRIB
  8
FeatureAttribs
 70
0
  1
PNOA-H_AMS_1956-57_33k_ES_PAN_2
  2
NAME
  10
259483.786
  20
4582886.256
 40
34.52690
  0
SEQEND
  0
POLYLINE
  8
Unknown_Area_Type
  70
1
  66
1
  0
VERTEX
  8
Unknown_Area_Type
  10
258334.000
  20
4585393.500
  0
VERTEX
  8
Unknown_Area_Type
  10
258334.000
  20
4585395.000
  0
VERTEX
  8
Unknown_Area_Type
  10
260872.500
  20
4585350.000
  0
VERTEX
  8
Unknown_Area_Type
  10
260879.000
  20
4585347.500
  0
VERTEX
  8
Unknown_Area_Type
  10
260995.500
  20
4585272.000
  0
VERTEX
  8
Unknown_Area_Type
  10
260643.000
  20
4580482.500
  0
VERTEX
  8
Unknown_Area_Type
  10
258818.500
  20
4580276.000
  0
VERTEX
  8
Unknown_Area_Type
  10
257982.500
  20
4580641.500
  0
VERTEX
  8
Unknown_Area_Type
  10
258334.000
  20
4585393.500
  0
SEQEND
  8
Unknown_Area_Type
  0
INSERT
  8
FeatureAttribs
  2
FEATURE
  41
1
  42
1
  43
1
  50
0
  10
259483.786
  20
4582886.256
 66
1
  0
ATTRIB
  8
FeatureAttribs
 70
0
  1
PNOA-H_AMS_1956-57_33k_ES_PAN_2
  2
NAME
  10
259483.786
  20
4582886.256
 40
34.52690
  0
SEQEND
  0
POLYLINE
  8
Unknown_Area_Type
  70
1
  66
1
  0
VERTEX
  8
Unknown_Area_Type
  10
258334.000
  20
4585393.500
  0
VERTEX
  8
Unknown_Area_Type
  10
257982.500
  20
4580641.500
  0
VERTEX
  8
Unknown_Area_Type
  10
258818.500
  20
4580276.000
  0
VERTEX
  8
Unknown_Area_Type
  10
260643.000
  20
4580482.500
  0
VERTEX
  8
Unknown_Area_Type
  10
260995.500
  20
4585272.000
  0
VERTEX
  8
Unknown_Area_Type
  10
260879.000
  20
4585347.500
  0
VERTEX
  8
Unknown_Area_Type
  10
260872.500
  20
4585350.000
  0
VERTEX
  8
Unknown_Area_Type
  10
258334.000
  20
4585395.000
  0
VERTEX
  8
Unknown_Area_Type
  10
258334.000
  20
4585393.500
  0
SEQEND
  8
Unknown_Area_Type
  0
INSERT
  8
FeatureAttribs
  2
FEATURE
  41
1
  42
1
  43
1
  50
0
  10
254140.827
  20
4583211.956
 66
1
  0
ATTRIB
  8
FeatureAttribs
 70
0
  1
PNOA-H_AMS_1956-57_33k_ES_PAN_2
  2
NAME
  10
254140.827
  20
4583211.956
 40
34.52690
  0
SEQEND
  0
POLYLINE
  8
Unknown_Area_Type
  70
1
  66
1
  0
VERTEX
  8
Unknown_Area_Type
  10
252930.500
  20
4585624.000
  0
VERTEX
  8
Unknown_Area_Type
  10
255246.000
  20
4585707.000
  0
VERTEX
  8
Unknown_Area_Type
  10
255260.000
  20
4585707.500
  0
VERTEX
  8
Unknown_Area_Type
  10
255271.000
  20
4585707.000
  0
VERTEX
  8
Unknown_Area_Type
  10
255616.000
  20
4585507.500
  0
VERTEX
  8
Unknown_Area_Type
  10
255339.000
  20
4580815.500
  0
VERTEX
  8
Unknown_Area_Type
  10
253365.500
  20
4580665.000
  0
VERTEX
  8
Unknown_Area_Type
  10
253358.000
  20
4580665.000
  0
VERTEX
  8
Unknown_Area_Type
  10
252672.000
  20
4580978.000
  0
VERTEX
  8
Unknown_Area_Type
  10
252930.500
  20
4585624.000
  0
SEQEND
  8
Unknown_Area_Type
  0
INSERT
  8
FeatureAttribs
  2
FEATURE
  41
1
  42
1
  43
1
  50
0
  10
254140.827
  20
4583211.956
 66
1
  0
ATTRIB
  8
FeatureAttribs
 70
0
  1
PNOA-H_AMS_1956-57_33k_ES_PAN_2
  2
NAME
  10
254140.827
  20
4583211.956
 40
34.52690
  0
SEQEND
  0
POLYLINE
  8
Unknown_Area_Type
  70
1
  66
1
  0
VERTEX
  8
Unknown_Area_Type
  10
252930.500
  20
4585624.000
  0
VERTEX
  8
Unknown_Area_Type
  10
252672.000
  20
4580978.000
  0
VERTEX
  8
Unknown_Area_Type
  10
253358.000
  20
4580665.000
  0
VERTEX
  8
Unknown_Area_Type
  10
253365.500
  20
4580665.000
  0
VERTEX
  8
Unknown_Area_Type
  10
255339.000
  20
4580815.500
  0
VERTEX
  8
Unknown_Area_Type
  10
255616.000
  20
4585507.500
  0
VERTEX
  8
Unknown_Area_Type
  10
255271.000
  20
4585707.000
  0
VERTEX
  8
Unknown_Area_Type
  10
255260.000
  20
4585707.500
  0
VERTEX
  8
Unknown_Area_Type
  10
255246.000
  20
4585707.000
  0
VERTEX
  8
Unknown_Area_Type
  10
252930.500
  20
4585624.000
  0
SEQEND
  8
Unknown_Area_Type
  0
INSERT
  8
FeatureAttribs
  2
FEATURE
  41
1
  42
1
  43
1
  50
0
  10
251461.543
  20
4583362.583
 66
1
  0
ATTRIB
  8
FeatureAttribs
 70
0
  1
PNOA-H_AMS_1956-57_33k_ES_PAN_2
  2
NAME
  10
251461.543
  20
4583362.583
 40
34.52690
  0
SEQEND
  0
POLYLINE
  8
Unknown_Area_Type
  70
1
  66
1
  0
VERTEX
  8
Unknown_Area_Type
  10
252484.500
  20
4585877.000
  0
VERTEX
  8
Unknown_Area_Type
  10
252492.000
  20
4585876.000
  0
VERTEX
  8
Unknown_Area_Type
  10
252930.500
  20
4585624.000
  0
VERTEX
  8
Unknown_Area_Type
  10
252672.000
  20
4580978.000
  0
VERTEX
  8
Unknown_Area_Type
  10
250556.000
  20
4580838.500
  0
VERTEX
  8
Unknown_Area_Type
  10
250542.500
  20
4580838.000
  0
VERTEX
  8
Unknown_Area_Type
  10
249998.000
  20
4581114.000
  0
VERTEX
  8
Unknown_Area_Type
  10
250239.500
  20
4585738.500
  0
VERTEX
  8
Unknown_Area_Type
  10
252476.500
  20
4585876.500
  0
VERTEX
  8
Unknown_Area_Type
  10
252484.500
  20
4585877.000
  0
SEQEND
  8
Unknown_Area_Type
  0
INSERT
  8
FeatureAttribs
  2
FEATURE
  41
1
  42
1
  43
1
  50
0
  10
251461.543
  20
4583362.583
 66
1
  0
ATTRIB
  8
FeatureAttribs
 70
0
  1
PNOA-H_AMS_1956-57_33k_ES_PAN_2
  2
NAME
  10
251461.543
  20
4583362.583
 40
34.52690
  0
SEQEND
  0
POLYLINE
  8
Unknown_Area_Type
  70
1
  66
1
  0
VERTEX
  8
Unknown_Area_Type
  10
252484.500
  20
4585877.000
  0
VERTEX
  8
Unknown_Area_Type
  10
252476.500
  20
4585876.500
  0
VERTEX
  8
Unknown_Area_Type
  10
250239.500
  20
4585738.500
  0
VERTEX
  8
Unknown_Area_Type
  10
249998.000
  20
4581114.000
  0
VERTEX
  8
Unknown_Area_Type
  10
250542.500
  20
4580838.000
  0
VERTEX
  8
Unknown_Area_Type
  10
250556.000
  20
4580838.500
  0
VERTEX
  8
Unknown_Area_Type
  10
252672.000
  20
4580978.000
  0
VERTEX
  8
Unknown_Area_Type
  10
252930.500
  20
4585624.000
  0
VERTEX
  8
Unknown_Area_Type
  10
252492.000
  20
4585876.000
  0
VERTEX
  8
Unknown_Area_Type
  10
252484.500
  20
4585877.000
  0
SEQEND
  8
Unknown_Area_Type
  0
INSERT
  8
FeatureAttribs
  2
FEATURE
  41
1
  42
1
  43
1
  50
0
  10
241437.889
  20
4583688.605
 66
1
  0
ATTRIB
  8
FeatureAttribs
 70
0
  1
PNOA-H_AMS_1956-57_33k_ES_PAN_2
  2
NAME
  10
241437.889
  20
4583688.605
 40
34.52690
  0
SEQEND
  0
POLYLINE
  8
Unknown_Area_Type
  70
1
  66
1
  0
VERTEX
  8
Unknown_Area_Type
  10
241888.500
  20
4586088.000
  0
VERTEX
  8
Unknown_Area_Type
  10
241893.500
  20
4586087.500
  0
VERTEX
  8
Unknown_Area_Type
  10
242232.000
  20
4585894.000
  0
VERTEX
  8
Unknown_Area_Type
  10
242127.500
  20
4581505.000
  0
VERTEX
  8
Unknown_Area_Type
  10
242127.000
  20
4581502.000
  0
VERTEX
  8
Unknown_Area_Type
  10
241716.000
  20
4581326.500
  0
VERTEX
  8
Unknown_Area_Type
  10
240582.500
  20
4581503.000
  0
VERTEX
  8
Unknown_Area_Type
  10
240580.500
  20
4581503.500
  0
VERTEX
  8
Unknown_Area_Type
  10
240580.500
  20
4581508.500
  0
VERTEX
  8
Unknown_Area_Type
  10
240809.000
  20
4585988.000
  0
VERTEX
  8
Unknown_Area_Type
  10
240809.500
  20
4585989.500
  0
VERTEX
  8
Unknown_Area_Type
  10
240812.500
  20
4585990.000
  0
VERTEX
  8
Unknown_Area_Type
  10
241883.000
  20
4586087.500
  0
VERTEX
  8
Unknown_Area_Type
  10
241888.500
  20
4586088.000
  0
SEQEND
  8
Unknown_Area_Type
  0
INSERT
  8
FeatureAttribs
  2
FEATURE
  41
1
  42
1
  43
1
  50
0
  10
241437.889
  20
4583688.605
 66
1
  0
ATTRIB
  8
FeatureAttribs
 70
0
  1
PNOA-H_AMS_1956-57_33k_ES_PAN_2
  2
NAME
  10
241437.889
  20
4583688.605
 40
34.52690
  0
SEQEND
  0
POLYLINE
  8
Unknown_Area_Type
  70
1
  66
1
  0
VERTEX
  8
Unknown_Area_Type
  10
241888.500
  20
4586088.000
  0
VERTEX
  8
Unknown_Area_Type
  10
241883.000
  20
4586087.500
  0
VERTEX
  8
Unknown_Area_Type
  10
240812.500
  20
4585990.000
  0
VERTEX
  8
Unknown_Area_Type
  10
240809.500
  20
4585989.500
  0
VERTEX
  8
Unknown_Area_Type
  10
240809.000
  20
4585988.000
  0
VERTEX
  8
Unknown_Area_Type
  10
240580.500
  20
4581508.500
  0
VERTEX
  8
Unknown_Area_Type
  10
240580.500
  20
4581503.500
  0
VERTEX
  8
Unknown_Area_Type
  10
240582.500
  20
4581503.000
  0
VERTEX
  8
Unknown_Area_Type
  10
241716.000
  20
4581326.500
  0
VERTEX
  8
Unknown_Area_Type
  10
242127.000
  20
4581502.000
  0
VERTEX
  8
Unknown_Area_Type
  10
242127.500
  20
4581505.000
  0
VERTEX
  8
Unknown_Area_Type
  10
242232.000
  20
4585894.000
  0
VERTEX
  8
Unknown_Area_Type
  10
241893.500
  20
4586087.500
  0
VERTEX
  8
Unknown_Area_Type
  10
241888.500
  20
4586088.000
  0
SEQEND
  8
Unknown_Area_Type
  0
INSERT
  8
FeatureAttribs
  2
FEATURE
  41
1
  42
1
  43
1
  50
0
  10
243534.247
  20
4583674.831
 66
1
  0
ATTRIB
  8
FeatureAttribs
 70
0
  1
PNOA-H_AMS_1956-57_33k_ES_PAN_2
  2
NAME
  10
243534.247
  20
4583674.831
 40
34.52690
  0
SEQEND
  0
POLYLINE
  8
Unknown_Area_Type
  70
1
  66
1
  0
VERTEX
  8
Unknown_Area_Type
  10
244613.500
  20
4586072.500
  0
VERTEX
  8
Unknown_Area_Type
  10
244619.000
  20
4586072.500
  0
VERTEX
  8
Unknown_Area_Type
  10
244899.000
  20
4585908.500
  0
VERTEX
  8
Unknown_Area_Type
  10
244799.500
  20
4581315.000
  0
VERTEX
  8
Unknown_Area_Type
  10
244651.000
  20
4581246.000
  0
VERTEX
  8
Unknown_Area_Type
  10
242127.000
  20
4581502.500
  0
VERTEX
  8
Unknown_Area_Type
  10
242232.000
  20
4585894.000
  0
VERTEX
  8
Unknown_Area_Type
  10
244607.000
  20
4586072.000
  0
VERTEX
  8
Unknown_Area_Type
  10
244613.500
  20
4586072.500
  0
SEQEND
  8
Unknown_Area_Type
  0
INSERT
  8
FeatureAttribs
  2
FEATURE
  41
1
  42
1
  43
1
  50
0
  10
243534.247
  20
4583674.831
 66
1
  0
ATTRIB
  8
FeatureAttribs
 70
0
  1
PNOA-H_AMS_1956-57_33k_ES_PAN_2
  2
NAME
  10
243534.247
  20
4583674.831
 40
34.52690
  0
SEQEND
  0
POLYLINE
  8
Unknown_Area_Type
  70
1
  66
1
  0
VERTEX
  8
Unknown_Area_Type
  10
244613.500
  20
4586072.500
  0
VERTEX
  8
Unknown_Area_Type
  10
244607.000
  20
4586072.000
  0
VERTEX
  8
Unknown_Area_Type
  10
242232.000
  20
4585894.000
  0
VERTEX
  8
Unknown_Area_Type
  10
242127.000
  20
4581502.500
  0
VERTEX
  8
Unknown_Area_Type
  10
244651.000
  20
4581246.000
  0
VERTEX
  8
Unknown_Area_Type
  10
244799.500
  20
4581315.000
  0
VERTEX
  8
Unknown_Area_Type
  10
244899.000
  20
4585908.500
  0
VERTEX
  8
Unknown_Area_Type
  10
244619.000
  20
4586072.500
  0
VERTEX
  8
Unknown_Area_Type
  10
244613.500
  20
4586072.500
  0
SEQEND
  8
Unknown_Area_Type
  0
INSERT
  8
FeatureAttribs
  2
FEATURE
  41
1
  42
1
  43
1
  50
0
  10
246172.456
  20
4583626.801
 66
1
  0
ATTRIB
  8
FeatureAttribs
 70
0
  1
PNOA-H_AMS_1956-57_33k_ES_PAN_2
  2
NAME
  10
246172.456
  20
4583626.801
 40
34.52690
  0
SEQEND
  0
POLYLINE
  8
Unknown_Area_Type
  70
1
  66
1
  0
VERTEX
  8
Unknown_Area_Type
  10
245383.500
  20
4585931.500
  0
VERTEX
  8
Unknown_Area_Type
  10
247198.500
  20
4586017.000
  0
VERTEX
  8
Unknown_Area_Type
  10
247599.000
  20
4585805.000
  0
VERTEX
  8
Unknown_Area_Type
  10
247350.000
  20
4581191.500
  0
VERTEX
  8
Unknown_Area_Type
  10
244799.500
  20
4581315.000
  0
VERTEX
  8
Unknown_Area_Type
  10
244898.500
  20
4585908.000
  0
VERTEX
  8
Unknown_Area_Type
  10
245373.000
  20
4585931.000
  0
VERTEX
  8
Unknown_Area_Type
  10
245383.500
  20
4585931.500
  0
SEQEND
  8
Unknown_Area_Type
  0
INSERT
  8
FeatureAttribs
  2
FEATURE
  41
1
  42
1
  43
1
  50
0
  10
246172.456
  20
4583626.801
 66
1
  0
ATTRIB
  8
FeatureAttribs
 70
0
  1
PNOA-H_AMS_1956-57_33k_ES_PAN_2
  2
NAME
  10
246172.456
  20
4583626.801
 40
34.52690
  0
SEQEND
  0
POLYLINE
  8
Unknown_Area_Type
  70
1
  66
1
  0
VERTEX
  8
Unknown_Area_Type
  10
245383.500
  20
4585931.500
  0
VERTEX
  8
Unknown_Area_Type
  10
245373.000
  20
4585931.000
  0
VERTEX
  8
Unknown_Area_Type
  10
244898.500
  20
4585908.000
  0
VERTEX
  8
Unknown_Area_Type
  10
244799.500
  20
4581315.000
  0
VERTEX
  8
Unknown_Area_Type
  10
247350.000
  20
4581191.500
  0
VERTEX
  8
Unknown_Area_Type
  10
247599.000
  20
4585805.000
  0
VERTEX
  8
Unknown_Area_Type
  10
247198.500
  20
4586017.000
  0
VERTEX
  8
Unknown_Area_Type
  10
245383.500
  20
4585931.500
  0
SEQEND
  8
Unknown_Area_Type
  0
INSERT
  8
FeatureAttribs
  2
FEATURE
  41
1
  42
1
  43
1
  50
0
  10
248800.552
  20
4583487.186
 66
1
  0
ATTRIB
  8
FeatureAttribs
 70
0
  1
PNOA-H_AMS_1956-57_33k_ES_PAN_2
  2
NAME
  10
248800.552
  20
4583487.186
 40
34.52690
  0
SEQEND
  0
POLYLINE
  8
Unknown_Area_Type
  70
1
  66
1
  0
VERTEX
  8
Unknown_Area_Type
  10
247441.500
  20
4582893.500
  0
VERTEX
  8
Unknown_Area_Type
  10
247599.000
  20
4585805.000
  0
VERTEX
  8
Unknown_Area_Type
  10
249803.500
  20
4585978.000
  0
VERTEX
  8
Unknown_Area_Type
  10
250239.500
  20
4585738.500
  0
VERTEX
  8
Unknown_Area_Type
  10
249998.000
  20
4581114.500
  0
VERTEX
  8
Unknown_Area_Type
  10
247581.500
  20
4581059.500
  0
VERTEX
  8
Unknown_Area_Type
  10
247350.000
  20
4581191.000
  0
VERTEX
  8
Unknown_Area_Type
  10
247441.500
  20
4582884.000
  0
VERTEX
  8
Unknown_Area_Type
  10
247441.500
  20
4582893.500
  0
SEQEND
  8
Unknown_Area_Type
  0
INSERT
  8
FeatureAttribs
  2
FEATURE
  41
1
  42
1
  43
1
  50
0
  10
248800.552
  20
4583487.186
 66
1
  0
ATTRIB
  8
FeatureAttribs
 70
0
  1
PNOA-H_AMS_1956-57_33k_ES_PAN_2
  2
NAME
  10
248800.552
  20
4583487.186
 40
34.52690
  0
SEQEND
  0
POLYLINE
  8
Unknown_Area_Type
  70
1
  66
1
  0
VERTEX
  8
Unknown_Area_Type
  10
247441.500
  20
4582893.500
  0
VERTEX
  8
Unknown_Area_Type
  10
247441.500
  20
4582884.000
  0
VERTEX
  8
Unknown_Area_Type
  10
247350.000
  20
4581191.000
  0
VERTEX
  8
Unknown_Area_Type
  10
247581.500
  20
4581059.500
  0
VERTEX
  8
Unknown_Area_Type
  10
249998.000
  20
4581114.500
  0
VERTEX
  8
Unknown_Area_Type
  10
250239.500
  20
4585738.500
  0
VERTEX
  8
Unknown_Area_Type
  10
249803.500
  20
4585978.000
  0
VERTEX
  8
Unknown_Area_Type
  10
247599.000
  20
4585805.000
  0
VERTEX
  8
Unknown_Area_Type
  10
247441.500
  20
4582893.500
  0
SEQEND
  8
Unknown_Area_Type
  0
INSERT
  8
FeatureAttribs
  2
FEATURE
  41
1
  42
1
  43
1
  50
0
  10
235542.218
  20
4583912.546
 66
1
  0
ATTRIB
  8
FeatureAttribs
 70
0
  1
PNOA-H_AMS_1956-57_33k_ES_PAN_2
  2
NAME
  10
235542.218
  20
4583912.546
 40
34.52690
  0
SEQEND
  0
POLYLINE
  8
Unknown_Area_Type
  70
1
  66
1
  0
VERTEX
  8
Unknown_Area_Type
  10
234237.500
  20
4585970.500
  0
VERTEX
  8
Unknown_Area_Type
  10
236256.500
  20
4586251.500
  0
VERTEX
  8
Unknown_Area_Type
  10
236260.000
  20
4586252.000
  0
VERTEX
  8
Unknown_Area_Type
  10
236264.000
  20
4586252.000
  0
VERTEX
  8
Unknown_Area_Type
  10
236267.000
  20
4586250.500
  0
VERTEX
  8
Unknown_Area_Type
  10
236900.500
  20
4585884.500
  0
VERTEX
  8
Unknown_Area_Type
  10
236772.000
  20
4581833.500
  0
VERTEX
  8
Unknown_Area_Type
  10
235865.000
  20
4581502.000
  0
VERTEX
  8
Unknown_Area_Type
  10
235852.000
  20
4581504.500
  0
VERTEX
  8
Unknown_Area_Type
  10
234198.000
  20
4581928.500
  0
VERTEX
  8
Unknown_Area_Type
  10
234237.500
  20
4585970.500
  0
SEQEND
  8
Unknown_Area_Type
  0
INSERT
  8
FeatureAttribs
  2
FEATURE
  41
1
  42
1
  43
1
  50
0
  10
235542.218
  20
4583912.546
 66
1
  0
ATTRIB
  8
FeatureAttribs
 70
0
  1
PNOA-H_AMS_1956-57_33k_ES_PAN_2
  2
NAME
  10
235542.218
  20
4583912.546
 40
34.52690
  0
SEQEND
  0
POLYLINE
  8
Unknown_Area_Type
  70
1
  66
1
  0
VERTEX
  8
Unknown_Area_Type
  10
234237.500
  20
4585970.500
  0
VERTEX
  8
Unknown_Area_Type
  10
234198.000
  20
4581928.500
  0
VERTEX
  8
Unknown_Area_Type
  10
235852.000
  20
4581504.500
  0
VERTEX
  8
Unknown_Area_Type
  10
235865.000
  20
4581502.000
  0
VERTEX
  8
Unknown_Area_Type
  10
236772.000
  20
4581833.500
  0
VERTEX
  8
Unknown_Area_Type
  10
236900.500
  20
4585884.500
  0
VERTEX
  8
Unknown_Area_Type
  10
236267.000
  20
4586250.500
  0
VERTEX
  8
Unknown_Area_Type
  10
236264.000
  20
4586252.000
  0
VERTEX
  8
Unknown_Area_Type
  10
236260.000
  20
4586252.000
  0
VERTEX
  8
Unknown_Area_Type
  10
236256.500
  20
4586251.500
  0
VERTEX
  8
Unknown_Area_Type
  10
234237.500
  20
4585970.500
  0
SEQEND
  8
Unknown_Area_Type
  0
INSERT
  8
FeatureAttribs
  2
FEATURE
  41
1
  42
1
  43
1
  50
0
  10
238134.611
  20
4583815.297
 66
1
  0
ATTRIB
  8
FeatureAttribs
 70
0
  1
PNOA-H_AMS_1956-57_33k_ES_PAN_2
  2
NAME
  10
238134.611
  20
4583815.297
 40
34.52690
  0
SEQEND
  0
POLYLINE
  8
Unknown_Area_Type
  70
1
  66
1
  0
VERTEX
  8
Unknown_Area_Type
  10
237200.000
  20
4585921.500
  0
VERTEX
  8
Unknown_Area_Type
  10
239101.000
  20
4586155.500
  0
VERTEX
  8
Unknown_Area_Type
  10
239107.000
  20
4586154.000
  0
VERTEX
  8
Unknown_Area_Type
  10
239441.000
  20
4585962.500
  0
VERTEX
  8
Unknown_Area_Type
  10
239315.500
  20
4581625.500
  0
VERTEX
  8
Unknown_Area_Type
  10
238801.000
  20
4581429.000
  0
VERTEX
  8
Unknown_Area_Type
  10
236772.000
  20
4581833.000
  0
VERTEX
  8
Unknown_Area_Type
  10
236900.500
  20
4585884.500
  0
VERTEX
  8
Unknown_Area_Type
  10
237196.000
  20
4585921.000
  0
VERTEX
  8
Unknown_Area_Type
  10
237200.000
  20
4585921.500
  0
SEQEND
  8
Unknown_Area_Type
  0
INSERT
  8
FeatureAttribs
  2
FEATURE
  41
1
  42
1
  43
1
  50
0
  10
238134.611
  20
4583815.297
 66
1
  0
ATTRIB
  8
FeatureAttribs
 70
0
  1
PNOA-H_AMS_1956-57_33k_ES_PAN_2
  2
NAME
  10
238134.611
  20
4583815.297
 40
34.52690
  0
SEQEND
  0
POLYLINE
  8
Unknown_Area_Type
  70
1
  66
1
  0
VERTEX
  8
Unknown_Area_Type
  10
237200.000
  20
4585921.500
  0
VERTEX
  8
Unknown_Area_Type
  10
237196.000
  20
4585921.000
  0
VERTEX
  8
Unknown_Area_Type
  10
236900.500
  20
4585884.500
  0
VERTEX
  8
Unknown_Area_Type
  10
236772.000
  20
4581833.000
  0
VERTEX
  8
Unknown_Area_Type
  10
238801.000
  20
4581429.000
  0
VERTEX
  8
Unknown_Area_Type
  10
239315.500
  20
4581625.500
  0
VERTEX
  8
Unknown_Area_Type
  10
239441.000
  20
4585962.500
  0
VERTEX
  8
Unknown_Area_Type
  10
239107.000
  20
4586154.000
  0
VERTEX
  8
Unknown_Area_Type
  10
239101.000
  20
4586155.500
  0
VERTEX
  8
Unknown_Area_Type
  10
237200.000
  20
4585921.500
  0
SEQEND
  8
Unknown_Area_Type
  0
INSERT
  8
FeatureAttribs
  2
FEATURE
  41
1
  42
1
  43
1
  50
0
  10
256820.197
  20
4583070.369
 66
1
  0
ATTRIB
  8
FeatureAttribs
 70
0
  1
PNOA-H_AMS_1956-57_33k_ES_PAN_2
  2
NAME
  10
256820.197
  20
4583070.369
 40
34.52690
  0
SEQEND
  0
POLYLINE
  8
Unknown_Area_Type
  70
1
  66
1
  0
VERTEX
  8
Unknown_Area_Type
  10
255616.000
  20
4585507.500
  0
VERTEX
  8
Unknown_Area_Type
  10
255633.500
  20
4585508.000
  0
VERTEX
  8
Unknown_Area_Type
  10
258061.000
  20
4585565.000
  0
VERTEX
  8
Unknown_Area_Type
  10
258334.000
  20
4585395.500
  0
VERTEX
  8
Unknown_Area_Type
  10
257982.500
  20
4580641.500
  0
VERTEX
  8
Unknown_Area_Type
  10
256095.000
  20
4580486.000
  0
VERTEX
  8
Unknown_Area_Type
  10
256088.000
  20
4580486.000
  0
VERTEX
  8
Unknown_Area_Type
  10
255339.000
  20
4580815.500
  0
VERTEX
  8
Unknown_Area_Type
  10
255616.000
  20
4585507.500
  0
SEQEND
  8
Unknown_Area_Type
  0
INSERT
  8
FeatureAttribs
  2
FEATURE
  41
1
  42
1
  43
1
  50
0
  10
256820.197
  20
4583070.369
 66
1
  0
ATTRIB
  8
FeatureAttribs
 70
0
  1
PNOA-H_AMS_1956-57_33k_ES_PAN_2
  2
NAME
  10
256820.197
  20
4583070.369
 40
34.52690
  0
SEQEND
  0
POLYLINE
  8
Unknown_Area_Type
  70
1
  66
1
  0
VERTEX
  8
Unknown_Area_Type
  10
255616.000
  20
4585507.500
  0
VERTEX
  8
Unknown_Area_Type
  10
255339.000
  20
4580815.500
  0
VERTEX
  8
Unknown_Area_Type
  10
256088.000
  20
4580486.000
  0
VERTEX
  8
Unknown_Area_Type
  10
256095.000
  20
4580486.000
  0
VERTEX
  8
Unknown_Area_Type
  10
257982.500
  20
4580641.500
  0
VERTEX
  8
Unknown_Area_Type
  10
258334.000
  20
4585395.500
  0
VERTEX
  8
Unknown_Area_Type
  10
258061.000
  20
4585565.000
  0
VERTEX
  8
Unknown_Area_Type
  10
255633.500
  20
4585508.000
  0
VERTEX
  8
Unknown_Area_Type
  10
255616.000
  20
4585507.500
  0
SEQEND
  8
Unknown_Area_Type
  0
INSERT
  8
FeatureAttribs
  2
FEATURE
  41
1
  42
1
  43
1
  50
0
  10
261032.152
  20
4582637.811
 66
1
  0
ATTRIB
  8
FeatureAttribs
 70
0
  1
PNOA-H_AMS_1956-57_33k_ES_PAN_2
  2
NAME
  10
261032.152
  20
4582637.811
 40
34.52690
  0
SEQEND
  0
POLYLINE
  8
Unknown_Area_Type
  70
1
  66
1
  0
VERTEX
  8
Unknown_Area_Type
  10
261343.929
  20
4585250.254
  0
VERTEX
  8
Unknown_Area_Type
  10
261313.211
  20
4584318.302
  0
VERTEX
  8
Unknown_Area_Type
  10
261236.997
  20
4582005.089
  0
VERTEX
  8
Unknown_Area_Type
  10
261179.850
  20
4580269.886
  0
VERTEX
  8
Unknown_Area_Type
  10
260643.000
  20
4580482.500
  0
VERTEX
  8
Unknown_Area_Type
  10
260995.500
  20
4585267.000
  0
VERTEX
  8
Unknown_Area_Type
  10
260995.500
  20
4585271.500
  0
VERTEX
  8
Unknown_Area_Type
  10
261343.929
  20
4585250.254
  0
SEQEND
  8
Unknown_Area_Type
  0
INSERT
  8
FeatureAttribs
  2
FEATURE
  41
1
  42
1
  43
1
  50
0
  10
261032.152
  20
4582637.811
 66
1
  0
ATTRIB
  8
FeatureAttribs
 70
0
  1
PNOA-H_AMS_1956-57_33k_ES_PAN_2
  2
NAME
  10
261032.152
  20
4582637.811
 40
34.52690
  0
SEQEND
  0
POLYLINE
  8
Unknown_Area_Type
  70
1
  66
1
  0
VERTEX
  8
Unknown_Area_Type
  10
261343.929
  20
4585250.254
  0
VERTEX
  8
Unknown_Area_Type
  10
260995.500
  20
4585271.500
  0
VERTEX
  8
Unknown_Area_Type
  10
260995.500
  20
4585267.000
  0
VERTEX
  8
Unknown_Area_Type
  10
260643.000
  20
4580482.500
  0
VERTEX
  8
Unknown_Area_Type
  10
261179.850
  20
4580269.886
  0
VERTEX
  8
Unknown_Area_Type
  10
261236.997
  20
4582005.089
  0
VERTEX
  8
Unknown_Area_Type
  10
261313.211
  20
4584318.302
  0
VERTEX
  8
Unknown_Area_Type
  10
261343.929
  20
4585250.254
  0
SEQEND
  8
Unknown_Area_Type
  0
ENDSEC
  0
EOF
