  0
SECTION
  2
HEADER
  9
$ACADVER
  1
AC1009
  9
$LUNITS
  70
2
  9
$LIMMIN
  10
212240.000
  20
4580664.170
  9
$LIMMAX
  10
233945.491
  20
4600251.411
  9
$EXTMIN
  10
212240.000
  20
4580664.170
  9
$EXTMAX
  10
233945.491
  20
4600251.411
  999
Created by Global Mapper
  999
Projection: UTM
  999
Datum: ETRS89
  999
Ground Units: meters
  999
ZONE: 30
  0
ENDSEC
  0
SECTION
  2
TABLES
  0
ENDSEC
  0
SECTION
  2
BLOCKS
  0
BLOCK
  8
FeatureAttribs
  70
0
  2
FEATURE
  3
FEATURE
  10
0.00000000
  20
0.00000000
  0
ATTDEF
  8
FeatureAttribs
  70
0
  1
 
  2
NAME
  3
NAME
  10
0.00000000
  20
0.00000000
  40
1.00000000
  0
ENDBLK
  0
ENDSEC
  0
SECTION
  2
ENTITIES
  0
INSERT
  8
FeatureAttribs
  2
FEATURE
  41
1
  42
1
  43
1
  50
0
  10
233577.929
  20
4588387.820
 66
1
  0
ATTRIB
  8
FeatureAttribs
 70
0
  1
PNOA-H_AMS_1956-57_33k_ES_PAN_2
  2
NAME
  10
233577.929
  20
4588387.820
 40
29.23676
  0
SEQEND
  0
POLYLINE
  8
Unknown_Area_Type
  70
1
  66
1
  0
VERTEX
  8
Unknown_Area_Type
  10
233625.463
  20
4590492.210
  0
VERTEX
  8
Unknown_Area_Type
  10
233642.500
  20
4590485.000
  0
VERTEX
  8
Unknown_Area_Type
  10
233573.500
  20
4586301.000
  0
VERTEX
  8
Unknown_Area_Type
  10
233470.452
  20
4586283.430
  0
VERTEX
  8
Unknown_Area_Type
  10
233519.076
  20
4587604.098
  0
VERTEX
  8
Unknown_Area_Type
  10
233604.282
  20
4589917.412
  0
VERTEX
  8
Unknown_Area_Type
  10
233625.463
  20
4590492.210
  0
SEQEND
  8
Unknown_Area_Type
  0
INSERT
  8
FeatureAttribs
  2
FEATURE
  41
1
  42
1
  43
1
  50
0
  10
232245.009
  20
4588392.883
 66
1
  0
ATTRIB
  8
FeatureAttribs
 70
0
  1
PNOA-H_AMS_1956-57_33k_ES_PAN_2
  2
NAME
  10
232245.009
  20
4588392.883
 40
29.23676
  0
SEQEND
  0
POLYLINE
  8
Unknown_Area_Type
  70
1
  66
1
  0
VERTEX
  8
Unknown_Area_Type
  10
233625.463
  20
4590492.210
  0
VERTEX
  8
Unknown_Area_Type
  10
233604.282
  20
4589917.412
  0
VERTEX
  8
Unknown_Area_Type
  10
233519.076
  20
4587604.098
  0
VERTEX
  8
Unknown_Area_Type
  10
233470.452
  20
4586283.430
  0
VERTEX
  8
Unknown_Area_Type
  10
231620.500
  20
4585968.000
  0
VERTEX
  8
Unknown_Area_Type
  10
231618.000
  20
4585968.000
  0
VERTEX
  8
Unknown_Area_Type
  10
230912.000
  20
4586320.500
  0
VERTEX
  8
Unknown_Area_Type
  10
230964.000
  20
4590476.000
  0
VERTEX
  8
Unknown_Area_Type
  10
230964.500
  20
4590487.000
  0
VERTEX
  8
Unknown_Area_Type
  10
231052.000
  20
4590499.000
  0
VERTEX
  8
Unknown_Area_Type
  10
231055.500
  20
4590499.500
  0
VERTEX
  8
Unknown_Area_Type
  10
232991.500
  20
4590760.500
  0
VERTEX
  8
Unknown_Area_Type
  10
233625.463
  20
4590492.210
  0
SEQEND
  8
Unknown_Area_Type
  0
INSERT
  8
FeatureAttribs
  2
FEATURE
  41
1
  42
1
  43
1
  50
0
  10
232245.009
  20
4588392.883
 66
1
  0
ATTRIB
  8
FeatureAttribs
 70
0
  1
PNOA-H_AMS_1956-57_33k_ES_PAN_2
  2
NAME
  10
232245.009
  20
4588392.883
 40
29.23676
  0
SEQEND
  0
POLYLINE
  8
Unknown_Area_Type
  70
1
  66
1
  0
VERTEX
  8
Unknown_Area_Type
  10
233625.463
  20
4590492.210
  0
VERTEX
  8
Unknown_Area_Type
  10
232991.500
  20
4590760.500
  0
VERTEX
  8
Unknown_Area_Type
  10
231055.500
  20
4590499.500
  0
VERTEX
  8
Unknown_Area_Type
  10
231052.000
  20
4590499.000
  0
VERTEX
  8
Unknown_Area_Type
  10
230964.500
  20
4590487.000
  0
VERTEX
  8
Unknown_Area_Type
  10
230964.000
  20
4590476.000
  0
VERTEX
  8
Unknown_Area_Type
  10
230912.000
  20
4586320.500
  0
VERTEX
  8
Unknown_Area_Type
  10
231618.000
  20
4585968.000
  0
VERTEX
  8
Unknown_Area_Type
  10
231620.500
  20
4585968.000
  0
VERTEX
  8
Unknown_Area_Type
  10
233470.452
  20
4586283.430
  0
VERTEX
  8
Unknown_Area_Type
  10
233519.076
  20
4587604.098
  0
VERTEX
  8
Unknown_Area_Type
  10
233604.282
  20
4589917.412
  0
VERTEX
  8
Unknown_Area_Type
  10
233625.463
  20
4590492.210
  0
SEQEND
  8
Unknown_Area_Type
  0
INSERT
  8
FeatureAttribs
  2
FEATURE
  41
1
  42
1
  43
1
  50
0
  10
226731.401
  20
4588388.778
 66
1
  0
ATTRIB
  8
FeatureAttribs
 70
0
  1
PNOA-H_AMS_1956-57_33k_ES_PAN_2
  2
NAME
  10
226731.401
  20
4588388.778
 40
29.23676
  0
SEQEND
  0
POLYLINE
  8
Unknown_Area_Type
  70
1
  66
1
  0
VERTEX
  8
Unknown_Area_Type
  10
227390.000
  20
4590734.000
  0
VERTEX
  8
Unknown_Area_Type
  10
227394.500
  20
4590734.500
  0
VERTEX
  8
Unknown_Area_Type
  10
227402.000
  20
4590733.500
  0
VERTEX
  8
Unknown_Area_Type
  10
228140.000
  20
4590428.000
  0
VERTEX
  8
Unknown_Area_Type
  10
228130.000
  20
4586344.500
  0
VERTEX
  8
Unknown_Area_Type
  10
226102.500
  20
4585965.500
  0
VERTEX
  8
Unknown_Area_Type
  10
226099.500
  20
4585965.500
  0
VERTEX
  8
Unknown_Area_Type
  10
226092.000
  20
4585969.000
  0
VERTEX
  8
Unknown_Area_Type
  10
225371.500
  20
4586309.000
  0
VERTEX
  8
Unknown_Area_Type
  10
225311.500
  20
4590502.500
  0
VERTEX
  8
Unknown_Area_Type
  10
227390.000
  20
4590734.000
  0
SEQEND
  8
Unknown_Area_Type
  0
INSERT
  8
FeatureAttribs
  2
FEATURE
  41
1
  42
1
  43
1
  50
0
  10
226731.401
  20
4588388.778
 66
1
  0
ATTRIB
  8
FeatureAttribs
 70
0
  1
PNOA-H_AMS_1956-57_33k_ES_PAN_2
  2
NAME
  10
226731.401
  20
4588388.778
 40
29.23676
  0
SEQEND
  0
POLYLINE
  8
Unknown_Area_Type
  70
1
  66
1
  0
VERTEX
  8
Unknown_Area_Type
  10
227390.000
  20
4590734.000
  0
VERTEX
  8
Unknown_Area_Type
  10
225311.500
  20
4590502.500
  0
VERTEX
  8
Unknown_Area_Type
  10
225371.500
  20
4586309.000
  0
VERTEX
  8
Unknown_Area_Type
  10
226092.000
  20
4585969.000
  0
VERTEX
  8
Unknown_Area_Type
  10
226099.500
  20
4585965.500
  0
VERTEX
  8
Unknown_Area_Type
  10
226102.500
  20
4585965.500
  0
VERTEX
  8
Unknown_Area_Type
  10
228130.000
  20
4586344.500
  0
VERTEX
  8
Unknown_Area_Type
  10
228140.000
  20
4590428.000
  0
VERTEX
  8
Unknown_Area_Type
  10
227402.000
  20
4590733.500
  0
VERTEX
  8
Unknown_Area_Type
  10
227394.500
  20
4590734.500
  0
VERTEX
  8
Unknown_Area_Type
  10
227390.000
  20
4590734.000
  0
SEQEND
  8
Unknown_Area_Type
  0
INSERT
  8
FeatureAttribs
  2
FEATURE
  41
1
  42
1
  43
1
  50
0
  10
215996.735
  20
4585358.485
 66
1
  0
ATTRIB
  8
FeatureAttribs
 70
0
  1
PNOA-H_AMS_1956-57_33k_ES_PAN_2
  2
NAME
  10
215996.735
  20
4585358.485
 40
29.23676
  0
SEQEND
  0
POLYLINE
  8
Unknown_Area_Type
  70
1
  66
1
  0
VERTEX
  8
Unknown_Area_Type
  10
215995.000
  20
4586038.000
  0
VERTEX
  8
Unknown_Area_Type
  10
215996.500
  20
4586039.000
  0
VERTEX
  8
Unknown_Area_Type
  10
215997.000
  20
4586040.000
  0
VERTEX
  8
Unknown_Area_Type
  10
216002.000
  20
4586040.000
  0
VERTEX
  8
Unknown_Area_Type
  10
216004.000
  20
4586036.000
  0
VERTEX
  8
Unknown_Area_Type
  10
216004.000
  20
4586034.500
  0
VERTEX
  8
Unknown_Area_Type
  10
215999.500
  20
4586031.000
  0
VERTEX
  8
Unknown_Area_Type
  10
215997.000
  20
4584468.000
  0
VERTEX
  8
Unknown_Area_Type
  10
215995.000
  20
4584467.500
  0
VERTEX
  8
Unknown_Area_Type
  10
215995.000
  20
4586038.000
  0
SEQEND
  8
Unknown_Area_Type
  0
INSERT
  8
FeatureAttribs
  2
FEATURE
  41
1
  42
1
  43
1
  50
0
  10
215996.735
  20
4585358.485
 66
1
  0
ATTRIB
  8
FeatureAttribs
 70
0
  1
PNOA-H_AMS_1956-57_33k_ES_PAN_2
  2
NAME
  10
215996.735
  20
4585358.485
 40
29.23676
  0
SEQEND
  0
POLYLINE
  8
Unknown_Area_Type
  70
1
  66
1
  0
VERTEX
  8
Unknown_Area_Type
  10
215995.000
  20
4586038.000
  0
VERTEX
  8
Unknown_Area_Type
  10
215995.000
  20
4584467.500
  0
VERTEX
  8
Unknown_Area_Type
  10
215997.000
  20
4584468.000
  0
VERTEX
  8
Unknown_Area_Type
  10
215999.500
  20
4586031.000
  0
VERTEX
  8
Unknown_Area_Type
  10
216004.000
  20
4586034.500
  0
VERTEX
  8
Unknown_Area_Type
  10
216004.000
  20
4586036.000
  0
VERTEX
  8
Unknown_Area_Type
  10
216002.000
  20
4586040.000
  0
VERTEX
  8
Unknown_Area_Type
  10
215997.000
  20
4586040.000
  0
VERTEX
  8
Unknown_Area_Type
  10
215996.500
  20
4586039.000
  0
VERTEX
  8
Unknown_Area_Type
  10
215995.000
  20
4586038.000
  0
SEQEND
  8
Unknown_Area_Type
  0
INSERT
  8
FeatureAttribs
  2
FEATURE
  41
1
  42
1
  43
1
  50
0
  10
218810.296
  20
4590003.359
 66
1
  0
ATTRIB
  8
FeatureAttribs
 70
0
  1
PNOA-H_AMS_1956-57_33k_ES_PAN_2
  2
NAME
  10
218810.296
  20
4590003.359
 40
29.23676
  0
SEQEND
  0
POLYLINE
  8
Unknown_Area_Type
  70
1
  66
1
  0
VERTEX
  8
Unknown_Area_Type
  10
217996.500
  20
4590004.000
  0
VERTEX
  8
Unknown_Area_Type
  10
217997.000
  20
4590005.000
  0
VERTEX
  8
Unknown_Area_Type
  10
219824.000
  20
4590004.500
  0
VERTEX
  8
Unknown_Area_Type
  10
219821.000
  20
4590003.000
  0
VERTEX
  8
Unknown_Area_Type
  10
219695.500
  20
4590002.500
  0
VERTEX
  8
Unknown_Area_Type
  10
218004.000
  20
4590001.500
  0
VERTEX
  8
Unknown_Area_Type
  10
218000.500
  20
4589997.000
  0
VERTEX
  8
Unknown_Area_Type
  10
217995.000
  20
4589998.000
  0
VERTEX
  8
Unknown_Area_Type
  10
217995.000
  20
4590003.000
  0
VERTEX
  8
Unknown_Area_Type
  10
217996.500
  20
4590004.000
  0
SEQEND
  8
Unknown_Area_Type
  0
INSERT
  8
FeatureAttribs
  2
FEATURE
  41
1
  42
1
  43
1
  50
0
  10
218810.296
  20
4590003.359
 66
1
  0
ATTRIB
  8
FeatureAttribs
 70
0
  1
PNOA-H_AMS_1956-57_33k_ES_PAN_2
  2
NAME
  10
218810.296
  20
4590003.359
 40
29.23676
  0
SEQEND
  0
POLYLINE
  8
Unknown_Area_Type
  70
1
  66
1
  0
VERTEX
  8
Unknown_Area_Type
  10
217996.500
  20
4590004.000
  0
VERTEX
  8
Unknown_Area_Type
  10
217995.000
  20
4590003.000
  0
VERTEX
  8
Unknown_Area_Type
  10
217995.000
  20
4589998.000
  0
VERTEX
  8
Unknown_Area_Type
  10
218000.500
  20
4589997.000
  0
VERTEX
  8
Unknown_Area_Type
  10
218004.000
  20
4590001.500
  0
VERTEX
  8
Unknown_Area_Type
  10
219695.500
  20
4590002.500
  0
VERTEX
  8
Unknown_Area_Type
  10
219821.000
  20
4590003.000
  0
VERTEX
  8
Unknown_Area_Type
  10
219824.000
  20
4590004.500
  0
VERTEX
  8
Unknown_Area_Type
  10
217997.000
  20
4590005.000
  0
VERTEX
  8
Unknown_Area_Type
  10
217996.500
  20
4590004.000
  0
SEQEND
  8
Unknown_Area_Type
  0
INSERT
  8
FeatureAttribs
  2
FEATURE
  41
1
  42
1
  43
1
  50
0
  10
229539.552
  20
4588390.526
 66
1
  0
ATTRIB
  8
FeatureAttribs
 70
0
  1
PNOA-H_AMS_1956-57_33k_ES_PAN_2
  2
NAME
  10
229539.552
  20
4588390.526
 40
29.23676
  0
SEQEND
  0
POLYLINE
  8
Unknown_Area_Type
  70
1
  66
1
  0
VERTEX
  8
Unknown_Area_Type
  10
228140.000
  20
4590428.000
  0
VERTEX
  8
Unknown_Area_Type
  10
230189.000
  20
4590802.000
  0
VERTEX
  8
Unknown_Area_Type
  10
230191.500
  20
4590802.500
  0
VERTEX
  8
Unknown_Area_Type
  10
230198.000
  20
4590801.000
  0
VERTEX
  8
Unknown_Area_Type
  10
230964.500
  20
4590487.000
  0
VERTEX
  8
Unknown_Area_Type
  10
230912.000
  20
4586320.500
  0
VERTEX
  8
Unknown_Area_Type
  10
228845.500
  20
4585964.500
  0
VERTEX
  8
Unknown_Area_Type
  10
228130.000
  20
4586344.000
  0
VERTEX
  8
Unknown_Area_Type
  10
228140.000
  20
4590428.000
  0
SEQEND
  8
Unknown_Area_Type
  0
INSERT
  8
FeatureAttribs
  2
FEATURE
  41
1
  42
1
  43
1
  50
0
  10
229539.552
  20
4588390.526
 66
1
  0
ATTRIB
  8
FeatureAttribs
 70
0
  1
PNOA-H_AMS_1956-57_33k_ES_PAN_2
  2
NAME
  10
229539.552
  20
4588390.526
 40
29.23676
  0
SEQEND
  0
POLYLINE
  8
Unknown_Area_Type
  70
1
  66
1
  0
VERTEX
  8
Unknown_Area_Type
  10
228140.000
  20
4590428.000
  0
VERTEX
  8
Unknown_Area_Type
  10
228130.000
  20
4586344.000
  0
VERTEX
  8
Unknown_Area_Type
  10
228845.500
  20
4585964.500
  0
VERTEX
  8
Unknown_Area_Type
  10
230912.000
  20
4586320.500
  0
VERTEX
  8
Unknown_Area_Type
  10
230964.500
  20
4590487.000
  0
VERTEX
  8
Unknown_Area_Type
  10
230198.000
  20
4590801.000
  0
VERTEX
  8
Unknown_Area_Type
  10
230191.500
  20
4590802.500
  0
VERTEX
  8
Unknown_Area_Type
  10
230189.000
  20
4590802.000
  0
VERTEX
  8
Unknown_Area_Type
  10
228140.000
  20
4590428.000
  0
SEQEND
  8
Unknown_Area_Type
  0
INSERT
  8
FeatureAttribs
  2
FEATURE
  41
1
  42
1
  43
1
  50
0
  10
216530.929
  20
4587163.144
 66
1
  0
ATTRIB
  8
FeatureAttribs
 70
0
  1
PNOA-H_AMS_1956-57_33k_ES_PAN_2
  2
NAME
  10
216530.929
  20
4587163.144
 40
29.23676
  0
SEQEND
  0
POLYLINE
  8
Unknown_Area_Type
  70
1
  66
1
  0
VERTEX
  8
Unknown_Area_Type
  10
216005.000
  20
4587998.000
  0
VERTEX
  8
Unknown_Area_Type
  10
216011.500
  20
4588004.000
  0
VERTEX
  8
Unknown_Area_Type
  10
216012.000
  20
4588005.000
  0
VERTEX
  8
Unknown_Area_Type
  10
217098.500
  20
4588005.000
  0
VERTEX
  8
Unknown_Area_Type
  10
217078.000
  20
4586465.000
  0
VERTEX
  8
Unknown_Area_Type
  10
216005.000
  20
4586174.500
  0
VERTEX
  8
Unknown_Area_Type
  10
216005.000
  20
4587998.000
  0
SEQEND
  8
Unknown_Area_Type
  0
INSERT
  8
FeatureAttribs
  2
FEATURE
  41
1
  42
1
  43
1
  50
0
  10
216530.929
  20
4587163.144
 66
1
  0
ATTRIB
  8
FeatureAttribs
 70
0
  1
PNOA-H_AMS_1956-57_33k_ES_PAN_2
  2
NAME
  10
216530.929
  20
4587163.144
 40
29.23676
  0
SEQEND
  0
POLYLINE
  8
Unknown_Area_Type
  70
1
  66
1
  0
VERTEX
  8
Unknown_Area_Type
  10
216005.000
  20
4587998.000
  0
VERTEX
  8
Unknown_Area_Type
  10
216005.000
  20
4586174.500
  0
VERTEX
  8
Unknown_Area_Type
  10
217078.000
  20
4586465.000
  0
VERTEX
  8
Unknown_Area_Type
  10
217098.500
  20
4588005.000
  0
VERTEX
  8
Unknown_Area_Type
  10
216012.000
  20
4588005.000
  0
VERTEX
  8
Unknown_Area_Type
  10
216011.500
  20
4588004.000
  0
VERTEX
  8
Unknown_Area_Type
  10
216005.000
  20
4587998.000
  0
SEQEND
  8
Unknown_Area_Type
  0
INSERT
  8
FeatureAttribs
  2
FEATURE
  41
1
  42
1
  43
1
  50
0
  10
215995.687
  20
4584464.437
 66
1
  0
ATTRIB
  8
FeatureAttribs
 70
0
  1
PNOA-H_AMS_1956-57_33k_ES_PAN_2
  2
NAME
  10
215995.687
  20
4584464.437
 40
29.23676
  0
SEQEND
  0
POLYLINE
  8
Unknown_Area_Type
  70
1
  66
1
  0
VERTEX
  8
Unknown_Area_Type
  10
215995.000
  20
4584467.500
  0
VERTEX
  8
Unknown_Area_Type
  10
215996.500
  20
4584467.500
  0
VERTEX
  8
Unknown_Area_Type
  10
215996.500
  20
4584463.000
  0
VERTEX
  8
Unknown_Area_Type
  10
215995.000
  20
4584460.000
  0
VERTEX
  8
Unknown_Area_Type
  10
215995.000
  20
4584467.500
  0
SEQEND
  8
Unknown_Area_Type
  0
INSERT
  8
FeatureAttribs
  2
FEATURE
  41
1
  42
1
  43
1
  50
0
  10
215995.687
  20
4584464.437
 66
1
  0
ATTRIB
  8
FeatureAttribs
 70
0
  1
PNOA-H_AMS_1956-57_33k_ES_PAN_2
  2
NAME
  10
215995.687
  20
4584464.437
 40
29.23676
  0
SEQEND
  0
POLYLINE
  8
Unknown_Area_Type
  70
1
  66
1
  0
VERTEX
  8
Unknown_Area_Type
  10
215995.000
  20
4584467.500
  0
VERTEX
  8
Unknown_Area_Type
  10
215995.000
  20
4584460.000
  0
VERTEX
  8
Unknown_Area_Type
  10
215996.500
  20
4584463.000
  0
VERTEX
  8
Unknown_Area_Type
  10
215996.500
  20
4584467.500
  0
VERTEX
  8
Unknown_Area_Type
  10
215995.000
  20
4584467.500
  0
SEQEND
  8
Unknown_Area_Type
  0
INSERT
  8
FeatureAttribs
  2
FEATURE
  41
1
  42
1
  43
1
  50
0
  10
218676.293
  20
4587928.937
 66
1
  0
ATTRIB
  8
FeatureAttribs
 70
0
  1
PNOA-H_AMS_1956-57_33k_ES_PAN_2
  2
NAME
  10
218676.293
  20
4587928.937
 40
29.23676
  0
SEQEND
  0
POLYLINE
  8
Unknown_Area_Type
  70
1
  66
1
  0
VERTEX
  8
Unknown_Area_Type
  10
217098.500
  20
4588005.000
  0
VERTEX
  8
Unknown_Area_Type
  10
217993.000
  20
4588005.000
  0
VERTEX
  8
Unknown_Area_Type
  10
217995.000
  20
4588007.000
  0
VERTEX
  8
Unknown_Area_Type
  10
217995.000
  20
4589998.000
  0
VERTEX
  8
Unknown_Area_Type
  10
218000.500
  20
4589997.000
  0
VERTEX
  8
Unknown_Area_Type
  10
218004.000
  20
4590001.500
  0
VERTEX
  8
Unknown_Area_Type
  10
219695.500
  20
4590002.500
  0
VERTEX
  8
Unknown_Area_Type
  10
219821.000
  20
4590003.000
  0
VERTEX
  8
Unknown_Area_Type
  10
219823.000
  20
4590004.500
  0
VERTEX
  8
Unknown_Area_Type
  10
219824.000
  20
4590005.000
  0
VERTEX
  8
Unknown_Area_Type
  10
219907.500
  20
4590005.000
  0
VERTEX
  8
Unknown_Area_Type
  10
219860.500
  20
4586390.500
  0
VERTEX
  8
Unknown_Area_Type
  10
219387.000
  20
4586295.000
  0
VERTEX
  8
Unknown_Area_Type
  10
219400.000
  20
4586294.500
  0
VERTEX
  8
Unknown_Area_Type
  10
219404.500
  20
4586289.500
  0
VERTEX
  8
Unknown_Area_Type
  10
219410.000
  20
4586289.500
  0
VERTEX
  8
Unknown_Area_Type
  10
219414.500
  20
4586284.500
  0
VERTEX
  8
Unknown_Area_Type
  10
219420.000
  20
4586284.500
  0
VERTEX
  8
Unknown_Area_Type
  10
219421.500
  20
4586283.500
  0
VERTEX
  8
Unknown_Area_Type
  10
219424.500
  20
4586279.500
  0
VERTEX
  8
Unknown_Area_Type
  10
219435.000
  20
4586279.500
  0
VERTEX
  8
Unknown_Area_Type
  10
219436.500
  20
4586278.500
  0
VERTEX
  8
Unknown_Area_Type
  10
219444.500
  20
4586270.000
  0
VERTEX
  8
Unknown_Area_Type
  10
219444.500
  20
4586265.500
  0
VERTEX
  8
Unknown_Area_Type
  10
219434.500
  20
4586255.500
  0
VERTEX
  8
Unknown_Area_Type
  10
219420.500
  20
4586255.500
  0
VERTEX
  8
Unknown_Area_Type
  10
219416.000
  20
4586260.500
  0
VERTEX
  8
Unknown_Area_Type
  10
219405.000
  20
4586260.500
  0
VERTEX
  8
Unknown_Area_Type
  10
219400.500
  20
4586265.500
  0
VERTEX
  8
Unknown_Area_Type
  10
219385.000
  20
4586265.500
  0
VERTEX
  8
Unknown_Area_Type
  10
219375.500
  20
4586275.500
  0
VERTEX
  8
Unknown_Area_Type
  10
219365.000
  20
4586275.500
  0
VERTEX
  8
Unknown_Area_Type
  10
219363.500
  20
4586276.500
  0
VERTEX
  8
Unknown_Area_Type
  10
219355.500
  20
4586285.500
  0
VERTEX
  8
Unknown_Area_Type
  10
219343.000
  20
4586286.000
  0
VERTEX
  8
Unknown_Area_Type
  10
218035.000
  20
4586020.500
  0
VERTEX
  8
Unknown_Area_Type
  10
217078.000
  20
4586465.000
  0
VERTEX
  8
Unknown_Area_Type
  10
217098.500
  20
4588005.000
  0
SEQEND
  8
Unknown_Area_Type
  0
INSERT
  8
FeatureAttribs
  2
FEATURE
  41
1
  42
1
  43
1
  50
0
  10
218676.293
  20
4587928.937
 66
1
  0
ATTRIB
  8
FeatureAttribs
 70
0
  1
PNOA-H_AMS_1956-57_33k_ES_PAN_2
  2
NAME
  10
218676.293
  20
4587928.937
 40
29.23676
  0
SEQEND
  0
POLYLINE
  8
Unknown_Area_Type
  70
1
  66
1
  0
VERTEX
  8
Unknown_Area_Type
  10
217098.500
  20
4588005.000
  0
VERTEX
  8
Unknown_Area_Type
  10
217078.000
  20
4586465.000
  0
VERTEX
  8
Unknown_Area_Type
  10
218035.000
  20
4586020.500
  0
VERTEX
  8
Unknown_Area_Type
  10
219343.000
  20
4586286.000
  0
VERTEX
  8
Unknown_Area_Type
  10
219355.500
  20
4586285.500
  0
VERTEX
  8
Unknown_Area_Type
  10
219363.500
  20
4586276.500
  0
VERTEX
  8
Unknown_Area_Type
  10
219365.000
  20
4586275.500
  0
VERTEX
  8
Unknown_Area_Type
  10
219375.500
  20
4586275.500
  0
VERTEX
  8
Unknown_Area_Type
  10
219385.000
  20
4586265.500
  0
VERTEX
  8
Unknown_Area_Type
  10
219400.500
  20
4586265.500
  0
VERTEX
  8
Unknown_Area_Type
  10
219405.000
  20
4586260.500
  0
VERTEX
  8
Unknown_Area_Type
  10
219416.000
  20
4586260.500
  0
VERTEX
  8
Unknown_Area_Type
  10
219420.500
  20
4586255.500
  0
VERTEX
  8
Unknown_Area_Type
  10
219434.500
  20
4586255.500
  0
VERTEX
  8
Unknown_Area_Type
  10
219444.500
  20
4586265.500
  0
VERTEX
  8
Unknown_Area_Type
  10
219444.500
  20
4586270.000
  0
VERTEX
  8
Unknown_Area_Type
  10
219436.500
  20
4586278.500
  0
VERTEX
  8
Unknown_Area_Type
  10
219435.000
  20
4586279.500
  0
VERTEX
  8
Unknown_Area_Type
  10
219424.500
  20
4586279.500
  0
VERTEX
  8
Unknown_Area_Type
  10
219421.500
  20
4586283.500
  0
VERTEX
  8
Unknown_Area_Type
  10
219420.000
  20
4586284.500
  0
VERTEX
  8
Unknown_Area_Type
  10
219414.500
  20
4586284.500
  0
VERTEX
  8
Unknown_Area_Type
  10
219410.000
  20
4586289.500
  0
VERTEX
  8
Unknown_Area_Type
  10
219404.500
  20
4586289.500
  0
VERTEX
  8
Unknown_Area_Type
  10
219400.000
  20
4586294.500
  0
VERTEX
  8
Unknown_Area_Type
  10
219387.000
  20
4586295.000
  0
VERTEX
  8
Unknown_Area_Type
  10
219860.500
  20
4586390.500
  0
VERTEX
  8
Unknown_Area_Type
  10
219907.500
  20
4590005.000
  0
VERTEX
  8
Unknown_Area_Type
  10
219824.000
  20
4590005.000
  0
VERTEX
  8
Unknown_Area_Type
  10
219823.000
  20
4590004.500
  0
VERTEX
  8
Unknown_Area_Type
  10
219821.000
  20
4590003.000
  0
VERTEX
  8
Unknown_Area_Type
  10
219695.500
  20
4590002.500
  0
VERTEX
  8
Unknown_Area_Type
  10
218004.000
  20
4590001.500
  0
VERTEX
  8
Unknown_Area_Type
  10
218000.500
  20
4589997.000
  0
VERTEX
  8
Unknown_Area_Type
  10
217995.000
  20
4589998.000
  0
VERTEX
  8
Unknown_Area_Type
  10
217995.000
  20
4588007.000
  0
VERTEX
  8
Unknown_Area_Type
  10
217993.000
  20
4588005.000
  0
VERTEX
  8
Unknown_Area_Type
  10
217098.500
  20
4588005.000
  0
SEQEND
  8
Unknown_Area_Type
  0
INSERT
  8
FeatureAttribs
  2
FEATURE
  41
1
  42
1
  43
1
  50
0
  10
233776.117
  20
4588316.800
 66
1
  0
ATTRIB
  8
FeatureAttribs
 70
0
  1
PNOA-H_AMS_1956-57_33k_ES_PAN_2
  2
NAME
  10
233776.117
  20
4588316.800
 40
29.23676
  0
SEQEND
  0
POLYLINE
  8
Unknown_Area_Type
  70
1
  66
1
  0
VERTEX
  8
Unknown_Area_Type
  10
233945.491
  20
4590517.982
  0
VERTEX
  8
Unknown_Area_Type
  10
233945.491
  20
4586115.618
  0
VERTEX
  8
Unknown_Area_Type
  10
233573.500
  20
4586301.000
  0
VERTEX
  8
Unknown_Area_Type
  10
233642.500
  20
4590485.000
  0
VERTEX
  8
Unknown_Area_Type
  10
233945.491
  20
4590517.982
  0
SEQEND
  8
Unknown_Area_Type
  0
INSERT
  8
FeatureAttribs
  2
FEATURE
  41
1
  42
1
  43
1
  50
0
  10
223988.393
  20
4588373.883
 66
1
  0
ATTRIB
  8
FeatureAttribs
 70
0
  1
PNOA-H_AMS_1956-57_33k_ES_PAN_2
  2
NAME
  10
223988.393
  20
4588373.883
 40
29.23676
  0
SEQEND
  0
POLYLINE
  8
Unknown_Area_Type
  70
1
  66
1
  0
VERTEX
  8
Unknown_Area_Type
  10
222861.500
  20
4590501.000
  0
VERTEX
  8
Unknown_Area_Type
  10
222865.000
  20
4590501.500
  0
VERTEX
  8
Unknown_Area_Type
  10
224744.000
  20
4590745.500
  0
VERTEX
  8
Unknown_Area_Type
  10
224748.000
  20
4590745.000
  0
VERTEX
  8
Unknown_Area_Type
  10
225311.500
  20
4590502.500
  0
VERTEX
  8
Unknown_Area_Type
  10
225371.500
  20
4586309.000
  0
VERTEX
  8
Unknown_Area_Type
  10
223446.000
  20
4585948.500
  0
VERTEX
  8
Unknown_Area_Type
  10
223443.500
  20
4585948.500
  0
VERTEX
  8
Unknown_Area_Type
  10
223438.500
  20
4585951.000
  0
VERTEX
  8
Unknown_Area_Type
  10
222668.500
  20
4586342.500
  0
VERTEX
  8
Unknown_Area_Type
  10
222589.000
  20
4590465.500
  0
VERTEX
  8
Unknown_Area_Type
  10
222861.500
  20
4590501.000
  0
SEQEND
  8
Unknown_Area_Type
  0
INSERT
  8
FeatureAttribs
  2
FEATURE
  41
1
  42
1
  43
1
  50
0
  10
223988.393
  20
4588373.883
 66
1
  0
ATTRIB
  8
FeatureAttribs
 70
0
  1
PNOA-H_AMS_1956-57_33k_ES_PAN_2
  2
NAME
  10
223988.393
  20
4588373.883
 40
29.23676
  0
SEQEND
  0
POLYLINE
  8
Unknown_Area_Type
  70
1
  66
1
  0
VERTEX
  8
Unknown_Area_Type
  10
222861.500
  20
4590501.000
  0
VERTEX
  8
Unknown_Area_Type
  10
222589.000
  20
4590465.500
  0
VERTEX
  8
Unknown_Area_Type
  10
222668.500
  20
4586342.500
  0
VERTEX
  8
Unknown_Area_Type
  10
223438.500
  20
4585951.000
  0
VERTEX
  8
Unknown_Area_Type
  10
223443.500
  20
4585948.500
  0
VERTEX
  8
Unknown_Area_Type
  10
223446.000
  20
4585948.500
  0
VERTEX
  8
Unknown_Area_Type
  10
225371.500
  20
4586309.000
  0
VERTEX
  8
Unknown_Area_Type
  10
225311.500
  20
4590502.500
  0
VERTEX
  8
Unknown_Area_Type
  10
224748.000
  20
4590745.000
  0
VERTEX
  8
Unknown_Area_Type
  10
224744.000
  20
4590745.500
  0
VERTEX
  8
Unknown_Area_Type
  10
222865.000
  20
4590501.500
  0
VERTEX
  8
Unknown_Area_Type
  10
222861.500
  20
4590501.000
  0
SEQEND
  8
Unknown_Area_Type
  0
INSERT
  8
FeatureAttribs
  2
FEATURE
  41
1
  42
1
  43
1
  50
0
  10
221213.067
  20
4588559.843
 66
1
  0
ATTRIB
  8
FeatureAttribs
 70
0
  1
PNOA-H_AMS_1956-57_33k_ES_PAN_2
  2
NAME
  10
221213.067
  20
4588559.843
 40
29.23676
  0
SEQEND
  0
POLYLINE
  8
Unknown_Area_Type
  70
1
  66
1
  0
VERTEX
  8
Unknown_Area_Type
  10
219907.500
  20
4590005.000
  0
VERTEX
  8
Unknown_Area_Type
  10
219993.000
  20
4590005.000
  0
VERTEX
  8
Unknown_Area_Type
  10
219995.000
  20
4590007.000
  0
VERTEX
  8
Unknown_Area_Type
  10
219995.000
  20
4591561.500
  0
VERTEX
  8
Unknown_Area_Type
  10
222589.000
  20
4590465.500
  0
VERTEX
  8
Unknown_Area_Type
  10
222668.500
  20
4586346.500
  0
VERTEX
  8
Unknown_Area_Type
  10
222668.500
  20
4586342.500
  0
VERTEX
  8
Unknown_Area_Type
  10
222664.000
  20
4586341.500
  0
VERTEX
  8
Unknown_Area_Type
  10
220693.500
  20
4585960.500
  0
VERTEX
  8
Unknown_Area_Type
  10
220460.000
  20
4586081.500
  0
VERTEX
  8
Unknown_Area_Type
  10
220459.500
  20
4586079.500
  0
VERTEX
  8
Unknown_Area_Type
  10
220473.500
  20
4586066.500
  0
VERTEX
  8
Unknown_Area_Type
  10
220474.500
  20
4586065.000
  0
VERTEX
  8
Unknown_Area_Type
  10
220474.500
  20
4586060.000
  0
VERTEX
  8
Unknown_Area_Type
  10
220470.000
  20
4586055.500
  0
VERTEX
  8
Unknown_Area_Type
  10
220450.000
  20
4586055.500
  0
VERTEX
  8
Unknown_Area_Type
  10
220431.500
  20
4586073.500
  0
VERTEX
  8
Unknown_Area_Type
  10
220430.500
  20
4586075.000
  0
VERTEX
  8
Unknown_Area_Type
  10
220430.500
  20
4586080.500
  0
VERTEX
  8
Unknown_Area_Type
  10
220420.500
  20
4586090.000
  0
VERTEX
  8
Unknown_Area_Type
  10
220420.500
  20
4586102.000
  0
VERTEX
  8
Unknown_Area_Type
  10
219861.000
  20
4586390.500
  0
VERTEX
  8
Unknown_Area_Type
  10
219907.500
  20
4590005.000
  0
SEQEND
  8
Unknown_Area_Type
  0
INSERT
  8
FeatureAttribs
  2
FEATURE
  41
1
  42
1
  43
1
  50
0
  10
221213.067
  20
4588559.843
 66
1
  0
ATTRIB
  8
FeatureAttribs
 70
0
  1
PNOA-H_AMS_1956-57_33k_ES_PAN_2
  2
NAME
  10
221213.067
  20
4588559.843
 40
29.23676
  0
SEQEND
  0
POLYLINE
  8
Unknown_Area_Type
  70
1
  66
1
  0
VERTEX
  8
Unknown_Area_Type
  10
219907.500
  20
4590005.000
  0
VERTEX
  8
Unknown_Area_Type
  10
219861.000
  20
4586390.500
  0
VERTEX
  8
Unknown_Area_Type
  10
220420.500
  20
4586102.000
  0
VERTEX
  8
Unknown_Area_Type
  10
220420.500
  20
4586090.000
  0
VERTEX
  8
Unknown_Area_Type
  10
220430.500
  20
4586080.500
  0
VERTEX
  8
Unknown_Area_Type
  10
220430.500
  20
4586075.000
  0
VERTEX
  8
Unknown_Area_Type
  10
220431.500
  20
4586073.500
  0
VERTEX
  8
Unknown_Area_Type
  10
220450.000
  20
4586055.500
  0
VERTEX
  8
Unknown_Area_Type
  10
220470.000
  20
4586055.500
  0
VERTEX
  8
Unknown_Area_Type
  10
220474.500
  20
4586060.000
  0
VERTEX
  8
Unknown_Area_Type
  10
220474.500
  20
4586065.000
  0
VERTEX
  8
Unknown_Area_Type
  10
220473.500
  20
4586066.500
  0
VERTEX
  8
Unknown_Area_Type
  10
220459.500
  20
4586079.500
  0
VERTEX
  8
Unknown_Area_Type
  10
220460.000
  20
4586081.500
  0
VERTEX
  8
Unknown_Area_Type
  10
220693.500
  20
4585960.500
  0
VERTEX
  8
Unknown_Area_Type
  10
222664.000
  20
4586341.500
  0
VERTEX
  8
Unknown_Area_Type
  10
222668.500
  20
4586342.500
  0
VERTEX
  8
Unknown_Area_Type
  10
222668.500
  20
4586346.500
  0
VERTEX
  8
Unknown_Area_Type
  10
222589.000
  20
4590465.500
  0
VERTEX
  8
Unknown_Area_Type
  10
219995.000
  20
4591561.500
  0
VERTEX
  8
Unknown_Area_Type
  10
219995.000
  20
4590007.000
  0
VERTEX
  8
Unknown_Area_Type
  10
219993.000
  20
4590005.000
  0
VERTEX
  8
Unknown_Area_Type
  10
219907.500
  20
4590005.000
  0
SEQEND
  8
Unknown_Area_Type
  0
INSERT
  8
FeatureAttribs
  2
FEATURE
  41
1
  42
1
  43
1
  50
0
  10
232200.192
  20
4599717.078
 66
1
  0
ATTRIB
  8
FeatureAttribs
 70
0
  1
PNOA-H_AMS_1956-57_33k_ES_PAN_2
  2
NAME
  10
232200.192
  20
4599717.078
 40
29.23676
  0
SEQEND
  0
POLYLINE
  8
Unknown_Area_Type
  70
1
  66
1
  0
VERTEX
  8
Unknown_Area_Type
  10
232811.866
  20
4600251.411
  0
VERTEX
  8
Unknown_Area_Type
  10
233622.500
  20
4600012.000
  0
VERTEX
  8
Unknown_Area_Type
  10
233621.907
  20
4599182.745
  0
VERTEX
  8
Unknown_Area_Type
  10
230769.092
  20
4599288.707
  0
VERTEX
  8
Unknown_Area_Type
  10
230784.000
  20
4599998.000
  0
VERTEX
  8
Unknown_Area_Type
  10
231056.000
  20
4600115.000
  0
VERTEX
  8
Unknown_Area_Type
  10
231057.000
  20
4600115.500
  0
VERTEX
  8
Unknown_Area_Type
  10
231373.717
  20
4600251.411
  0
VERTEX
  8
Unknown_Area_Type
  10
232811.866
  20
4600251.411
  0
SEQEND
  8
Unknown_Area_Type
  0
INSERT
  8
FeatureAttribs
  2
FEATURE
  41
1
  42
1
  43
1
  50
0
  10
232178.889
  20
4597450.355
 66
1
  0
ATTRIB
  8
FeatureAttribs
 70
0
  1
PNOA-H_AMS_1956-57_33k_ES_PAN_2
  2
NAME
  10
232178.889
  20
4597450.355
 40
29.23676
  0
SEQEND
  0
POLYLINE
  8
Unknown_Area_Type
  70
1
  66
1
  0
VERTEX
  8
Unknown_Area_Type
  10
233621.907
  20
4599182.745
  0
VERTEX
  8
Unknown_Area_Type
  10
233619.500
  20
4595814.000
  0
VERTEX
  8
Unknown_Area_Type
  10
233000.000
  20
4595550.500
  0
VERTEX
  8
Unknown_Area_Type
  10
230696.000
  20
4595811.000
  0
VERTEX
  8
Unknown_Area_Type
  10
230769.092
  20
4599288.707
  0
VERTEX
  8
Unknown_Area_Type
  10
233621.907
  20
4599182.745
  0
SEQEND
  8
Unknown_Area_Type
  0
INSERT
  8
FeatureAttribs
  2
FEATURE
  41
1
  42
1
  43
1
  50
0
  10
232178.889
  20
4597450.355
 66
1
  0
ATTRIB
  8
FeatureAttribs
 70
0
  1
PNOA-H_AMS_1956-57_33k_ES_PAN_2
  2
NAME
  10
232178.889
  20
4597450.355
 40
29.23676
  0
SEQEND
  0
POLYLINE
  8
Unknown_Area_Type
  70
1
  66
1
  0
VERTEX
  8
Unknown_Area_Type
  10
233621.907
  20
4599182.745
  0
VERTEX
  8
Unknown_Area_Type
  10
230769.092
  20
4599288.707
  0
VERTEX
  8
Unknown_Area_Type
  10
230696.000
  20
4595811.000
  0
VERTEX
  8
Unknown_Area_Type
  10
233000.000
  20
4595550.500
  0
VERTEX
  8
Unknown_Area_Type
  10
233619.500
  20
4595814.000
  0
VERTEX
  8
Unknown_Area_Type
  10
233621.907
  20
4599182.745
  0
SEQEND
  8
Unknown_Area_Type
  0
INSERT
  8
FeatureAttribs
  2
FEATURE
  41
1
  42
1
  43
1
  50
0
  10
229326.588
  20
4599770.061
 66
1
  0
ATTRIB
  8
FeatureAttribs
 70
0
  1
PNOA-H_AMS_1956-57_33k_ES_PAN_2
  2
NAME
  10
229326.588
  20
4599770.061
 40
29.23676
  0
SEQEND
  0
POLYLINE
  8
Unknown_Area_Type
  70
1
  66
1
  0
VERTEX
  8
Unknown_Area_Type
  10
229939.378
  20
4600251.411
  0
VERTEX
  8
Unknown_Area_Type
  10
230784.000
  20
4599998.000
  0
VERTEX
  8
Unknown_Area_Type
  10
230769.010
  20
4599288.710
  0
VERTEX
  8
Unknown_Area_Type
  10
230467.175
  20
4599299.922
  0
VERTEX
  8
Unknown_Area_Type
  10
227874.889
  20
4599397.460
  0
VERTEX
  8
Unknown_Area_Type
  10
227873.500
  20
4599976.000
  0
VERTEX
  8
Unknown_Area_Type
  10
227937.500
  20
4600005.000
  0
VERTEX
  8
Unknown_Area_Type
  10
227993.000
  20
4600005.000
  0
VERTEX
  8
Unknown_Area_Type
  10
227995.000
  20
4600007.000
  0
VERTEX
  8
Unknown_Area_Type
  10
227995.000
  20
4600030.500
  0
VERTEX
  8
Unknown_Area_Type
  10
227997.500
  20
4600032.000
  0
VERTEX
  8
Unknown_Area_Type
  10
228485.639
  20
4600251.411
  0
VERTEX
  8
Unknown_Area_Type
  10
229939.378
  20
4600251.411
  0
SEQEND
  8
Unknown_Area_Type
  0
INSERT
  8
FeatureAttribs
  2
FEATURE
  41
1
  42
1
  43
1
  50
0
  10
229307.741
  20
4597520.384
 66
1
  0
ATTRIB
  8
FeatureAttribs
 70
0
  1
PNOA-H_AMS_1956-57_33k_ES_PAN_2
  2
NAME
  10
229307.741
  20
4597520.384
 40
29.23676
  0
SEQEND
  0
POLYLINE
  8
Unknown_Area_Type
  70
1
  66
1
  0
VERTEX
  8
Unknown_Area_Type
  10
230769.010
  20
4599288.710
  0
VERTEX
  8
Unknown_Area_Type
  10
230695.500
  20
4595810.500
  0
VERTEX
  8
Unknown_Area_Type
  10
230111.000
  20
4595551.500
  0
VERTEX
  8
Unknown_Area_Type
  10
227883.500
  20
4595809.500
  0
VERTEX
  8
Unknown_Area_Type
  10
227874.889
  20
4599397.460
  0
VERTEX
  8
Unknown_Area_Type
  10
230467.175
  20
4599299.922
  0
VERTEX
  8
Unknown_Area_Type
  10
230769.010
  20
4599288.710
  0
SEQEND
  8
Unknown_Area_Type
  0
INSERT
  8
FeatureAttribs
  2
FEATURE
  41
1
  42
1
  43
1
  50
0
  10
229307.741
  20
4597520.384
 66
1
  0
ATTRIB
  8
FeatureAttribs
 70
0
  1
PNOA-H_AMS_1956-57_33k_ES_PAN_2
  2
NAME
  10
229307.741
  20
4597520.384
 40
29.23676
  0
SEQEND
  0
POLYLINE
  8
Unknown_Area_Type
  70
1
  66
1
  0
VERTEX
  8
Unknown_Area_Type
  10
230769.010
  20
4599288.710
  0
VERTEX
  8
Unknown_Area_Type
  10
230467.175
  20
4599299.922
  0
VERTEX
  8
Unknown_Area_Type
  10
227874.889
  20
4599397.460
  0
VERTEX
  8
Unknown_Area_Type
  10
227883.500
  20
4595809.500
  0
VERTEX
  8
Unknown_Area_Type
  10
230111.000
  20
4595551.500
  0
VERTEX
  8
Unknown_Area_Type
  10
230695.500
  20
4595810.500
  0
VERTEX
  8
Unknown_Area_Type
  10
230769.010
  20
4599288.710
  0
SEQEND
  8
Unknown_Area_Type
  0
INSERT
  8
FeatureAttribs
  2
FEATURE
  41
1
  42
1
  43
1
  50
0
  10
233783.869
  20
4599658.445
 66
1
  0
ATTRIB
  8
FeatureAttribs
 70
0
  1
PNOA-H_AMS_1956-57_33k_ES_PAN_2
  2
NAME
  10
233783.869
  20
4599658.445
 40
29.23676
  0
SEQEND
  0
POLYLINE
  8
Unknown_Area_Type
  70
1
  66
1
  0
VERTEX
  8
Unknown_Area_Type
  10
233945.491
  20
4600146.163
  0
VERTEX
  8
Unknown_Area_Type
  10
233945.491
  20
4599171.501
  0
VERTEX
  8
Unknown_Area_Type
  10
233945.462
  20
4599170.727
  0
VERTEX
  8
Unknown_Area_Type
  10
233621.907
  20
4599182.745
  0
VERTEX
  8
Unknown_Area_Type
  10
233622.500
  20
4600012.000
  0
VERTEX
  8
Unknown_Area_Type
  10
233945.491
  20
4600146.163
  0
SEQEND
  8
Unknown_Area_Type
  0
INSERT
  8
FeatureAttribs
  2
FEATURE
  41
1
  42
1
  43
1
  50
0
  10
233945.477
  20
4599170.920
 66
1
  0
ATTRIB
  8
FeatureAttribs
 70
0
  1
PNOA-H_AMS_1956-57_33k_ES_PAN_2
  2
NAME
  10
233945.477
  20
4599170.920
 40
29.23676
  0
SEQEND
  0
POLYLINE
  8
Unknown_Area_Type
  70
1
  66
1
  0
VERTEX
  8
Unknown_Area_Type
  10
233945.491
  20
4599171.501
  0
VERTEX
  8
Unknown_Area_Type
  10
233945.491
  20
4599170.726
  0
VERTEX
  8
Unknown_Area_Type
  10
233945.462
  20
4599170.727
  0
VERTEX
  8
Unknown_Area_Type
  10
233945.491
  20
4599171.501
  0
SEQEND
  8
Unknown_Area_Type
  0
INSERT
  8
FeatureAttribs
  2
FEATURE
  41
1
  42
1
  43
1
  50
0
  10
233914.128
  20
4597471.328
 66
1
  0
ATTRIB
  8
FeatureAttribs
 70
0
  1
PNOA-H_AMS_1956-57_33k_ES_PAN_2
  2
NAME
  10
233914.128
  20
4597471.328
 40
29.23676
  0
SEQEND
  0
POLYLINE
  8
Unknown_Area_Type
  70
1
  66
1
  0
VERTEX
  8
Unknown_Area_Type
  10
233945.491
  20
4595771.929
  0
VERTEX
  8
Unknown_Area_Type
  10
233820.685
  20
4595788.228
  0
VERTEX
  8
Unknown_Area_Type
  10
233860.114
  20
4596857.390
  0
VERTEX
  8
Unknown_Area_Type
  10
233945.462
  20
4599170.727
  0
VERTEX
  8
Unknown_Area_Type
  10
233945.491
  20
4599170.726
  0
VERTEX
  8
Unknown_Area_Type
  10
233945.491
  20
4595771.929
  0
SEQEND
  8
Unknown_Area_Type
  0
INSERT
  8
FeatureAttribs
  2
FEATURE
  41
1
  42
1
  43
1
  50
0
  10
233754.499
  20
4597619.769
 66
1
  0
ATTRIB
  8
FeatureAttribs
 70
0
  1
PNOA-H_AMS_1956-57_33k_ES_PAN_2
  2
NAME
  10
233754.499
  20
4597619.769
 40
29.23676
  0
SEQEND
  0
POLYLINE
  8
Unknown_Area_Type
  70
1
  66
1
  0
VERTEX
  8
Unknown_Area_Type
  10
233820.685
  20
4595788.228
  0
VERTEX
  8
Unknown_Area_Type
  10
233619.500
  20
4595814.500
  0
VERTEX
  8
Unknown_Area_Type
  10
233621.907
  20
4599182.745
  0
VERTEX
  8
Unknown_Area_Type
  10
233945.462
  20
4599170.727
  0
VERTEX
  8
Unknown_Area_Type
  10
233860.114
  20
4596857.390
  0
VERTEX
  8
Unknown_Area_Type
  10
233820.685
  20
4595788.228
  0
SEQEND
  8
Unknown_Area_Type
  0
INSERT
  8
FeatureAttribs
  2
FEATURE
  41
1
  42
1
  43
1
  50
0
  10
233754.499
  20
4597619.769
 66
1
  0
ATTRIB
  8
FeatureAttribs
 70
0
  1
PNOA-H_AMS_1956-57_33k_ES_PAN_2
  2
NAME
  10
233754.499
  20
4597619.769
 40
29.23676
  0
SEQEND
  0
POLYLINE
  8
Unknown_Area_Type
  70
1
  66
1
  0
VERTEX
  8
Unknown_Area_Type
  10
233820.685
  20
4595788.228
  0
VERTEX
  8
Unknown_Area_Type
  10
233860.114
  20
4596857.390
  0
VERTEX
  8
Unknown_Area_Type
  10
233945.462
  20
4599170.727
  0
VERTEX
  8
Unknown_Area_Type
  10
233621.907
  20
4599182.745
  0
VERTEX
  8
Unknown_Area_Type
  10
233619.500
  20
4595814.500
  0
VERTEX
  8
Unknown_Area_Type
  10
233820.685
  20
4595788.228
  0
SEQEND
  8
Unknown_Area_Type
  0
INSERT
  8
FeatureAttribs
  2
FEATURE
  41
1
  42
1
  43
1
  50
0
  10
226936.207
  20
4599701.230
 66
1
  0
ATTRIB
  8
FeatureAttribs
 70
0
  1
PNOA-H_AMS_1956-57_33k_ES_PAN_2
  2
NAME
  10
226936.207
  20
4599701.230
 40
29.23676
  0
SEQEND
  0
POLYLINE
  8
Unknown_Area_Type
  70
1
  66
1
  0
VERTEX
  8
Unknown_Area_Type
  10
227874.888
  20
4599397.460
  0
VERTEX
  8
Unknown_Area_Type
  10
226988.870
  20
4599430.798
  0
VERTEX
  8
Unknown_Area_Type
  10
225998.039
  20
4599468.559
  0
VERTEX
  8
Unknown_Area_Type
  10
225998.345
  20
4599800.000
  0
VERTEX
  8
Unknown_Area_Type
  10
226880.000
  20
4599800.000
  0
VERTEX
  8
Unknown_Area_Type
  10
226880.000
  20
4600005.000
  0
VERTEX
  8
Unknown_Area_Type
  10
227774.500
  20
4600005.000
  0
VERTEX
  8
Unknown_Area_Type
  10
227873.500
  20
4599976.000
  0
VERTEX
  8
Unknown_Area_Type
  10
227874.888
  20
4599397.460
  0
SEQEND
  8
Unknown_Area_Type
  0
INSERT
  8
FeatureAttribs
  2
FEATURE
  41
1
  42
1
  43
1
  50
0
  10
226212.059
  20
4597310.633
 66
1
  0
ATTRIB
  8
FeatureAttribs
 70
0
  1
PNOA-H_AMS_1956-57_33k_ES_PAN_2
  2
NAME
  10
226212.059
  20
4597310.633
 40
29.23676
  0
SEQEND
  0
POLYLINE
  8
Unknown_Area_Type
  70
1
  66
1
  0
VERTEX
  8
Unknown_Area_Type
  10
227874.888
  20
4599397.460
  0
VERTEX
  8
Unknown_Area_Type
  10
227883.500
  20
4595809.000
  0
VERTEX
  8
Unknown_Area_Type
  10
227435.500
  20
4595617.000
  0
VERTEX
  8
Unknown_Area_Type
  10
225519.500
  20
4595732.500
  0
VERTEX
  8
Unknown_Area_Type
  10
225515.000
  20
4595739.500
  0
VERTEX
  8
Unknown_Area_Type
  10
225505.000
  20
4595739.500
  0
VERTEX
  8
Unknown_Area_Type
  10
225500.000
  20
4595734.000
  0
VERTEX
  8
Unknown_Area_Type
  10
225494.500
  20
4595734.000
  0
VERTEX
  8
Unknown_Area_Type
  10
224765.500
  20
4595778.000
  0
VERTEX
  8
Unknown_Area_Type
  10
224755.500
  20
4595779.500
  0
VERTEX
  8
Unknown_Area_Type
  10
223995.000
  20
4596228.500
  0
VERTEX
  8
Unknown_Area_Type
  10
223995.000
  20
4597998.000
  0
VERTEX
  8
Unknown_Area_Type
  10
224001.500
  20
4598004.000
  0
VERTEX
  8
Unknown_Area_Type
  10
224002.000
  20
4598005.000
  0
VERTEX
  8
Unknown_Area_Type
  10
225993.000
  20
4598005.000
  0
VERTEX
  8
Unknown_Area_Type
  10
225995.000
  20
4598007.000
  0
VERTEX
  8
Unknown_Area_Type
  10
225995.000
  20
4598266.500
  0
VERTEX
  8
Unknown_Area_Type
  10
225996.500
  20
4598269.500
  0
VERTEX
  8
Unknown_Area_Type
  10
225997.000
  20
4598344.500
  0
VERTEX
  8
Unknown_Area_Type
  10
225998.039
  20
4599468.559
  0
VERTEX
  8
Unknown_Area_Type
  10
226988.870
  20
4599430.798
  0
VERTEX
  8
Unknown_Area_Type
  10
227874.888
  20
4599397.460
  0
SEQEND
  8
Unknown_Area_Type
  0
INSERT
  8
FeatureAttribs
  2
FEATURE
  41
1
  42
1
  43
1
  50
0
  10
226212.059
  20
4597310.633
 66
1
  0
ATTRIB
  8
FeatureAttribs
 70
0
  1
PNOA-H_AMS_1956-57_33k_ES_PAN_2
  2
NAME
  10
226212.059
  20
4597310.633
 40
29.23676
  0
SEQEND
  0
POLYLINE
  8
Unknown_Area_Type
  70
1
  66
1
  0
VERTEX
  8
Unknown_Area_Type
  10
227874.888
  20
4599397.460
  0
VERTEX
  8
Unknown_Area_Type
  10
226988.870
  20
4599430.798
  0
VERTEX
  8
Unknown_Area_Type
  10
225998.039
  20
4599468.559
  0
VERTEX
  8
Unknown_Area_Type
  10
225997.000
  20
4598344.500
  0
VERTEX
  8
Unknown_Area_Type
  10
225996.500
  20
4598269.500
  0
VERTEX
  8
Unknown_Area_Type
  10
225995.000
  20
4598266.500
  0
VERTEX
  8
Unknown_Area_Type
  10
225995.000
  20
4598007.000
  0
VERTEX
  8
Unknown_Area_Type
  10
225993.000
  20
4598005.000
  0
VERTEX
  8
Unknown_Area_Type
  10
224002.000
  20
4598005.000
  0
VERTEX
  8
Unknown_Area_Type
  10
224001.500
  20
4598004.000
  0
VERTEX
  8
Unknown_Area_Type
  10
223995.000
  20
4597998.000
  0
VERTEX
  8
Unknown_Area_Type
  10
223995.000
  20
4596228.500
  0
VERTEX
  8
Unknown_Area_Type
  10
224755.500
  20
4595779.500
  0
VERTEX
  8
Unknown_Area_Type
  10
224765.500
  20
4595778.000
  0
VERTEX
  8
Unknown_Area_Type
  10
225494.500
  20
4595734.000
  0
VERTEX
  8
Unknown_Area_Type
  10
225500.000
  20
4595734.000
  0
VERTEX
  8
Unknown_Area_Type
  10
225505.000
  20
4595739.500
  0
VERTEX
  8
Unknown_Area_Type
  10
225515.000
  20
4595739.500
  0
VERTEX
  8
Unknown_Area_Type
  10
225519.500
  20
4595732.500
  0
VERTEX
  8
Unknown_Area_Type
  10
227435.500
  20
4595617.000
  0
VERTEX
  8
Unknown_Area_Type
  10
227883.500
  20
4595809.000
  0
VERTEX
  8
Unknown_Area_Type
  10
227874.888
  20
4599397.460
  0
SEQEND
  8
Unknown_Area_Type
  0
INSERT
  8
FeatureAttribs
  2
FEATURE
  41
1
  42
1
  43
1
  50
0
  10
227865.072
  20
4599990.500
 66
1
  0
ATTRIB
  8
FeatureAttribs
 70
0
  1
PNOA-H_AMS_1956-57_33k_ES_PAN_2
  2
NAME
  10
227865.072
  20
4599990.500
 40
29.23676
  0
SEQEND
  0
POLYLINE
  8
Unknown_Area_Type
  70
1
  66
1
  0
VERTEX
  8
Unknown_Area_Type
  10
227937.500
  20
4600005.000
  0
VERTEX
  8
Unknown_Area_Type
  10
227874.000
  20
4599976.000
  0
VERTEX
  8
Unknown_Area_Type
  10
227776.500
  20
4600004.500
  0
VERTEX
  8
Unknown_Area_Type
  10
227774.500
  20
4600005.000
  0
VERTEX
  8
Unknown_Area_Type
  10
227937.500
  20
4600005.000
  0
SEQEND
  8
Unknown_Area_Type
  0
INSERT
  8
FeatureAttribs
  2
FEATURE
  41
1
  42
1
  43
1
  50
0
  10
225996.649
  20
4599634.279
 66
1
  0
ATTRIB
  8
FeatureAttribs
 70
0
  1
PNOA-H_AMS_1956-57_33k_ES_PAN_2
  2
NAME
  10
225996.649
  20
4599634.279
 40
29.23676
  0
SEQEND
  0
POLYLINE
  8
Unknown_Area_Type
  70
1
  66
1
  0
VERTEX
  8
Unknown_Area_Type
  10
225998.039
  20
4599468.559
  0
VERTEX
  8
Unknown_Area_Type
  10
225995.154
  20
4599468.669
  0
VERTEX
  8
Unknown_Area_Type
  10
225995.058
  20
4599800.000
  0
VERTEX
  8
Unknown_Area_Type
  10
225998.345
  20
4599800.000
  0
VERTEX
  8
Unknown_Area_Type
  10
225998.039
  20
4599468.559
  0
SEQEND
  8
Unknown_Area_Type
  0
INSERT
  8
FeatureAttribs
  2
FEATURE
  41
1
  42
1
  43
1
  50
0
  10
225996.424
  20
4598939.991
 66
1
  0
ATTRIB
  8
FeatureAttribs
 70
0
  1
PNOA-H_AMS_1956-57_33k_ES_PAN_2
  2
NAME
  10
225996.424
  20
4598939.991
 40
29.23676
  0
SEQEND
  0
POLYLINE
  8
Unknown_Area_Type
  70
1
  66
1
  0
VERTEX
  8
Unknown_Area_Type
  10
225998.039
  20
4599468.559
  0
VERTEX
  8
Unknown_Area_Type
  10
225997.000
  20
4598344.500
  0
VERTEX
  8
Unknown_Area_Type
  10
225996.500
  20
4598269.500
  0
VERTEX
  8
Unknown_Area_Type
  10
225995.500
  20
4598266.500
  0
VERTEX
  8
Unknown_Area_Type
  10
225995.154
  20
4599468.669
  0
VERTEX
  8
Unknown_Area_Type
  10
225998.039
  20
4599468.559
  0
SEQEND
  8
Unknown_Area_Type
  0
INSERT
  8
FeatureAttribs
  2
FEATURE
  41
1
  42
1
  43
1
  50
0
  10
225996.424
  20
4598939.991
 66
1
  0
ATTRIB
  8
FeatureAttribs
 70
0
  1
PNOA-H_AMS_1956-57_33k_ES_PAN_2
  2
NAME
  10
225996.424
  20
4598939.991
 40
29.23676
  0
SEQEND
  0
POLYLINE
  8
Unknown_Area_Type
  70
1
  66
1
  0
VERTEX
  8
Unknown_Area_Type
  10
225998.039
  20
4599468.559
  0
VERTEX
  8
Unknown_Area_Type
  10
225995.154
  20
4599468.669
  0
VERTEX
  8
Unknown_Area_Type
  10
225995.500
  20
4598266.500
  0
VERTEX
  8
Unknown_Area_Type
  10
225996.500
  20
4598269.500
  0
VERTEX
  8
Unknown_Area_Type
  10
225997.000
  20
4598344.500
  0
VERTEX
  8
Unknown_Area_Type
  10
225998.039
  20
4599468.559
  0
SEQEND
  8
Unknown_Area_Type
  0
INSERT
  8
FeatureAttribs
  2
FEATURE
  41
1
  42
1
  43
1
  50
0
  10
228117.818
  20
4600140.956
 66
1
  0
ATTRIB
  8
FeatureAttribs
 70
0
  1
PNOA-H_AMS_1956-57_33k_ES_PAN_2
  2
NAME
  10
228117.818
  20
4600140.956
 40
29.23676
  0
SEQEND
  0
POLYLINE
  8
Unknown_Area_Type
  70
1
  66
1
  0
VERTEX
  8
Unknown_Area_Type
  10
228486.270
  20
4600251.411
  0
VERTEX
  8
Unknown_Area_Type
  10
227995.000
  20
4600030.500
  0
VERTEX
  8
Unknown_Area_Type
  10
227995.000
  20
4600251.411
  0
VERTEX
  8
Unknown_Area_Type
  10
228486.270
  20
4600251.411
  0
SEQEND
  8
Unknown_Area_Type
  0
INSERT
  8
FeatureAttribs
  2
FEATURE
  41
1
  42
1
  43
1
  50
0
  10
233564.777
  20
4600131.706
 66
1
  0
ATTRIB
  8
FeatureAttribs
 70
0
  1
PNOA-H_AMS_1956-57_33k_ES_PAN_2
  2
NAME
  10
233564.777
  20
4600131.706
 40
29.23676
  0
SEQEND
  0
POLYLINE
  8
Unknown_Area_Type
  70
1
  66
1
  0
VERTEX
  8
Unknown_Area_Type
  10
233945.491
  20
4600145.724
  0
VERTEX
  8
Unknown_Area_Type
  10
233623.500
  20
4600012.000
  0
VERTEX
  8
Unknown_Area_Type
  10
232812.135
  20
4600251.411
  0
VERTEX
  8
Unknown_Area_Type
  10
233945.491
  20
4600251.411
  0
VERTEX
  8
Unknown_Area_Type
  10
233945.491
  20
4600145.724
  0
SEQEND
  8
Unknown_Area_Type
  0
INSERT
  8
FeatureAttribs
  2
FEATURE
  41
1
  42
1
  43
1
  50
0
  10
230719.521
  20
4600124.706
 66
1
  0
ATTRIB
  8
FeatureAttribs
 70
0
  1
PNOA-H_AMS_1956-57_33k_ES_PAN_2
  2
NAME
  10
230719.521
  20
4600124.706
 40
29.23676
  0
SEQEND
  0
POLYLINE
  8
Unknown_Area_Type
  70
1
  66
1
  0
VERTEX
  8
Unknown_Area_Type
  10
231373.707
  20
4600251.411
  0
VERTEX
  8
Unknown_Area_Type
  10
230783.000
  20
4599998.000
  0
VERTEX
  8
Unknown_Area_Type
  10
229938.378
  20
4600251.411
  0
VERTEX
  8
Unknown_Area_Type
  10
231373.707
  20
4600251.411
  0
SEQEND
  8
Unknown_Area_Type
  0
INSERT
  8
FeatureAttribs
  2
FEATURE
  41
1
  42
1
  43
1
  50
0
  10
231561.863
  20
4593169.565
 66
1
  0
ATTRIB
  8
FeatureAttribs
 70
0
  1
PNOA-H_AMS_1956-57_33k_ES_PAN_2
  2
NAME
  10
231561.863
  20
4593169.565
 40
29.23676
  0
SEQEND
  0
POLYLINE
  8
Unknown_Area_Type
  70
1
  66
1
  0
VERTEX
  8
Unknown_Area_Type
  10
230695.500
  20
4595811.000
  0
VERTEX
  8
Unknown_Area_Type
  10
233000.000
  20
4595550.500
  0
VERTEX
  8
Unknown_Area_Type
  10
232990.500
  20
4590760.500
  0
VERTEX
  8
Unknown_Area_Type
  10
230963.500
  20
4590487.000
  0
VERTEX
  8
Unknown_Area_Type
  10
230193.500
  20
4590802.500
  0
VERTEX
  8
Unknown_Area_Type
  10
230110.500
  20
4595551.500
  0
VERTEX
  8
Unknown_Area_Type
  10
230694.500
  20
4595810.500
  0
VERTEX
  8
Unknown_Area_Type
  10
230695.500
  20
4595811.000
  0
SEQEND
  8
Unknown_Area_Type
  0
INSERT
  8
FeatureAttribs
  2
FEATURE
  41
1
  42
1
  43
1
  50
0
  10
231561.863
  20
4593169.565
 66
1
  0
ATTRIB
  8
FeatureAttribs
 70
0
  1
PNOA-H_AMS_1956-57_33k_ES_PAN_2
  2
NAME
  10
231561.863
  20
4593169.565
 40
29.23676
  0
SEQEND
  0
POLYLINE
  8
Unknown_Area_Type
  70
1
  66
1
  0
VERTEX
  8
Unknown_Area_Type
  10
230695.500
  20
4595811.000
  0
VERTEX
  8
Unknown_Area_Type
  10
230694.500
  20
4595810.500
  0
VERTEX
  8
Unknown_Area_Type
  10
230110.500
  20
4595551.500
  0
VERTEX
  8
Unknown_Area_Type
  10
230193.500
  20
4590802.500
  0
VERTEX
  8
Unknown_Area_Type
  10
230963.500
  20
4590487.000
  0
VERTEX
  8
Unknown_Area_Type
  10
232990.500
  20
4590760.500
  0
VERTEX
  8
Unknown_Area_Type
  10
233000.000
  20
4595550.500
  0
VERTEX
  8
Unknown_Area_Type
  10
230695.500
  20
4595811.000
  0
SEQEND
  8
Unknown_Area_Type
  0
INSERT
  8
FeatureAttribs
  2
FEATURE
  41
1
  42
1
  43
1
  50
0
  10
228765.670
  20
4593125.886
 66
1
  0
ATTRIB
  8
FeatureAttribs
 70
0
  1
PNOA-H_AMS_1956-57_33k_ES_PAN_2
  2
NAME
  10
228765.670
  20
4593125.886
 40
29.23676
  0
SEQEND
  0
POLYLINE
  8
Unknown_Area_Type
  70
1
  66
1
  0
VERTEX
  8
Unknown_Area_Type
  10
227435.000
  20
4595617.000
  0
VERTEX
  8
Unknown_Area_Type
  10
227882.500
  20
4595809.000
  0
VERTEX
  8
Unknown_Area_Type
  10
227883.500
  20
4595809.500
  0
VERTEX
  8
Unknown_Area_Type
  10
230110.500
  20
4595551.500
  0
VERTEX
  8
Unknown_Area_Type
  10
230193.500
  20
4590802.500
  0
VERTEX
  8
Unknown_Area_Type
  10
228142.500
  20
4590428.000
  0
VERTEX
  8
Unknown_Area_Type
  10
228135.000
  20
4590429.500
  0
VERTEX
  8
Unknown_Area_Type
  10
227398.500
  20
4590734.500
  0
VERTEX
  8
Unknown_Area_Type
  10
227435.000
  20
4595617.000
  0
SEQEND
  8
Unknown_Area_Type
  0
INSERT
  8
FeatureAttribs
  2
FEATURE
  41
1
  42
1
  43
1
  50
0
  10
228765.670
  20
4593125.886
 66
1
  0
ATTRIB
  8
FeatureAttribs
 70
0
  1
PNOA-H_AMS_1956-57_33k_ES_PAN_2
  2
NAME
  10
228765.670
  20
4593125.886
 40
29.23676
  0
SEQEND
  0
POLYLINE
  8
Unknown_Area_Type
  70
1
  66
1
  0
VERTEX
  8
Unknown_Area_Type
  10
227435.000
  20
4595617.000
  0
VERTEX
  8
Unknown_Area_Type
  10
227398.500
  20
4590734.500
  0
VERTEX
  8
Unknown_Area_Type
  10
228135.000
  20
4590429.500
  0
VERTEX
  8
Unknown_Area_Type
  10
228142.500
  20
4590428.000
  0
VERTEX
  8
Unknown_Area_Type
  10
230193.500
  20
4590802.500
  0
VERTEX
  8
Unknown_Area_Type
  10
230110.500
  20
4595551.500
  0
VERTEX
  8
Unknown_Area_Type
  10
227883.500
  20
4595809.500
  0
VERTEX
  8
Unknown_Area_Type
  10
227882.500
  20
4595809.000
  0
VERTEX
  8
Unknown_Area_Type
  10
227435.000
  20
4595617.000
  0
SEQEND
  8
Unknown_Area_Type
  0
INSERT
  8
FeatureAttribs
  2
FEATURE
  41
1
  42
1
  43
1
  50
0
  10
233834.204
  20
4593136.598
 66
1
  0
ATTRIB
  8
FeatureAttribs
 70
0
  1
PNOA-H_AMS_1956-57_33k_ES_PAN_2
  2
NAME
  10
233834.204
  20
4593136.598
 40
29.23676
  0
SEQEND
  0
POLYLINE
  8
Unknown_Area_Type
  70
1
  66
1
  0
VERTEX
  8
Unknown_Area_Type
  10
233945.491
  20
4590517.593
  0
VERTEX
  8
Unknown_Area_Type
  10
233646.500
  20
4590485.000
  0
VERTEX
  8
Unknown_Area_Type
  10
233640.000
  20
4590485.500
  0
VERTEX
  8
Unknown_Area_Type
  10
233625.443
  20
4590491.664
  0
VERTEX
  8
Unknown_Area_Type
  10
233689.524
  20
4592230.732
  0
VERTEX
  8
Unknown_Area_Type
  10
233774.802
  20
4594544.058
  0
VERTEX
  8
Unknown_Area_Type
  10
233820.684
  20
4595788.196
  0
VERTEX
  8
Unknown_Area_Type
  10
233945.491
  20
4595771.878
  0
VERTEX
  8
Unknown_Area_Type
  10
233945.491
  20
4590517.593
  0
SEQEND
  8
Unknown_Area_Type
  0
INSERT
  8
FeatureAttribs
  2
FEATURE
  41
1
  42
1
  43
1
  50
0
  10
233368.389
  20
4593272.073
 66
1
  0
ATTRIB
  8
FeatureAttribs
 70
0
  1
PNOA-H_AMS_1956-57_33k_ES_PAN_2
  2
NAME
  10
233368.389
  20
4593272.073
 40
29.23676
  0
SEQEND
  0
POLYLINE
  8
Unknown_Area_Type
  70
1
  66
1
  0
VERTEX
  8
Unknown_Area_Type
  10
233820.684
  20
4595788.196
  0
VERTEX
  8
Unknown_Area_Type
  10
233774.802
  20
4594544.058
  0
VERTEX
  8
Unknown_Area_Type
  10
233689.524
  20
4592230.732
  0
VERTEX
  8
Unknown_Area_Type
  10
233625.443
  20
4590491.664
  0
VERTEX
  8
Unknown_Area_Type
  10
232990.500
  20
4590760.500
  0
VERTEX
  8
Unknown_Area_Type
  10
233000.000
  20
4595551.000
  0
VERTEX
  8
Unknown_Area_Type
  10
233619.500
  20
4595814.500
  0
VERTEX
  8
Unknown_Area_Type
  10
233820.684
  20
4595788.196
  0
SEQEND
  8
Unknown_Area_Type
  0
INSERT
  8
FeatureAttribs
  2
FEATURE
  41
1
  42
1
  43
1
  50
0
  10
233368.389
  20
4593272.073
 66
1
  0
ATTRIB
  8
FeatureAttribs
 70
0
  1
PNOA-H_AMS_1956-57_33k_ES_PAN_2
  2
NAME
  10
233368.389
  20
4593272.073
 40
29.23676
  0
SEQEND
  0
POLYLINE
  8
Unknown_Area_Type
  70
1
  66
1
  0
VERTEX
  8
Unknown_Area_Type
  10
233820.684
  20
4595788.196
  0
VERTEX
  8
Unknown_Area_Type
  10
233619.500
  20
4595814.500
  0
VERTEX
  8
Unknown_Area_Type
  10
233000.000
  20
4595551.000
  0
VERTEX
  8
Unknown_Area_Type
  10
232990.500
  20
4590760.500
  0
VERTEX
  8
Unknown_Area_Type
  10
233625.443
  20
4590491.664
  0
VERTEX
  8
Unknown_Area_Type
  10
233689.524
  20
4592230.732
  0
VERTEX
  8
Unknown_Area_Type
  10
233774.802
  20
4594544.058
  0
VERTEX
  8
Unknown_Area_Type
  10
233820.684
  20
4595788.196
  0
SEQEND
  8
Unknown_Area_Type
  0
INSERT
  8
FeatureAttribs
  2
FEATURE
  41
1
  42
1
  43
1
  50
0
  10
226071.439
  20
4593162.527
 66
1
  0
ATTRIB
  8
FeatureAttribs
 70
0
  1
PNOA-H_AMS_1956-57_33k_ES_PAN_2
  2
NAME
  10
226071.439
  20
4593162.527
 40
29.23676
  0
SEQEND
  0
POLYLINE
  8
Unknown_Area_Type
  70
1
  66
1
  0
VERTEX
  8
Unknown_Area_Type
  10
224757.500
  20
4595778.500
  0
VERTEX
  8
Unknown_Area_Type
  10
225494.500
  20
4595734.000
  0
VERTEX
  8
Unknown_Area_Type
  10
225500.000
  20
4595734.000
  0
VERTEX
  8
Unknown_Area_Type
  10
225505.000
  20
4595739.500
  0
VERTEX
  8
Unknown_Area_Type
  10
225515.000
  20
4595739.500
  0
VERTEX
  8
Unknown_Area_Type
  10
225519.500
  20
4595732.500
  0
VERTEX
  8
Unknown_Area_Type
  10
226961.000
  20
4595645.500
  0
VERTEX
  8
Unknown_Area_Type
  10
226962.000
  20
4595645.500
  0
VERTEX
  8
Unknown_Area_Type
  10
227435.000
  20
4595617.000
  0
VERTEX
  8
Unknown_Area_Type
  10
227398.500
  20
4590734.500
  0
VERTEX
  8
Unknown_Area_Type
  10
225315.500
  20
4590502.500
  0
VERTEX
  8
Unknown_Area_Type
  10
225310.000
  20
4590502.500
  0
VERTEX
  8
Unknown_Area_Type
  10
224746.000
  20
4590745.500
  0
VERTEX
  8
Unknown_Area_Type
  10
224757.500
  20
4595778.500
  0
SEQEND
  8
Unknown_Area_Type
  0
INSERT
  8
FeatureAttribs
  2
FEATURE
  41
1
  42
1
  43
1
  50
0
  10
226071.439
  20
4593162.527
 66
1
  0
ATTRIB
  8
FeatureAttribs
 70
0
  1
PNOA-H_AMS_1956-57_33k_ES_PAN_2
  2
NAME
  10
226071.439
  20
4593162.527
 40
29.23676
  0
SEQEND
  0
POLYLINE
  8
Unknown_Area_Type
  70
1
  66
1
  0
VERTEX
  8
Unknown_Area_Type
  10
224757.500
  20
4595778.500
  0
VERTEX
  8
Unknown_Area_Type
  10
224746.000
  20
4590745.500
  0
VERTEX
  8
Unknown_Area_Type
  10
225310.000
  20
4590502.500
  0
VERTEX
  8
Unknown_Area_Type
  10
225315.500
  20
4590502.500
  0
VERTEX
  8
Unknown_Area_Type
  10
227398.500
  20
4590734.500
  0
VERTEX
  8
Unknown_Area_Type
  10
227435.000
  20
4595617.000
  0
VERTEX
  8
Unknown_Area_Type
  10
226962.000
  20
4595645.500
  0
VERTEX
  8
Unknown_Area_Type
  10
226961.000
  20
4595645.500
  0
VERTEX
  8
Unknown_Area_Type
  10
225519.500
  20
4595732.500
  0
VERTEX
  8
Unknown_Area_Type
  10
225515.000
  20
4595739.500
  0
VERTEX
  8
Unknown_Area_Type
  10
225505.000
  20
4595739.500
  0
VERTEX
  8
Unknown_Area_Type
  10
225500.000
  20
4595734.000
  0
VERTEX
  8
Unknown_Area_Type
  10
225494.500
  20
4595734.000
  0
VERTEX
  8
Unknown_Area_Type
  10
224757.500
  20
4595778.500
  0
SEQEND
  8
Unknown_Area_Type
  0
INSERT
  8
FeatureAttribs
  2
FEATURE
  41
1
  42
1
  43
1
  50
0
  10
223141.943
  20
4593108.182
 66
1
  0
ATTRIB
  8
FeatureAttribs
 70
0
  1
PNOA-H_AMS_1956-57_33k_ES_PAN_2
  2
NAME
  10
223141.943
  20
4593108.182
 40
29.23676
  0
SEQEND
  0
POLYLINE
  8
Unknown_Area_Type
  70
1
  66
1
  0
VERTEX
  8
Unknown_Area_Type
  10
220002.000
  20
4592005.000
  0
VERTEX
  8
Unknown_Area_Type
  10
221993.000
  20
4592005.000
  0
VERTEX
  8
Unknown_Area_Type
  10
221995.000
  20
4592007.000
  0
VERTEX
  8
Unknown_Area_Type
  10
221995.000
  20
4594033.000
  0
VERTEX
  8
Unknown_Area_Type
  10
222005.000
  20
4594042.000
  0
VERTEX
  8
Unknown_Area_Type
  10
222005.000
  20
4594553.000
  0
VERTEX
  8
Unknown_Area_Type
  10
222012.000
  20
4594560.000
  0
VERTEX
  8
Unknown_Area_Type
  10
222063.000
  20
4594560.000
  0
VERTEX
  8
Unknown_Area_Type
  10
222067.000
  20
4594565.000
  0
VERTEX
  8
Unknown_Area_Type
  10
222113.000
  20
4594565.000
  0
VERTEX
  8
Unknown_Area_Type
  10
222115.000
  20
4594567.000
  0
VERTEX
  8
Unknown_Area_Type
  10
222115.000
  20
4594768.000
  0
VERTEX
  8
Unknown_Area_Type
  10
222110.000
  20
4594772.000
  0
VERTEX
  8
Unknown_Area_Type
  10
222110.000
  20
4594823.000
  0
VERTEX
  8
Unknown_Area_Type
  10
222105.000
  20
4594827.000
  0
VERTEX
  8
Unknown_Area_Type
  10
222105.000
  20
4594883.000
  0
VERTEX
  8
Unknown_Area_Type
  10
222100.000
  20
4594887.000
  0
VERTEX
  8
Unknown_Area_Type
  10
222100.000
  20
4594933.000
  0
VERTEX
  8
Unknown_Area_Type
  10
222095.000
  20
4594937.000
  0
VERTEX
  8
Unknown_Area_Type
  10
222095.000
  20
4594988.000
  0
VERTEX
  8
Unknown_Area_Type
  10
222090.000
  20
4594992.000
  0
VERTEX
  8
Unknown_Area_Type
  10
222090.000
  20
4595043.000
  0
VERTEX
  8
Unknown_Area_Type
  10
222085.000
  20
4595047.000
  0
VERTEX
  8
Unknown_Area_Type
  10
222085.000
  20
4595098.000
  0
VERTEX
  8
Unknown_Area_Type
  10
222080.000
  20
4595102.000
  0
VERTEX
  8
Unknown_Area_Type
  10
222080.000
  20
4595163.000
  0
VERTEX
  8
Unknown_Area_Type
  10
222075.000
  20
4595167.000
  0
VERTEX
  8
Unknown_Area_Type
  10
222075.000
  20
4595233.000
  0
VERTEX
  8
Unknown_Area_Type
  10
222070.000
  20
4595237.000
  0
VERTEX
  8
Unknown_Area_Type
  10
222070.000
  20
4595298.000
  0
VERTEX
  8
Unknown_Area_Type
  10
222065.000
  20
4595302.000
  0
VERTEX
  8
Unknown_Area_Type
  10
222065.000
  20
4595358.000
  0
VERTEX
  8
Unknown_Area_Type
  10
222060.000
  20
4595362.000
  0
VERTEX
  8
Unknown_Area_Type
  10
222060.000
  20
4595428.000
  0
VERTEX
  8
Unknown_Area_Type
  10
222055.000
  20
4595432.000
  0
VERTEX
  8
Unknown_Area_Type
  10
222055.000
  20
4595493.000
  0
VERTEX
  8
Unknown_Area_Type
  10
222050.000
  20
4595497.000
  0
VERTEX
  8
Unknown_Area_Type
  10
222050.000
  20
4595548.000
  0
VERTEX
  8
Unknown_Area_Type
  10
222045.000
  20
4595552.000
  0
VERTEX
  8
Unknown_Area_Type
  10
222045.000
  20
4595608.000
  0
VERTEX
  8
Unknown_Area_Type
  10
222040.000
  20
4595612.000
  0
VERTEX
  8
Unknown_Area_Type
  10
222040.000
  20
4595673.000
  0
VERTEX
  8
Unknown_Area_Type
  10
222035.000
  20
4595677.000
  0
VERTEX
  8
Unknown_Area_Type
  10
222035.000
  20
4595733.000
  0
VERTEX
  8
Unknown_Area_Type
  10
222030.000
  20
4595737.000
  0
VERTEX
  8
Unknown_Area_Type
  10
222030.000
  20
4595798.000
  0
VERTEX
  8
Unknown_Area_Type
  10
222025.000
  20
4595802.000
  0
VERTEX
  8
Unknown_Area_Type
  10
222025.000
  20
4595853.000
  0
VERTEX
  8
Unknown_Area_Type
  10
222020.000
  20
4595857.000
  0
VERTEX
  8
Unknown_Area_Type
  10
222020.000
  20
4595908.000
  0
VERTEX
  8
Unknown_Area_Type
  10
222015.000
  20
4595912.000
  0
VERTEX
  8
Unknown_Area_Type
  10
222015.000
  20
4595963.000
  0
VERTEX
  8
Unknown_Area_Type
  10
222010.000
  20
4595967.000
  0
VERTEX
  8
Unknown_Area_Type
  10
222010.000
  20
4595998.000
  0
VERTEX
  8
Unknown_Area_Type
  10
222016.500
  20
4596004.000
  0
VERTEX
  8
Unknown_Area_Type
  10
222017.000
  20
4596005.000
  0
VERTEX
  8
Unknown_Area_Type
  10
223993.000
  20
4596005.000
  0
VERTEX
  8
Unknown_Area_Type
  10
223995.000
  20
4596007.000
  0
VERTEX
  8
Unknown_Area_Type
  10
223995.000
  20
4596228.500
  0
VERTEX
  8
Unknown_Area_Type
  10
223996.000
  20
4596228.500
  0
VERTEX
  8
Unknown_Area_Type
  10
224757.500
  20
4595779.000
  0
VERTEX
  8
Unknown_Area_Type
  10
224746.000
  20
4590745.500
  0
VERTEX
  8
Unknown_Area_Type
  10
222588.500
  20
4590465.500
  0
VERTEX
  8
Unknown_Area_Type
  10
219995.000
  20
4591561.500
  0
VERTEX
  8
Unknown_Area_Type
  10
219995.000
  20
4591998.000
  0
VERTEX
  8
Unknown_Area_Type
  10
220002.000
  20
4592005.000
  0
SEQEND
  8
Unknown_Area_Type
  0
INSERT
  8
FeatureAttribs
  2
FEATURE
  41
1
  42
1
  43
1
  50
0
  10
223141.943
  20
4593108.182
 66
1
  0
ATTRIB
  8
FeatureAttribs
 70
0
  1
PNOA-H_AMS_1956-57_33k_ES_PAN_2
  2
NAME
  10
223141.943
  20
4593108.182
 40
29.23676
  0
SEQEND
  0
POLYLINE
  8
Unknown_Area_Type
  70
1
  66
1
  0
VERTEX
  8
Unknown_Area_Type
  10
220002.000
  20
4592005.000
  0
VERTEX
  8
Unknown_Area_Type
  10
219995.000
  20
4591998.000
  0
VERTEX
  8
Unknown_Area_Type
  10
219995.000
  20
4591561.500
  0
VERTEX
  8
Unknown_Area_Type
  10
222588.500
  20
4590465.500
  0
VERTEX
  8
Unknown_Area_Type
  10
224746.000
  20
4590745.500
  0
VERTEX
  8
Unknown_Area_Type
  10
224757.500
  20
4595779.000
  0
VERTEX
  8
Unknown_Area_Type
  10
223996.000
  20
4596228.500
  0
VERTEX
  8
Unknown_Area_Type
  10
223995.000
  20
4596228.500
  0
VERTEX
  8
Unknown_Area_Type
  10
223995.000
  20
4596007.000
  0
VERTEX
  8
Unknown_Area_Type
  10
223993.000
  20
4596005.000
  0
VERTEX
  8
Unknown_Area_Type
  10
222017.000
  20
4596005.000
  0
VERTEX
  8
Unknown_Area_Type
  10
222016.500
  20
4596004.000
  0
VERTEX
  8
Unknown_Area_Type
  10
222010.000
  20
4595998.000
  0
VERTEX
  8
Unknown_Area_Type
  10
222010.000
  20
4595967.000
  0
VERTEX
  8
Unknown_Area_Type
  10
222015.000
  20
4595963.000
  0
VERTEX
  8
Unknown_Area_Type
  10
222015.000
  20
4595912.000
  0
VERTEX
  8
Unknown_Area_Type
  10
222020.000
  20
4595908.000
  0
VERTEX
  8
Unknown_Area_Type
  10
222020.000
  20
4595857.000
  0
VERTEX
  8
Unknown_Area_Type
  10
222025.000
  20
4595853.000
  0
VERTEX
  8
Unknown_Area_Type
  10
222025.000
  20
4595802.000
  0
VERTEX
  8
Unknown_Area_Type
  10
222030.000
  20
4595798.000
  0
VERTEX
  8
Unknown_Area_Type
  10
222030.000
  20
4595737.000
  0
VERTEX
  8
Unknown_Area_Type
  10
222035.000
  20
4595733.000
  0
VERTEX
  8
Unknown_Area_Type
  10
222035.000
  20
4595677.000
  0
VERTEX
  8
Unknown_Area_Type
  10
222040.000
  20
4595673.000
  0
VERTEX
  8
Unknown_Area_Type
  10
222040.000
  20
4595612.000
  0
VERTEX
  8
Unknown_Area_Type
  10
222045.000
  20
4595608.000
  0
VERTEX
  8
Unknown_Area_Type
  10
222045.000
  20
4595552.000
  0
VERTEX
  8
Unknown_Area_Type
  10
222050.000
  20
4595548.000
  0
VERTEX
  8
Unknown_Area_Type
  10
222050.000
  20
4595497.000
  0
VERTEX
  8
Unknown_Area_Type
  10
222055.000
  20
4595493.000
  0
VERTEX
  8
Unknown_Area_Type
  10
222055.000
  20
4595432.000
  0
VERTEX
  8
Unknown_Area_Type
  10
222060.000
  20
4595428.000
  0
VERTEX
  8
Unknown_Area_Type
  10
222060.000
  20
4595362.000
  0
VERTEX
  8
Unknown_Area_Type
  10
222065.000
  20
4595358.000
  0
VERTEX
  8
Unknown_Area_Type
  10
222065.000
  20
4595302.000
  0
VERTEX
  8
Unknown_Area_Type
  10
222070.000
  20
4595298.000
  0
VERTEX
  8
Unknown_Area_Type
  10
222070.000
  20
4595237.000
  0
VERTEX
  8
Unknown_Area_Type
  10
222075.000
  20
4595233.000
  0
VERTEX
  8
Unknown_Area_Type
  10
222075.000
  20
4595167.000
  0
VERTEX
  8
Unknown_Area_Type
  10
222080.000
  20
4595163.000
  0
VERTEX
  8
Unknown_Area_Type
  10
222080.000
  20
4595102.000
  0
VERTEX
  8
Unknown_Area_Type
  10
222085.000
  20
4595098.000
  0
VERTEX
  8
Unknown_Area_Type
  10
222085.000
  20
4595047.000
  0
VERTEX
  8
Unknown_Area_Type
  10
222090.000
  20
4595043.000
  0
VERTEX
  8
Unknown_Area_Type
  10
222090.000
  20
4594992.000
  0
VERTEX
  8
Unknown_Area_Type
  10
222095.000
  20
4594988.000
  0
VERTEX
  8
Unknown_Area_Type
  10
222095.000
  20
4594937.000
  0
VERTEX
  8
Unknown_Area_Type
  10
222100.000
  20
4594933.000
  0
VERTEX
  8
Unknown_Area_Type
  10
222100.000
  20
4594887.000
  0
VERTEX
  8
Unknown_Area_Type
  10
222105.000
  20
4594883.000
  0
VERTEX
  8
Unknown_Area_Type
  10
222105.000
  20
4594827.000
  0
VERTEX
  8
Unknown_Area_Type
  10
222110.000
  20
4594823.000
  0
VERTEX
  8
Unknown_Area_Type
  10
222110.000
  20
4594772.000
  0
VERTEX
  8
Unknown_Area_Type
  10
222115.000
  20
4594768.000
  0
VERTEX
  8
Unknown_Area_Type
  10
222115.000
  20
4594567.000
  0
VERTEX
  8
Unknown_Area_Type
  10
222113.000
  20
4594565.000
  0
VERTEX
  8
Unknown_Area_Type
  10
222067.000
  20
4594565.000
  0
VERTEX
  8
Unknown_Area_Type
  10
222063.000
  20
4594560.000
  0
VERTEX
  8
Unknown_Area_Type
  10
222012.000
  20
4594560.000
  0
VERTEX
  8
Unknown_Area_Type
  10
222005.000
  20
4594553.000
  0
VERTEX
  8
Unknown_Area_Type
  10
222005.000
  20
4594042.000
  0
VERTEX
  8
Unknown_Area_Type
  10
221995.000
  20
4594033.000
  0
VERTEX
  8
Unknown_Area_Type
  10
221995.000
  20
4592007.000
  0
VERTEX
  8
Unknown_Area_Type
  10
221993.000
  20
4592005.000
  0
VERTEX
  8
Unknown_Area_Type
  10
220002.000
  20
4592005.000
  0
SEQEND
  8
Unknown_Area_Type
  0
INSERT
  8
FeatureAttribs
  2
FEATURE
  41
1
  42
1
  43
1
  50
0
  10
213312.400
  20
4581467.500
 66
1
  0
ATTRIB
  8
FeatureAttribs
 70
0
  1
PNOA-H_AMS_1956-57_33k_ES_PAN_2
  2
NAME
  10
213312.400
  20
4581467.500
 40
29.23676
  0
SEQEND
  0
POLYLINE
  8
Unknown_Area_Type
  70
1
  66
1
  0
VERTEX
  8
Unknown_Area_Type
  10
213306.000
  20
4581469.500
  0
VERTEX
  8
Unknown_Area_Type
  10
213309.500
  20
4581473.500
  0
VERTEX
  8
Unknown_Area_Type
  10
213314.500
  20
4581474.000
  0
VERTEX
  8
Unknown_Area_Type
  10
213315.500
  20
4581473.500
  0
VERTEX
  8
Unknown_Area_Type
  10
213319.000
  20
4581469.500
  0
VERTEX
  8
Unknown_Area_Type
  10
213318.500
  20
4581464.500
  0
VERTEX
  8
Unknown_Area_Type
  10
213314.500
  20
4581461.000
  0
VERTEX
  8
Unknown_Area_Type
  10
213309.500
  20
4581461.500
  0
VERTEX
  8
Unknown_Area_Type
  10
213306.000
  20
4581465.500
  0
VERTEX
  8
Unknown_Area_Type
  10
213306.000
  20
4581469.500
  0
SEQEND
  8
Unknown_Area_Type
  0
INSERT
  8
FeatureAttribs
  2
FEATURE
  41
1
  42
1
  43
1
  50
0
  10
213312.400
  20
4581467.500
 66
1
  0
ATTRIB
  8
FeatureAttribs
 70
0
  1
PNOA-H_AMS_1956-57_33k_ES_PAN_2
  2
NAME
  10
213312.400
  20
4581467.500
 40
29.23676
  0
SEQEND
  0
POLYLINE
  8
Unknown_Area_Type
  70
1
  66
1
  0
VERTEX
  8
Unknown_Area_Type
  10
213306.000
  20
4581469.500
  0
VERTEX
  8
Unknown_Area_Type
  10
213306.000
  20
4581465.500
  0
VERTEX
  8
Unknown_Area_Type
  10
213309.500
  20
4581461.500
  0
VERTEX
  8
Unknown_Area_Type
  10
213314.500
  20
4581461.000
  0
VERTEX
  8
Unknown_Area_Type
  10
213318.500
  20
4581464.500
  0
VERTEX
  8
Unknown_Area_Type
  10
213319.000
  20
4581469.500
  0
VERTEX
  8
Unknown_Area_Type
  10
213315.500
  20
4581473.500
  0
VERTEX
  8
Unknown_Area_Type
  10
213314.500
  20
4581474.000
  0
VERTEX
  8
Unknown_Area_Type
  10
213309.500
  20
4581473.500
  0
VERTEX
  8
Unknown_Area_Type
  10
213306.000
  20
4581469.500
  0
SEQEND
  8
Unknown_Area_Type
  0
INSERT
  8
FeatureAttribs
  2
FEATURE
  41
1
  42
1
  43
1
  50
0
  10
214473.222
  20
4581953.583
 66
1
  0
ATTRIB
  8
FeatureAttribs
 70
0
  1
PNOA-H_AMS_1956-57_33k_ES_PAN_2
  2
NAME
  10
214473.222
  20
4581953.583
 40
29.23676
  0
SEQEND
  0
POLYLINE
  8
Unknown_Area_Type
  70
1
  66
1
  0
VERTEX
  8
Unknown_Area_Type
  10
215851.973
  20
4581325.542
  0
VERTEX
  8
Unknown_Area_Type
  10
215827.370
  20
4581326.500
  0
VERTEX
  8
Unknown_Area_Type
  10
212935.118
  20
4581440.543
  0
VERTEX
  8
Unknown_Area_Type
  10
212959.000
  20
4582352.000
  0
VERTEX
  8
Unknown_Area_Type
  10
212959.500
  20
4582353.500
  0
VERTEX
  8
Unknown_Area_Type
  10
212961.500
  20
4582354.000
  0
VERTEX
  8
Unknown_Area_Type
  10
213999.000
  20
4582507.500
  0
VERTEX
  8
Unknown_Area_Type
  10
214000.500
  20
4582507.500
  0
VERTEX
  8
Unknown_Area_Type
  10
214000.500
  20
4582500.000
  0
VERTEX
  8
Unknown_Area_Type
  10
214003.500
  20
4582496.500
  0
VERTEX
  8
Unknown_Area_Type
  10
214005.000
  20
4582495.500
  0
VERTEX
  8
Unknown_Area_Type
  10
214015.000
  20
4582495.500
  0
VERTEX
  8
Unknown_Area_Type
  10
214019.500
  20
4582500.000
  0
VERTEX
  8
Unknown_Area_Type
  10
214019.500
  20
4582505.000
  0
VERTEX
  8
Unknown_Area_Type
  10
214015.000
  20
4582509.000
  0
VERTEX
  8
Unknown_Area_Type
  10
214016.000
  20
4582510.000
  0
VERTEX
  8
Unknown_Area_Type
  10
215246.500
  20
4582692.000
  0
VERTEX
  8
Unknown_Area_Type
  10
215249.500
  20
4582692.500
  0
VERTEX
  8
Unknown_Area_Type
  10
215252.500
  20
4582692.500
  0
VERTEX
  8
Unknown_Area_Type
  10
215262.500
  20
4582686.000
  0
VERTEX
  8
Unknown_Area_Type
  10
215908.500
  20
4582263.500
  0
VERTEX
  8
Unknown_Area_Type
  10
215911.500
  20
4582261.500
  0
VERTEX
  8
Unknown_Area_Type
  10
215911.500
  20
4582256.500
  0
VERTEX
  8
Unknown_Area_Type
  10
215851.973
  20
4581325.542
  0
SEQEND
  8
Unknown_Area_Type
  0
INSERT
  8
FeatureAttribs
  2
FEATURE
  41
1
  42
1
  43
1
  50
0
  10
214473.222
  20
4581953.583
 66
1
  0
ATTRIB
  8
FeatureAttribs
 70
0
  1
PNOA-H_AMS_1956-57_33k_ES_PAN_2
  2
NAME
  10
214473.222
  20
4581953.583
 40
29.23676
  0
SEQEND
  0
POLYLINE
  8
Unknown_Area_Type
  70
1
  66
1
  0
VERTEX
  8
Unknown_Area_Type
  10
215851.973
  20
4581325.542
  0
VERTEX
  8
Unknown_Area_Type
  10
215911.500
  20
4582256.500
  0
VERTEX
  8
Unknown_Area_Type
  10
215911.500
  20
4582261.500
  0
VERTEX
  8
Unknown_Area_Type
  10
215908.500
  20
4582263.500
  0
VERTEX
  8
Unknown_Area_Type
  10
215262.500
  20
4582686.000
  0
VERTEX
  8
Unknown_Area_Type
  10
215252.500
  20
4582692.500
  0
VERTEX
  8
Unknown_Area_Type
  10
215249.500
  20
4582692.500
  0
VERTEX
  8
Unknown_Area_Type
  10
215246.500
  20
4582692.000
  0
VERTEX
  8
Unknown_Area_Type
  10
214016.000
  20
4582510.000
  0
VERTEX
  8
Unknown_Area_Type
  10
214015.000
  20
4582509.000
  0
VERTEX
  8
Unknown_Area_Type
  10
214019.500
  20
4582505.000
  0
VERTEX
  8
Unknown_Area_Type
  10
214019.500
  20
4582500.000
  0
VERTEX
  8
Unknown_Area_Type
  10
214015.000
  20
4582495.500
  0
VERTEX
  8
Unknown_Area_Type
  10
214005.000
  20
4582495.500
  0
VERTEX
  8
Unknown_Area_Type
  10
214003.500
  20
4582496.500
  0
VERTEX
  8
Unknown_Area_Type
  10
214000.500
  20
4582500.000
  0
VERTEX
  8
Unknown_Area_Type
  10
214000.500
  20
4582507.500
  0
VERTEX
  8
Unknown_Area_Type
  10
213999.000
  20
4582507.500
  0
VERTEX
  8
Unknown_Area_Type
  10
212961.500
  20
4582354.000
  0
VERTEX
  8
Unknown_Area_Type
  10
212959.500
  20
4582353.500
  0
VERTEX
  8
Unknown_Area_Type
  10
212959.000
  20
4582352.000
  0
VERTEX
  8
Unknown_Area_Type
  10
212935.118
  20
4581440.543
  0
VERTEX
  8
Unknown_Area_Type
  10
215827.370
  20
4581326.500
  0
VERTEX
  8
Unknown_Area_Type
  10
215851.973
  20
4581325.542
  0
SEQEND
  8
Unknown_Area_Type
  0
INSERT
  8
FeatureAttribs
  2
FEATURE
  41
1
  42
1
  43
1
  50
0
  10
217371.486
  20
4581824.875
 66
1
  0
ATTRIB
  8
FeatureAttribs
 70
0
  1
PNOA-H_AMS_1956-57_33k_ES_PAN_2
  2
NAME
  10
217371.486
  20
4581824.875
 40
29.23676
  0
SEQEND
  0
POLYLINE
  8
Unknown_Area_Type
  70
1
  66
1
  0
VERTEX
  8
Unknown_Area_Type
  10
218772.836
  20
4581211.779
  0
VERTEX
  8
Unknown_Area_Type
  10
215851.746
  20
4581325.551
  0
VERTEX
  8
Unknown_Area_Type
  10
215911.500
  20
4582261.000
  0
VERTEX
  8
Unknown_Area_Type
  10
217989.500
  20
4582536.500
  0
VERTEX
  8
Unknown_Area_Type
  10
218768.500
  20
4582112.500
  0
VERTEX
  8
Unknown_Area_Type
  10
218770.000
  20
4582112.000
  0
VERTEX
  8
Unknown_Area_Type
  10
218837.000
  20
4582076.000
  0
VERTEX
  8
Unknown_Area_Type
  10
218839.000
  20
4582074.500
  0
VERTEX
  8
Unknown_Area_Type
  10
218839.000
  20
4582068.000
  0
VERTEX
  8
Unknown_Area_Type
  10
218772.836
  20
4581211.779
  0
SEQEND
  8
Unknown_Area_Type
  0
INSERT
  8
FeatureAttribs
  2
FEATURE
  41
1
  42
1
  43
1
  50
0
  10
217371.486
  20
4581824.875
 66
1
  0
ATTRIB
  8
FeatureAttribs
 70
0
  1
PNOA-H_AMS_1956-57_33k_ES_PAN_2
  2
NAME
  10
217371.486
  20
4581824.875
 40
29.23676
  0
SEQEND
  0
POLYLINE
  8
Unknown_Area_Type
  70
1
  66
1
  0
VERTEX
  8
Unknown_Area_Type
  10
218772.836
  20
4581211.779
  0
VERTEX
  8
Unknown_Area_Type
  10
218839.000
  20
4582068.000
  0
VERTEX
  8
Unknown_Area_Type
  10
218839.000
  20
4582074.500
  0
VERTEX
  8
Unknown_Area_Type
  10
218837.000
  20
4582076.000
  0
VERTEX
  8
Unknown_Area_Type
  10
218770.000
  20
4582112.000
  0
VERTEX
  8
Unknown_Area_Type
  10
218768.500
  20
4582112.500
  0
VERTEX
  8
Unknown_Area_Type
  10
217989.500
  20
4582536.500
  0
VERTEX
  8
Unknown_Area_Type
  10
215911.500
  20
4582261.000
  0
VERTEX
  8
Unknown_Area_Type
  10
215851.746
  20
4581325.551
  0
VERTEX
  8
Unknown_Area_Type
  10
218772.836
  20
4581211.779
  0
SEQEND
  8
Unknown_Area_Type
  0
INSERT
  8
FeatureAttribs
  2
FEATURE
  41
1
  42
1
  43
1
  50
0
  10
231555.429
  20
4581302.215
 66
1
  0
ATTRIB
  8
FeatureAttribs
 70
0
  1
PNOA-H_AMS_1956-57_33k_ES_PAN_2
  2
NAME
  10
231555.429
  20
4581302.215
 40
29.23676
  0
SEQEND
  0
POLYLINE
  8
Unknown_Area_Type
  70
1
  66
1
  0
VERTEX
  8
Unknown_Area_Type
  10
232939.784
  20
4580676.180
  0
VERTEX
  8
Unknown_Area_Type
  10
230085.738
  20
4580781.839
  0
VERTEX
  8
Unknown_Area_Type
  10
230135.000
  20
4581695.000
  0
VERTEX
  8
Unknown_Area_Type
  10
231625.500
  20
4582071.500
  0
VERTEX
  8
Unknown_Area_Type
  10
231627.500
  20
4582072.000
  0
VERTEX
  8
Unknown_Area_Type
  10
233012.500
  20
4581602.500
  0
VERTEX
  8
Unknown_Area_Type
  10
233012.500
  20
4581596.000
  0
VERTEX
  8
Unknown_Area_Type
  10
232939.784
  20
4580676.180
  0
SEQEND
  8
Unknown_Area_Type
  0
INSERT
  8
FeatureAttribs
  2
FEATURE
  41
1
  42
1
  43
1
  50
0
  10
231555.429
  20
4581302.215
 66
1
  0
ATTRIB
  8
FeatureAttribs
 70
0
  1
PNOA-H_AMS_1956-57_33k_ES_PAN_2
  2
NAME
  10
231555.429
  20
4581302.215
 40
29.23676
  0
SEQEND
  0
POLYLINE
  8
Unknown_Area_Type
  70
1
  66
1
  0
VERTEX
  8
Unknown_Area_Type
  10
232939.784
  20
4580676.180
  0
VERTEX
  8
Unknown_Area_Type
  10
233012.500
  20
4581596.000
  0
VERTEX
  8
Unknown_Area_Type
  10
233012.500
  20
4581602.500
  0
VERTEX
  8
Unknown_Area_Type
  10
231627.500
  20
4582072.000
  0
VERTEX
  8
Unknown_Area_Type
  10
231625.500
  20
4582071.500
  0
VERTEX
  8
Unknown_Area_Type
  10
230135.000
  20
4581695.000
  0
VERTEX
  8
Unknown_Area_Type
  10
230085.738
  20
4580781.839
  0
VERTEX
  8
Unknown_Area_Type
  10
232939.784
  20
4580676.180
  0
SEQEND
  8
Unknown_Area_Type
  0
INSERT
  8
FeatureAttribs
  2
FEATURE
  41
1
  42
1
  43
1
  50
0
  10
220307.541
  20
4581703.847
 66
1
  0
ATTRIB
  8
FeatureAttribs
 70
0
  1
PNOA-H_AMS_1956-57_33k_ES_PAN_2
  2
NAME
  10
220307.541
  20
4581703.847
 40
29.23676
  0
SEQEND
  0
POLYLINE
  8
Unknown_Area_Type
  70
1
  66
1
  0
VERTEX
  8
Unknown_Area_Type
  10
221744.734
  20
4581097.200
  0
VERTEX
  8
Unknown_Area_Type
  10
219314.668
  20
4581190.676
  0
VERTEX
  8
Unknown_Area_Type
  10
218772.342
  20
4581211.798
  0
VERTEX
  8
Unknown_Area_Type
  10
218838.000
  20
4582062.000
  0
VERTEX
  8
Unknown_Area_Type
  10
218839.000
  20
4582074.500
  0
VERTEX
  8
Unknown_Area_Type
  10
218840.500
  20
4582075.000
  0
VERTEX
  8
Unknown_Area_Type
  10
220603.500
  20
4582467.500
  0
VERTEX
  8
Unknown_Area_Type
  10
221811.000
  20
4581903.500
  0
VERTEX
  8
Unknown_Area_Type
  10
221744.734
  20
4581097.200
  0
SEQEND
  8
Unknown_Area_Type
  0
INSERT
  8
FeatureAttribs
  2
FEATURE
  41
1
  42
1
  43
1
  50
0
  10
220307.541
  20
4581703.847
 66
1
  0
ATTRIB
  8
FeatureAttribs
 70
0
  1
PNOA-H_AMS_1956-57_33k_ES_PAN_2
  2
NAME
  10
220307.541
  20
4581703.847
 40
29.23676
  0
SEQEND
  0
POLYLINE
  8
Unknown_Area_Type
  70
1
  66
1
  0
VERTEX
  8
Unknown_Area_Type
  10
221744.734
  20
4581097.200
  0
VERTEX
  8
Unknown_Area_Type
  10
221811.000
  20
4581903.500
  0
VERTEX
  8
Unknown_Area_Type
  10
220603.500
  20
4582467.500
  0
VERTEX
  8
Unknown_Area_Type
  10
218840.500
  20
4582075.000
  0
VERTEX
  8
Unknown_Area_Type
  10
218839.000
  20
4582074.500
  0
VERTEX
  8
Unknown_Area_Type
  10
218838.000
  20
4582062.000
  0
VERTEX
  8
Unknown_Area_Type
  10
218772.342
  20
4581211.798
  0
VERTEX
  8
Unknown_Area_Type
  10
219314.668
  20
4581190.676
  0
VERTEX
  8
Unknown_Area_Type
  10
221744.734
  20
4581097.200
  0
SEQEND
  8
Unknown_Area_Type
  0
INSERT
  8
FeatureAttribs
  2
FEATURE
  41
1
  42
1
  43
1
  50
0
  10
213312.600
  20
4581467.500
 66
1
  0
ATTRIB
  8
FeatureAttribs
 70
0
  1
PNOA-H_AMS_1956-57_33k_ES_PAN_2
  2
NAME
  10
213312.600
  20
4581467.500
 40
29.23676
  0
SEQEND
  0
POLYLINE
  8
Unknown_Area_Type
  70
1
  66
1
  0
VERTEX
  8
Unknown_Area_Type
  10
213309.500
  20
4581473.500
  0
VERTEX
  8
Unknown_Area_Type
  10
213310.500
  20
4581474.000
  0
VERTEX
  8
Unknown_Area_Type
  10
213315.500
  20
4581473.500
  0
VERTEX
  8
Unknown_Area_Type
  10
213319.000
  20
4581469.500
  0
VERTEX
  8
Unknown_Area_Type
  10
213319.000
  20
4581465.500
  0
VERTEX
  8
Unknown_Area_Type
  10
213315.500
  20
4581461.500
  0
VERTEX
  8
Unknown_Area_Type
  10
213310.500
  20
4581461.000
  0
VERTEX
  8
Unknown_Area_Type
  10
213306.500
  20
4581464.500
  0
VERTEX
  8
Unknown_Area_Type
  10
213306.000
  20
4581469.500
  0
VERTEX
  8
Unknown_Area_Type
  10
213309.500
  20
4581473.500
  0
SEQEND
  8
Unknown_Area_Type
  0
INSERT
  8
FeatureAttribs
  2
FEATURE
  41
1
  42
1
  43
1
  50
0
  10
213312.600
  20
4581467.500
 66
1
  0
ATTRIB
  8
FeatureAttribs
 70
0
  1
PNOA-H_AMS_1956-57_33k_ES_PAN_2
  2
NAME
  10
213312.600
  20
4581467.500
 40
29.23676
  0
SEQEND
  0
POLYLINE
  8
Unknown_Area_Type
  70
1
  66
1
  0
VERTEX
  8
Unknown_Area_Type
  10
213309.500
  20
4581473.500
  0
VERTEX
  8
Unknown_Area_Type
  10
213306.000
  20
4581469.500
  0
VERTEX
  8
Unknown_Area_Type
  10
213306.500
  20
4581464.500
  0
VERTEX
  8
Unknown_Area_Type
  10
213310.500
  20
4581461.000
  0
VERTEX
  8
Unknown_Area_Type
  10
213315.500
  20
4581461.500
  0
VERTEX
  8
Unknown_Area_Type
  10
213319.000
  20
4581465.500
  0
VERTEX
  8
Unknown_Area_Type
  10
213319.000
  20
4581469.500
  0
VERTEX
  8
Unknown_Area_Type
  10
213315.500
  20
4581473.500
  0
VERTEX
  8
Unknown_Area_Type
  10
213310.500
  20
4581474.000
  0
VERTEX
  8
Unknown_Area_Type
  10
213309.500
  20
4581473.500
  0
SEQEND
  8
Unknown_Area_Type
  0
INSERT
  8
FeatureAttribs
  2
FEATURE
  41
1
  42
1
  43
1
  50
0
  10
214768.411
  20
4584004.268
 66
1
  0
ATTRIB
  8
FeatureAttribs
 70
0
  1
PNOA-H_AMS_1956-57_33k_ES_PAN_2
  2
NAME
  10
214768.411
  20
4584004.268
 40
29.23676
  0
SEQEND
  0
POLYLINE
  8
Unknown_Area_Type
  70
1
  66
1
  0
VERTEX
  8
Unknown_Area_Type
  10
215618.000
  20
4584005.000
  0
VERTEX
  8
Unknown_Area_Type
  10
215615.500
  20
4584004.000
  0
VERTEX
  8
Unknown_Area_Type
  10
215326.000
  20
4584003.500
  0
VERTEX
  8
Unknown_Area_Type
  10
213965.500
  20
4584003.500
  0
VERTEX
  8
Unknown_Area_Type
  10
213964.000
  20
4584004.500
  0
VERTEX
  8
Unknown_Area_Type
  10
213963.000
  20
4584005.000
  0
VERTEX
  8
Unknown_Area_Type
  10
215618.000
  20
4584005.000
  0
SEQEND
  8
Unknown_Area_Type
  0
INSERT
  8
FeatureAttribs
  2
FEATURE
  41
1
  42
1
  43
1
  50
0
  10
214768.411
  20
4584004.268
 66
1
  0
ATTRIB
  8
FeatureAttribs
 70
0
  1
PNOA-H_AMS_1956-57_33k_ES_PAN_2
  2
NAME
  10
214768.411
  20
4584004.268
 40
29.23676
  0
SEQEND
  0
POLYLINE
  8
Unknown_Area_Type
  70
1
  66
1
  0
VERTEX
  8
Unknown_Area_Type
  10
215618.000
  20
4584005.000
  0
VERTEX
  8
Unknown_Area_Type
  10
213963.000
  20
4584005.000
  0
VERTEX
  8
Unknown_Area_Type
  10
213964.000
  20
4584004.500
  0
VERTEX
  8
Unknown_Area_Type
  10
213965.500
  20
4584003.500
  0
VERTEX
  8
Unknown_Area_Type
  10
215326.000
  20
4584003.500
  0
VERTEX
  8
Unknown_Area_Type
  10
215615.500
  20
4584004.000
  0
VERTEX
  8
Unknown_Area_Type
  10
215618.000
  20
4584005.000
  0
SEQEND
  8
Unknown_Area_Type
  0
INSERT
  8
FeatureAttribs
  2
FEATURE
  41
1
  42
1
  43
1
  50
0
  10
212571.166
  20
4582033.990
 66
1
  0
ATTRIB
  8
FeatureAttribs
 70
0
  1
PNOA-H_AMS_1956-57_33k_ES_PAN_2
  2
NAME
  10
212571.166
  20
4582033.990
 40
29.23676
  0
SEQEND
  0
POLYLINE
  8
Unknown_Area_Type
  70
1
  66
1
  0
VERTEX
  8
Unknown_Area_Type
  10
212935.427
  20
4581440.531
  0
VERTEX
  8
Unknown_Area_Type
  10
212340.054
  20
4581464.006
  0
VERTEX
  8
Unknown_Area_Type
  10
212240.000
  20
4581468.000
  0
VERTEX
  8
Unknown_Area_Type
  10
212240.000
  20
4582826.627
  0
VERTEX
  8
Unknown_Area_Type
  10
212959.500
  20
4582353.500
  0
VERTEX
  8
Unknown_Area_Type
  10
212935.427
  20
4581440.531
  0
SEQEND
  8
Unknown_Area_Type
  0
INSERT
  8
FeatureAttribs
  2
FEATURE
  41
1
  42
1
  43
1
  50
0
  10
212571.166
  20
4582033.990
 66
1
  0
ATTRIB
  8
FeatureAttribs
 70
0
  1
PNOA-H_AMS_1956-57_33k_ES_PAN_2
  2
NAME
  10
212571.166
  20
4582033.990
 40
29.23676
  0
SEQEND
  0
POLYLINE
  8
Unknown_Area_Type
  70
1
  66
1
  0
VERTEX
  8
Unknown_Area_Type
  10
212935.427
  20
4581440.531
  0
VERTEX
  8
Unknown_Area_Type
  10
212959.500
  20
4582353.500
  0
VERTEX
  8
Unknown_Area_Type
  10
212240.000
  20
4582826.627
  0
VERTEX
  8
Unknown_Area_Type
  10
212240.000
  20
4581468.000
  0
VERTEX
  8
Unknown_Area_Type
  10
212340.054
  20
4581464.006
  0
VERTEX
  8
Unknown_Area_Type
  10
212935.427
  20
4581440.531
  0
SEQEND
  8
Unknown_Area_Type
  0
INSERT
  8
FeatureAttribs
  2
FEATURE
  41
1
  42
1
  43
1
  50
0
  10
233130.483
  20
4581172.947
 66
1
  0
ATTRIB
  8
FeatureAttribs
 70
0
  1
PNOA-H_AMS_1956-57_33k_ES_PAN_2
  2
NAME
  10
233130.483
  20
4581172.947
 40
29.23676
  0
SEQEND
  0
POLYLINE
  8
Unknown_Area_Type
  70
1
  66
1
  0
VERTEX
  8
Unknown_Area_Type
  10
233301.100
  20
4581681.705
  0
VERTEX
  8
Unknown_Area_Type
  10
233263.668
  20
4580664.190
  0
VERTEX
  8
Unknown_Area_Type
  10
232939.314
  20
4580676.197
  0
VERTEX
  8
Unknown_Area_Type
  10
233012.500
  20
4581602.000
  0
VERTEX
  8
Unknown_Area_Type
  10
233102.000
  20
4581627.000
  0
VERTEX
  8
Unknown_Area_Type
  10
233104.000
  20
4581627.500
  0
VERTEX
  8
Unknown_Area_Type
  10
233301.100
  20
4581681.705
  0
SEQEND
  8
Unknown_Area_Type
  0
INSERT
  8
FeatureAttribs
  2
FEATURE
  41
1
  42
1
  43
1
  50
0
  10
233130.483
  20
4581172.947
 66
1
  0
ATTRIB
  8
FeatureAttribs
 70
0
  1
PNOA-H_AMS_1956-57_33k_ES_PAN_2
  2
NAME
  10
233130.483
  20
4581172.947
 40
29.23676
  0
SEQEND
  0
POLYLINE
  8
Unknown_Area_Type
  70
1
  66
1
  0
VERTEX
  8
Unknown_Area_Type
  10
233301.100
  20
4581681.705
  0
VERTEX
  8
Unknown_Area_Type
  10
233263.668
  20
4580664.190
  0
VERTEX
  8
Unknown_Area_Type
  10
232939.314
  20
4580676.197
  0
VERTEX
  8
Unknown_Area_Type
  10
233012.500
  20
4581602.000
  0
VERTEX
  8
Unknown_Area_Type
  10
233102.000
  20
4581627.000
  0
VERTEX
  8
Unknown_Area_Type
  10
233104.000
  20
4581627.500
  0
VERTEX
  8
Unknown_Area_Type
  10
233301.100
  20
4581681.705
  0
SEQEND
  8
Unknown_Area_Type
  0
INSERT
  8
FeatureAttribs
  2
FEATURE
  41
1
  42
1
  43
1
  50
0
  10
233615.567
  20
4581261.545
 66
1
  0
ATTRIB
  8
FeatureAttribs
 70
0
  1
PNOA-H_AMS_1956-57_33k_ES_PAN_2
  2
NAME
  10
233615.567
  20
4581261.545
 40
29.23676
  0
SEQEND
  0
POLYLINE
  8
Unknown_Area_Type
  70
1
  66
1
  0
VERTEX
  8
Unknown_Area_Type
  10
233945.491
  20
4581858.920
  0
VERTEX
  8
Unknown_Area_Type
  10
233945.491
  20
4580664.170
  0
VERTEX
  8
Unknown_Area_Type
  10
233264.204
  20
4580664.170
  0
VERTEX
  8
Unknown_Area_Type
  10
233263.668
  20
4580664.190
  0
VERTEX
  8
Unknown_Area_Type
  10
233301.100
  20
4581681.705
  0
VERTEX
  8
Unknown_Area_Type
  10
233945.491
  20
4581858.920
  0
SEQEND
  8
Unknown_Area_Type
  0
INSERT
  8
FeatureAttribs
  2
FEATURE
  41
1
  42
1
  43
1
  50
0
  10
233665.782
  20
4583991.127
 66
1
  0
ATTRIB
  8
FeatureAttribs
 70
0
  1
PNOA-H_AMS_1956-57_33k_ES_PAN_2
  2
NAME
  10
233665.782
  20
4583991.127
 40
29.23676
  0
SEQEND
  0
POLYLINE
  8
Unknown_Area_Type
  70
1
  66
1
  0
VERTEX
  8
Unknown_Area_Type
  10
233945.491
  20
4586115.954
  0
VERTEX
  8
Unknown_Area_Type
  10
233945.491
  20
4581858.533
  0
VERTEX
  8
Unknown_Area_Type
  10
233301.083
  20
4581681.253
  0
VERTEX
  8
Unknown_Area_Type
  10
233348.769
  20
4582977.486
  0
VERTEX
  8
Unknown_Area_Type
  10
233433.905
  20
4585290.789
  0
VERTEX
  8
Unknown_Area_Type
  10
233470.465
  20
4586283.784
  0
VERTEX
  8
Unknown_Area_Type
  10
233568.500
  20
4586300.500
  0
VERTEX
  8
Unknown_Area_Type
  10
233571.500
  20
4586301.000
  0
VERTEX
  8
Unknown_Area_Type
  10
233574.000
  20
4586301.000
  0
VERTEX
  8
Unknown_Area_Type
  10
233945.491
  20
4586115.954
  0
SEQEND
  8
Unknown_Area_Type
  0
INSERT
  8
FeatureAttribs
  2
FEATURE
  41
1
  42
1
  43
1
  50
0
  10
232531.568
  20
4583997.791
 66
1
  0
ATTRIB
  8
FeatureAttribs
 70
0
  1
PNOA-H_AMS_1956-57_33k_ES_PAN_2
  2
NAME
  10
232531.568
  20
4583997.791
 40
29.23676
  0
SEQEND
  0
POLYLINE
  8
Unknown_Area_Type
  70
1
  66
1
  0
VERTEX
  8
Unknown_Area_Type
  10
233301.083
  20
4581681.253
  0
VERTEX
  8
Unknown_Area_Type
  10
233013.000
  20
4581602.000
  0
VERTEX
  8
Unknown_Area_Type
  10
231628.000
  20
4582072.000
  0
VERTEX
  8
Unknown_Area_Type
  10
231618.500
  20
4585968.000
  0
VERTEX
  8
Unknown_Area_Type
  10
233470.465
  20
4586283.784
  0
VERTEX
  8
Unknown_Area_Type
  10
233433.905
  20
4585290.789
  0
VERTEX
  8
Unknown_Area_Type
  10
233348.769
  20
4582977.486
  0
VERTEX
  8
Unknown_Area_Type
  10
233301.083
  20
4581681.253
  0
SEQEND
  8
Unknown_Area_Type
  0
INSERT
  8
FeatureAttribs
  2
FEATURE
  41
1
  42
1
  43
1
  50
0
  10
232531.568
  20
4583997.791
 66
1
  0
ATTRIB
  8
FeatureAttribs
 70
0
  1
PNOA-H_AMS_1956-57_33k_ES_PAN_2
  2
NAME
  10
232531.568
  20
4583997.791
 40
29.23676
  0
SEQEND
  0
POLYLINE
  8
Unknown_Area_Type
  70
1
  66
1
  0
VERTEX
  8
Unknown_Area_Type
  10
233301.083
  20
4581681.253
  0
VERTEX
  8
Unknown_Area_Type
  10
233348.769
  20
4582977.486
  0
VERTEX
  8
Unknown_Area_Type
  10
233433.905
  20
4585290.789
  0
VERTEX
  8
Unknown_Area_Type
  10
233470.465
  20
4586283.784
  0
VERTEX
  8
Unknown_Area_Type
  10
231618.500
  20
4585968.000
  0
VERTEX
  8
Unknown_Area_Type
  10
231628.000
  20
4582072.000
  0
VERTEX
  8
Unknown_Area_Type
  10
233013.000
  20
4581602.000
  0
VERTEX
  8
Unknown_Area_Type
  10
233301.083
  20
4581681.253
  0
SEQEND
  8
Unknown_Area_Type
  0
INSERT
  8
FeatureAttribs
  2
FEATURE
  41
1
  42
1
  43
1
  50
0
  10
227489.211
  20
4584053.071
 66
1
  0
ATTRIB
  8
FeatureAttribs
 70
0
  1
PNOA-H_AMS_1956-57_33k_ES_PAN_2
  2
NAME
  10
227489.211
  20
4584053.071
 40
29.23676
  0
SEQEND
  0
POLYLINE
  8
Unknown_Area_Type
  70
1
  66
1
  0
VERTEX
  8
Unknown_Area_Type
  10
228126.500
  20
4586344.000
  0
VERTEX
  8
Unknown_Area_Type
  10
228129.000
  20
4586344.500
  0
VERTEX
  8
Unknown_Area_Type
  10
228846.500
  20
4585964.500
  0
VERTEX
  8
Unknown_Area_Type
  10
228877.500
  20
4582171.500
  0
VERTEX
  8
Unknown_Area_Type
  10
227306.000
  20
4581741.000
  0
VERTEX
  8
Unknown_Area_Type
  10
226101.500
  20
4582191.500
  0
VERTEX
  8
Unknown_Area_Type
  10
226100.500
  20
4585965.500
  0
VERTEX
  8
Unknown_Area_Type
  10
228126.500
  20
4586344.000
  0
SEQEND
  8
Unknown_Area_Type
  0
INSERT
  8
FeatureAttribs
  2
FEATURE
  41
1
  42
1
  43
1
  50
0
  10
227489.211
  20
4584053.071
 66
1
  0
ATTRIB
  8
FeatureAttribs
 70
0
  1
PNOA-H_AMS_1956-57_33k_ES_PAN_2
  2
NAME
  10
227489.211
  20
4584053.071
 40
29.23676
  0
SEQEND
  0
POLYLINE
  8
Unknown_Area_Type
  70
1
  66
1
  0
VERTEX
  8
Unknown_Area_Type
  10
228126.500
  20
4586344.000
  0
VERTEX
  8
Unknown_Area_Type
  10
226100.500
  20
4585965.500
  0
VERTEX
  8
Unknown_Area_Type
  10
226101.500
  20
4582191.500
  0
VERTEX
  8
Unknown_Area_Type
  10
227306.000
  20
4581741.000
  0
VERTEX
  8
Unknown_Area_Type
  10
228877.500
  20
4582171.500
  0
VERTEX
  8
Unknown_Area_Type
  10
228846.500
  20
4585964.500
  0
VERTEX
  8
Unknown_Area_Type
  10
228129.000
  20
4586344.500
  0
VERTEX
  8
Unknown_Area_Type
  10
228126.500
  20
4586344.000
  0
SEQEND
  8
Unknown_Area_Type
  0
INSERT
  8
FeatureAttribs
  2
FEATURE
  41
1
  42
1
  43
1
  50
0
  10
213738.038
  20
4583264.097
 66
1
  0
ATTRIB
  8
FeatureAttribs
 70
0
  1
PNOA-H_AMS_1956-57_33k_ES_PAN_2
  2
NAME
  10
213738.038
  20
4583264.097
 40
29.23676
  0
SEQEND
  0
POLYLINE
  8
Unknown_Area_Type
  70
1
  66
1
  0
VERTEX
  8
Unknown_Area_Type
  10
212240.000
  20
4583990.000
  0
VERTEX
  8
Unknown_Area_Type
  10
213953.000
  20
4583990.000
  0
VERTEX
  8
Unknown_Area_Type
  10
213955.000
  20
4583992.000
  0
VERTEX
  8
Unknown_Area_Type
  10
213955.000
  20
4584003.000
  0
VERTEX
  8
Unknown_Area_Type
  10
213957.000
  20
4584005.000
  0
VERTEX
  8
Unknown_Area_Type
  10
213963.000
  20
4584005.000
  0
VERTEX
  8
Unknown_Area_Type
  10
213965.500
  20
4584003.500
  0
VERTEX
  8
Unknown_Area_Type
  10
214674.000
  20
4584003.500
  0
VERTEX
  8
Unknown_Area_Type
  10
215275.500
  20
4584003.500
  0
VERTEX
  8
Unknown_Area_Type
  10
215252.000
  20
4582692.500
  0
VERTEX
  8
Unknown_Area_Type
  10
214016.000
  20
4582510.000
  0
VERTEX
  8
Unknown_Area_Type
  10
214015.000
  20
4582509.000
  0
VERTEX
  8
Unknown_Area_Type
  10
214019.500
  20
4582505.000
  0
VERTEX
  8
Unknown_Area_Type
  10
214019.500
  20
4582500.000
  0
VERTEX
  8
Unknown_Area_Type
  10
214015.000
  20
4582495.500
  0
VERTEX
  8
Unknown_Area_Type
  10
214005.000
  20
4582495.500
  0
VERTEX
  8
Unknown_Area_Type
  10
214003.500
  20
4582496.500
  0
VERTEX
  8
Unknown_Area_Type
  10
214000.500
  20
4582500.000
  0
VERTEX
  8
Unknown_Area_Type
  10
214000.500
  20
4582507.500
  0
VERTEX
  8
Unknown_Area_Type
  10
213999.000
  20
4582507.500
  0
VERTEX
  8
Unknown_Area_Type
  10
212961.500
  20
4582353.500
  0
VERTEX
  8
Unknown_Area_Type
  10
212958.500
  20
4582353.500
  0
VERTEX
  8
Unknown_Area_Type
  10
212240.000
  20
4582825.969
  0
VERTEX
  8
Unknown_Area_Type
  10
212240.000
  20
4583990.000
  0
SEQEND
  8
Unknown_Area_Type
  0
INSERT
  8
FeatureAttribs
  2
FEATURE
  41
1
  42
1
  43
1
  50
0
  10
213738.038
  20
4583264.097
 66
1
  0
ATTRIB
  8
FeatureAttribs
 70
0
  1
PNOA-H_AMS_1956-57_33k_ES_PAN_2
  2
NAME
  10
213738.038
  20
4583264.097
 40
29.23676
  0
SEQEND
  0
POLYLINE
  8
Unknown_Area_Type
  70
1
  66
1
  0
VERTEX
  8
Unknown_Area_Type
  10
212240.000
  20
4583990.000
  0
VERTEX
  8
Unknown_Area_Type
  10
212240.000
  20
4582825.969
  0
VERTEX
  8
Unknown_Area_Type
  10
212958.500
  20
4582353.500
  0
VERTEX
  8
Unknown_Area_Type
  10
212961.500
  20
4582353.500
  0
VERTEX
  8
Unknown_Area_Type
  10
213999.000
  20
4582507.500
  0
VERTEX
  8
Unknown_Area_Type
  10
214000.500
  20
4582507.500
  0
VERTEX
  8
Unknown_Area_Type
  10
214000.500
  20
4582500.000
  0
VERTEX
  8
Unknown_Area_Type
  10
214003.500
  20
4582496.500
  0
VERTEX
  8
Unknown_Area_Type
  10
214005.000
  20
4582495.500
  0
VERTEX
  8
Unknown_Area_Type
  10
214015.000
  20
4582495.500
  0
VERTEX
  8
Unknown_Area_Type
  10
214019.500
  20
4582500.000
  0
VERTEX
  8
Unknown_Area_Type
  10
214019.500
  20
4582505.000
  0
VERTEX
  8
Unknown_Area_Type
  10
214015.000
  20
4582509.000
  0
VERTEX
  8
Unknown_Area_Type
  10
214016.000
  20
4582510.000
  0
VERTEX
  8
Unknown_Area_Type
  10
215252.000
  20
4582692.500
  0
VERTEX
  8
Unknown_Area_Type
  10
215275.500
  20
4584003.500
  0
VERTEX
  8
Unknown_Area_Type
  10
214674.000
  20
4584003.500
  0
VERTEX
  8
Unknown_Area_Type
  10
213965.500
  20
4584003.500
  0
VERTEX
  8
Unknown_Area_Type
  10
213963.000
  20
4584005.000
  0
VERTEX
  8
Unknown_Area_Type
  10
213957.000
  20
4584005.000
  0
VERTEX
  8
Unknown_Area_Type
  10
213955.000
  20
4584003.000
  0
VERTEX
  8
Unknown_Area_Type
  10
213955.000
  20
4583992.000
  0
VERTEX
  8
Unknown_Area_Type
  10
213953.000
  20
4583990.000
  0
VERTEX
  8
Unknown_Area_Type
  10
212240.000
  20
4583990.000
  0
SEQEND
  8
Unknown_Area_Type
  0
INSERT
  8
FeatureAttribs
  2
FEATURE
  41
1
  42
1
  43
1
  50
0
  10
224757.319
  20
4584064.477
 66
1
  0
ATTRIB
  8
FeatureAttribs
 70
0
  1
PNOA-H_AMS_1956-57_33k_ES_PAN_2
  2
NAME
  10
224757.319
  20
4584064.477
 40
29.23676
  0
SEQEND
  0
POLYLINE
  8
Unknown_Area_Type
  70
1
  66
1
  0
VERTEX
  8
Unknown_Area_Type
  10
223444.000
  20
4585948.500
  0
VERTEX
  8
Unknown_Area_Type
  10
225366.500
  20
4586308.500
  0
VERTEX
  8
Unknown_Area_Type
  10
225369.500
  20
4586309.000
  0
VERTEX
  8
Unknown_Area_Type
  10
225375.500
  20
4586307.500
  0
VERTEX
  8
Unknown_Area_Type
  10
226100.500
  20
4585965.500
  0
VERTEX
  8
Unknown_Area_Type
  10
226101.500
  20
4582191.500
  0
VERTEX
  8
Unknown_Area_Type
  10
224619.000
  20
4581813.000
  0
VERTEX
  8
Unknown_Area_Type
  10
224597.500
  20
4581820.500
  0
VERTEX
  8
Unknown_Area_Type
  10
223328.000
  20
4582320.500
  0
VERTEX
  8
Unknown_Area_Type
  10
223444.000
  20
4585948.500
  0
SEQEND
  8
Unknown_Area_Type
  0
INSERT
  8
FeatureAttribs
  2
FEATURE
  41
1
  42
1
  43
1
  50
0
  10
224757.319
  20
4584064.477
 66
1
  0
ATTRIB
  8
FeatureAttribs
 70
0
  1
PNOA-H_AMS_1956-57_33k_ES_PAN_2
  2
NAME
  10
224757.319
  20
4584064.477
 40
29.23676
  0
SEQEND
  0
POLYLINE
  8
Unknown_Area_Type
  70
1
  66
1
  0
VERTEX
  8
Unknown_Area_Type
  10
223444.000
  20
4585948.500
  0
VERTEX
  8
Unknown_Area_Type
  10
223328.000
  20
4582320.500
  0
VERTEX
  8
Unknown_Area_Type
  10
224597.500
  20
4581820.500
  0
VERTEX
  8
Unknown_Area_Type
  10
224619.000
  20
4581813.000
  0
VERTEX
  8
Unknown_Area_Type
  10
226101.500
  20
4582191.500
  0
VERTEX
  8
Unknown_Area_Type
  10
226100.500
  20
4585965.500
  0
VERTEX
  8
Unknown_Area_Type
  10
225375.500
  20
4586307.500
  0
VERTEX
  8
Unknown_Area_Type
  10
225369.500
  20
4586309.000
  0
VERTEX
  8
Unknown_Area_Type
  10
225366.500
  20
4586308.500
  0
VERTEX
  8
Unknown_Area_Type
  10
223444.000
  20
4585948.500
  0
SEQEND
  8
Unknown_Area_Type
  0
INSERT
  8
FeatureAttribs
  2
FEATURE
  41
1
  42
1
  43
1
  50
0
  10
230255.856
  20
4584027.118
 66
1
  0
ATTRIB
  8
FeatureAttribs
 70
0
  1
PNOA-H_AMS_1956-57_33k_ES_PAN_2
  2
NAME
  10
230255.856
  20
4584027.118
 40
29.23676
  0
SEQEND
  0
POLYLINE
  8
Unknown_Area_Type
  70
1
  66
1
  0
VERTEX
  8
Unknown_Area_Type
  10
229008.500
  20
4585992.500
  0
VERTEX
  8
Unknown_Area_Type
  10
230913.000
  20
4586320.500
  0
VERTEX
  8
Unknown_Area_Type
  10
231618.500
  20
4585968.000
  0
VERTEX
  8
Unknown_Area_Type
  10
231628.000
  20
4582072.000
  0
VERTEX
  8
Unknown_Area_Type
  10
230135.500
  20
4581695.000
  0
VERTEX
  8
Unknown_Area_Type
  10
228877.500
  20
4582172.000
  0
VERTEX
  8
Unknown_Area_Type
  10
228846.500
  20
4585964.500
  0
VERTEX
  8
Unknown_Area_Type
  10
229005.500
  20
4585992.000
  0
VERTEX
  8
Unknown_Area_Type
  10
229008.500
  20
4585992.500
  0
SEQEND
  8
Unknown_Area_Type
  0
INSERT
  8
FeatureAttribs
  2
FEATURE
  41
1
  42
1
  43
1
  50
0
  10
230255.856
  20
4584027.118
 66
1
  0
ATTRIB
  8
FeatureAttribs
 70
0
  1
PNOA-H_AMS_1956-57_33k_ES_PAN_2
  2
NAME
  10
230255.856
  20
4584027.118
 40
29.23676
  0
SEQEND
  0
POLYLINE
  8
Unknown_Area_Type
  70
1
  66
1
  0
VERTEX
  8
Unknown_Area_Type
  10
229008.500
  20
4585992.500
  0
VERTEX
  8
Unknown_Area_Type
  10
229005.500
  20
4585992.000
  0
VERTEX
  8
Unknown_Area_Type
  10
228846.500
  20
4585964.500
  0
VERTEX
  8
Unknown_Area_Type
  10
228877.500
  20
4582172.000
  0
VERTEX
  8
Unknown_Area_Type
  10
230135.500
  20
4581695.000
  0
VERTEX
  8
Unknown_Area_Type
  10
231628.000
  20
4582072.000
  0
VERTEX
  8
Unknown_Area_Type
  10
231618.500
  20
4585968.000
  0
VERTEX
  8
Unknown_Area_Type
  10
230913.000
  20
4586320.500
  0
VERTEX
  8
Unknown_Area_Type
  10
229008.500
  20
4585992.500
  0
SEQEND
  8
Unknown_Area_Type
  0
INSERT
  8
FeatureAttribs
  2
FEATURE
  41
1
  42
1
  43
1
  50
0
  10
216817.614
  20
4584207.813
 66
1
  0
ATTRIB
  8
FeatureAttribs
 70
0
  1
PNOA-H_AMS_1956-57_33k_ES_PAN_2
  2
NAME
  10
216817.614
  20
4584207.813
 40
29.23676
  0
SEQEND
  0
POLYLINE
  8
Unknown_Area_Type
  70
1
  66
1
  0
VERTEX
  8
Unknown_Area_Type
  10
215275.500
  20
4584003.500
  0
VERTEX
  8
Unknown_Area_Type
  10
215615.500
  20
4584004.000
  0
VERTEX
  8
Unknown_Area_Type
  10
215618.000
  20
4584005.000
  0
VERTEX
  8
Unknown_Area_Type
  10
215993.000
  20
4584005.000
  0
VERTEX
  8
Unknown_Area_Type
  10
215995.000
  20
4584007.000
  0
VERTEX
  8
Unknown_Area_Type
  10
215995.000
  20
4584460.000
  0
VERTEX
  8
Unknown_Area_Type
  10
215997.000
  20
4584468.000
  0
VERTEX
  8
Unknown_Area_Type
  10
215997.500
  20
4584492.500
  0
VERTEX
  8
Unknown_Area_Type
  10
215999.500
  20
4586031.000
  0
VERTEX
  8
Unknown_Area_Type
  10
216004.000
  20
4586034.500
  0
VERTEX
  8
Unknown_Area_Type
  10
216002.000
  20
4586040.000
  0
VERTEX
  8
Unknown_Area_Type
  10
216005.000
  20
4586042.000
  0
VERTEX
  8
Unknown_Area_Type
  10
216005.000
  20
4586174.500
  0
VERTEX
  8
Unknown_Area_Type
  10
217076.000
  20
4586464.500
  0
VERTEX
  8
Unknown_Area_Type
  10
217077.500
  20
4586465.000
  0
VERTEX
  8
Unknown_Area_Type
  10
218035.000
  20
4586021.000
  0
VERTEX
  8
Unknown_Area_Type
  10
217988.500
  20
4582536.500
  0
VERTEX
  8
Unknown_Area_Type
  10
215911.500
  20
4582261.000
  0
VERTEX
  8
Unknown_Area_Type
  10
215252.000
  20
4582692.500
  0
VERTEX
  8
Unknown_Area_Type
  10
215275.500
  20
4584003.500
  0
SEQEND
  8
Unknown_Area_Type
  0
INSERT
  8
FeatureAttribs
  2
FEATURE
  41
1
  42
1
  43
1
  50
0
  10
216817.614
  20
4584207.813
 66
1
  0
ATTRIB
  8
FeatureAttribs
 70
0
  1
PNOA-H_AMS_1956-57_33k_ES_PAN_2
  2
NAME
  10
216817.614
  20
4584207.813
 40
29.23676
  0
SEQEND
  0
POLYLINE
  8
Unknown_Area_Type
  70
1
  66
1
  0
VERTEX
  8
Unknown_Area_Type
  10
215275.500
  20
4584003.500
  0
VERTEX
  8
Unknown_Area_Type
  10
215252.000
  20
4582692.500
  0
VERTEX
  8
Unknown_Area_Type
  10
215911.500
  20
4582261.000
  0
VERTEX
  8
Unknown_Area_Type
  10
217988.500
  20
4582536.500
  0
VERTEX
  8
Unknown_Area_Type
  10
218035.000
  20
4586021.000
  0
VERTEX
  8
Unknown_Area_Type
  10
217077.500
  20
4586465.000
  0
VERTEX
  8
Unknown_Area_Type
  10
217076.000
  20
4586464.500
  0
VERTEX
  8
Unknown_Area_Type
  10
216005.000
  20
4586174.500
  0
VERTEX
  8
Unknown_Area_Type
  10
216005.000
  20
4586042.000
  0
VERTEX
  8
Unknown_Area_Type
  10
216002.000
  20
4586040.000
  0
VERTEX
  8
Unknown_Area_Type
  10
216004.000
  20
4586034.500
  0
VERTEX
  8
Unknown_Area_Type
  10
215999.500
  20
4586031.000
  0
VERTEX
  8
Unknown_Area_Type
  10
215997.500
  20
4584492.500
  0
VERTEX
  8
Unknown_Area_Type
  10
215997.000
  20
4584468.000
  0
VERTEX
  8
Unknown_Area_Type
  10
215995.000
  20
4584460.000
  0
VERTEX
  8
Unknown_Area_Type
  10
215995.000
  20
4584007.000
  0
VERTEX
  8
Unknown_Area_Type
  10
215993.000
  20
4584005.000
  0
VERTEX
  8
Unknown_Area_Type
  10
215618.000
  20
4584005.000
  0
VERTEX
  8
Unknown_Area_Type
  10
215615.500
  20
4584004.000
  0
VERTEX
  8
Unknown_Area_Type
  10
215275.500
  20
4584003.500
  0
SEQEND
  8
Unknown_Area_Type
  0
INSERT
  8
FeatureAttribs
  2
FEATURE
  41
1
  42
1
  43
1
  50
0
  10
222030.926
  20
4584149.162
 66
1
  0
ATTRIB
  8
FeatureAttribs
 70
0
  1
PNOA-H_AMS_1956-57_33k_ES_PAN_2
  2
NAME
  10
222030.926
  20
4584149.162
 40
29.23676
  0
SEQEND
  0
POLYLINE
  8
Unknown_Area_Type
  70
1
  66
1
  0
VERTEX
  8
Unknown_Area_Type
  10
220693.500
  20
4585960.500
  0
VERTEX
  8
Unknown_Area_Type
  10
220814.000
  20
4585984.000
  0
VERTEX
  8
Unknown_Area_Type
  10
220816.500
  20
4585984.500
  0
VERTEX
  8
Unknown_Area_Type
  10
222669.000
  20
4586342.500
  0
VERTEX
  8
Unknown_Area_Type
  10
223444.000
  20
4585948.500
  0
VERTEX
  8
Unknown_Area_Type
  10
223328.000
  20
4582320.500
  0
VERTEX
  8
Unknown_Area_Type
  10
221812.000
  20
4581903.500
  0
VERTEX
  8
Unknown_Area_Type
  10
221808.000
  20
4581904.500
  0
VERTEX
  8
Unknown_Area_Type
  10
220603.500
  20
4582467.000
  0
VERTEX
  8
Unknown_Area_Type
  10
220693.500
  20
4585960.500
  0
SEQEND
  8
Unknown_Area_Type
  0
INSERT
  8
FeatureAttribs
  2
FEATURE
  41
1
  42
1
  43
1
  50
0
  10
222030.926
  20
4584149.162
 66
1
  0
ATTRIB
  8
FeatureAttribs
 70
0
  1
PNOA-H_AMS_1956-57_33k_ES_PAN_2
  2
NAME
  10
222030.926
  20
4584149.162
 40
29.23676
  0
SEQEND
  0
POLYLINE
  8
Unknown_Area_Type
  70
1
  66
1
  0
VERTEX
  8
Unknown_Area_Type
  10
220693.500
  20
4585960.500
  0
VERTEX
  8
Unknown_Area_Type
  10
220603.500
  20
4582467.000
  0
VERTEX
  8
Unknown_Area_Type
  10
221808.000
  20
4581904.500
  0
VERTEX
  8
Unknown_Area_Type
  10
221812.000
  20
4581903.500
  0
VERTEX
  8
Unknown_Area_Type
  10
223328.000
  20
4582320.500
  0
VERTEX
  8
Unknown_Area_Type
  10
223444.000
  20
4585948.500
  0
VERTEX
  8
Unknown_Area_Type
  10
222669.000
  20
4586342.500
  0
VERTEX
  8
Unknown_Area_Type
  10
220816.500
  20
4585984.500
  0
VERTEX
  8
Unknown_Area_Type
  10
220814.000
  20
4585984.000
  0
VERTEX
  8
Unknown_Area_Type
  10
220693.500
  20
4585960.500
  0
SEQEND
  8
Unknown_Area_Type
  0
INSERT
  8
FeatureAttribs
  2
FEATURE
  41
1
  42
1
  43
1
  50
0
  10
219330.842
  20
4584244.349
 66
1
  0
ATTRIB
  8
FeatureAttribs
 70
0
  1
PNOA-H_AMS_1956-57_33k_ES_PAN_2
  2
NAME
  10
219330.842
  20
4584244.349
 40
29.23676
  0
SEQEND
  0
POLYLINE
  8
Unknown_Area_Type
  70
1
  66
1
  0
VERTEX
  8
Unknown_Area_Type
  10
220460.000
  20
4586081.500
  0
VERTEX
  8
Unknown_Area_Type
  10
220693.500
  20
4585961.000
  0
VERTEX
  8
Unknown_Area_Type
  10
220603.500
  20
4582467.500
  0
VERTEX
  8
Unknown_Area_Type
  10
218843.000
  20
4582075.000
  0
VERTEX
  8
Unknown_Area_Type
  10
218837.500
  20
4582075.000
  0
VERTEX
  8
Unknown_Area_Type
  10
217988.500
  20
4582536.500
  0
VERTEX
  8
Unknown_Area_Type
  10
218035.000
  20
4586020.500
  0
VERTEX
  8
Unknown_Area_Type
  10
219343.000
  20
4586286.000
  0
VERTEX
  8
Unknown_Area_Type
  10
219355.500
  20
4586285.500
  0
VERTEX
  8
Unknown_Area_Type
  10
219363.500
  20
4586276.500
  0
VERTEX
  8
Unknown_Area_Type
  10
219365.000
  20
4586275.500
  0
VERTEX
  8
Unknown_Area_Type
  10
219375.500
  20
4586275.500
  0
VERTEX
  8
Unknown_Area_Type
  10
219385.000
  20
4586265.500
  0
VERTEX
  8
Unknown_Area_Type
  10
219400.500
  20
4586265.500
  0
VERTEX
  8
Unknown_Area_Type
  10
219405.000
  20
4586260.500
  0
VERTEX
  8
Unknown_Area_Type
  10
219416.000
  20
4586260.500
  0
VERTEX
  8
Unknown_Area_Type
  10
219420.500
  20
4586255.500
  0
VERTEX
  8
Unknown_Area_Type
  10
219434.500
  20
4586255.500
  0
VERTEX
  8
Unknown_Area_Type
  10
219444.500
  20
4586265.500
  0
VERTEX
  8
Unknown_Area_Type
  10
219444.500
  20
4586270.000
  0
VERTEX
  8
Unknown_Area_Type
  10
219436.500
  20
4586278.500
  0
VERTEX
  8
Unknown_Area_Type
  10
219435.000
  20
4586279.500
  0
VERTEX
  8
Unknown_Area_Type
  10
219424.500
  20
4586279.500
  0
VERTEX
  8
Unknown_Area_Type
  10
219420.000
  20
4586284.500
  0
VERTEX
  8
Unknown_Area_Type
  10
219414.500
  20
4586284.500
  0
VERTEX
  8
Unknown_Area_Type
  10
219411.500
  20
4586288.500
  0
VERTEX
  8
Unknown_Area_Type
  10
219410.000
  20
4586289.500
  0
VERTEX
  8
Unknown_Area_Type
  10
219404.500
  20
4586289.500
  0
VERTEX
  8
Unknown_Area_Type
  10
219400.000
  20
4586294.500
  0
VERTEX
  8
Unknown_Area_Type
  10
219387.000
  20
4586295.000
  0
VERTEX
  8
Unknown_Area_Type
  10
219858.000
  20
4586390.500
  0
VERTEX
  8
Unknown_Area_Type
  10
219860.500
  20
4586391.000
  0
VERTEX
  8
Unknown_Area_Type
  10
220420.500
  20
4586102.000
  0
VERTEX
  8
Unknown_Area_Type
  10
220420.500
  20
4586090.000
  0
VERTEX
  8
Unknown_Area_Type
  10
220430.500
  20
4586080.500
  0
VERTEX
  8
Unknown_Area_Type
  10
220430.500
  20
4586075.000
  0
VERTEX
  8
Unknown_Area_Type
  10
220431.500
  20
4586073.500
  0
VERTEX
  8
Unknown_Area_Type
  10
220450.000
  20
4586055.500
  0
VERTEX
  8
Unknown_Area_Type
  10
220470.000
  20
4586055.500
  0
VERTEX
  8
Unknown_Area_Type
  10
220474.500
  20
4586060.000
  0
VERTEX
  8
Unknown_Area_Type
  10
220474.500
  20
4586065.000
  0
VERTEX
  8
Unknown_Area_Type
  10
220473.500
  20
4586066.500
  0
VERTEX
  8
Unknown_Area_Type
  10
220459.500
  20
4586079.500
  0
VERTEX
  8
Unknown_Area_Type
  10
220460.000
  20
4586081.500
  0
SEQEND
  8
Unknown_Area_Type
  0
INSERT
  8
FeatureAttribs
  2
FEATURE
  41
1
  42
1
  43
1
  50
0
  10
219330.842
  20
4584244.349
 66
1
  0
ATTRIB
  8
FeatureAttribs
 70
0
  1
PNOA-H_AMS_1956-57_33k_ES_PAN_2
  2
NAME
  10
219330.842
  20
4584244.349
 40
29.23676
  0
SEQEND
  0
POLYLINE
  8
Unknown_Area_Type
  70
1
  66
1
  0
VERTEX
  8
Unknown_Area_Type
  10
220460.000
  20
4586081.500
  0
VERTEX
  8
Unknown_Area_Type
  10
220459.500
  20
4586079.500
  0
VERTEX
  8
Unknown_Area_Type
  10
220473.500
  20
4586066.500
  0
VERTEX
  8
Unknown_Area_Type
  10
220474.500
  20
4586065.000
  0
VERTEX
  8
Unknown_Area_Type
  10
220474.500
  20
4586060.000
  0
VERTEX
  8
Unknown_Area_Type
  10
220470.000
  20
4586055.500
  0
VERTEX
  8
Unknown_Area_Type
  10
220450.000
  20
4586055.500
  0
VERTEX
  8
Unknown_Area_Type
  10
220431.500
  20
4586073.500
  0
VERTEX
  8
Unknown_Area_Type
  10
220430.500
  20
4586075.000
  0
VERTEX
  8
Unknown_Area_Type
  10
220430.500
  20
4586080.500
  0
VERTEX
  8
Unknown_Area_Type
  10
220420.500
  20
4586090.000
  0
VERTEX
  8
Unknown_Area_Type
  10
220420.500
  20
4586102.000
  0
VERTEX
  8
Unknown_Area_Type
  10
219860.500
  20
4586391.000
  0
VERTEX
  8
Unknown_Area_Type
  10
219858.000
  20
4586390.500
  0
VERTEX
  8
Unknown_Area_Type
  10
219387.000
  20
4586295.000
  0
VERTEX
  8
Unknown_Area_Type
  10
219400.000
  20
4586294.500
  0
VERTEX
  8
Unknown_Area_Type
  10
219404.500
  20
4586289.500
  0
VERTEX
  8
Unknown_Area_Type
  10
219410.000
  20
4586289.500
  0
VERTEX
  8
Unknown_Area_Type
  10
219411.500
  20
4586288.500
  0
VERTEX
  8
Unknown_Area_Type
  10
219414.500
  20
4586284.500
  0
VERTEX
  8
Unknown_Area_Type
  10
219420.000
  20
4586284.500
  0
VERTEX
  8
Unknown_Area_Type
  10
219424.500
  20
4586279.500
  0
VERTEX
  8
Unknown_Area_Type
  10
219435.000
  20
4586279.500
  0
VERTEX
  8
Unknown_Area_Type
  10
219436.500
  20
4586278.500
  0
VERTEX
  8
Unknown_Area_Type
  10
219444.500
  20
4586270.000
  0
VERTEX
  8
Unknown_Area_Type
  10
219444.500
  20
4586265.500
  0
VERTEX
  8
Unknown_Area_Type
  10
219434.500
  20
4586255.500
  0
VERTEX
  8
Unknown_Area_Type
  10
219420.500
  20
4586255.500
  0
VERTEX
  8
Unknown_Area_Type
  10
219416.000
  20
4586260.500
  0
VERTEX
  8
Unknown_Area_Type
  10
219405.000
  20
4586260.500
  0
VERTEX
  8
Unknown_Area_Type
  10
219400.500
  20
4586265.500
  0
VERTEX
  8
Unknown_Area_Type
  10
219385.000
  20
4586265.500
  0
VERTEX
  8
Unknown_Area_Type
  10
219375.500
  20
4586275.500
  0
VERTEX
  8
Unknown_Area_Type
  10
219365.000
  20
4586275.500
  0
VERTEX
  8
Unknown_Area_Type
  10
219363.500
  20
4586276.500
  0
VERTEX
  8
Unknown_Area_Type
  10
219355.500
  20
4586285.500
  0
VERTEX
  8
Unknown_Area_Type
  10
219343.000
  20
4586286.000
  0
VERTEX
  8
Unknown_Area_Type
  10
218035.000
  20
4586020.500
  0
VERTEX
  8
Unknown_Area_Type
  10
217988.500
  20
4582536.500
  0
VERTEX
  8
Unknown_Area_Type
  10
218837.500
  20
4582075.000
  0
VERTEX
  8
Unknown_Area_Type
  10
218843.000
  20
4582075.000
  0
VERTEX
  8
Unknown_Area_Type
  10
220603.500
  20
4582467.500
  0
VERTEX
  8
Unknown_Area_Type
  10
220693.500
  20
4585961.000
  0
VERTEX
  8
Unknown_Area_Type
  10
220460.000
  20
4586081.500
  0
SEQEND
  8
Unknown_Area_Type
  0
INSERT
  8
FeatureAttribs
  2
FEATURE
  41
1
  42
1
  43
1
  50
0
  10
223203.541
  20
4581574.763
 66
1
  0
ATTRIB
  8
FeatureAttribs
 70
0
  1
PNOA-H_AMS_1956-57_33k_ES_PAN_2
  2
NAME
  10
223203.541
  20
4581574.763
 40
29.23676
  0
SEQEND
  0
POLYLINE
  8
Unknown_Area_Type
  70
1
  66
1
  0
VERTEX
  8
Unknown_Area_Type
  10
224566.562
  20
4580989.504
  0
VERTEX
  8
Unknown_Area_Type
  10
222801.946
  20
4581056.532
  0
VERTEX
  8
Unknown_Area_Type
  10
221744.734
  20
4581097.200
  0
VERTEX
  8
Unknown_Area_Type
  10
221811.000
  20
4581903.500
  0
VERTEX
  8
Unknown_Area_Type
  10
223324.500
  20
4582320.000
  0
VERTEX
  8
Unknown_Area_Type
  10
223326.500
  20
4582320.500
  0
VERTEX
  8
Unknown_Area_Type
  10
223329.500
  20
4582320.500
  0
VERTEX
  8
Unknown_Area_Type
  10
223352.500
  20
4582311.500
  0
VERTEX
  8
Unknown_Area_Type
  10
224617.500
  20
4581813.000
  0
VERTEX
  8
Unknown_Area_Type
  10
224566.562
  20
4580989.504
  0
SEQEND
  8
Unknown_Area_Type
  0
INSERT
  8
FeatureAttribs
  2
FEATURE
  41
1
  42
1
  43
1
  50
0
  10
223203.541
  20
4581574.763
 66
1
  0
ATTRIB
  8
FeatureAttribs
 70
0
  1
PNOA-H_AMS_1956-57_33k_ES_PAN_2
  2
NAME
  10
223203.541
  20
4581574.763
 40
29.23676
  0
SEQEND
  0
POLYLINE
  8
Unknown_Area_Type
  70
1
  66
1
  0
VERTEX
  8
Unknown_Area_Type
  10
224566.562
  20
4580989.504
  0
VERTEX
  8
Unknown_Area_Type
  10
224617.500
  20
4581813.000
  0
VERTEX
  8
Unknown_Area_Type
  10
223352.500
  20
4582311.500
  0
VERTEX
  8
Unknown_Area_Type
  10
223329.500
  20
4582320.500
  0
VERTEX
  8
Unknown_Area_Type
  10
223326.500
  20
4582320.500
  0
VERTEX
  8
Unknown_Area_Type
  10
223324.500
  20
4582320.000
  0
VERTEX
  8
Unknown_Area_Type
  10
221811.000
  20
4581903.500
  0
VERTEX
  8
Unknown_Area_Type
  10
221744.734
  20
4581097.200
  0
VERTEX
  8
Unknown_Area_Type
  10
222801.946
  20
4581056.532
  0
VERTEX
  8
Unknown_Area_Type
  10
224566.562
  20
4580989.504
  0
SEQEND
  8
Unknown_Area_Type
  0
INSERT
  8
FeatureAttribs
  2
FEATURE
  41
1
  42
1
  43
1
  50
0
  10
228727.742
  20
4581398.173
 66
1
  0
ATTRIB
  8
FeatureAttribs
 70
0
  1
PNOA-H_AMS_1956-57_33k_ES_PAN_2
  2
NAME
  10
228727.742
  20
4581398.173
 40
29.23676
  0
SEQEND
  0
POLYLINE
  8
Unknown_Area_Type
  70
1
  66
1
  0
VERTEX
  8
Unknown_Area_Type
  10
230085.788
  20
4580781.837
  0
VERTEX
  8
Unknown_Area_Type
  10
229776.446
  20
4580793.290
  0
VERTEX
  8
Unknown_Area_Type
  10
227275.271
  20
4580887.090
  0
VERTEX
  8
Unknown_Area_Type
  10
227305.000
  20
4581741.000
  0
VERTEX
  8
Unknown_Area_Type
  10
228877.500
  20
4582172.000
  0
VERTEX
  8
Unknown_Area_Type
  10
229008.500
  20
4582122.000
  0
VERTEX
  8
Unknown_Area_Type
  10
229010.000
  20
4582121.500
  0
VERTEX
  8
Unknown_Area_Type
  10
230135.000
  20
4581695.000
  0
VERTEX
  8
Unknown_Area_Type
  10
230085.788
  20
4580781.837
  0
SEQEND
  8
Unknown_Area_Type
  0
INSERT
  8
FeatureAttribs
  2
FEATURE
  41
1
  42
1
  43
1
  50
0
  10
228727.742
  20
4581398.173
 66
1
  0
ATTRIB
  8
FeatureAttribs
 70
0
  1
PNOA-H_AMS_1956-57_33k_ES_PAN_2
  2
NAME
  10
228727.742
  20
4581398.173
 40
29.23676
  0
SEQEND
  0
POLYLINE
  8
Unknown_Area_Type
  70
1
  66
1
  0
VERTEX
  8
Unknown_Area_Type
  10
230085.788
  20
4580781.837
  0
VERTEX
  8
Unknown_Area_Type
  10
230135.000
  20
4581695.000
  0
VERTEX
  8
Unknown_Area_Type
  10
229010.000
  20
4582121.500
  0
VERTEX
  8
Unknown_Area_Type
  10
229008.500
  20
4582122.000
  0
VERTEX
  8
Unknown_Area_Type
  10
228877.500
  20
4582172.000
  0
VERTEX
  8
Unknown_Area_Type
  10
227305.000
  20
4581741.000
  0
VERTEX
  8
Unknown_Area_Type
  10
227275.271
  20
4580887.090
  0
VERTEX
  8
Unknown_Area_Type
  10
229776.446
  20
4580793.290
  0
VERTEX
  8
Unknown_Area_Type
  10
230085.788
  20
4580781.837
  0
SEQEND
  8
Unknown_Area_Type
  0
INSERT
  8
FeatureAttribs
  2
FEATURE
  41
1
  42
1
  43
1
  50
0
  10
225960.784
  20
4581467.701
 66
1
  0
ATTRIB
  8
FeatureAttribs
 70
0
  1
PNOA-H_AMS_1956-57_33k_ES_PAN_2
  2
NAME
  10
225960.784
  20
4581467.701
 40
29.23676
  0
SEQEND
  0
POLYLINE
  8
Unknown_Area_Type
  70
1
  66
1
  0
VERTEX
  8
Unknown_Area_Type
  10
227275.373
  20
4580887.086
  0
VERTEX
  8
Unknown_Area_Type
  10
226289.205
  20
4580924.070
  0
VERTEX
  8
Unknown_Area_Type
  10
224566.502
  20
4580989.506
  0
VERTEX
  8
Unknown_Area_Type
  10
224617.500
  20
4581813.000
  0
VERTEX
  8
Unknown_Area_Type
  10
224911.000
  20
4581888.000
  0
VERTEX
  8
Unknown_Area_Type
  10
224913.000
  20
4581888.500
  0
VERTEX
  8
Unknown_Area_Type
  10
226102.500
  20
4582191.500
  0
VERTEX
  8
Unknown_Area_Type
  10
227305.000
  20
4581741.000
  0
VERTEX
  8
Unknown_Area_Type
  10
227275.373
  20
4580887.086
  0
SEQEND
  8
Unknown_Area_Type
  0
INSERT
  8
FeatureAttribs
  2
FEATURE
  41
1
  42
1
  43
1
  50
0
  10
225960.784
  20
4581467.701
 66
1
  0
ATTRIB
  8
FeatureAttribs
 70
0
  1
PNOA-H_AMS_1956-57_33k_ES_PAN_2
  2
NAME
  10
225960.784
  20
4581467.701
 40
29.23676
  0
SEQEND
  0
POLYLINE
  8
Unknown_Area_Type
  70
1
  66
1
  0
VERTEX
  8
Unknown_Area_Type
  10
227275.373
  20
4580887.086
  0
VERTEX
  8
Unknown_Area_Type
  10
227305.000
  20
4581741.000
  0
VERTEX
  8
Unknown_Area_Type
  10
226102.500
  20
4582191.500
  0
VERTEX
  8
Unknown_Area_Type
  10
224913.000
  20
4581888.500
  0
VERTEX
  8
Unknown_Area_Type
  10
224911.000
  20
4581888.000
  0
VERTEX
  8
Unknown_Area_Type
  10
224617.500
  20
4581813.000
  0
VERTEX
  8
Unknown_Area_Type
  10
224566.502
  20
4580989.506
  0
VERTEX
  8
Unknown_Area_Type
  10
226289.205
  20
4580924.070
  0
VERTEX
  8
Unknown_Area_Type
  10
227275.373
  20
4580887.086
  0
SEQEND
  8
Unknown_Area_Type
  0
ENDSEC
  0
EOF
