  0
SECTION
  2
HEADER
  9
$ACADVER
  1
AC1009
  9
$LUNITS
  70
2
  9
$LIMMIN
  10
567639.616
  20
4594582.839
  9
$LIMMAX
  10
595392.125
  20
4613401.830
  9
$EXTMIN
  10
567639.616
  20
4594582.839
  9
$EXTMAX
  10
595392.125
  20
4613401.830
  999
Created by Global Mapper
  999
Projection: UTM
  999
Datum: ETRS89
  999
Ground Units: meters
  999
ZONE: 30
  0
ENDSEC
  0
SECTION
  2
TABLES
  0
ENDSEC
  0
SECTION
  2
BLOCKS
  0
BLOCK
  8
FeatureAttribs
  70
0
  2
FEATURE
  3
FEATURE
  10
0.00000000
  20
0.00000000
  0
ATTDEF
  8
FeatureAttribs
  70
0
  1
 
  2
NAME
  3
NAME
  10
0.00000000
  20
0.00000000
  40
1.00000000
  0
ENDBLK
  0
ENDSEC
  0
SECTION
  2
ENTITIES
  0
INSERT
  8
FeatureAttribs
  2
FEATURE
  41
1
  42
1
  43
1
  50
0
  10
568159.135
  20
4612530.767
 66
1
  0
ATTRIB
  8
FeatureAttribs
 70
0
  1
PNOA-H_AMS_1956-57_33k_ES_PAN_21mic_H50_0350_fot_39008.tif
  2
NAME
  10
568159.135
  20
4612530.767
 40
33.53142
  0
SEQEND
  0
POLYLINE
  8
PNOA-H_AMS_1956-57_33k_ES_PAN_21mic_H50_0350_fot_39008_tif
  70
9
  66
1
  0
VERTEX
  8
PNOA-H_AMS_1956-57_33k_ES_PAN_21mic_H50_0350_fot_39008_tif
  70
32
  10
568672.500
  20
4612025.500
  30
1000.734
  0
VERTEX
  8
PNOA-H_AMS_1956-57_33k_ES_PAN_21mic_H50_0350_fot_39008_tif
  70
32
  10
567650.187
  20
4611965.002
  30
1008.93
  0
VERTEX
  8
PNOA-H_AMS_1956-57_33k_ES_PAN_21mic_H50_0350_fot_39008_tif
  70
32
  10
567650.184
  20
4611965.334
  30
0
  0
VERTEX
  8
PNOA-H_AMS_1956-57_33k_ES_PAN_21mic_H50_0350_fot_39008_tif
  70
32
  10
567639.616
  20
4613086.527
  30
0
  0
VERTEX
  8
PNOA-H_AMS_1956-57_33k_ES_PAN_21mic_H50_0350_fot_39008_tif
  70
32
  10
568674.443
  20
4613096.533
  30
1010.79
  0
VERTEX
  8
PNOA-H_AMS_1956-57_33k_ES_PAN_21mic_H50_0350_fot_39008_tif
  70
32
  10
568672.500
  20
4612025.500
  30
1000.734
  0
SEQEND
  8
PNOA-H_AMS_1956-57_33k_ES_PAN_21mic_H50_0350_fot_39008_tif
  0
INSERT
  8
FeatureAttribs
  2
FEATURE
  41
1
  42
1
  43
1
  50
0
  10
575560.626
  20
4612563.024
 66
1
  0
ATTRIB
  8
FeatureAttribs
 70
0
  1
PNOA-H_AMS_1956-57_33k_ES_PAN_21mic_H50_0351_fot_39011.tif
  2
NAME
  10
575560.626
  20
4612563.024
 40
33.53142
  0
SEQEND
  0
POLYLINE
  8
PNOA-H_AMS_1956-57_33k_ES_PAN_21mic_H50_0351_fot_39011_tif
  70
9
  66
1
  0
VERTEX
  8
PNOA-H_AMS_1956-57_33k_ES_PAN_21mic_H50_0351_fot_39011_tif
  70
32
  10
576957.000
  20
4612140.500
  30
1049.678
  0
VERTEX
  8
PNOA-H_AMS_1956-57_33k_ES_PAN_21mic_H50_0351_fot_39011_tif
  70
32
  10
574540.000
  20
4611946.000
  30
1047.588
  0
VERTEX
  8
PNOA-H_AMS_1956-57_33k_ES_PAN_21mic_H50_0351_fot_39011_tif
  70
32
  10
574539.929
  20
4611946.035
  30
1047.592
  0
VERTEX
  8
PNOA-H_AMS_1956-57_33k_ES_PAN_21mic_H50_0351_fot_39011_tif
  70
32
  10
574539.497
  20
4611946.246
  30
1047.614
  0
VERTEX
  8
PNOA-H_AMS_1956-57_33k_ES_PAN_21mic_H50_0351_fot_39011_tif
  70
32
  10
574210.500
  20
4612107.000
  30
1064.293
  0
VERTEX
  8
PNOA-H_AMS_1956-57_33k_ES_PAN_21mic_H50_0351_fot_39011_tif
  70
32
  10
574203.500
  20
4612110.500
  30
1065.036
  0
VERTEX
  8
PNOA-H_AMS_1956-57_33k_ES_PAN_21mic_H50_0351_fot_39011_tif
  70
32
  10
574203.375
  20
4612111.000
  30
1065.071
  0
VERTEX
  8
PNOA-H_AMS_1956-57_33k_ES_PAN_21mic_H50_0351_fot_39011_tif
  70
32
  10
574202.924
  20
4612112.803
  30
1065.199
  0
VERTEX
  8
PNOA-H_AMS_1956-57_33k_ES_PAN_21mic_H50_0351_fot_39011_tif
  70
32
  10
574202.500
  20
4612114.500
  30
1065.319
  0
VERTEX
  8
PNOA-H_AMS_1956-57_33k_ES_PAN_21mic_H50_0351_fot_39011_tif
  70
32
  10
574159.048
  20
4613151.043
  30
1055.572
  0
VERTEX
  8
PNOA-H_AMS_1956-57_33k_ES_PAN_21mic_H50_0351_fot_39011_tif
  70
32
  10
574159.315
  20
4613151.046
  30
1055.469
  0
VERTEX
  8
PNOA-H_AMS_1956-57_33k_ES_PAN_21mic_H50_0351_fot_39011_tif
  70
32
  10
574577.076
  20
4613155.287
  30
0
  0
VERTEX
  8
PNOA-H_AMS_1956-57_33k_ES_PAN_21mic_H50_0351_fot_39011_tif
  70
32
  10
576904.465
  20
4613180.044
  30
1046.705
  0
VERTEX
  8
PNOA-H_AMS_1956-57_33k_ES_PAN_21mic_H50_0351_fot_39011_tif
  70
32
  10
576904.809
  20
4613180.047
  30
1046.675
  0
VERTEX
  8
PNOA-H_AMS_1956-57_33k_ES_PAN_21mic_H50_0351_fot_39011_tif
  70
32
  10
576959.500
  20
4612149.500
  30
1049.629
  0
VERTEX
  8
PNOA-H_AMS_1956-57_33k_ES_PAN_21mic_H50_0351_fot_39011_tif
  70
32
  10
576959.500
  20
4612141.000
  30
1049.693
  0
VERTEX
  8
PNOA-H_AMS_1956-57_33k_ES_PAN_21mic_H50_0351_fot_39011_tif
  70
32
  10
576957.000
  20
4612140.500
  30
1049.678
  0
SEQEND
  8
PNOA-H_AMS_1956-57_33k_ES_PAN_21mic_H50_0351_fot_39011_tif
  0
INSERT
  8
FeatureAttribs
  2
FEATURE
  41
1
  42
1
  43
1
  50
0
  10
570049.724
  20
4612485.072
 66
1
  0
ATTRIB
  8
FeatureAttribs
 70
0
  1
PNOA-H_AMS_1956-57_33k_ES_PAN_21mic_H50_0351_fot_39009.tif
  2
NAME
  10
570049.724
  20
4612485.072
 40
33.53142
  0
SEQEND
  0
POLYLINE
  8
PNOA-H_AMS_1956-57_33k_ES_PAN_21mic_H50_0351_fot_39009_tif
  70
9
  66
1
  0
VERTEX
  8
PNOA-H_AMS_1956-57_33k_ES_PAN_21mic_H50_0351_fot_39009_tif
  70
32
  10
569006.500
  20
4611847.000
  30
1008.013
  0
VERTEX
  8
PNOA-H_AMS_1956-57_33k_ES_PAN_21mic_H50_0351_fot_39009_tif
  70
32
  10
569005.500
  20
4611847.000
  30
1008
  0
VERTEX
  8
PNOA-H_AMS_1956-57_33k_ES_PAN_21mic_H50_0351_fot_39009_tif
  70
32
  10
568672.500
  20
4612025.500
  30
1000.734
  0
VERTEX
  8
PNOA-H_AMS_1956-57_33k_ES_PAN_21mic_H50_0351_fot_39009_tif
  70
32
  10
568674.443
  20
4613096.533
  30
1010.79
  0
VERTEX
  8
PNOA-H_AMS_1956-57_33k_ES_PAN_21mic_H50_0351_fot_39009_tif
  70
32
  10
571108.343
  20
4613120.068
  30
0
  0
VERTEX
  8
PNOA-H_AMS_1956-57_33k_ES_PAN_21mic_H50_0351_fot_39009_tif
  70
32
  10
571411.351
  20
4613123.145
  30
1098.786
  0
VERTEX
  8
PNOA-H_AMS_1956-57_33k_ES_PAN_21mic_H50_0351_fot_39009_tif
  70
32
  10
571411.359
  20
4613123.145
  30
1098.787
  0
VERTEX
  8
PNOA-H_AMS_1956-57_33k_ES_PAN_21mic_H50_0351_fot_39009_tif
  70
32
  10
571436.500
  20
4612036.000
  30
1107.4
  0
VERTEX
  8
PNOA-H_AMS_1956-57_33k_ES_PAN_21mic_H50_0351_fot_39009_tif
  70
32
  10
571436.488
  20
4612035.999
  30
1107.399
  0
VERTEX
  8
PNOA-H_AMS_1956-57_33k_ES_PAN_21mic_H50_0351_fot_39009_tif
  70
32
  10
569011.500
  20
4611847.000
  30
1008.08
  0
VERTEX
  8
PNOA-H_AMS_1956-57_33k_ES_PAN_21mic_H50_0351_fot_39009_tif
  70
32
  10
569006.500
  20
4611847.000
  30
1008.013
  0
SEQEND
  8
PNOA-H_AMS_1956-57_33k_ES_PAN_21mic_H50_0351_fot_39009_tif
  0
INSERT
  8
FeatureAttribs
  2
FEATURE
  41
1
  42
1
  43
1
  50
0
  10
572805.697
  20
4612515.773
 66
1
  0
ATTRIB
  8
FeatureAttribs
 70
0
  1
PNOA-H_AMS_1956-57_33k_ES_PAN_21mic_H50_0351_fot_39010.tif
  2
NAME
  10
572805.697
  20
4612515.773
 40
33.53142
  0
SEQEND
  0
POLYLINE
  8
PNOA-H_AMS_1956-57_33k_ES_PAN_21mic_H50_0351_fot_39010_tif
  70
9
  66
1
  0
VERTEX
  8
PNOA-H_AMS_1956-57_33k_ES_PAN_21mic_H50_0351_fot_39010_tif
  70
32
  10
574203.000
  20
4612111.000
  30
1065.103
  0
VERTEX
  8
PNOA-H_AMS_1956-57_33k_ES_PAN_21mic_H50_0351_fot_39010_tif
  70
32
  10
571737.500
  20
4611880.500
  30
1178.837
  0
VERTEX
  8
PNOA-H_AMS_1956-57_33k_ES_PAN_21mic_H50_0351_fot_39010_tif
  70
32
  10
571737.341
  20
4611880.582
  30
1178.799
  0
VERTEX
  8
PNOA-H_AMS_1956-57_33k_ES_PAN_21mic_H50_0351_fot_39010_tif
  70
32
  10
571736.010
  20
4611881.267
  30
1178.483
  0
VERTEX
  8
PNOA-H_AMS_1956-57_33k_ES_PAN_21mic_H50_0351_fot_39010_tif
  70
32
  10
571436.500
  20
4612035.500
  30
1107.353
  0
VERTEX
  8
PNOA-H_AMS_1956-57_33k_ES_PAN_21mic_H50_0351_fot_39010_tif
  70
32
  10
571436.488
  20
4612035.999
  30
1107.349
  0
VERTEX
  8
PNOA-H_AMS_1956-57_33k_ES_PAN_21mic_H50_0351_fot_39010_tif
  70
32
  10
571411.351
  20
4613123.145
  30
1098.749
  0
VERTEX
  8
PNOA-H_AMS_1956-57_33k_ES_PAN_21mic_H50_0351_fot_39010_tif
  70
32
  10
571411.359
  20
4613123.145
  30
0
  0
VERTEX
  8
PNOA-H_AMS_1956-57_33k_ES_PAN_21mic_H50_0351_fot_39010_tif
  70
32
  10
574159.048
  20
4613151.043
  30
0
  0
VERTEX
  8
PNOA-H_AMS_1956-57_33k_ES_PAN_21mic_H50_0351_fot_39010_tif
  70
32
  10
574159.315
  20
4613151.046
  30
1055.384
  0
VERTEX
  8
PNOA-H_AMS_1956-57_33k_ES_PAN_21mic_H50_0351_fot_39010_tif
  70
32
  10
574202.924
  20
4612112.803
  30
1065.087
  0
VERTEX
  8
PNOA-H_AMS_1956-57_33k_ES_PAN_21mic_H50_0351_fot_39010_tif
  70
32
  10
574203.000
  20
4612111.000
  30
1065.103
  0
SEQEND
  8
PNOA-H_AMS_1956-57_33k_ES_PAN_21mic_H50_0351_fot_39010_tif
  0
INSERT
  8
FeatureAttribs
  2
FEATURE
  41
1
  42
1
  43
1
  50
0
  10
578297.208
  20
4612631.610
 66
1
  0
ATTRIB
  8
FeatureAttribs
 70
0
  1
PNOA-H_AMS_1956-57_33k_ES_PAN_21mic_H50_0351_fot_39012.tif
  2
NAME
  10
578297.208
  20
4612631.610
 40
33.53142
  0
SEQEND
  0
POLYLINE
  8
PNOA-H_AMS_1956-57_33k_ES_PAN_21mic_H50_0351_fot_39012_tif
  70
9
  66
1
  0
VERTEX
  8
PNOA-H_AMS_1956-57_33k_ES_PAN_21mic_H50_0351_fot_39012_tif
  70
32
  10
579688.000
  20
4612222.000
  30
1062.222
  0
VERTEX
  8
PNOA-H_AMS_1956-57_33k_ES_PAN_21mic_H50_0351_fot_39012_tif
  70
32
  10
577142.500
  20
4612053.500
  30
1053.417
  0
VERTEX
  8
PNOA-H_AMS_1956-57_33k_ES_PAN_21mic_H50_0351_fot_39012_tif
  70
32
  10
577141.791
  20
4612053.652
  30
1053.414
  0
VERTEX
  8
PNOA-H_AMS_1956-57_33k_ES_PAN_21mic_H50_0351_fot_39012_tif
  70
32
  10
577137.156
  20
4612054.645
  30
1053.394
  0
VERTEX
  8
PNOA-H_AMS_1956-57_33k_ES_PAN_21mic_H50_0351_fot_39012_tif
  70
32
  10
577135.500
  20
4612055.000
  30
1053.387
  0
VERTEX
  8
PNOA-H_AMS_1956-57_33k_ES_PAN_21mic_H50_0351_fot_39012_tif
  70
32
  10
576959.500
  20
4612141.000
  30
1049.693
  0
VERTEX
  8
PNOA-H_AMS_1956-57_33k_ES_PAN_21mic_H50_0351_fot_39012_tif
  70
32
  10
576904.465
  20
4613180.044
  30
1046.705
  0
VERTEX
  8
PNOA-H_AMS_1956-57_33k_ES_PAN_21mic_H50_0351_fot_39012_tif
  70
32
  10
576904.809
  20
4613180.047
  30
0
  0
VERTEX
  8
PNOA-H_AMS_1956-57_33k_ES_PAN_21mic_H50_0351_fot_39012_tif
  70
32
  10
578045.813
  20
4613192.184
  30
0
  0
VERTEX
  8
PNOA-H_AMS_1956-57_33k_ES_PAN_21mic_H50_0351_fot_39012_tif
  70
32
  10
579622.498
  20
4613209.717
  30
0
  0
VERTEX
  8
PNOA-H_AMS_1956-57_33k_ES_PAN_21mic_H50_0351_fot_39012_tif
  70
32
  10
579622.660
  20
4613209.719
  30
1061.066
  0
VERTEX
  8
PNOA-H_AMS_1956-57_33k_ES_PAN_21mic_H50_0351_fot_39012_tif
  70
32
  10
579688.000
  20
4612222.000
  30
1062.222
  0
SEQEND
  8
PNOA-H_AMS_1956-57_33k_ES_PAN_21mic_H50_0351_fot_39012_tif
  0
INSERT
  8
FeatureAttribs
  2
FEATURE
  41
1
  42
1
  43
1
  50
0
  10
580975.663
  20
4612701.967
 66
1
  0
ATTRIB
  8
FeatureAttribs
 70
0
  1
PNOA-H_AMS_1956-57_33k_ES_PAN_21mic_H50_0351_fot_39013.tif
  2
NAME
  10
580975.663
  20
4612701.967
 40
33.53142
  0
SEQEND
  0
POLYLINE
  8
PNOA-H_AMS_1956-57_33k_ES_PAN_21mic_H50_0351_fot_39013_tif
  70
9
  66
1
  0
VERTEX
  8
PNOA-H_AMS_1956-57_33k_ES_PAN_21mic_H50_0351_fot_39013_tif
  70
32
  10
579811.053
  20
4612164.500
  30
1063.57
  0
VERTEX
  8
PNOA-H_AMS_1956-57_33k_ES_PAN_21mic_H50_0351_fot_39013_tif
  70
32
  10
579811.000
  20
4612164.500
  30
1063.57
  0
VERTEX
  8
PNOA-H_AMS_1956-57_33k_ES_PAN_21mic_H50_0351_fot_39013_tif
  70
32
  10
579807.500
  20
4612166.000
  30
1063.555
  0
VERTEX
  8
PNOA-H_AMS_1956-57_33k_ES_PAN_21mic_H50_0351_fot_39013_tif
  70
32
  10
579690.000
  20
4612221.000
  30
1062.222
  0
VERTEX
  8
PNOA-H_AMS_1956-57_33k_ES_PAN_21mic_H50_0351_fot_39013_tif
  70
32
  10
579688.000
  20
4612222.000
  30
1062.222
  0
VERTEX
  8
PNOA-H_AMS_1956-57_33k_ES_PAN_21mic_H50_0351_fot_39013_tif
  70
32
  10
579687.500
  20
4612227.000
  30
1062.249
  0
VERTEX
  8
PNOA-H_AMS_1956-57_33k_ES_PAN_21mic_H50_0351_fot_39013_tif
  70
32
  10
579622.498
  20
4613209.717
  30
1061.086
  0
VERTEX
  8
PNOA-H_AMS_1956-57_33k_ES_PAN_21mic_H50_0351_fot_39013_tif
  70
32
  10
579622.660
  20
4613209.719
  30
0
  0
VERTEX
  8
PNOA-H_AMS_1956-57_33k_ES_PAN_21mic_H50_0351_fot_39013_tif
  70
32
  10
581514.555
  20
4613230.758
  30
0
  0
VERTEX
  8
PNOA-H_AMS_1956-57_33k_ES_PAN_21mic_H50_0351_fot_39013_tif
  70
32
  10
582262.147
  20
4613239.433
  30
0
  0
VERTEX
  8
PNOA-H_AMS_1956-57_33k_ES_PAN_21mic_H50_0351_fot_39013_tif
  70
32
  10
582262.231
  20
4613239.434
  30
1101.915
  0
VERTEX
  8
PNOA-H_AMS_1956-57_33k_ES_PAN_21mic_H50_0351_fot_39013_tif
  70
32
  10
582316.000
  20
4612364.000
  30
1104.266
  0
VERTEX
  8
PNOA-H_AMS_1956-57_33k_ES_PAN_21mic_H50_0351_fot_39013_tif
  70
32
  10
579815.000
  20
4612164.500
  30
1063.596
  0
VERTEX
  8
PNOA-H_AMS_1956-57_33k_ES_PAN_21mic_H50_0351_fot_39013_tif
  70
32
  10
579811.500
  20
4612164.500
  30
1063.573
  0
VERTEX
  8
PNOA-H_AMS_1956-57_33k_ES_PAN_21mic_H50_0351_fot_39013_tif
  70
32
  10
579811.053
  20
4612164.500
  30
1063.57
  0
SEQEND
  8
PNOA-H_AMS_1956-57_33k_ES_PAN_21mic_H50_0351_fot_39013_tif
  0
INSERT
  8
FeatureAttribs
  2
FEATURE
  41
1
  42
1
  43
1
  50
0
  10
583632.692
  20
4612762.743
 66
1
  0
ATTRIB
  8
FeatureAttribs
 70
0
  1
PNOA-H_AMS_1956-57_33k_ES_PAN_21mic_H50_0351_fot_39014.tif
  2
NAME
  10
583632.692
  20
4612762.743
 40
33.53142
  0
SEQEND
  0
POLYLINE
  8
PNOA-H_AMS_1956-57_33k_ES_PAN_21mic_H50_0351_fot_39014_tif
  70
9
  66
1
  0
VERTEX
  8
PNOA-H_AMS_1956-57_33k_ES_PAN_21mic_H50_0351_fot_39014_tif
  70
32
  10
584993.500
  20
4612485.000
  30
1139.683
  0
VERTEX
  8
PNOA-H_AMS_1956-57_33k_ES_PAN_21mic_H50_0351_fot_39014_tif
  70
32
  10
582565.000
  20
4612255.000
  30
1107.172
  0
VERTEX
  8
PNOA-H_AMS_1956-57_33k_ES_PAN_21mic_H50_0351_fot_39014_tif
  70
32
  10
582563.913
  20
4612255.181
  30
1107.175
  0
VERTEX
  8
PNOA-H_AMS_1956-57_33k_ES_PAN_21mic_H50_0351_fot_39014_tif
  70
32
  10
582560.203
  20
4612255.800
  30
1107.186
  0
VERTEX
  8
PNOA-H_AMS_1956-57_33k_ES_PAN_21mic_H50_0351_fot_39014_tif
  70
32
  10
582559.000
  20
4612256.000
  30
1107.189
  0
VERTEX
  8
PNOA-H_AMS_1956-57_33k_ES_PAN_21mic_H50_0351_fot_39014_tif
  70
32
  10
582316.000
  20
4612364.000
  30
1104.266
  0
VERTEX
  8
PNOA-H_AMS_1956-57_33k_ES_PAN_21mic_H50_0351_fot_39014_tif
  70
32
  10
582262.147
  20
4613239.433
  30
1101.997
  0
VERTEX
  8
PNOA-H_AMS_1956-57_33k_ES_PAN_21mic_H50_0351_fot_39014_tif
  70
32
  10
582262.231
  20
4613239.434
  30
1101.915
  0
VERTEX
  8
PNOA-H_AMS_1956-57_33k_ES_PAN_21mic_H50_0351_fot_39014_tif
  70
32
  10
584937.991
  20
4613270.484
  30
1140.065
  0
VERTEX
  8
PNOA-H_AMS_1956-57_33k_ES_PAN_21mic_H50_0351_fot_39014_tif
  70
32
  10
584938.105
  20
4613270.485
  30
1135.393
  0
VERTEX
  8
PNOA-H_AMS_1956-57_33k_ES_PAN_21mic_H50_0351_fot_39014_tif
  70
32
  10
584993.500
  20
4612485.000
  30
1139.683
  0
SEQEND
  8
PNOA-H_AMS_1956-57_33k_ES_PAN_21mic_H50_0351_fot_39014_tif
  0
INSERT
  8
FeatureAttribs
  2
FEATURE
  41
1
  42
1
  43
1
  50
0
  10
586316.712
  20
4612852.998
 66
1
  0
ATTRIB
  8
FeatureAttribs
 70
0
  1
PNOA-H_AMS_1956-57_33k_ES_PAN_21mic_H50_0351_fot_39015.tif
  2
NAME
  10
586316.712
  20
4612852.998
 40
33.53142
  0
SEQEND
  0
POLYLINE
  8
PNOA-H_AMS_1956-57_33k_ES_PAN_21mic_H50_0351_fot_39015_tif
  70
9
  66
1
  0
VERTEX
  8
PNOA-H_AMS_1956-57_33k_ES_PAN_21mic_H50_0351_fot_39015_tif
  70
32
  10
585187.840
  20
4612403.068
  30
1124.823
  0
VERTEX
  8
PNOA-H_AMS_1956-57_33k_ES_PAN_21mic_H50_0351_fot_39015_tif
  70
32
  10
585187.000
  20
4612403.000
  30
1124.823
  0
VERTEX
  8
PNOA-H_AMS_1956-57_33k_ES_PAN_21mic_H50_0351_fot_39015_tif
  70
32
  10
584993.500
  20
4612485.000
  30
1139.683
  0
VERTEX
  8
PNOA-H_AMS_1956-57_33k_ES_PAN_21mic_H50_0351_fot_39015_tif
  70
32
  10
584937.991
  20
4613270.484
  30
1140.065
  0
VERTEX
  8
PNOA-H_AMS_1956-57_33k_ES_PAN_21mic_H50_0351_fot_39015_tif
  70
32
  10
584938.105
  20
4613270.485
  30
0
  0
VERTEX
  8
PNOA-H_AMS_1956-57_33k_ES_PAN_21mic_H50_0351_fot_39015_tif
  70
32
  10
584983.301
  20
4613271.010
  30
0
  0
VERTEX
  8
PNOA-H_AMS_1956-57_33k_ES_PAN_21mic_H50_0351_fot_39015_tif
  70
32
  10
587629.427
  20
4613302.995
  30
0
  0
VERTEX
  8
PNOA-H_AMS_1956-57_33k_ES_PAN_21mic_H50_0351_fot_39015_tif
  70
32
  10
587629.510
  20
4613302.996
  30
1131.505
  0
VERTEX
  8
PNOA-H_AMS_1956-57_33k_ES_PAN_21mic_H50_0351_fot_39015_tif
  70
32
  10
587686.000
  20
4612605.000
  30
1124.005
  0
VERTEX
  8
PNOA-H_AMS_1956-57_33k_ES_PAN_21mic_H50_0351_fot_39015_tif
  70
32
  10
587683.970
  20
4612604.836
  30
1124.006
  0
VERTEX
  8
PNOA-H_AMS_1956-57_33k_ES_PAN_21mic_H50_0351_fot_39015_tif
  70
32
  10
585656.072
  20
4612440.916
  30
1124.669
  0
VERTEX
  8
PNOA-H_AMS_1956-57_33k_ES_PAN_21mic_H50_0351_fot_39015_tif
  70
32
  10
585187.840
  20
4612403.068
  30
1124.823
  0
SEQEND
  8
PNOA-H_AMS_1956-57_33k_ES_PAN_21mic_H50_0351_fot_39015_tif
  0
INSERT
  8
FeatureAttribs
  2
FEATURE
  41
1
  42
1
  43
1
  50
0
  10
588134.435
  20
4612939.725
 66
1
  0
ATTRIB
  8
FeatureAttribs
 70
0
  1
PNOA-H_AMS_1956-57_33k_ES_PAN_21mic_H50_0351_fot_39016.tif
  2
NAME
  10
588134.435
  20
4612939.725
 40
33.53142
  0
SEQEND
  0
POLYLINE
  8
PNOA-H_AMS_1956-57_33k_ES_PAN_21mic_H50_0351_fot_39016_tif
  70
9
  66
1
  0
VERTEX
  8
PNOA-H_AMS_1956-57_33k_ES_PAN_21mic_H50_0351_fot_39016_tif
  70
32
  10
587831.500
  20
4612544.000
  30
1126.038
  0
VERTEX
  8
PNOA-H_AMS_1956-57_33k_ES_PAN_21mic_H50_0351_fot_39016_tif
  70
32
  10
587831.000
  20
4612544.000
  30
1126.038
  0
VERTEX
  8
PNOA-H_AMS_1956-57_33k_ES_PAN_21mic_H50_0351_fot_39016_tif
  70
32
  10
587686.988
  20
4612604.584
  30
1124.019
  0
VERTEX
  8
PNOA-H_AMS_1956-57_33k_ES_PAN_21mic_H50_0351_fot_39016_tif
  70
32
  10
587686.000
  20
4612605.000
  30
1124.005
  0
VERTEX
  8
PNOA-H_AMS_1956-57_33k_ES_PAN_21mic_H50_0351_fot_39016_tif
  70
32
  10
587629.427
  20
4613302.995
  30
1131.466
  0
VERTEX
  8
PNOA-H_AMS_1956-57_33k_ES_PAN_21mic_H50_0351_fot_39016_tif
  70
32
  10
587629.510
  20
4613302.996
  30
0
  0
VERTEX
  8
PNOA-H_AMS_1956-57_33k_ES_PAN_21mic_H50_0351_fot_39016_tif
  70
32
  10
588452.054
  20
4613312.939
  30
0
  0
VERTEX
  8
PNOA-H_AMS_1956-57_33k_ES_PAN_21mic_H50_0351_fot_39016_tif
  70
32
  10
590242.585
  20
4613335.448
  30
0
  0
VERTEX
  8
PNOA-H_AMS_1956-57_33k_ES_PAN_21mic_H50_0351_fot_39016_tif
  70
32
  10
590242.809
  20
4613335.451
  30
1128.575
  0
VERTEX
  8
PNOA-H_AMS_1956-57_33k_ES_PAN_21mic_H50_0351_fot_39016_tif
  70
32
  10
590251.561
  20
4613210.000
  30
1121.507
  0
VERTEX
  8
PNOA-H_AMS_1956-57_33k_ES_PAN_21mic_H50_0351_fot_39016_tif
  70
32
  10
590251.337
  20
4613210.000
  30
1121.51
  0
VERTEX
  8
PNOA-H_AMS_1956-57_33k_ES_PAN_21mic_H50_0351_fot_39016_tif
  70
32
  10
588610.000
  20
4613210.000
  30
1149.003
  0
VERTEX
  8
PNOA-H_AMS_1956-57_33k_ES_PAN_21mic_H50_0351_fot_39016_tif
  70
32
  10
588610.000
  20
4612602.593
  30
1116.145
  0
VERTEX
  8
PNOA-H_AMS_1956-57_33k_ES_PAN_21mic_H50_0351_fot_39016_tif
  70
32
  10
588610.000
  20
4612602.095
  30
1116.118
  0
VERTEX
  8
PNOA-H_AMS_1956-57_33k_ES_PAN_21mic_H50_0351_fot_39016_tif
  70
32
  10
587834.500
  20
4612544.000
  30
1126.04
  0
VERTEX
  8
PNOA-H_AMS_1956-57_33k_ES_PAN_21mic_H50_0351_fot_39016_tif
  70
32
  10
587831.500
  20
4612544.000
  30
1126.038
  0
SEQEND
  8
PNOA-H_AMS_1956-57_33k_ES_PAN_21mic_H50_0351_fot_39016_tif
  0
INSERT
  8
FeatureAttribs
  2
FEATURE
  41
1
  42
1
  43
1
  50
0
  10
595356.381
  20
4613305.915
 66
1
  0
ATTRIB
  8
FeatureAttribs
 70
0
  1
PNOA-H_AMS_1956-57_33k_ES_PAN_21mic_H50_0352_fot_37C-48361_W.tif
  2
NAME
  10
595356.381
  20
4613305.915
 40
33.53142
  0
SEQEND
  0
POLYLINE
  8
PNOA-H_AMS_1956-57_33k_ES_PAN_21mic_H50_0352_fot_37C-48361_W_tif
  70
9
  66
1
  0
VERTEX
  8
PNOA-H_AMS_1956-57_33k_ES_PAN_21mic_H50_0352_fot_37C-48361_W_tif
  70
32
  10
595322.471
  20
4613210.000
  30
1211.114
  0
VERTEX
  8
PNOA-H_AMS_1956-57_33k_ES_PAN_21mic_H50_0352_fot_37C-48361_W_tif
  70
32
  10
595322.161
  20
4613210.000
  30
1210.901
  0
VERTEX
  8
PNOA-H_AMS_1956-57_33k_ES_PAN_21mic_H50_0352_fot_37C-48361_W_tif
  70
32
  10
595321.665
  20
4613400.943
  30
1222.405
  0
VERTEX
  8
PNOA-H_AMS_1956-57_33k_ES_PAN_21mic_H50_0352_fot_37C-48361_W_tif
  70
32
  10
595321.859
  20
4613400.946
  30
0
  0
VERTEX
  8
PNOA-H_AMS_1956-57_33k_ES_PAN_21mic_H50_0352_fot_37C-48361_W_tif
  70
32
  10
595389.575
  20
4613401.830
  30
0
  0
VERTEX
  8
PNOA-H_AMS_1956-57_33k_ES_PAN_21mic_H50_0352_fot_37C-48361_W_tif
  70
32
  10
595392.125
  20
4613210.000
  30
1258.946
  0
VERTEX
  8
PNOA-H_AMS_1956-57_33k_ES_PAN_21mic_H50_0352_fot_37C-48361_W_tif
  70
32
  10
595322.471
  20
4613210.000
  30
1211.114
  0
SEQEND
  8
PNOA-H_AMS_1956-57_33k_ES_PAN_21mic_H50_0352_fot_37C-48361_W_tif
  0
INSERT
  8
FeatureAttribs
  2
FEATURE
  41
1
  42
1
  43
1
  50
0
  10
591529.946
  20
4613289.068
 66
1
  0
ATTRIB
  8
FeatureAttribs
 70
0
  1
PNOA-H_AMS_1956-57_33k_ES_PAN_21mic_H50_0351_fot_39017.tif
  2
NAME
  10
591529.946
  20
4613289.068
 40
33.53142
  0
SEQEND
  0
POLYLINE
  8
PNOA-H_AMS_1956-57_33k_ES_PAN_21mic_H50_0351_fot_39017_tif
  70
9
  66
1
  0
VERTEX
  8
PNOA-H_AMS_1956-57_33k_ES_PAN_21mic_H50_0351_fot_39017_tif
  70
32
  10
590251.561
  20
4613210.000
  30
1121.806
  0
VERTEX
  8
PNOA-H_AMS_1956-57_33k_ES_PAN_21mic_H50_0351_fot_39017_tif
  70
32
  10
590251.337
  20
4613210.000
  30
1121.802
  0
VERTEX
  8
PNOA-H_AMS_1956-57_33k_ES_PAN_21mic_H50_0351_fot_39017_tif
  70
32
  10
590242.585
  20
4613335.448
  30
1128.845
  0
VERTEX
  8
PNOA-H_AMS_1956-57_33k_ES_PAN_21mic_H50_0351_fot_39017_tif
  70
32
  10
590242.809
  20
4613335.451
  30
1128.865
  0
VERTEX
  8
PNOA-H_AMS_1956-57_33k_ES_PAN_21mic_H50_0351_fot_39017_tif
  70
32
  10
591920.811
  20
4613356.545
  30
0
  0
VERTEX
  8
PNOA-H_AMS_1956-57_33k_ES_PAN_21mic_H50_0351_fot_39017_tif
  70
32
  10
592808.524
  20
4613368.134
  30
0
  0
VERTEX
  8
PNOA-H_AMS_1956-57_33k_ES_PAN_21mic_H50_0351_fot_39017_tif
  70
32
  10
592808.581
  20
4613368.135
  30
1163.979
  0
VERTEX
  8
PNOA-H_AMS_1956-57_33k_ES_PAN_21mic_H50_0351_fot_39017_tif
  70
32
  10
592819.560
  20
4613210.000
  30
1159.749
  0
VERTEX
  8
PNOA-H_AMS_1956-57_33k_ES_PAN_21mic_H50_0351_fot_39017_tif
  70
32
  10
592819.521
  20
4613210.000
  30
1159.748
  0
VERTEX
  8
PNOA-H_AMS_1956-57_33k_ES_PAN_21mic_H50_0351_fot_39017_tif
  70
32
  10
590251.561
  20
4613210.000
  30
1121.806
  0
SEQEND
  8
PNOA-H_AMS_1956-57_33k_ES_PAN_21mic_H50_0351_fot_39017_tif
  0
INSERT
  8
FeatureAttribs
  2
FEATURE
  41
1
  42
1
  43
1
  50
0
  10
594067.523
  20
4613305.473
 66
1
  0
ATTRIB
  8
FeatureAttribs
 70
0
  1
PNOA-H_AMS_1956-57_33k_ES_PAN_21mic_H50_0351_fot_39018.tif
  2
NAME
  10
594067.523
  20
4613305.473
 40
33.53142
  0
SEQEND
  0
POLYLINE
  8
PNOA-H_AMS_1956-57_33k_ES_PAN_21mic_H50_0351_fot_39018_tif
  70
9
  66
1
  0
VERTEX
  8
PNOA-H_AMS_1956-57_33k_ES_PAN_21mic_H50_0351_fot_39018_tif
  70
32
  10
592819.560
  20
4613210.000
  30
1159.754
  0
VERTEX
  8
PNOA-H_AMS_1956-57_33k_ES_PAN_21mic_H50_0351_fot_39018_tif
  70
32
  10
592819.521
  20
4613210.000
  30
1159.754
  0
VERTEX
  8
PNOA-H_AMS_1956-57_33k_ES_PAN_21mic_H50_0351_fot_39018_tif
  70
32
  10
592808.524
  20
4613368.134
  30
1163.986
  0
VERTEX
  8
PNOA-H_AMS_1956-57_33k_ES_PAN_21mic_H50_0351_fot_39018_tif
  70
32
  10
592808.581
  20
4613368.135
  30
0
  0
VERTEX
  8
PNOA-H_AMS_1956-57_33k_ES_PAN_21mic_H50_0351_fot_39018_tif
  70
32
  10
595321.665
  20
4613400.943
  30
0
  0
VERTEX
  8
PNOA-H_AMS_1956-57_33k_ES_PAN_21mic_H50_0351_fot_39018_tif
  70
32
  10
595321.859
  20
4613400.946
  30
1197.341
  0
VERTEX
  8
PNOA-H_AMS_1956-57_33k_ES_PAN_21mic_H50_0351_fot_39018_tif
  70
32
  10
595322.471
  20
4613210.000
  30
1192.69
  0
VERTEX
  8
PNOA-H_AMS_1956-57_33k_ES_PAN_21mic_H50_0351_fot_39018_tif
  70
32
  10
595322.161
  20
4613210.000
  30
1192.686
  0
VERTEX
  8
PNOA-H_AMS_1956-57_33k_ES_PAN_21mic_H50_0351_fot_39018_tif
  70
32
  10
592819.560
  20
4613210.000
  30
1159.754
  0
SEQEND
  8
PNOA-H_AMS_1956-57_33k_ES_PAN_21mic_H50_0351_fot_39018_tif
  0
INSERT
  8
FeatureAttribs
  2
FEATURE
  41
1
  42
1
  43
1
  50
0
  10
568329.244
  20
4609816.000
 66
1
  0
ATTRIB
  8
FeatureAttribs
 70
0
  1
PNOA-H_AMS_1956-57_33k_ES_PAN_21mic_H50_0380_fot_38C-40595_E.tif
  2
NAME
  10
568329.244
  20
4609816.000
 40
33.53142
  0
SEQEND
  0
POLYLINE
  8
PNOA-H_AMS_1956-57_33k_ES_PAN_21mic_H50_0380_fot_38C-40595_E_tif
  70
9
  66
1
  0
VERTEX
  8
PNOA-H_AMS_1956-57_33k_ES_PAN_21mic_H50_0380_fot_38C-40595_E_tif
  70
32
  10
568971.300
  20
4607994.380
  30
1038.769
  0
VERTEX
  8
PNOA-H_AMS_1956-57_33k_ES_PAN_21mic_H50_0380_fot_38C-40595_E_tif
  70
32
  10
568323.000
  20
4607606.500
  30
1097.62
  0
VERTEX
  8
PNOA-H_AMS_1956-57_33k_ES_PAN_21mic_H50_0380_fot_38C-40595_E_tif
  70
32
  10
568322.611
  20
4607606.566
  30
1097.617
  0
VERTEX
  8
PNOA-H_AMS_1956-57_33k_ES_PAN_21mic_H50_0380_fot_38C-40595_E_tif
  70
32
  10
567690.237
  20
4607714.578
  30
1093.452
  0
VERTEX
  8
PNOA-H_AMS_1956-57_33k_ES_PAN_21mic_H50_0380_fot_38C-40595_E_tif
  70
32
  10
567683.211
  20
4608460.555
  30
0
  0
VERTEX
  8
PNOA-H_AMS_1956-57_33k_ES_PAN_21mic_H50_0380_fot_38C-40595_E_tif
  70
32
  10
567661.418
  20
4610773.537
  30
0
  0
VERTEX
  8
PNOA-H_AMS_1956-57_33k_ES_PAN_21mic_H50_0380_fot_38C-40595_E_tif
  70
32
  10
567650.187
  20
4611965.002
  30
0
  0
VERTEX
  8
PNOA-H_AMS_1956-57_33k_ES_PAN_21mic_H50_0380_fot_38C-40595_E_tif
  70
32
  10
567650.184
  20
4611965.334
  30
1008.631
  0
VERTEX
  8
PNOA-H_AMS_1956-57_33k_ES_PAN_21mic_H50_0380_fot_38C-40595_E_tif
  70
32
  10
568660.500
  20
4612025.000
  30
1000.336
  0
VERTEX
  8
PNOA-H_AMS_1956-57_33k_ES_PAN_21mic_H50_0380_fot_38C-40595_E_tif
  70
32
  10
568669.000
  20
4612025.500
  30
1000.619
  0
VERTEX
  8
PNOA-H_AMS_1956-57_33k_ES_PAN_21mic_H50_0380_fot_38C-40595_E_tif
  70
32
  10
568672.500
  20
4612025.500
  30
1000.734
  0
VERTEX
  8
PNOA-H_AMS_1956-57_33k_ES_PAN_21mic_H50_0380_fot_38C-40595_E_tif
  70
32
  10
568673.000
  20
4612025.500
  30
1000.751
  0
VERTEX
  8
PNOA-H_AMS_1956-57_33k_ES_PAN_21mic_H50_0380_fot_38C-40595_E_tif
  70
32
  10
568676.000
  20
4612024.000
  30
1000.836
  0
VERTEX
  8
PNOA-H_AMS_1956-57_33k_ES_PAN_21mic_H50_0380_fot_38C-40595_E_tif
  70
32
  10
569006.500
  20
4611847.000
  30
1008.013
  0
VERTEX
  8
PNOA-H_AMS_1956-57_33k_ES_PAN_21mic_H50_0380_fot_38C-40595_E_tif
  70
32
  10
568971.500
  20
4607994.500
  30
1038.75
  0
VERTEX
  8
PNOA-H_AMS_1956-57_33k_ES_PAN_21mic_H50_0380_fot_38C-40595_E_tif
  70
32
  10
568971.300
  20
4607994.380
  30
1038.769
  0
SEQEND
  8
PNOA-H_AMS_1956-57_33k_ES_PAN_21mic_H50_0380_fot_38C-40595_E_tif
  0
INSERT
  8
FeatureAttribs
  2
FEATURE
  41
1
  42
1
  43
1
  50
0
  10
568053.542
  20
4605622.521
 66
1
  0
ATTRIB
  8
FeatureAttribs
 70
0
  1
PNOA-H_AMS_1956-57_33k_ES_PAN_21mic_H50_0380_fot_39D-50433_E.tif
  2
NAME
  10
568053.542
  20
4605622.521
 40
33.53142
  0
SEQEND
  0
POLYLINE
  8
PNOA-H_AMS_1956-57_33k_ES_PAN_21mic_H50_0380_fot_39D-50433_E_tif
  70
9
  66
1
  0
VERTEX
  8
PNOA-H_AMS_1956-57_33k_ES_PAN_21mic_H50_0380_fot_39D-50433_E_tif
  70
32
  10
567836.000
  20
4603532.000
  30
1076.431
  0
VERTEX
  8
PNOA-H_AMS_1956-57_33k_ES_PAN_21mic_H50_0380_fot_39D-50433_E_tif
  70
32
  10
567833.000
  20
4603530.500
  30
1076.426
  0
VERTEX
  8
PNOA-H_AMS_1956-57_33k_ES_PAN_21mic_H50_0380_fot_39D-50433_E_tif
  70
32
  10
567832.557
  20
4603530.532
  30
1076.405
  0
VERTEX
  8
PNOA-H_AMS_1956-57_33k_ES_PAN_21mic_H50_0380_fot_39D-50433_E_tif
  70
32
  10
567831.029
  20
4603530.644
  30
1076.33
  0
VERTEX
  8
PNOA-H_AMS_1956-57_33k_ES_PAN_21mic_H50_0380_fot_39D-50433_E_tif
  70
32
  10
567812.500
  20
4603532.000
  30
1075.429
  0
VERTEX
  8
PNOA-H_AMS_1956-57_33k_ES_PAN_21mic_H50_0380_fot_39D-50433_E_tif
  70
32
  10
567729.539
  20
4603540.481
  30
1072.943
  0
VERTEX
  8
PNOA-H_AMS_1956-57_33k_ES_PAN_21mic_H50_0380_fot_39D-50433_E_tif
  70
32
  10
567729.539
  20
4603540.500
  30
0
  0
VERTEX
  8
PNOA-H_AMS_1956-57_33k_ES_PAN_21mic_H50_0380_fot_39D-50433_E_tif
  70
32
  10
567726.771
  20
4603834.617
  30
0
  0
VERTEX
  8
PNOA-H_AMS_1956-57_33k_ES_PAN_21mic_H50_0380_fot_39D-50433_E_tif
  70
32
  10
567704.996
  20
4606147.582
  30
0
  0
VERTEX
  8
PNOA-H_AMS_1956-57_33k_ES_PAN_21mic_H50_0380_fot_39D-50433_E_tif
  70
32
  10
567690.238
  20
4607714.541
  30
1093.474
  0
VERTEX
  8
PNOA-H_AMS_1956-57_33k_ES_PAN_21mic_H50_0380_fot_39D-50433_E_tif
  70
32
  10
568322.500
  20
4607606.500
  30
1097.643
  0
VERTEX
  8
PNOA-H_AMS_1956-57_33k_ES_PAN_21mic_H50_0380_fot_39D-50433_E_tif
  70
32
  10
568462.500
  20
4603885.500
  30
1085.074
  0
VERTEX
  8
PNOA-H_AMS_1956-57_33k_ES_PAN_21mic_H50_0380_fot_39D-50433_E_tif
  70
32
  10
568462.351
  20
4603885.416
  30
1085.072
  0
VERTEX
  8
PNOA-H_AMS_1956-57_33k_ES_PAN_21mic_H50_0380_fot_39D-50433_E_tif
  70
32
  10
568461.107
  20
4603884.714
  30
1085.055
  0
VERTEX
  8
PNOA-H_AMS_1956-57_33k_ES_PAN_21mic_H50_0380_fot_39D-50433_E_tif
  70
32
  10
568307.367
  20
4603797.967
  30
1082.934
  0
VERTEX
  8
PNOA-H_AMS_1956-57_33k_ES_PAN_21mic_H50_0380_fot_39D-50433_E_tif
  70
32
  10
567836.000
  20
4603532.000
  30
1076.431
  0
SEQEND
  8
PNOA-H_AMS_1956-57_33k_ES_PAN_21mic_H50_0380_fot_39D-50433_E_tif
  0
INSERT
  8
FeatureAttribs
  2
FEATURE
  41
1
  42
1
  43
1
  50
0
  10
567847.694
  20
4601363.189
 66
1
  0
ATTRIB
  8
FeatureAttribs
 70
0
  1
PNOA-H_AMS_1956-57_33k_ES_PAN_21mic_H50_0379_fot_40B-38890_W.tif
  2
NAME
  10
567847.694
  20
4601363.189
 40
33.53142
  0
SEQEND
  0
POLYLINE
  8
PNOA-H_AMS_1956-57_33k_ES_PAN_21mic_H50_0379_fot_40B-38890_W_tif
  70
9
  66
1
  0
VERTEX
  8
PNOA-H_AMS_1956-57_33k_ES_PAN_21mic_H50_0379_fot_40B-38890_W_tif
  70
32
  10
568052.999
  20
4599286.322
  30
1059.822
  0
VERTEX
  8
PNOA-H_AMS_1956-57_33k_ES_PAN_21mic_H50_0379_fot_40B-38890_W_tif
  70
32
  10
567770.510
  20
4599185.879
  30
1045.496
  0
VERTEX
  8
PNOA-H_AMS_1956-57_33k_ES_PAN_21mic_H50_0379_fot_40B-38890_W_tif
  70
32
  10
567770.506
  20
4599186.297
  30
0
  0
VERTEX
  8
PNOA-H_AMS_1956-57_33k_ES_PAN_21mic_H50_0379_fot_40B-38890_W_tif
  70
32
  10
567770.295
  20
4599208.712
  30
0
  0
VERTEX
  8
PNOA-H_AMS_1956-57_33k_ES_PAN_21mic_H50_0379_fot_40B-38890_W_tif
  70
32
  10
567748.537
  20
4601521.660
  30
0
  0
VERTEX
  8
PNOA-H_AMS_1956-57_33k_ES_PAN_21mic_H50_0379_fot_40B-38890_W_tif
  70
32
  10
567729.539
  20
4603540.481
  30
0
  0
VERTEX
  8
PNOA-H_AMS_1956-57_33k_ES_PAN_21mic_H50_0379_fot_40B-38890_W_tif
  70
32
  10
567729.539
  20
4603540.500
  30
1071.264
  0
VERTEX
  8
PNOA-H_AMS_1956-57_33k_ES_PAN_21mic_H50_0379_fot_40B-38890_W_tif
  70
32
  10
567754.000
  20
4603538.000
  30
1071.976
  0
VERTEX
  8
PNOA-H_AMS_1956-57_33k_ES_PAN_21mic_H50_0379_fot_40B-38890_W_tif
  70
32
  10
567756.000
  20
4603538.000
  30
1072.03
  0
VERTEX
  8
PNOA-H_AMS_1956-57_33k_ES_PAN_21mic_H50_0379_fot_40B-38890_W_tif
  70
32
  10
567831.029
  20
4603530.644
  30
1076.321
  0
VERTEX
  8
PNOA-H_AMS_1956-57_33k_ES_PAN_21mic_H50_0379_fot_40B-38890_W_tif
  70
32
  10
567832.500
  20
4603530.500
  30
1076.405
  0
VERTEX
  8
PNOA-H_AMS_1956-57_33k_ES_PAN_21mic_H50_0379_fot_40B-38890_W_tif
  70
32
  10
568053.500
  20
4599286.500
  30
1059.848
  0
VERTEX
  8
PNOA-H_AMS_1956-57_33k_ES_PAN_21mic_H50_0379_fot_40B-38890_W_tif
  70
32
  10
568052.999
  20
4599286.322
  30
1059.822
  0
SEQEND
  8
PNOA-H_AMS_1956-57_33k_ES_PAN_21mic_H50_0379_fot_40B-38890_W_tif
  0
INSERT
  8
FeatureAttribs
  2
FEATURE
  41
1
  42
1
  43
1
  50
0
  10
568653.541
  20
4596934.670
 66
1
  0
ATTRIB
  8
FeatureAttribs
 70
0
  1
PNOA-H_AMS_1956-57_33k_ES_PAN_21mic_H50_0380_fot_41B-37376_W.tif
  2
NAME
  10
568653.541
  20
4596934.670
 40
33.53142
  0
SEQEND
  0
POLYLINE
  8
PNOA-H_AMS_1956-57_33k_ES_PAN_21mic_H50_0380_fot_41B-37376_W_tif
  70
9
  66
1
  0
VERTEX
  8
PNOA-H_AMS_1956-57_33k_ES_PAN_21mic_H50_0380_fot_41B-37376_W_tif
  70
32
  10
569746.447
  20
4594601.466
  30
0
  0
VERTEX
  8
PNOA-H_AMS_1956-57_33k_ES_PAN_21mic_H50_0380_fot_41B-37376_W_tif
  70
32
  10
567813.783
  20
4594582.839
  30
0
  0
VERTEX
  8
PNOA-H_AMS_1956-57_33k_ES_PAN_21mic_H50_0380_fot_41B-37376_W_tif
  70
32
  10
567792.043
  20
4596895.771
  30
0
  0
VERTEX
  8
PNOA-H_AMS_1956-57_33k_ES_PAN_21mic_H50_0380_fot_41B-37376_W_tif
  70
32
  10
567770.510
  20
4599185.879
  30
0
  0
VERTEX
  8
PNOA-H_AMS_1956-57_33k_ES_PAN_21mic_H50_0380_fot_41B-37376_W_tif
  70
32
  10
567770.506
  20
4599186.297
  30
1045.892
  0
VERTEX
  8
PNOA-H_AMS_1956-57_33k_ES_PAN_21mic_H50_0380_fot_41B-37376_W_tif
  70
32
  10
568051.000
  20
4599286.000
  30
1060.186
  0
VERTEX
  8
PNOA-H_AMS_1956-57_33k_ES_PAN_21mic_H50_0380_fot_41B-37376_W_tif
  70
32
  10
568052.000
  20
4599286.500
  30
1060.105
  0
VERTEX
  8
PNOA-H_AMS_1956-57_33k_ES_PAN_21mic_H50_0380_fot_41B-37376_W_tif
  70
32
  10
568052.999
  20
4599286.322
  30
1059.9
  0
VERTEX
  8
PNOA-H_AMS_1956-57_33k_ES_PAN_21mic_H50_0380_fot_41B-37376_W_tif
  70
32
  10
568057.556
  20
4599285.508
  30
1058.965
  0
VERTEX
  8
PNOA-H_AMS_1956-57_33k_ES_PAN_21mic_H50_0380_fot_41B-37376_W_tif
  70
32
  10
568066.000
  20
4599284.000
  30
1057.233
  0
VERTEX
  8
PNOA-H_AMS_1956-57_33k_ES_PAN_21mic_H50_0380_fot_41B-37376_W_tif
  70
32
  10
569307.328
  20
4598979.890
  30
1073.702
  0
VERTEX
  8
PNOA-H_AMS_1956-57_33k_ES_PAN_21mic_H50_0380_fot_41B-37376_W_tif
  70
32
  10
569312.716
  20
4598978.570
  30
1073.774
  0
VERTEX
  8
PNOA-H_AMS_1956-57_33k_ES_PAN_21mic_H50_0380_fot_41B-37376_W_tif
  70
32
  10
569313.000
  20
4598978.500
  30
1073.777
  0
VERTEX
  8
PNOA-H_AMS_1956-57_33k_ES_PAN_21mic_H50_0380_fot_41B-37376_W_tif
  70
32
  10
569746.465
  20
4594601.466
  30
944.311
  0
VERTEX
  8
PNOA-H_AMS_1956-57_33k_ES_PAN_21mic_H50_0380_fot_41B-37376_W_tif
  70
32
  10
569746.447
  20
4594601.466
  30
0
  0
SEQEND
  8
PNOA-H_AMS_1956-57_33k_ES_PAN_21mic_H50_0380_fot_41B-37376_W_tif
  0
INSERT
  8
FeatureAttribs
  2
FEATURE
  41
1
  42
1
  43
1
  50
0
  10
569363.569
  20
4601432.250
 66
1
  0
ATTRIB
  8
FeatureAttribs
 70
0
  1
PNOA-H_AMS_1956-57_33k_ES_PAN_21mic_H50_0380_fot_40B-38889_W.tif
  2
NAME
  10
569363.569
  20
4601432.250
 40
33.53142
  0
SEQEND
  0
POLYLINE
  8
PNOA-H_AMS_1956-57_33k_ES_PAN_21mic_H50_0380_fot_40B-38889_W_tif
  70
9
  66
1
  0
VERTEX
  8
PNOA-H_AMS_1956-57_33k_ES_PAN_21mic_H50_0380_fot_40B-38889_W_tif
  70
32
  10
569466.708
  20
4599028.104
  30
1067.931
  0
VERTEX
  8
PNOA-H_AMS_1956-57_33k_ES_PAN_21mic_H50_0380_fot_40B-38889_W_tif
  70
32
  10
569314.000
  20
4598979.000
  30
1073.916
  0
VERTEX
  8
PNOA-H_AMS_1956-57_33k_ES_PAN_21mic_H50_0380_fot_40B-38889_W_tif
  70
32
  10
569307.328
  20
4598979.890
  30
1073.642
  0
VERTEX
  8
PNOA-H_AMS_1956-57_33k_ES_PAN_21mic_H50_0380_fot_40B-38889_W_tif
  70
32
  10
569306.500
  20
4598980.000
  30
1073.608
  0
VERTEX
  8
PNOA-H_AMS_1956-57_33k_ES_PAN_21mic_H50_0380_fot_40B-38889_W_tif
  70
32
  10
568057.556
  20
4599285.508
  30
1059.892
  0
VERTEX
  8
PNOA-H_AMS_1956-57_33k_ES_PAN_21mic_H50_0380_fot_40B-38889_W_tif
  70
32
  10
568053.500
  20
4599286.500
  30
1059.848
  0
VERTEX
  8
PNOA-H_AMS_1956-57_33k_ES_PAN_21mic_H50_0380_fot_40B-38889_W_tif
  70
32
  10
567832.500
  20
4603530.500
  30
1076.405
  0
VERTEX
  8
PNOA-H_AMS_1956-57_33k_ES_PAN_21mic_H50_0380_fot_40B-38889_W_tif
  70
32
  10
567832.557
  20
4603530.532
  30
1076.406
  0
VERTEX
  8
PNOA-H_AMS_1956-57_33k_ES_PAN_21mic_H50_0380_fot_40B-38889_W_tif
  70
32
  10
568307.367
  20
4603797.967
  30
1083.004
  0
VERTEX
  8
PNOA-H_AMS_1956-57_33k_ES_PAN_21mic_H50_0380_fot_40B-38889_W_tif
  70
32
  10
568461.000
  20
4603884.500
  30
1085.138
  0
VERTEX
  8
PNOA-H_AMS_1956-57_33k_ES_PAN_21mic_H50_0380_fot_40B-38889_W_tif
  70
32
  10
568461.107
  20
4603884.714
  30
1085.13
  0
VERTEX
  8
PNOA-H_AMS_1956-57_33k_ES_PAN_21mic_H50_0380_fot_40B-38889_W_tif
  70
32
  10
568461.500
  20
4603885.500
  30
1085.097
  0
VERTEX
  8
PNOA-H_AMS_1956-57_33k_ES_PAN_21mic_H50_0380_fot_40B-38889_W_tif
  70
32
  10
568462.351
  20
4603885.416
  30
1085.061
  0
VERTEX
  8
PNOA-H_AMS_1956-57_33k_ES_PAN_21mic_H50_0380_fot_40B-38889_W_tif
  70
32
  10
570688.000
  20
4603666.000
  30
992
  0
VERTEX
  8
PNOA-H_AMS_1956-57_33k_ES_PAN_21mic_H50_0380_fot_40B-38889_W_tif
  70
32
  10
570870.500
  20
4599479.500
  30
1012.906
  0
VERTEX
  8
PNOA-H_AMS_1956-57_33k_ES_PAN_21mic_H50_0380_fot_40B-38889_W_tif
  70
32
  10
570870.271
  20
4599479.426
  30
1012.914
  0
VERTEX
  8
PNOA-H_AMS_1956-57_33k_ES_PAN_21mic_H50_0380_fot_40B-38889_W_tif
  70
32
  10
569466.708
  20
4599028.104
  30
1067.931
  0
SEQEND
  8
PNOA-H_AMS_1956-57_33k_ES_PAN_21mic_H50_0380_fot_40B-38889_W_tif
  0
INSERT
  8
FeatureAttribs
  2
FEATURE
  41
1
  42
1
  43
1
  50
0
  10
570380.310
  20
4609845.500
 66
1
  0
ATTRIB
  8
FeatureAttribs
 70
0
  1
PNOA-H_AMS_1956-57_33k_ES_PAN_21mic_H50_0380_fot_38C-40596_E.tif
  2
NAME
  10
570380.310
  20
4609845.500
 40
33.53142
  0
SEQEND
  0
POLYLINE
  8
PNOA-H_AMS_1956-57_33k_ES_PAN_21mic_H50_0380_fot_38C-40596_E_tif
  70
9
  66
1
  0
VERTEX
  8
PNOA-H_AMS_1956-57_33k_ES_PAN_21mic_H50_0380_fot_38C-40596_E_tif
  70
32
  10
571436.500
  20
4612036.000
  30
1107.4
  0
VERTEX
  8
PNOA-H_AMS_1956-57_33k_ES_PAN_21mic_H50_0380_fot_38C-40596_E_tif
  70
32
  10
571450.500
  20
4612029.000
  30
1110.401
  0
VERTEX
  8
PNOA-H_AMS_1956-57_33k_ES_PAN_21mic_H50_0380_fot_38C-40596_E_tif
  70
32
  10
571731.000
  20
4611884.000
  30
1179.122
  0
VERTEX
  8
PNOA-H_AMS_1956-57_33k_ES_PAN_21mic_H50_0380_fot_38C-40596_E_tif
  70
32
  10
571736.010
  20
4611881.267
  30
1178.891
  0
VERTEX
  8
PNOA-H_AMS_1956-57_33k_ES_PAN_21mic_H50_0380_fot_38C-40596_E_tif
  70
32
  10
571736.500
  20
4611881.000
  30
1178.869
  0
VERTEX
  8
PNOA-H_AMS_1956-57_33k_ES_PAN_21mic_H50_0380_fot_38C-40596_E_tif
  70
32
  10
571736.622
  20
4611880.512
  30
1178.778
  0
VERTEX
  8
PNOA-H_AMS_1956-57_33k_ES_PAN_21mic_H50_0380_fot_38C-40596_E_tif
  70
32
  10
571737.000
  20
4611879.000
  30
1178.498
  0
VERTEX
  8
PNOA-H_AMS_1956-57_33k_ES_PAN_21mic_H50_0380_fot_38C-40596_E_tif
  70
32
  10
571804.500
  20
4607991.000
  30
1017.268
  0
VERTEX
  8
PNOA-H_AMS_1956-57_33k_ES_PAN_21mic_H50_0380_fot_38C-40596_E_tif
  70
32
  10
571804.401
  20
4607990.941
  30
1017.268
  0
VERTEX
  8
PNOA-H_AMS_1956-57_33k_ES_PAN_21mic_H50_0380_fot_38C-40596_E_tif
  70
32
  10
571247.500
  20
4607655.000
  30
1014.585
  0
VERTEX
  8
PNOA-H_AMS_1956-57_33k_ES_PAN_21mic_H50_0380_fot_38C-40596_E_tif
  70
32
  10
571246.698
  20
4607655.120
  30
1014.593
  0
VERTEX
  8
PNOA-H_AMS_1956-57_33k_ES_PAN_21mic_H50_0380_fot_38C-40596_E_tif
  70
32
  10
568971.500
  20
4607994.500
  30
1038.75
  0
VERTEX
  8
PNOA-H_AMS_1956-57_33k_ES_PAN_21mic_H50_0380_fot_38C-40596_E_tif
  70
32
  10
569006.500
  20
4611847.000
  30
1008.013
  0
VERTEX
  8
PNOA-H_AMS_1956-57_33k_ES_PAN_21mic_H50_0380_fot_38C-40596_E_tif
  70
32
  10
571428.000
  20
4612035.500
  30
1105.34
  0
VERTEX
  8
PNOA-H_AMS_1956-57_33k_ES_PAN_21mic_H50_0380_fot_38C-40596_E_tif
  70
32
  10
571434.000
  20
4612036.000
  30
1106.792
  0
VERTEX
  8
PNOA-H_AMS_1956-57_33k_ES_PAN_21mic_H50_0380_fot_38C-40596_E_tif
  70
32
  10
571436.488
  20
4612035.999
  30
1107.397
  0
VERTEX
  8
PNOA-H_AMS_1956-57_33k_ES_PAN_21mic_H50_0380_fot_38C-40596_E_tif
  70
32
  10
571436.500
  20
4612036.000
  30
1107.4
  0
SEQEND
  8
PNOA-H_AMS_1956-57_33k_ES_PAN_21mic_H50_0380_fot_38C-40596_E_tif
  0
INSERT
  8
FeatureAttribs
  2
FEATURE
  41
1
  42
1
  43
1
  50
0
  10
575847.582
  20
4609959.500
 66
1
  0
ATTRIB
  8
FeatureAttribs
 70
0
  1
PNOA-H_AMS_1956-57_33k_ES_PAN_21mic_H50_0380_fot_38C-40598_E.tif
  2
NAME
  10
575847.582
  20
4609959.500
 40
33.53142
  0
SEQEND
  0
POLYLINE
  8
PNOA-H_AMS_1956-57_33k_ES_PAN_21mic_H50_0380_fot_38C-40598_E_tif
  70
9
  66
1
  0
VERTEX
  8
PNOA-H_AMS_1956-57_33k_ES_PAN_21mic_H50_0380_fot_38C-40598_E_tif
  70
32
  10
577217.500
  20
4607954.000
  30
1072.325
  0
VERTEX
  8
PNOA-H_AMS_1956-57_33k_ES_PAN_21mic_H50_0380_fot_38C-40598_E_tif
  70
32
  10
576976.000
  20
4607778.000
  30
1081.687
  0
VERTEX
  8
PNOA-H_AMS_1956-57_33k_ES_PAN_21mic_H50_0380_fot_38C-40598_E_tif
  70
32
  10
576975.535
  20
4607778.025
  30
1081.684
  0
VERTEX
  8
PNOA-H_AMS_1956-57_33k_ES_PAN_21mic_H50_0380_fot_38C-40598_E_tif
  70
32
  10
576974.565
  20
4607778.078
  30
1081.678
  0
VERTEX
  8
PNOA-H_AMS_1956-57_33k_ES_PAN_21mic_H50_0380_fot_38C-40598_E_tif
  70
32
  10
576651.071
  20
4607795.645
  30
1079.671
  0
VERTEX
  8
PNOA-H_AMS_1956-57_33k_ES_PAN_21mic_H50_0380_fot_38C-40598_E_tif
  70
32
  10
574490.000
  20
4607913.000
  30
1066.259
  0
VERTEX
  8
PNOA-H_AMS_1956-57_33k_ES_PAN_21mic_H50_0380_fot_38C-40598_E_tif
  70
32
  10
574539.500
  20
4611946.000
  30
1047.607
  0
VERTEX
  8
PNOA-H_AMS_1956-57_33k_ES_PAN_21mic_H50_0380_fot_38C-40598_E_tif
  70
32
  10
574539.929
  20
4611946.035
  30
1047.607
  0
VERTEX
  8
PNOA-H_AMS_1956-57_33k_ES_PAN_21mic_H50_0380_fot_38C-40598_E_tif
  70
32
  10
576951.000
  20
4612140.500
  30
1049.608
  0
VERTEX
  8
PNOA-H_AMS_1956-57_33k_ES_PAN_21mic_H50_0380_fot_38C-40598_E_tif
  70
32
  10
576957.000
  20
4612141.000
  30
1049.671
  0
VERTEX
  8
PNOA-H_AMS_1956-57_33k_ES_PAN_21mic_H50_0380_fot_38C-40598_E_tif
  70
32
  10
576959.500
  20
4612141.000
  30
1049.693
  0
VERTEX
  8
PNOA-H_AMS_1956-57_33k_ES_PAN_21mic_H50_0380_fot_38C-40598_E_tif
  70
32
  10
576960.000
  20
4612141.000
  30
1049.697
  0
VERTEX
  8
PNOA-H_AMS_1956-57_33k_ES_PAN_21mic_H50_0380_fot_38C-40598_E_tif
  70
32
  10
576965.500
  20
4612138.500
  30
1049.764
  0
VERTEX
  8
PNOA-H_AMS_1956-57_33k_ES_PAN_21mic_H50_0380_fot_38C-40598_E_tif
  70
32
  10
577137.156
  20
4612054.645
  30
1053.361
  0
VERTEX
  8
PNOA-H_AMS_1956-57_33k_ES_PAN_21mic_H50_0380_fot_38C-40598_E_tif
  70
32
  10
577139.500
  20
4612053.500
  30
1053.411
  0
VERTEX
  8
PNOA-H_AMS_1956-57_33k_ES_PAN_21mic_H50_0380_fot_38C-40598_E_tif
  70
32
  10
577218.500
  20
4607973.500
  30
1071.345
  0
VERTEX
  8
PNOA-H_AMS_1956-57_33k_ES_PAN_21mic_H50_0380_fot_38C-40598_E_tif
  70
32
  10
577218.500
  20
4607955.000
  30
1072.269
  0
VERTEX
  8
PNOA-H_AMS_1956-57_33k_ES_PAN_21mic_H50_0380_fot_38C-40598_E_tif
  70
32
  10
577218.489
  20
4607954.989
  30
1072.27
  0
VERTEX
  8
PNOA-H_AMS_1956-57_33k_ES_PAN_21mic_H50_0380_fot_38C-40598_E_tif
  70
32
  10
577217.500
  20
4607954.000
  30
1072.325
  0
SEQEND
  8
PNOA-H_AMS_1956-57_33k_ES_PAN_21mic_H50_0380_fot_38C-40598_E_tif
  0
INSERT
  8
FeatureAttribs
  2
FEATURE
  41
1
  42
1
  43
1
  50
0
  10
573142.804
  20
4609881.250
 66
1
  0
ATTRIB
  8
FeatureAttribs
 70
0
  1
PNOA-H_AMS_1956-57_33k_ES_PAN_21mic_H50_0380_fot_38C-40597_E.tif
  2
NAME
  10
573142.804
  20
4609881.250
 40
33.53142
  0
SEQEND
  0
POLYLINE
  8
PNOA-H_AMS_1956-57_33k_ES_PAN_21mic_H50_0380_fot_38C-40597_E_tif
  70
9
  66
1
  0
VERTEX
  8
PNOA-H_AMS_1956-57_33k_ES_PAN_21mic_H50_0380_fot_38C-40597_E_tif
  70
32
  10
574199.500
  20
4612111.000
  30
1065.406
  0
VERTEX
  8
PNOA-H_AMS_1956-57_33k_ES_PAN_21mic_H50_0380_fot_38C-40597_E_tif
  70
32
  10
574203.000
  20
4612111.000
  30
1065.103
  0
VERTEX
  8
PNOA-H_AMS_1956-57_33k_ES_PAN_21mic_H50_0380_fot_38C-40597_E_tif
  70
32
  10
574203.375
  20
4612111.000
  30
1065.07
  0
VERTEX
  8
PNOA-H_AMS_1956-57_33k_ES_PAN_21mic_H50_0380_fot_38C-40597_E_tif
  70
32
  10
574203.500
  20
4612111.000
  30
1065.059
  0
VERTEX
  8
PNOA-H_AMS_1956-57_33k_ES_PAN_21mic_H50_0380_fot_38C-40597_E_tif
  70
32
  10
574212.000
  20
4612107.000
  30
1064.17
  0
VERTEX
  8
PNOA-H_AMS_1956-57_33k_ES_PAN_21mic_H50_0380_fot_38C-40597_E_tif
  70
32
  10
574539.500
  20
4611946.500
  30
1047.567
  0
VERTEX
  8
PNOA-H_AMS_1956-57_33k_ES_PAN_21mic_H50_0380_fot_38C-40597_E_tif
  70
32
  10
574539.497
  20
4611946.246
  30
1047.568
  0
VERTEX
  8
PNOA-H_AMS_1956-57_33k_ES_PAN_21mic_H50_0380_fot_38C-40597_E_tif
  70
32
  10
574490.000
  20
4607913.000
  30
1066.259
  0
VERTEX
  8
PNOA-H_AMS_1956-57_33k_ES_PAN_21mic_H50_0380_fot_38C-40597_E_tif
  70
32
  10
574489.962
  20
4607912.975
  30
1066.256
  0
VERTEX
  8
PNOA-H_AMS_1956-57_33k_ES_PAN_21mic_H50_0380_fot_38C-40597_E_tif
  70
32
  10
574097.010
  20
4607651.507
  30
1031.58
  0
VERTEX
  8
PNOA-H_AMS_1956-57_33k_ES_PAN_21mic_H50_0380_fot_38C-40597_E_tif
  70
32
  10
574097.000
  20
4607651.500
  30
1031.58
  0
VERTEX
  8
PNOA-H_AMS_1956-57_33k_ES_PAN_21mic_H50_0380_fot_38C-40597_E_tif
  70
32
  10
571804.500
  20
4607991.000
  30
1017.268
  0
VERTEX
  8
PNOA-H_AMS_1956-57_33k_ES_PAN_21mic_H50_0380_fot_38C-40597_E_tif
  70
32
  10
571736.500
  20
4611880.500
  30
1178.767
  0
VERTEX
  8
PNOA-H_AMS_1956-57_33k_ES_PAN_21mic_H50_0380_fot_38C-40597_E_tif
  70
32
  10
571736.622
  20
4611880.512
  30
1178.751
  0
VERTEX
  8
PNOA-H_AMS_1956-57_33k_ES_PAN_21mic_H50_0380_fot_38C-40597_E_tif
  70
32
  10
571737.341
  20
4611880.582
  30
1178.657
  0
VERTEX
  8
PNOA-H_AMS_1956-57_33k_ES_PAN_21mic_H50_0380_fot_38C-40597_E_tif
  70
32
  10
571844.500
  20
4611891.000
  30
1164.654
  0
VERTEX
  8
PNOA-H_AMS_1956-57_33k_ES_PAN_21mic_H50_0380_fot_38C-40597_E_tif
  70
32
  10
571850.000
  20
4611891.500
  30
1163.943
  0
VERTEX
  8
PNOA-H_AMS_1956-57_33k_ES_PAN_21mic_H50_0380_fot_38C-40597_E_tif
  70
32
  10
574199.500
  20
4612111.000
  30
1065.406
  0
SEQEND
  8
PNOA-H_AMS_1956-57_33k_ES_PAN_21mic_H50_0380_fot_38C-40597_E_tif
  0
INSERT
  8
FeatureAttribs
  2
FEATURE
  41
1
  42
1
  43
1
  50
0
  10
572153.619
  20
4601543.750
 66
1
  0
ATTRIB
  8
FeatureAttribs
 70
0
  1
PNOA-H_AMS_1956-57_33k_ES_PAN_21mic_H50_0380_fot_40B-38888_W.tif
  2
NAME
  10
572153.619
  20
4601543.750
 40
33.53142
  0
SEQEND
  0
POLYLINE
  8
PNOA-H_AMS_1956-57_33k_ES_PAN_21mic_H50_0380_fot_40B-38888_W_tif
  70
9
  66
1
  0
VERTEX
  8
PNOA-H_AMS_1956-57_33k_ES_PAN_21mic_H50_0380_fot_40B-38888_W_tif
  70
32
  10
573576.000
  20
4599621.000
  30
942.807
  0
VERTEX
  8
PNOA-H_AMS_1956-57_33k_ES_PAN_21mic_H50_0380_fot_40B-38888_W_tif
  70
32
  10
572087.500
  20
4599148.500
  30
990.03
  0
VERTEX
  8
PNOA-H_AMS_1956-57_33k_ES_PAN_21mic_H50_0380_fot_40B-38888_W_tif
  70
32
  10
572087.231
  20
4599148.573
  30
990.035
  0
VERTEX
  8
PNOA-H_AMS_1956-57_33k_ES_PAN_21mic_H50_0380_fot_40B-38888_W_tif
  70
32
  10
570870.500
  20
4599479.500
  30
1012.906
  0
VERTEX
  8
PNOA-H_AMS_1956-57_33k_ES_PAN_21mic_H50_0380_fot_40B-38888_W_tif
  70
32
  10
570688.000
  20
4603666.000
  30
992
  0
VERTEX
  8
PNOA-H_AMS_1956-57_33k_ES_PAN_21mic_H50_0380_fot_40B-38888_W_tif
  70
32
  10
570688.077
  20
4603666.042
  30
992
  0
VERTEX
  8
PNOA-H_AMS_1956-57_33k_ES_PAN_21mic_H50_0380_fot_40B-38888_W_tif
  70
32
  10
570988.059
  20
4603829.559
  30
988.541
  0
VERTEX
  8
PNOA-H_AMS_1956-57_33k_ES_PAN_21mic_H50_0380_fot_40B-38888_W_tif
  70
32
  10
571187.000
  20
4603938.000
  30
986.248
  0
VERTEX
  8
PNOA-H_AMS_1956-57_33k_ES_PAN_21mic_H50_0380_fot_40B-38888_W_tif
  70
32
  10
571187.124
  20
4603938.249
  30
986.278
  0
VERTEX
  8
PNOA-H_AMS_1956-57_33k_ES_PAN_21mic_H50_0380_fot_40B-38888_W_tif
  70
32
  10
571187.500
  20
4603939.000
  30
986.246
  0
VERTEX
  8
PNOA-H_AMS_1956-57_33k_ES_PAN_21mic_H50_0380_fot_40B-38888_W_tif
  70
32
  10
571188.338
  20
4603938.912
  30
986.264
  0
VERTEX
  8
PNOA-H_AMS_1956-57_33k_ES_PAN_21mic_H50_0380_fot_40B-38888_W_tif
  70
32
  10
571795.048
  20
4603875.027
  30
999.532
  0
VERTEX
  8
PNOA-H_AMS_1956-57_33k_ES_PAN_21mic_H50_0380_fot_40B-38888_W_tif
  70
32
  10
573470.770
  20
4603698.577
  30
1036.178
  0
VERTEX
  8
PNOA-H_AMS_1956-57_33k_ES_PAN_21mic_H50_0380_fot_40B-38888_W_tif
  70
32
  10
573471.500
  20
4603698.500
  30
1036.194
  0
VERTEX
  8
PNOA-H_AMS_1956-57_33k_ES_PAN_21mic_H50_0380_fot_40B-38888_W_tif
  70
32
  10
573576.000
  20
4599621.000
  30
942.807
  0
SEQEND
  8
PNOA-H_AMS_1956-57_33k_ES_PAN_21mic_H50_0380_fot_40B-38888_W_tif
  0
INSERT
  8
FeatureAttribs
  2
FEATURE
  41
1
  42
1
  43
1
  50
0
  10
569803.675
  20
4605830.250
 66
1
  0
ATTRIB
  8
FeatureAttribs
 70
0
  1
PNOA-H_AMS_1956-57_33k_ES_PAN_21mic_H50_0380_fot_39D-50434_E.tif
  2
NAME
  10
569803.675
  20
4605830.250
 40
33.53142
  0
SEQEND
  0
POLYLINE
  8
PNOA-H_AMS_1956-57_33k_ES_PAN_21mic_H50_0380_fot_39D-50434_E_tif
  70
9
  66
1
  0
VERTEX
  8
PNOA-H_AMS_1956-57_33k_ES_PAN_21mic_H50_0380_fot_39D-50434_E_tif
  70
32
  10
570988.059
  20
4603829.559
  30
988.547
  0
VERTEX
  8
PNOA-H_AMS_1956-57_33k_ES_PAN_21mic_H50_0380_fot_39D-50434_E_tif
  70
32
  10
570688.500
  20
4603666.000
  30
991.989
  0
VERTEX
  8
PNOA-H_AMS_1956-57_33k_ES_PAN_21mic_H50_0380_fot_39D-50434_E_tif
  70
32
  10
570688.077
  20
4603666.042
  30
992.006
  0
VERTEX
  8
PNOA-H_AMS_1956-57_33k_ES_PAN_21mic_H50_0380_fot_39D-50434_E_tif
  70
32
  10
568462.500
  20
4603885.500
  30
1085.074
  0
VERTEX
  8
PNOA-H_AMS_1956-57_33k_ES_PAN_21mic_H50_0380_fot_39D-50434_E_tif
  70
32
  10
568322.500
  20
4607606.500
  30
1097.643
  0
VERTEX
  8
PNOA-H_AMS_1956-57_33k_ES_PAN_21mic_H50_0380_fot_39D-50434_E_tif
  70
32
  10
568322.611
  20
4607606.566
  30
1097.633
  0
VERTEX
  8
PNOA-H_AMS_1956-57_33k_ES_PAN_21mic_H50_0380_fot_39D-50434_E_tif
  70
32
  10
568970.500
  20
4607994.500
  30
1038.86
  0
VERTEX
  8
PNOA-H_AMS_1956-57_33k_ES_PAN_21mic_H50_0380_fot_39D-50434_E_tif
  70
32
  10
568971.300
  20
4607994.380
  30
1038.834
  0
VERTEX
  8
PNOA-H_AMS_1956-57_33k_ES_PAN_21mic_H50_0380_fot_39D-50434_E_tif
  70
32
  10
569800.500
  20
4607870.500
  30
1011.675
  0
VERTEX
  8
PNOA-H_AMS_1956-57_33k_ES_PAN_21mic_H50_0380_fot_39D-50434_E_tif
  70
32
  10
569804.000
  20
4607870.000
  30
1011.623
  0
VERTEX
  8
PNOA-H_AMS_1956-57_33k_ES_PAN_21mic_H50_0380_fot_39D-50434_E_tif
  70
32
  10
571246.500
  20
4607655.000
  30
1014.552
  0
VERTEX
  8
PNOA-H_AMS_1956-57_33k_ES_PAN_21mic_H50_0380_fot_39D-50434_E_tif
  70
32
  10
571188.500
  20
4603939.000
  30
986.244
  0
VERTEX
  8
PNOA-H_AMS_1956-57_33k_ES_PAN_21mic_H50_0380_fot_39D-50434_E_tif
  70
32
  10
571188.338
  20
4603938.912
  30
986.246
  0
VERTEX
  8
PNOA-H_AMS_1956-57_33k_ES_PAN_21mic_H50_0380_fot_39D-50434_E_tif
  70
32
  10
571187.124
  20
4603938.249
  30
986.26
  0
VERTEX
  8
PNOA-H_AMS_1956-57_33k_ES_PAN_21mic_H50_0380_fot_39D-50434_E_tif
  70
32
  10
570988.059
  20
4603829.559
  30
988.547
  0
SEQEND
  8
PNOA-H_AMS_1956-57_33k_ES_PAN_21mic_H50_0380_fot_39D-50434_E_tif
  0
INSERT
  8
FeatureAttribs
  2
FEATURE
  41
1
  42
1
  43
1
  50
0
  10
575595.631
  20
4605809.500
 66
1
  0
ATTRIB
  8
FeatureAttribs
 70
0
  1
PNOA-H_AMS_1956-57_33k_ES_PAN_21mic_H50_0380_fot_39D-50436_E.tif
  2
NAME
  10
575595.631
  20
4605809.500
 40
33.53142
  0
SEQEND
  0
POLYLINE
  8
PNOA-H_AMS_1956-57_33k_ES_PAN_21mic_H50_0380_fot_39D-50436_E_tif
  70
9
  66
1
  0
VERTEX
  8
PNOA-H_AMS_1956-57_33k_ES_PAN_21mic_H50_0380_fot_39D-50436_E_tif
  70
32
  10
576214.000
  20
4603706.000
  30
1079.984
  0
VERTEX
  8
PNOA-H_AMS_1956-57_33k_ES_PAN_21mic_H50_0380_fot_39D-50436_E_tif
  70
32
  10
576211.000
  20
4603706.000
  30
1079.723
  0
VERTEX
  8
PNOA-H_AMS_1956-57_33k_ES_PAN_21mic_H50_0380_fot_39D-50436_E_tif
  70
32
  10
574177.500
  20
4604074.500
  30
1024.216
  0
VERTEX
  8
PNOA-H_AMS_1956-57_33k_ES_PAN_21mic_H50_0380_fot_39D-50436_E_tif
  70
32
  10
574172.500
  20
4604075.500
  30
1024.25
  0
VERTEX
  8
PNOA-H_AMS_1956-57_33k_ES_PAN_21mic_H50_0380_fot_39D-50436_E_tif
  70
32
  10
574172.000
  20
4604077.500
  30
1024.248
  0
VERTEX
  8
PNOA-H_AMS_1956-57_33k_ES_PAN_21mic_H50_0380_fot_39D-50436_E_tif
  70
32
  10
574098.691
  20
4607571.428
  30
1031.438
  0
VERTEX
  8
PNOA-H_AMS_1956-57_33k_ES_PAN_21mic_H50_0380_fot_39D-50436_E_tif
  70
32
  10
574097.010
  20
4607651.507
  30
1031.603
  0
VERTEX
  8
PNOA-H_AMS_1956-57_33k_ES_PAN_21mic_H50_0380_fot_39D-50436_E_tif
  70
32
  10
574097.000
  20
4607652.000
  30
1031.604
  0
VERTEX
  8
PNOA-H_AMS_1956-57_33k_ES_PAN_21mic_H50_0380_fot_39D-50436_E_tif
  70
32
  10
574489.500
  20
4607913.000
  30
1066.229
  0
VERTEX
  8
PNOA-H_AMS_1956-57_33k_ES_PAN_21mic_H50_0380_fot_39D-50436_E_tif
  70
32
  10
574489.962
  20
4607912.975
  30
1066.251
  0
VERTEX
  8
PNOA-H_AMS_1956-57_33k_ES_PAN_21mic_H50_0380_fot_39D-50436_E_tif
  70
32
  10
575938.500
  20
4607834.000
  30
1135.255
  0
VERTEX
  8
PNOA-H_AMS_1956-57_33k_ES_PAN_21mic_H50_0380_fot_39D-50436_E_tif
  70
32
  10
575948.000
  20
4607833.500
  30
1133.401
  0
VERTEX
  8
PNOA-H_AMS_1956-57_33k_ES_PAN_21mic_H50_0380_fot_39D-50436_E_tif
  70
32
  10
576651.071
  20
4607795.645
  30
1097.894
  0
VERTEX
  8
PNOA-H_AMS_1956-57_33k_ES_PAN_21mic_H50_0380_fot_39D-50436_E_tif
  70
32
  10
576969.500
  20
4607778.500
  30
1081.812
  0
VERTEX
  8
PNOA-H_AMS_1956-57_33k_ES_PAN_21mic_H50_0380_fot_39D-50436_E_tif
  70
32
  10
576974.565
  20
4607778.078
  30
1081.717
  0
VERTEX
  8
PNOA-H_AMS_1956-57_33k_ES_PAN_21mic_H50_0380_fot_39D-50436_E_tif
  70
32
  10
576975.500
  20
4607778.000
  30
1081.699
  0
VERTEX
  8
PNOA-H_AMS_1956-57_33k_ES_PAN_21mic_H50_0380_fot_39D-50436_E_tif
  70
32
  10
576976.000
  20
4607771.500
  30
1082.157
  0
VERTEX
  8
PNOA-H_AMS_1956-57_33k_ES_PAN_21mic_H50_0380_fot_39D-50436_E_tif
  70
32
  10
577123.500
  20
4604136.000
  30
1176.7
  0
VERTEX
  8
PNOA-H_AMS_1956-57_33k_ES_PAN_21mic_H50_0380_fot_39D-50436_E_tif
  70
32
  10
577123.357
  20
4604135.932
  30
1176.685
  0
VERTEX
  8
PNOA-H_AMS_1956-57_33k_ES_PAN_21mic_H50_0380_fot_39D-50436_E_tif
  70
32
  10
576218.500
  20
4603707.500
  30
1080.425
  0
VERTEX
  8
PNOA-H_AMS_1956-57_33k_ES_PAN_21mic_H50_0380_fot_39D-50436_E_tif
  70
32
  10
576215.000
  20
4603706.000
  30
1080.072
  0
VERTEX
  8
PNOA-H_AMS_1956-57_33k_ES_PAN_21mic_H50_0380_fot_39D-50436_E_tif
  70
32
  10
576214.000
  20
4603706.000
  30
1079.984
  0
SEQEND
  8
PNOA-H_AMS_1956-57_33k_ES_PAN_21mic_H50_0380_fot_39D-50436_E_tif
  0
INSERT
  8
FeatureAttribs
  2
FEATURE
  41
1
  42
1
  43
1
  50
0
  10
574889.140
  20
4601680.250
 66
1
  0
ATTRIB
  8
FeatureAttribs
 70
0
  1
PNOA-H_AMS_1956-57_33k_ES_PAN_21mic_H50_0380_fot_40B-38887_W.tif
  2
NAME
  10
574889.140
  20
4601680.250
 40
33.53142
  0
SEQEND
  0
POLYLINE
  8
PNOA-H_AMS_1956-57_33k_ES_PAN_21mic_H50_0380_fot_40B-38887_W_tif
  70
9
  66
1
  0
VERTEX
  8
PNOA-H_AMS_1956-57_33k_ES_PAN_21mic_H50_0380_fot_40B-38887_W_tif
  70
32
  10
576293.281
  20
4599733.630
  30
1123.521
  0
VERTEX
  8
PNOA-H_AMS_1956-57_33k_ES_PAN_21mic_H50_0380_fot_40B-38887_W_tif
  70
32
  10
574814.500
  20
4599285.000
  30
970.751
  0
VERTEX
  8
PNOA-H_AMS_1956-57_33k_ES_PAN_21mic_H50_0380_fot_40B-38887_W_tif
  70
32
  10
574813.666
  20
4599285.202
  30
970.673
  0
VERTEX
  8
PNOA-H_AMS_1956-57_33k_ES_PAN_21mic_H50_0380_fot_40B-38887_W_tif
  70
32
  10
574800.981
  20
4599288.271
  30
969.488
  0
VERTEX
  8
PNOA-H_AMS_1956-57_33k_ES_PAN_21mic_H50_0380_fot_40B-38887_W_tif
  70
32
  10
574783.500
  20
4599292.500
  30
967.855
  0
VERTEX
  8
PNOA-H_AMS_1956-57_33k_ES_PAN_21mic_H50_0380_fot_40B-38887_W_tif
  70
32
  10
573576.000
  20
4599621.000
  30
942.807
  0
VERTEX
  8
PNOA-H_AMS_1956-57_33k_ES_PAN_21mic_H50_0380_fot_40B-38887_W_tif
  70
32
  10
573471.500
  20
4603698.500
  30
1036.194
  0
VERTEX
  8
PNOA-H_AMS_1956-57_33k_ES_PAN_21mic_H50_0380_fot_40B-38887_W_tif
  70
32
  10
573471.552
  20
4603698.528
  30
1036.193
  0
VERTEX
  8
PNOA-H_AMS_1956-57_33k_ES_PAN_21mic_H50_0380_fot_40B-38887_W_tif
  70
32
  10
573898.500
  20
4603928.500
  30
1028.061
  0
VERTEX
  8
PNOA-H_AMS_1956-57_33k_ES_PAN_21mic_H50_0380_fot_40B-38887_W_tif
  70
32
  10
573899.500
  20
4603929.000
  30
1028.06
  0
VERTEX
  8
PNOA-H_AMS_1956-57_33k_ES_PAN_21mic_H50_0380_fot_40B-38887_W_tif
  70
32
  10
574166.500
  20
4604073.000
  30
1024.315
  0
VERTEX
  8
PNOA-H_AMS_1956-57_33k_ES_PAN_21mic_H50_0380_fot_40B-38887_W_tif
  70
32
  10
574171.500
  20
4604075.500
  30
1024.259
  0
VERTEX
  8
PNOA-H_AMS_1956-57_33k_ES_PAN_21mic_H50_0380_fot_40B-38887_W_tif
  70
32
  10
574172.500
  20
4604075.500
  30
1024.251
  0
VERTEX
  8
PNOA-H_AMS_1956-57_33k_ES_PAN_21mic_H50_0380_fot_40B-38887_W_tif
  70
32
  10
574175.000
  20
4604075.500
  30
1024.231
  0
VERTEX
  8
PNOA-H_AMS_1956-57_33k_ES_PAN_21mic_H50_0380_fot_40B-38887_W_tif
  70
32
  10
576214.000
  20
4603706.000
  30
1079.974
  0
VERTEX
  8
PNOA-H_AMS_1956-57_33k_ES_PAN_21mic_H50_0380_fot_40B-38887_W_tif
  70
32
  10
576294.500
  20
4599734.000
  30
1123.647
  0
VERTEX
  8
PNOA-H_AMS_1956-57_33k_ES_PAN_21mic_H50_0380_fot_40B-38887_W_tif
  70
32
  10
576293.281
  20
4599733.630
  30
1123.521
  0
SEQEND
  8
PNOA-H_AMS_1956-57_33k_ES_PAN_21mic_H50_0380_fot_40B-38887_W_tif
  0
INSERT
  8
FeatureAttribs
  2
FEATURE
  41
1
  42
1
  43
1
  50
0
  10
572676.696
  20
4605844.750
 66
1
  0
ATTRIB
  8
FeatureAttribs
 70
0
  1
PNOA-H_AMS_1956-57_33k_ES_PAN_21mic_H50_0380_fot_39D-50435_E.tif
  2
NAME
  10
572676.696
  20
4605844.750
 40
33.53142
  0
SEQEND
  0
POLYLINE
  8
PNOA-H_AMS_1956-57_33k_ES_PAN_21mic_H50_0380_fot_39D-50435_E_tif
  70
9
  66
1
  0
VERTEX
  8
PNOA-H_AMS_1956-57_33k_ES_PAN_21mic_H50_0380_fot_39D-50435_E_tif
  70
32
  10
573478.000
  20
4603701.500
  30
1036.043
  0
VERTEX
  8
PNOA-H_AMS_1956-57_33k_ES_PAN_21mic_H50_0380_fot_39D-50435_E_tif
  70
32
  10
573472.000
  20
4603698.500
  30
1036.187
  0
VERTEX
  8
PNOA-H_AMS_1956-57_33k_ES_PAN_21mic_H50_0380_fot_39D-50435_E_tif
  70
32
  10
573471.552
  20
4603698.528
  30
1036.193
  0
VERTEX
  8
PNOA-H_AMS_1956-57_33k_ES_PAN_21mic_H50_0380_fot_39D-50435_E_tif
  70
32
  10
573470.770
  20
4603698.577
  30
1036.203
  0
VERTEX
  8
PNOA-H_AMS_1956-57_33k_ES_PAN_21mic_H50_0380_fot_39D-50435_E_tif
  70
32
  10
573464.000
  20
4603699.000
  30
1036.285
  0
VERTEX
  8
PNOA-H_AMS_1956-57_33k_ES_PAN_21mic_H50_0380_fot_39D-50435_E_tif
  70
32
  10
571795.048
  20
4603875.027
  30
999.583
  0
VERTEX
  8
PNOA-H_AMS_1956-57_33k_ES_PAN_21mic_H50_0380_fot_39D-50435_E_tif
  70
32
  10
571188.500
  20
4603939.000
  30
986.244
  0
VERTEX
  8
PNOA-H_AMS_1956-57_33k_ES_PAN_21mic_H50_0380_fot_39D-50435_E_tif
  70
32
  10
571246.500
  20
4607655.000
  30
1014.552
  0
VERTEX
  8
PNOA-H_AMS_1956-57_33k_ES_PAN_21mic_H50_0380_fot_39D-50435_E_tif
  70
32
  10
571246.698
  20
4607655.120
  30
1014.553
  0
VERTEX
  8
PNOA-H_AMS_1956-57_33k_ES_PAN_21mic_H50_0380_fot_39D-50435_E_tif
  70
32
  10
571803.000
  20
4607990.500
  30
1017.318
  0
VERTEX
  8
PNOA-H_AMS_1956-57_33k_ES_PAN_21mic_H50_0380_fot_39D-50435_E_tif
  70
32
  10
571804.000
  20
4607991.000
  30
1017.28
  0
VERTEX
  8
PNOA-H_AMS_1956-57_33k_ES_PAN_21mic_H50_0380_fot_39D-50435_E_tif
  70
32
  10
571804.401
  20
4607990.941
  30
1017.282
  0
VERTEX
  8
PNOA-H_AMS_1956-57_33k_ES_PAN_21mic_H50_0380_fot_39D-50435_E_tif
  70
32
  10
574097.000
  20
4607651.500
  30
1031.58
  0
VERTEX
  8
PNOA-H_AMS_1956-57_33k_ES_PAN_21mic_H50_0380_fot_39D-50435_E_tif
  70
32
  10
574098.691
  20
4607571.428
  30
1031.416
  0
VERTEX
  8
PNOA-H_AMS_1956-57_33k_ES_PAN_21mic_H50_0380_fot_39D-50435_E_tif
  70
32
  10
574172.500
  20
4604075.500
  30
1024.25
  0
VERTEX
  8
PNOA-H_AMS_1956-57_33k_ES_PAN_21mic_H50_0380_fot_39D-50435_E_tif
  70
32
  10
573478.000
  20
4603701.500
  30
1036.043
  0
SEQEND
  8
PNOA-H_AMS_1956-57_33k_ES_PAN_21mic_H50_0380_fot_39D-50435_E_tif
  0
INSERT
  8
FeatureAttribs
  2
FEATURE
  41
1
  42
1
  43
1
  50
0
  10
573583.951
  20
4597124.806
 66
1
  0
ATTRIB
  8
FeatureAttribs
 70
0
  1
PNOA-H_AMS_1956-57_33k_ES_PAN_21mic_H50_0380_fot_41B-37374_W.tif
  2
NAME
  10
573583.951
  20
4597124.806
 40
33.53142
  0
SEQEND
  0
POLYLINE
  8
PNOA-H_AMS_1956-57_33k_ES_PAN_21mic_H50_0380_fot_41B-37374_W_tif
  70
9
  66
1
  0
VERTEX
  8
PNOA-H_AMS_1956-57_33k_ES_PAN_21mic_H50_0380_fot_41B-37374_W_tif
  70
32
  10
572503.978
  20
4594628.628
  30
0
  0
VERTEX
  8
PNOA-H_AMS_1956-57_33k_ES_PAN_21mic_H50_0380_fot_41B-37374_W_tif
  70
32
  10
572502.446
  20
4594628.613
  30
1078.876
  0
VERTEX
  8
PNOA-H_AMS_1956-57_33k_ES_PAN_21mic_H50_0380_fot_41B-37374_W_tif
  70
32
  10
572425.500
  20
4594657.500
  30
1077.718
  0
VERTEX
  8
PNOA-H_AMS_1956-57_33k_ES_PAN_21mic_H50_0380_fot_41B-37374_W_tif
  70
32
  10
572423.000
  20
4594658.500
  30
1078.138
  0
VERTEX
  8
PNOA-H_AMS_1956-57_33k_ES_PAN_21mic_H50_0380_fot_41B-37374_W_tif
  70
32
  10
572422.885
  20
4594658.731
  30
1078.186
  0
VERTEX
  8
PNOA-H_AMS_1956-57_33k_ES_PAN_21mic_H50_0380_fot_41B-37374_W_tif
  70
32
  10
572422.500
  20
4594659.500
  30
1078.345
  0
VERTEX
  8
PNOA-H_AMS_1956-57_33k_ES_PAN_21mic_H50_0380_fot_41B-37374_W_tif
  70
32
  10
572422.000
  20
4594660.500
  30
1078.552
  0
VERTEX
  8
PNOA-H_AMS_1956-57_33k_ES_PAN_21mic_H50_0380_fot_41B-37374_W_tif
  70
32
  10
572087.000
  20
4599148.500
  30
990.081
  0
VERTEX
  8
PNOA-H_AMS_1956-57_33k_ES_PAN_21mic_H50_0380_fot_41B-37374_W_tif
  70
32
  10
572087.231
  20
4599148.573
  30
990.073
  0
VERTEX
  8
PNOA-H_AMS_1956-57_33k_ES_PAN_21mic_H50_0380_fot_41B-37374_W_tif
  70
32
  10
573573.000
  20
4599620.500
  30
942.193
  0
VERTEX
  8
PNOA-H_AMS_1956-57_33k_ES_PAN_21mic_H50_0380_fot_41B-37374_W_tif
  70
32
  10
573574.500
  20
4599621.000
  30
942.541
  0
VERTEX
  8
PNOA-H_AMS_1956-57_33k_ES_PAN_21mic_H50_0380_fot_41B-37374_W_tif
  70
32
  10
573576.000
  20
4599621.000
  30
942.762
  0
VERTEX
  8
PNOA-H_AMS_1956-57_33k_ES_PAN_21mic_H50_0380_fot_41B-37374_W_tif
  70
32
  10
573578.000
  20
4599621.000
  30
943.057
  0
VERTEX
  8
PNOA-H_AMS_1956-57_33k_ES_PAN_21mic_H50_0380_fot_41B-37374_W_tif
  70
32
  10
573598.500
  20
4599615.500
  30
942.112
  0
VERTEX
  8
PNOA-H_AMS_1956-57_33k_ES_PAN_21mic_H50_0380_fot_41B-37374_W_tif
  70
32
  10
574800.981
  20
4599288.271
  30
970.651
  0
VERTEX
  8
PNOA-H_AMS_1956-57_33k_ES_PAN_21mic_H50_0380_fot_41B-37374_W_tif
  70
32
  10
574813.000
  20
4599285.000
  30
970.937
  0
VERTEX
  8
PNOA-H_AMS_1956-57_33k_ES_PAN_21mic_H50_0380_fot_41B-37374_W_tif
  70
32
  10
575055.000
  20
4594811.000
  30
991.997
  0
VERTEX
  8
PNOA-H_AMS_1956-57_33k_ES_PAN_21mic_H50_0380_fot_41B-37374_W_tif
  70
32
  10
574674.214
  20
4594724.987
  30
1011.416
  0
VERTEX
  8
PNOA-H_AMS_1956-57_33k_ES_PAN_21mic_H50_0380_fot_41B-37374_W_tif
  70
32
  10
574329.410
  20
4594647.102
  30
1029.001
  0
VERTEX
  8
PNOA-H_AMS_1956-57_33k_ES_PAN_21mic_H50_0380_fot_41B-37374_W_tif
  70
32
  10
574328.462
  20
4594647.092
  30
0
  0
VERTEX
  8
PNOA-H_AMS_1956-57_33k_ES_PAN_21mic_H50_0380_fot_41B-37374_W_tif
  70
32
  10
572503.978
  20
4594628.628
  30
0
  0
SEQEND
  8
PNOA-H_AMS_1956-57_33k_ES_PAN_21mic_H50_0380_fot_41B-37374_W_tif
  0
INSERT
  8
FeatureAttribs
  2
FEATURE
  41
1
  42
1
  43
1
  50
0
  10
576218.838
  20
4597197.072
 66
1
  0
ATTRIB
  8
FeatureAttribs
 70
0
  1
PNOA-H_AMS_1956-57_33k_ES_PAN_21mic_H50_0380_fot_41B-37373_W.tif
  2
NAME
  10
576218.838
  20
4597197.072
 40
33.53142
  0
SEQEND
  0
POLYLINE
  8
PNOA-H_AMS_1956-57_33k_ES_PAN_21mic_H50_0380_fot_41B-37373_W_tif
  70
9
  66
1
  0
VERTEX
  8
PNOA-H_AMS_1956-57_33k_ES_PAN_21mic_H50_0380_fot_41B-37373_W_tif
  70
32
  10
575580.666
  20
4594660.156
  30
0
  0
VERTEX
  8
PNOA-H_AMS_1956-57_33k_ES_PAN_21mic_H50_0380_fot_41B-37373_W_tif
  70
32
  10
575579.517
  20
4594660.143
  30
976.115
  0
VERTEX
  8
PNOA-H_AMS_1956-57_33k_ES_PAN_21mic_H50_0380_fot_41B-37373_W_tif
  70
32
  10
575055.439
  20
4594810.874
  30
991.983
  0
VERTEX
  8
PNOA-H_AMS_1956-57_33k_ES_PAN_21mic_H50_0380_fot_41B-37373_W_tif
  70
32
  10
575055.000
  20
4594811.000
  30
991.997
  0
VERTEX
  8
PNOA-H_AMS_1956-57_33k_ES_PAN_21mic_H50_0380_fot_41B-37373_W_tif
  70
32
  10
574813.000
  20
4599285.000
  30
970.937
  0
VERTEX
  8
PNOA-H_AMS_1956-57_33k_ES_PAN_21mic_H50_0380_fot_41B-37373_W_tif
  70
32
  10
574813.666
  20
4599285.202
  30
971.01
  0
VERTEX
  8
PNOA-H_AMS_1956-57_33k_ES_PAN_21mic_H50_0380_fot_41B-37373_W_tif
  70
32
  10
575945.500
  20
4599628.500
  30
1096.424
  0
VERTEX
  8
PNOA-H_AMS_1956-57_33k_ES_PAN_21mic_H50_0380_fot_41B-37373_W_tif
  70
32
  10
575947.000
  20
4599629.000
  30
1096.877
  0
VERTEX
  8
PNOA-H_AMS_1956-57_33k_ES_PAN_21mic_H50_0380_fot_41B-37373_W_tif
  70
32
  10
576289.500
  20
4599733.000
  30
1124.241
  0
VERTEX
  8
PNOA-H_AMS_1956-57_33k_ES_PAN_21mic_H50_0380_fot_41B-37373_W_tif
  70
32
  10
576293.281
  20
4599733.630
  30
1123.761
  0
VERTEX
  8
PNOA-H_AMS_1956-57_33k_ES_PAN_21mic_H50_0380_fot_41B-37373_W_tif
  70
32
  10
576294.852
  20
4599733.892
  30
1123.561
  0
VERTEX
  8
PNOA-H_AMS_1956-57_33k_ES_PAN_21mic_H50_0380_fot_41B-37373_W_tif
  70
32
  10
576295.500
  20
4599734.000
  30
1123.479
  0
VERTEX
  8
PNOA-H_AMS_1956-57_33k_ES_PAN_21mic_H50_0380_fot_41B-37373_W_tif
  70
32
  10
576928.750
  20
4599539.250
  30
1136.301
  0
VERTEX
  8
PNOA-H_AMS_1956-57_33k_ES_PAN_21mic_H50_0380_fot_41B-37373_W_tif
  70
32
  10
577562.000
  20
4599344.500
  30
1149.123
  0
VERTEX
  8
PNOA-H_AMS_1956-57_33k_ES_PAN_21mic_H50_0380_fot_41B-37373_W_tif
  70
32
  10
577456.500
  20
4594837.000
  30
919.502
  0
VERTEX
  8
PNOA-H_AMS_1956-57_33k_ES_PAN_21mic_H50_0380_fot_41B-37373_W_tif
  70
32
  10
577456.103
  20
4594836.885
  30
919.514
  0
VERTEX
  8
PNOA-H_AMS_1956-57_33k_ES_PAN_21mic_H50_0380_fot_41B-37373_W_tif
  70
32
  10
576891.764
  20
4594674.056
  30
936.076
  0
VERTEX
  8
PNOA-H_AMS_1956-57_33k_ES_PAN_21mic_H50_0380_fot_41B-37373_W_tif
  70
32
  10
576889.923
  20
4594674.036
  30
0
  0
VERTEX
  8
PNOA-H_AMS_1956-57_33k_ES_PAN_21mic_H50_0380_fot_41B-37373_W_tif
  70
32
  10
575580.666
  20
4594660.156
  30
0
  0
SEQEND
  8
PNOA-H_AMS_1956-57_33k_ES_PAN_21mic_H50_0380_fot_41B-37373_W_tif
  0
INSERT
  8
FeatureAttribs
  2
FEATURE
  41
1
  42
1
  43
1
  50
0
  10
570874.624
  20
4597040.483
 66
1
  0
ATTRIB
  8
FeatureAttribs
 70
0
  1
PNOA-H_AMS_1956-57_33k_ES_PAN_21mic_H50_0380_fot_41B-37375_W.tif
  2
NAME
  10
570874.624
  20
4597040.483
 40
33.53142
  0
SEQEND
  0
POLYLINE
  8
PNOA-H_AMS_1956-57_33k_ES_PAN_21mic_H50_0380_fot_41B-37375_W_tif
  70
9
  66
1
  0
VERTEX
  8
PNOA-H_AMS_1956-57_33k_ES_PAN_21mic_H50_0380_fot_41B-37375_W_tif
  70
32
  10
569746.465
  20
4594601.466
  30
0
  0
VERTEX
  8
PNOA-H_AMS_1956-57_33k_ES_PAN_21mic_H50_0380_fot_41B-37375_W_tif
  70
32
  10
569746.447
  20
4594601.466
  30
944.31
  0
VERTEX
  8
PNOA-H_AMS_1956-57_33k_ES_PAN_21mic_H50_0380_fot_41B-37375_W_tif
  70
32
  10
569312.500
  20
4598978.500
  30
1073.749
  0
VERTEX
  8
PNOA-H_AMS_1956-57_33k_ES_PAN_21mic_H50_0380_fot_41B-37375_W_tif
  70
32
  10
569312.716
  20
4598978.570
  30
1073.741
  0
VERTEX
  8
PNOA-H_AMS_1956-57_33k_ES_PAN_21mic_H50_0380_fot_41B-37375_W_tif
  70
32
  10
569466.708
  20
4599028.104
  30
1067.731
  0
VERTEX
  8
PNOA-H_AMS_1956-57_33k_ES_PAN_21mic_H50_0380_fot_41B-37375_W_tif
  70
32
  10
570870.000
  20
4599479.500
  30
1012.969
  0
VERTEX
  8
PNOA-H_AMS_1956-57_33k_ES_PAN_21mic_H50_0380_fot_41B-37375_W_tif
  70
32
  10
570870.271
  20
4599479.426
  30
1012.964
  0
VERTEX
  8
PNOA-H_AMS_1956-57_33k_ES_PAN_21mic_H50_0380_fot_41B-37375_W_tif
  70
32
  10
572087.000
  20
4599148.500
  30
990.081
  0
VERTEX
  8
PNOA-H_AMS_1956-57_33k_ES_PAN_21mic_H50_0380_fot_41B-37375_W_tif
  70
32
  10
572379.000
  20
4595243.000
  30
1072.055
  0
VERTEX
  8
PNOA-H_AMS_1956-57_33k_ES_PAN_21mic_H50_0380_fot_41B-37375_W_tif
  70
32
  10
572379.000
  20
4595237.000
  30
1072.868
  0
VERTEX
  8
PNOA-H_AMS_1956-57_33k_ES_PAN_21mic_H50_0380_fot_41B-37375_W_tif
  70
32
  10
572422.500
  20
4594660.500
  30
1078.492
  0
VERTEX
  8
PNOA-H_AMS_1956-57_33k_ES_PAN_21mic_H50_0380_fot_41B-37375_W_tif
  70
32
  10
572422.500
  20
4594659.500
  30
1078.345
  0
VERTEX
  8
PNOA-H_AMS_1956-57_33k_ES_PAN_21mic_H50_0380_fot_41B-37375_W_tif
  70
32
  10
572422.500
  20
4594659.000
  30
1078.271
  0
VERTEX
  8
PNOA-H_AMS_1956-57_33k_ES_PAN_21mic_H50_0380_fot_41B-37375_W_tif
  70
32
  10
572422.050
  20
4594658.850
  30
1078.295
  0
VERTEX
  8
PNOA-H_AMS_1956-57_33k_ES_PAN_21mic_H50_0380_fot_41B-37375_W_tif
  70
32
  10
572421.000
  20
4594658.500
  30
1078.352
  0
VERTEX
  8
PNOA-H_AMS_1956-57_33k_ES_PAN_21mic_H50_0380_fot_41B-37375_W_tif
  70
32
  10
572225.586
  20
4594625.811
  30
1069.28
  0
VERTEX
  8
PNOA-H_AMS_1956-57_33k_ES_PAN_21mic_H50_0380_fot_41B-37375_W_tif
  70
32
  10
572222.393
  20
4594625.778
  30
0
  0
VERTEX
  8
PNOA-H_AMS_1956-57_33k_ES_PAN_21mic_H50_0380_fot_41B-37375_W_tif
  70
32
  10
571291.444
  20
4594616.357
  30
0
  0
VERTEX
  8
PNOA-H_AMS_1956-57_33k_ES_PAN_21mic_H50_0380_fot_41B-37375_W_tif
  70
32
  10
569746.465
  20
4594601.466
  30
0
  0
SEQEND
  8
PNOA-H_AMS_1956-57_33k_ES_PAN_21mic_H50_0380_fot_41B-37375_W_tif
  0
INSERT
  8
FeatureAttribs
  2
FEATURE
  41
1
  42
1
  43
1
  50
0
  10
572394.528
  20
4594642.389
 66
1
  0
ATTRIB
  8
FeatureAttribs
 70
0
  1
PNOA-H_AMS_1956-57_33k_ES_PAN_21mic_H50_0408_fot_000-36341_R.tif
  2
NAME
  10
572394.528
  20
4594642.389
 40
33.53142
  0
SEQEND
  0
POLYLINE
  8
PNOA-H_AMS_1956-57_33k_ES_PAN_21mic_H50_0408_fot_000-36341_R_tif
  70
9
  66
1
  0
VERTEX
  8
PNOA-H_AMS_1956-57_33k_ES_PAN_21mic_H50_0408_fot_000-36341_R_tif
  70
32
  10
572225.586
  20
4594625.811
  30
0
  0
VERTEX
  8
PNOA-H_AMS_1956-57_33k_ES_PAN_21mic_H50_0408_fot_000-36341_R_tif
  70
32
  10
572222.393
  20
4594625.778
  30
1069.582
  0
VERTEX
  8
PNOA-H_AMS_1956-57_33k_ES_PAN_21mic_H50_0408_fot_000-36341_R_tif
  70
32
  10
572418.000
  20
4594658.500
  30
1078.661
  0
VERTEX
  8
PNOA-H_AMS_1956-57_33k_ES_PAN_21mic_H50_0408_fot_000-36341_R_tif
  70
32
  10
572421.000
  20
4594659.000
  30
1078.431
  0
VERTEX
  8
PNOA-H_AMS_1956-57_33k_ES_PAN_21mic_H50_0408_fot_000-36341_R_tif
  70
32
  10
572422.050
  20
4594658.850
  30
1078.291
  0
VERTEX
  8
PNOA-H_AMS_1956-57_33k_ES_PAN_21mic_H50_0408_fot_000-36341_R_tif
  70
32
  10
572422.885
  20
4594658.731
  30
1078.178
  0
VERTEX
  8
PNOA-H_AMS_1956-57_33k_ES_PAN_21mic_H50_0408_fot_000-36341_R_tif
  70
32
  10
572424.500
  20
4594658.500
  30
1077.962
  0
VERTEX
  8
PNOA-H_AMS_1956-57_33k_ES_PAN_21mic_H50_0408_fot_000-36341_R_tif
  70
32
  10
572503.978
  20
4594628.628
  30
1079.137
  0
VERTEX
  8
PNOA-H_AMS_1956-57_33k_ES_PAN_21mic_H50_0408_fot_000-36341_R_tif
  70
32
  10
572502.446
  20
4594628.613
  30
0
  0
VERTEX
  8
PNOA-H_AMS_1956-57_33k_ES_PAN_21mic_H50_0408_fot_000-36341_R_tif
  70
32
  10
572225.586
  20
4594625.811
  30
0
  0
SEQEND
  8
PNOA-H_AMS_1956-57_33k_ES_PAN_21mic_H50_0408_fot_000-36341_R_tif
  0
INSERT
  8
FeatureAttribs
  2
FEATURE
  41
1
  42
1
  43
1
  50
0
  10
575016.642
  20
4594729.046
 66
1
  0
ATTRIB
  8
FeatureAttribs
 70
0
  1
PNOA-H_AMS_1956-57_33k_ES_PAN_21mic_H50_0408_fot_000-36342_R.tif
  2
NAME
  10
575016.642
  20
4594729.046
 40
33.53142
  0
SEQEND
  0
POLYLINE
  8
PNOA-H_AMS_1956-57_33k_ES_PAN_21mic_H50_0408_fot_000-36342_R_tif
  70
9
  66
1
  0
VERTEX
  8
PNOA-H_AMS_1956-57_33k_ES_PAN_21mic_H50_0408_fot_000-36342_R_tif
  70
32
  10
574329.410
  20
4594647.102
  30
0
  0
VERTEX
  8
PNOA-H_AMS_1956-57_33k_ES_PAN_21mic_H50_0408_fot_000-36342_R_tif
  70
32
  10
574328.462
  20
4594647.092
  30
1029.893
  0
VERTEX
  8
PNOA-H_AMS_1956-57_33k_ES_PAN_21mic_H50_0408_fot_000-36342_R_tif
  70
32
  10
574674.214
  20
4594724.987
  30
1011.709
  0
VERTEX
  8
PNOA-H_AMS_1956-57_33k_ES_PAN_21mic_H50_0408_fot_000-36342_R_tif
  70
32
  10
575055.439
  20
4594810.874
  30
991.658
  0
VERTEX
  8
PNOA-H_AMS_1956-57_33k_ES_PAN_21mic_H50_0408_fot_000-36342_R_tif
  70
32
  10
575056.000
  20
4594811.000
  30
991.629
  0
VERTEX
  8
PNOA-H_AMS_1956-57_33k_ES_PAN_21mic_H50_0408_fot_000-36342_R_tif
  70
32
  10
575580.666
  20
4594660.156
  30
975.473
  0
VERTEX
  8
PNOA-H_AMS_1956-57_33k_ES_PAN_21mic_H50_0408_fot_000-36342_R_tif
  70
32
  10
575579.517
  20
4594660.143
  30
0
  0
VERTEX
  8
PNOA-H_AMS_1956-57_33k_ES_PAN_21mic_H50_0408_fot_000-36342_R_tif
  70
32
  10
574769.109
  20
4594651.551
  30
0
  0
VERTEX
  8
PNOA-H_AMS_1956-57_33k_ES_PAN_21mic_H50_0408_fot_000-36342_R_tif
  70
32
  10
574329.410
  20
4594647.102
  30
0
  0
SEQEND
  8
PNOA-H_AMS_1956-57_33k_ES_PAN_21mic_H50_0408_fot_000-36342_R_tif
  0
INSERT
  8
FeatureAttribs
  2
FEATURE
  41
1
  42
1
  43
1
  50
0
  10
578526.284
  20
4610059.750
 66
1
  0
ATTRIB
  8
FeatureAttribs
 70
0
  1
PNOA-H_AMS_1956-57_33k_ES_PAN_21mic_H50_0380_fot_38C-40599_E.tif
  2
NAME
  10
578526.284
  20
4610059.750
 40
33.53142
  0
SEQEND
  0
POLYLINE
  8
PNOA-H_AMS_1956-57_33k_ES_PAN_21mic_H50_0380_fot_38C-40599_E_tif
  70
9
  66
1
  0
VERTEX
  8
PNOA-H_AMS_1956-57_33k_ES_PAN_21mic_H50_0380_fot_38C-40599_E_tif
  70
32
  10
579937.000
  20
4607945.000
  30
1063.99
  0
VERTEX
  8
PNOA-H_AMS_1956-57_33k_ES_PAN_21mic_H50_0380_fot_38C-40599_E_tif
  70
32
  10
579876.000
  20
4607897.500
  30
1065.63
  0
VERTEX
  8
PNOA-H_AMS_1956-57_33k_ES_PAN_21mic_H50_0380_fot_38C-40599_E_tif
  70
32
  10
579875.513
  20
4607897.511
  30
1065.632
  0
VERTEX
  8
PNOA-H_AMS_1956-57_33k_ES_PAN_21mic_H50_0380_fot_38C-40599_E_tif
  70
32
  10
577218.500
  20
4607955.000
  30
1072.269
  0
VERTEX
  8
PNOA-H_AMS_1956-57_33k_ES_PAN_21mic_H50_0380_fot_38C-40599_E_tif
  70
32
  10
577139.500
  20
4612053.500
  30
1053.411
  0
VERTEX
  8
PNOA-H_AMS_1956-57_33k_ES_PAN_21mic_H50_0380_fot_38C-40599_E_tif
  70
32
  10
577141.791
  20
4612053.652
  30
1053.419
  0
VERTEX
  8
PNOA-H_AMS_1956-57_33k_ES_PAN_21mic_H50_0380_fot_38C-40599_E_tif
  70
32
  10
579672.500
  20
4612221.500
  30
1062.25
  0
VERTEX
  8
PNOA-H_AMS_1956-57_33k_ES_PAN_21mic_H50_0380_fot_38C-40599_E_tif
  70
32
  10
579680.000
  20
4612222.000
  30
1062.257
  0
VERTEX
  8
PNOA-H_AMS_1956-57_33k_ES_PAN_21mic_H50_0380_fot_38C-40599_E_tif
  70
32
  10
579688.000
  20
4612222.000
  30
1062.226
  0
VERTEX
  8
PNOA-H_AMS_1956-57_33k_ES_PAN_21mic_H50_0380_fot_38C-40599_E_tif
  70
32
  10
579689.000
  20
4612222.000
  30
1062.222
  0
VERTEX
  8
PNOA-H_AMS_1956-57_33k_ES_PAN_21mic_H50_0380_fot_38C-40599_E_tif
  70
32
  10
579691.500
  20
4612221.000
  30
1062.219
  0
VERTEX
  8
PNOA-H_AMS_1956-57_33k_ES_PAN_21mic_H50_0380_fot_38C-40599_E_tif
  70
32
  10
579811.000
  20
4612165.000
  30
1063.573
  0
VERTEX
  8
PNOA-H_AMS_1956-57_33k_ES_PAN_21mic_H50_0380_fot_38C-40599_E_tif
  70
32
  10
579811.053
  20
4612164.500
  30
1063.571
  0
VERTEX
  8
PNOA-H_AMS_1956-57_33k_ES_PAN_21mic_H50_0380_fot_38C-40599_E_tif
  70
32
  10
579811.677
  20
4612158.566
  30
1063.538
  0
VERTEX
  8
PNOA-H_AMS_1956-57_33k_ES_PAN_21mic_H50_0380_fot_38C-40599_E_tif
  70
32
  10
579812.000
  20
4612155.500
  30
1063.521
  0
VERTEX
  8
PNOA-H_AMS_1956-57_33k_ES_PAN_21mic_H50_0380_fot_38C-40599_E_tif
  70
32
  10
579937.500
  20
4607956.500
  30
1063.837
  0
VERTEX
  8
PNOA-H_AMS_1956-57_33k_ES_PAN_21mic_H50_0380_fot_38C-40599_E_tif
  70
32
  10
579937.314
  20
4607952.224
  30
1063.894
  0
VERTEX
  8
PNOA-H_AMS_1956-57_33k_ES_PAN_21mic_H50_0380_fot_38C-40599_E_tif
  70
32
  10
579937.027
  20
4607945.630
  30
1063.981
  0
VERTEX
  8
PNOA-H_AMS_1956-57_33k_ES_PAN_21mic_H50_0380_fot_38C-40599_E_tif
  70
32
  10
579937.000
  20
4607945.000
  30
1063.99
  0
SEQEND
  8
PNOA-H_AMS_1956-57_33k_ES_PAN_21mic_H50_0380_fot_38C-40599_E_tif
  0
INSERT
  8
FeatureAttribs
  2
FEATURE
  41
1
  42
1
  43
1
  50
0
  10
581232.825
  20
4610155.000
 66
1
  0
ATTRIB
  8
FeatureAttribs
 70
0
  1
PNOA-H_AMS_1956-57_33k_ES_PAN_21mic_H50_0380_fot_38C-40600_E.tif
  2
NAME
  10
581232.825
  20
4610155.000
 40
33.53142
  0
SEQEND
  0
POLYLINE
  8
PNOA-H_AMS_1956-57_33k_ES_PAN_21mic_H50_0380_fot_38C-40600_E_tif
  70
9
  66
1
  0
VERTEX
  8
PNOA-H_AMS_1956-57_33k_ES_PAN_21mic_H50_0380_fot_38C-40600_E_tif
  70
32
  10
582312.500
  20
4612364.000
  30
1104.188
  0
VERTEX
  8
PNOA-H_AMS_1956-57_33k_ES_PAN_21mic_H50_0380_fot_38C-40600_E_tif
  70
32
  10
582316.000
  20
4612364.000
  30
1104.266
  0
VERTEX
  8
PNOA-H_AMS_1956-57_33k_ES_PAN_21mic_H50_0380_fot_38C-40600_E_tif
  70
32
  10
582316.500
  20
4612364.000
  30
1104.277
  0
VERTEX
  8
PNOA-H_AMS_1956-57_33k_ES_PAN_21mic_H50_0380_fot_38C-40600_E_tif
  70
32
  10
582321.500
  20
4612362.000
  30
1104.346
  0
VERTEX
  8
PNOA-H_AMS_1956-57_33k_ES_PAN_21mic_H50_0380_fot_38C-40600_E_tif
  70
32
  10
582560.203
  20
4612255.800
  30
1107.096
  0
VERTEX
  8
PNOA-H_AMS_1956-57_33k_ES_PAN_21mic_H50_0380_fot_38C-40600_E_tif
  70
32
  10
582562.000
  20
4612255.000
  30
1107.117
  0
VERTEX
  8
PNOA-H_AMS_1956-57_33k_ES_PAN_21mic_H50_0380_fot_38C-40600_E_tif
  70
32
  10
582619.450
  20
4608500.000
  30
1095.6
  0
VERTEX
  8
PNOA-H_AMS_1956-57_33k_ES_PAN_21mic_H50_0380_fot_38C-40600_E_tif
  70
32
  10
582619.075
  20
4608500.000
  30
1095.596
  0
VERTEX
  8
PNOA-H_AMS_1956-57_33k_ES_PAN_21mic_H50_0380_fot_38C-40600_E_tif
  70
32
  10
581720.000
  20
4608500.000
  30
1085.716
  0
VERTEX
  8
PNOA-H_AMS_1956-57_33k_ES_PAN_21mic_H50_0380_fot_38C-40600_E_tif
  70
32
  10
581720.000
  20
4607986.116
  30
1083.931
  0
VERTEX
  8
PNOA-H_AMS_1956-57_33k_ES_PAN_21mic_H50_0380_fot_38C-40600_E_tif
  70
32
  10
581720.000
  20
4607986.097
  30
1083.931
  0
VERTEX
  8
PNOA-H_AMS_1956-57_33k_ES_PAN_21mic_H50_0380_fot_38C-40600_E_tif
  70
32
  10
579937.500
  20
4607946.000
  30
1063.972
  0
VERTEX
  8
PNOA-H_AMS_1956-57_33k_ES_PAN_21mic_H50_0380_fot_38C-40600_E_tif
  70
32
  10
579937.314
  20
4607952.224
  30
1063.972
  0
VERTEX
  8
PNOA-H_AMS_1956-57_33k_ES_PAN_21mic_H50_0380_fot_38C-40600_E_tif
  70
32
  10
579811.677
  20
4612158.566
  30
1063.575
  0
VERTEX
  8
PNOA-H_AMS_1956-57_33k_ES_PAN_21mic_H50_0380_fot_38C-40600_E_tif
  70
32
  10
579811.500
  20
4612164.500
  30
1063.574
  0
VERTEX
  8
PNOA-H_AMS_1956-57_33k_ES_PAN_21mic_H50_0380_fot_38C-40600_E_tif
  70
32
  10
580034.500
  20
4612182.500
  30
1064.923
  0
VERTEX
  8
PNOA-H_AMS_1956-57_33k_ES_PAN_21mic_H50_0380_fot_38C-40600_E_tif
  70
32
  10
580041.000
  20
4612183.000
  30
1064.956
  0
VERTEX
  8
PNOA-H_AMS_1956-57_33k_ES_PAN_21mic_H50_0380_fot_38C-40600_E_tif
  70
32
  10
582312.500
  20
4612364.000
  30
1104.188
  0
SEQEND
  8
PNOA-H_AMS_1956-57_33k_ES_PAN_21mic_H50_0380_fot_38C-40600_E_tif
  0
INSERT
  8
FeatureAttribs
  2
FEATURE
  41
1
  42
1
  43
1
  50
0
  10
580397.121
  20
4601773.250
 66
1
  0
ATTRIB
  8
FeatureAttribs
 70
0
  1
PNOA-H_AMS_1956-57_33k_ES_PAN_21mic_H50_0380_fot_40B-38885_W.tif
  2
NAME
  10
580397.121
  20
4601773.250
 40
33.53142
  0
SEQEND
  0
POLYLINE
  8
PNOA-H_AMS_1956-57_33k_ES_PAN_21mic_H50_0380_fot_40B-38885_W_tif
  70
9
  66
1
  0
VERTEX
  8
PNOA-H_AMS_1956-57_33k_ES_PAN_21mic_H50_0380_fot_40B-38885_W_tif
  70
32
  10
580155.082
  20
4599339.642
  30
1054.644
  0
VERTEX
  8
PNOA-H_AMS_1956-57_33k_ES_PAN_21mic_H50_0380_fot_40B-38885_W_tif
  70
32
  10
580154.500
  20
4599339.500
  30
1054.636
  0
VERTEX
  8
PNOA-H_AMS_1956-57_33k_ES_PAN_21mic_H50_0380_fot_40B-38885_W_tif
  70
32
  10
580072.907
  20
4599367.648
  30
1057.303
  0
VERTEX
  8
PNOA-H_AMS_1956-57_33k_ES_PAN_21mic_H50_0380_fot_40B-38885_W_tif
  70
32
  10
579053.000
  20
4599719.500
  30
1090.636
  0
VERTEX
  8
PNOA-H_AMS_1956-57_33k_ES_PAN_21mic_H50_0380_fot_40B-38885_W_tif
  70
32
  10
579052.361
  20
4599727.488
  30
1090.931
  0
VERTEX
  8
PNOA-H_AMS_1956-57_33k_ES_PAN_21mic_H50_0380_fot_40B-38885_W_tif
  70
32
  10
579052.000
  20
4599732.000
  30
1091.098
  0
VERTEX
  8
PNOA-H_AMS_1956-57_33k_ES_PAN_21mic_H50_0380_fot_40B-38885_W_tif
  70
32
  10
578979.431
  20
4603655.092
  30
1079.591
  0
VERTEX
  8
PNOA-H_AMS_1956-57_33k_ES_PAN_21mic_H50_0380_fot_40B-38885_W_tif
  70
32
  10
578977.005
  20
4603786.231
  30
1079.206
  0
VERTEX
  8
PNOA-H_AMS_1956-57_33k_ES_PAN_21mic_H50_0380_fot_40B-38885_W_tif
  70
32
  10
578977.000
  20
4603786.500
  30
1079.205
  0
VERTEX
  8
PNOA-H_AMS_1956-57_33k_ES_PAN_21mic_H50_0380_fot_40B-38885_W_tif
  70
32
  10
579895.497
  20
4604206.999
  30
1052.226
  0
VERTEX
  8
PNOA-H_AMS_1956-57_33k_ES_PAN_21mic_H50_0380_fot_40B-38885_W_tif
  70
32
  10
579895.500
  20
4604207.000
  30
1052.226
  0
VERTEX
  8
PNOA-H_AMS_1956-57_33k_ES_PAN_21mic_H50_0380_fot_40B-38885_W_tif
  70
32
  10
580041.000
  20
4604175.000
  30
1055.897
  0
VERTEX
  8
PNOA-H_AMS_1956-57_33k_ES_PAN_21mic_H50_0380_fot_40B-38885_W_tif
  70
32
  10
580044.000
  20
4604174.500
  30
1055.969
  0
VERTEX
  8
PNOA-H_AMS_1956-57_33k_ES_PAN_21mic_H50_0380_fot_40B-38885_W_tif
  70
32
  10
581764.500
  20
4603800.500
  30
1021.197
  0
VERTEX
  8
PNOA-H_AMS_1956-57_33k_ES_PAN_21mic_H50_0380_fot_40B-38885_W_tif
  70
32
  10
581780.000
  20
4601834.422
  30
1047.903
  0
VERTEX
  8
PNOA-H_AMS_1956-57_33k_ES_PAN_21mic_H50_0380_fot_40B-38885_W_tif
  70
32
  10
581780.000
  20
4599737.691
  30
1076.111
  0
VERTEX
  8
PNOA-H_AMS_1956-57_33k_ES_PAN_21mic_H50_0380_fot_40B-38885_W_tif
  70
32
  10
581780.000
  20
4599737.460
  30
1076.114
  0
VERTEX
  8
PNOA-H_AMS_1956-57_33k_ES_PAN_21mic_H50_0380_fot_40B-38885_W_tif
  70
32
  10
580992.191
  20
4599544.586
  30
1065.705
  0
VERTEX
  8
PNOA-H_AMS_1956-57_33k_ES_PAN_21mic_H50_0380_fot_40B-38885_W_tif
  70
32
  10
580155.082
  20
4599339.642
  30
1054.644
  0
SEQEND
  8
PNOA-H_AMS_1956-57_33k_ES_PAN_21mic_H50_0380_fot_40B-38885_W_tif
  0
INSERT
  8
FeatureAttribs
  2
FEATURE
  41
1
  42
1
  43
1
  50
0
  10
577634.413
  20
4601740.250
 66
1
  0
ATTRIB
  8
FeatureAttribs
 70
0
  1
PNOA-H_AMS_1956-57_33k_ES_PAN_21mic_H50_0380_fot_40B-38886_W.tif
  2
NAME
  10
577634.413
  20
4601740.250
 40
33.53142
  0
SEQEND
  0
POLYLINE
  8
PNOA-H_AMS_1956-57_33k_ES_PAN_21mic_H50_0380_fot_40B-38886_W_tif
  70
9
  66
1
  0
VERTEX
  8
PNOA-H_AMS_1956-57_33k_ES_PAN_21mic_H50_0380_fot_40B-38886_W_tif
  70
32
  10
577123.357
  20
4604135.932
  30
1176.771
  0
VERTEX
  8
PNOA-H_AMS_1956-57_33k_ES_PAN_21mic_H50_0380_fot_40B-38886_W_tif
  70
32
  10
577994.000
  20
4603971.500
  30
1146.311
  0
VERTEX
  8
PNOA-H_AMS_1956-57_33k_ES_PAN_21mic_H50_0380_fot_40B-38886_W_tif
  70
32
  10
577994.410
  20
4603971.500
  30
1146.277
  0
VERTEX
  8
PNOA-H_AMS_1956-57_33k_ES_PAN_21mic_H50_0380_fot_40B-38886_W_tif
  70
32
  10
577996.000
  20
4603971.500
  30
1146.147
  0
VERTEX
  8
PNOA-H_AMS_1956-57_33k_ES_PAN_21mic_H50_0380_fot_40B-38886_W_tif
  70
32
  10
578976.646
  20
4603786.067
  30
1079.233
  0
VERTEX
  8
PNOA-H_AMS_1956-57_33k_ES_PAN_21mic_H50_0380_fot_40B-38886_W_tif
  70
32
  10
578977.000
  20
4603786.000
  30
1079.209
  0
VERTEX
  8
PNOA-H_AMS_1956-57_33k_ES_PAN_21mic_H50_0380_fot_40B-38886_W_tif
  70
32
  10
578979.431
  20
4603655.092
  30
1079.577
  0
VERTEX
  8
PNOA-H_AMS_1956-57_33k_ES_PAN_21mic_H50_0380_fot_40B-38886_W_tif
  70
32
  10
579052.361
  20
4599727.488
  30
1090.609
  0
VERTEX
  8
PNOA-H_AMS_1956-57_33k_ES_PAN_21mic_H50_0380_fot_40B-38886_W_tif
  70
32
  10
579052.500
  20
4599720.000
  30
1090.63
  0
VERTEX
  8
PNOA-H_AMS_1956-57_33k_ES_PAN_21mic_H50_0380_fot_40B-38886_W_tif
  70
32
  10
579051.922
  20
4599719.854
  30
1090.652
  0
VERTEX
  8
PNOA-H_AMS_1956-57_33k_ES_PAN_21mic_H50_0380_fot_40B-38886_W_tif
  70
32
  10
577563.000
  20
4599344.500
  30
1148.903
  0
VERTEX
  8
PNOA-H_AMS_1956-57_33k_ES_PAN_21mic_H50_0380_fot_40B-38886_W_tif
  70
32
  10
577562.549
  20
4599344.638
  30
1148.894
  0
VERTEX
  8
PNOA-H_AMS_1956-57_33k_ES_PAN_21mic_H50_0380_fot_40B-38886_W_tif
  70
32
  10
576928.750
  20
4599539.250
  30
1136.275
  0
VERTEX
  8
PNOA-H_AMS_1956-57_33k_ES_PAN_21mic_H50_0380_fot_40B-38886_W_tif
  70
32
  10
576294.852
  20
4599733.892
  30
1123.654
  0
VERTEX
  8
PNOA-H_AMS_1956-57_33k_ES_PAN_21mic_H50_0380_fot_40B-38886_W_tif
  70
32
  10
576294.500
  20
4599734.000
  30
1123.647
  0
VERTEX
  8
PNOA-H_AMS_1956-57_33k_ES_PAN_21mic_H50_0380_fot_40B-38886_W_tif
  70
32
  10
576214.000
  20
4603706.000
  30
1079.974
  0
VERTEX
  8
PNOA-H_AMS_1956-57_33k_ES_PAN_21mic_H50_0380_fot_40B-38886_W_tif
  70
32
  10
577123.000
  20
4604136.000
  30
1176.784
  0
VERTEX
  8
PNOA-H_AMS_1956-57_33k_ES_PAN_21mic_H50_0380_fot_40B-38886_W_tif
  70
32
  10
577123.357
  20
4604135.932
  30
1176.771
  0
SEQEND
  8
PNOA-H_AMS_1956-57_33k_ES_PAN_21mic_H50_0380_fot_40B-38886_W_tif
  0
INSERT
  8
FeatureAttribs
  2
FEATURE
  41
1
  42
1
  43
1
  50
0
  10
578469.749
  20
4605870.500
 66
1
  0
ATTRIB
  8
FeatureAttribs
 70
0
  1
PNOA-H_AMS_1956-57_33k_ES_PAN_21mic_H50_0380_fot_39D-50437_E.tif
  2
NAME
  10
578469.749
  20
4605870.500
 40
33.53142
  0
SEQEND
  0
POLYLINE
  8
PNOA-H_AMS_1956-57_33k_ES_PAN_21mic_H50_0380_fot_39D-50437_E_tif
  70
9
  66
1
  0
VERTEX
  8
PNOA-H_AMS_1956-57_33k_ES_PAN_21mic_H50_0380_fot_39D-50437_E_tif
  70
32
  10
578976.646
  20
4603786.067
  30
1079.23
  0
VERTEX
  8
PNOA-H_AMS_1956-57_33k_ES_PAN_21mic_H50_0380_fot_39D-50437_E_tif
  70
32
  10
578976.500
  20
4603786.000
  30
1079.234
  0
VERTEX
  8
PNOA-H_AMS_1956-57_33k_ES_PAN_21mic_H50_0380_fot_39D-50437_E_tif
  70
32
  10
577994.410
  20
4603971.500
  30
1130.891
  0
VERTEX
  8
PNOA-H_AMS_1956-57_33k_ES_PAN_21mic_H50_0380_fot_39D-50437_E_tif
  70
32
  10
577123.500
  20
4604136.000
  30
1176.7
  0
VERTEX
  8
PNOA-H_AMS_1956-57_33k_ES_PAN_21mic_H50_0380_fot_39D-50437_E_tif
  70
32
  10
576975.500
  20
4607778.000
  30
1081.699
  0
VERTEX
  8
PNOA-H_AMS_1956-57_33k_ES_PAN_21mic_H50_0380_fot_39D-50437_E_tif
  70
32
  10
576975.535
  20
4607778.025
  30
1081.698
  0
VERTEX
  8
PNOA-H_AMS_1956-57_33k_ES_PAN_21mic_H50_0380_fot_39D-50437_E_tif
  70
32
  10
577218.000
  20
4607955.000
  30
1072.271
  0
VERTEX
  8
PNOA-H_AMS_1956-57_33k_ES_PAN_21mic_H50_0380_fot_39D-50437_E_tif
  70
32
  10
577218.489
  20
4607954.989
  30
1072.271
  0
VERTEX
  8
PNOA-H_AMS_1956-57_33k_ES_PAN_21mic_H50_0380_fot_39D-50437_E_tif
  70
32
  10
577972.500
  20
4607938.500
  30
1071.18
  0
VERTEX
  8
PNOA-H_AMS_1956-57_33k_ES_PAN_21mic_H50_0380_fot_39D-50437_E_tif
  70
32
  10
577996.000
  20
4607938.000
  30
1070.076
  0
VERTEX
  8
PNOA-H_AMS_1956-57_33k_ES_PAN_21mic_H50_0380_fot_39D-50437_E_tif
  70
32
  10
579875.500
  20
4607897.500
  30
1065.637
  0
VERTEX
  8
PNOA-H_AMS_1956-57_33k_ES_PAN_21mic_H50_0380_fot_39D-50437_E_tif
  70
32
  10
579895.497
  20
4604206.999
  30
1052.098
  0
VERTEX
  8
PNOA-H_AMS_1956-57_33k_ES_PAN_21mic_H50_0380_fot_39D-50437_E_tif
  70
32
  10
579895.500
  20
4604206.500
  30
1052.096
  0
VERTEX
  8
PNOA-H_AMS_1956-57_33k_ES_PAN_21mic_H50_0380_fot_39D-50437_E_tif
  70
32
  10
578977.005
  20
4603786.231
  30
1079.219
  0
VERTEX
  8
PNOA-H_AMS_1956-57_33k_ES_PAN_21mic_H50_0380_fot_39D-50437_E_tif
  70
32
  10
578976.646
  20
4603786.067
  30
1079.23
  0
SEQEND
  8
PNOA-H_AMS_1956-57_33k_ES_PAN_21mic_H50_0380_fot_39D-50437_E_tif
  0
INSERT
  8
FeatureAttribs
  2
FEATURE
  41
1
  42
1
  43
1
  50
0
  10
580803.181
  20
4605893.308
 66
1
  0
ATTRIB
  8
FeatureAttribs
 70
0
  1
PNOA-H_AMS_1956-57_33k_ES_PAN_21mic_H50_0380_fot_39D-50438_E.tif
  2
NAME
  10
580803.181
  20
4605893.308
 40
33.53142
  0
SEQEND
  0
POLYLINE
  8
PNOA-H_AMS_1956-57_33k_ES_PAN_21mic_H50_0380_fot_39D-50438_E_tif
  70
9
  66
1
  0
VERTEX
  8
PNOA-H_AMS_1956-57_33k_ES_PAN_21mic_H50_0380_fot_39D-50438_E_tif
  70
32
  10
581720.000
  20
4607986.097
  30
1083.276
  0
VERTEX
  8
PNOA-H_AMS_1956-57_33k_ES_PAN_21mic_H50_0380_fot_39D-50438_E_tif
  70
32
  10
581720.000
  20
4604080.000
  30
1064.824
  0
VERTEX
  8
PNOA-H_AMS_1956-57_33k_ES_PAN_21mic_H50_0380_fot_39D-50438_E_tif
  70
32
  10
581780.000
  20
4604080.000
  30
1064.824
  0
VERTEX
  8
PNOA-H_AMS_1956-57_33k_ES_PAN_21mic_H50_0380_fot_39D-50438_E_tif
  70
32
  10
581780.000
  20
4603807.214
  30
1021.878
  0
VERTEX
  8
PNOA-H_AMS_1956-57_33k_ES_PAN_21mic_H50_0380_fot_39D-50438_E_tif
  70
32
  10
581780.000
  20
4603806.984
  30
1021.842
  0
VERTEX
  8
PNOA-H_AMS_1956-57_33k_ES_PAN_21mic_H50_0380_fot_39D-50438_E_tif
  70
32
  10
581765.000
  20
4603800.500
  30
1021.248
  0
VERTEX
  8
PNOA-H_AMS_1956-57_33k_ES_PAN_21mic_H50_0380_fot_39D-50438_E_tif
  70
32
  10
581764.667
  20
4603800.572
  30
1021.253
  0
VERTEX
  8
PNOA-H_AMS_1956-57_33k_ES_PAN_21mic_H50_0380_fot_39D-50438_E_tif
  70
32
  10
579895.500
  20
4604207.000
  30
1052.226
  0
VERTEX
  8
PNOA-H_AMS_1956-57_33k_ES_PAN_21mic_H50_0380_fot_39D-50438_E_tif
  70
32
  10
579875.500
  20
4607897.500
  30
1065.637
  0
VERTEX
  8
PNOA-H_AMS_1956-57_33k_ES_PAN_21mic_H50_0380_fot_39D-50438_E_tif
  70
32
  10
579875.513
  20
4607897.511
  30
1065.637
  0
VERTEX
  8
PNOA-H_AMS_1956-57_33k_ES_PAN_21mic_H50_0380_fot_39D-50438_E_tif
  70
32
  10
579937.027
  20
4607945.630
  30
1063.985
  0
VERTEX
  8
PNOA-H_AMS_1956-57_33k_ES_PAN_21mic_H50_0380_fot_39D-50438_E_tif
  70
32
  10
579937.500
  20
4607946.000
  30
1063.972
  0
VERTEX
  8
PNOA-H_AMS_1956-57_33k_ES_PAN_21mic_H50_0380_fot_39D-50438_E_tif
  70
32
  10
580001.500
  20
4607947.500
  30
1063.276
  0
VERTEX
  8
PNOA-H_AMS_1956-57_33k_ES_PAN_21mic_H50_0380_fot_39D-50438_E_tif
  70
32
  10
580024.000
  20
4607948.000
  30
1063.062
  0
VERTEX
  8
PNOA-H_AMS_1956-57_33k_ES_PAN_21mic_H50_0380_fot_39D-50438_E_tif
  70
32
  10
581720.000
  20
4607986.116
  30
1083.276
  0
VERTEX
  8
PNOA-H_AMS_1956-57_33k_ES_PAN_21mic_H50_0380_fot_39D-50438_E_tif
  70
32
  10
581720.000
  20
4607986.097
  30
1083.276
  0
SEQEND
  8
PNOA-H_AMS_1956-57_33k_ES_PAN_21mic_H50_0380_fot_39D-50438_E_tif
  0
INSERT
  8
FeatureAttribs
  2
FEATURE
  41
1
  42
1
  43
1
  50
0
  10
580995.716
  20
4597227.836
 66
1
  0
ATTRIB
  8
FeatureAttribs
 70
0
  1
PNOA-H_AMS_1956-57_33k_ES_PAN_21mic_H50_0380_fot_41B-37371_W.tif
  2
NAME
  10
580995.716
  20
4597227.836
 40
33.53142
  0
SEQEND
  0
POLYLINE
  8
PNOA-H_AMS_1956-57_33k_ES_PAN_21mic_H50_0380_fot_41B-37371_W_tif
  70
9
  66
1
  0
VERTEX
  8
PNOA-H_AMS_1956-57_33k_ES_PAN_21mic_H50_0380_fot_41B-37371_W_tif
  70
32
  10
581780.000
  20
4599737.460
  30
1076.182
  0
VERTEX
  8
PNOA-H_AMS_1956-57_33k_ES_PAN_21mic_H50_0380_fot_41B-37371_W_tif
  70
32
  10
581780.000
  20
4599460.000
  30
1060.929
  0
VERTEX
  8
PNOA-H_AMS_1956-57_33k_ES_PAN_21mic_H50_0380_fot_41B-37371_W_tif
  70
32
  10
581830.000
  20
4599460.000
  30
1060.929
  0
VERTEX
  8
PNOA-H_AMS_1956-57_33k_ES_PAN_21mic_H50_0380_fot_41B-37371_W_tif
  70
32
  10
581830.000
  20
4594830.000
  30
1060.929
  0
VERTEX
  8
PNOA-H_AMS_1956-57_33k_ES_PAN_21mic_H50_0380_fot_41B-37371_W_tif
  70
32
  10
581880.000
  20
4594830.000
  30
1060.929
  0
VERTEX
  8
PNOA-H_AMS_1956-57_33k_ES_PAN_21mic_H50_0380_fot_41B-37371_W_tif
  70
32
  10
581880.000
  20
4594728.768
  30
1046.778
  0
VERTEX
  8
PNOA-H_AMS_1956-57_33k_ES_PAN_21mic_H50_0380_fot_41B-37371_W_tif
  70
32
  10
581724.456
  20
4594726.969
  30
0
  0
VERTEX
  8
PNOA-H_AMS_1956-57_33k_ES_PAN_21mic_H50_0380_fot_41B-37371_W_tif
  70
32
  10
580914.192
  20
4594717.988
  30
1074.087
  0
VERTEX
  8
PNOA-H_AMS_1956-57_33k_ES_PAN_21mic_H50_0380_fot_41B-37371_W_tif
  70
32
  10
580913.524
  20
4594717.980
  30
1074.106
  0
VERTEX
  8
PNOA-H_AMS_1956-57_33k_ES_PAN_21mic_H50_0380_fot_41B-37371_W_tif
  70
32
  10
580518.442
  20
4594801.149
  30
1096.978
  0
VERTEX
  8
PNOA-H_AMS_1956-57_33k_ES_PAN_21mic_H50_0380_fot_41B-37371_W_tif
  70
32
  10
580170.000
  20
4594874.500
  30
1117.15
  0
VERTEX
  8
PNOA-H_AMS_1956-57_33k_ES_PAN_21mic_H50_0380_fot_41B-37371_W_tif
  70
32
  10
580168.500
  20
4594875.000
  30
1118.002
  0
VERTEX
  8
PNOA-H_AMS_1956-57_33k_ES_PAN_21mic_H50_0380_fot_41B-37371_W_tif
  70
32
  10
580168.000
  20
4594889.500
  30
1116.416
  0
VERTEX
  8
PNOA-H_AMS_1956-57_33k_ES_PAN_21mic_H50_0380_fot_41B-37371_W_tif
  70
32
  10
580155.500
  20
4599339.500
  30
1054.565
  0
VERTEX
  8
PNOA-H_AMS_1956-57_33k_ES_PAN_21mic_H50_0380_fot_41B-37371_W_tif
  70
32
  10
580992.191
  20
4599544.586
  30
1065.705
  0
VERTEX
  8
PNOA-H_AMS_1956-57_33k_ES_PAN_21mic_H50_0380_fot_41B-37371_W_tif
  70
32
  10
581780.000
  20
4599737.691
  30
1076.194
  0
VERTEX
  8
PNOA-H_AMS_1956-57_33k_ES_PAN_21mic_H50_0380_fot_41B-37371_W_tif
  70
32
  10
581780.000
  20
4599737.460
  30
1076.182
  0
SEQEND
  8
PNOA-H_AMS_1956-57_33k_ES_PAN_21mic_H50_0380_fot_41B-37371_W_tif
  0
INSERT
  8
FeatureAttribs
  2
FEATURE
  41
1
  42
1
  43
1
  50
0
  10
578836.807
  20
4597203.776
 66
1
  0
ATTRIB
  8
FeatureAttribs
 70
0
  1
PNOA-H_AMS_1956-57_33k_ES_PAN_21mic_H50_0380_fot_41B-37372_W.tif
  2
NAME
  10
578836.807
  20
4597203.776
 40
33.53142
  0
SEQEND
  0
POLYLINE
  8
PNOA-H_AMS_1956-57_33k_ES_PAN_21mic_H50_0380_fot_41B-37372_W_tif
  70
9
  66
1
  0
VERTEX
  8
PNOA-H_AMS_1956-57_33k_ES_PAN_21mic_H50_0380_fot_41B-37372_W_tif
  70
32
  10
578166.291
  20
4594687.569
  30
0
  0
VERTEX
  8
PNOA-H_AMS_1956-57_33k_ES_PAN_21mic_H50_0380_fot_41B-37372_W_tif
  70
32
  10
578164.660
  20
4594687.551
  30
998.703
  0
VERTEX
  8
PNOA-H_AMS_1956-57_33k_ES_PAN_21mic_H50_0380_fot_41B-37372_W_tif
  70
32
  10
577994.318
  20
4594723.500
  30
979.651
  0
VERTEX
  8
PNOA-H_AMS_1956-57_33k_ES_PAN_21mic_H50_0380_fot_41B-37372_W_tif
  70
32
  10
577936.577
  20
4594735.685
  30
973.194
  0
VERTEX
  8
PNOA-H_AMS_1956-57_33k_ES_PAN_21mic_H50_0380_fot_41B-37372_W_tif
  70
32
  10
577457.523
  20
4594836.784
  30
919.616
  0
VERTEX
  8
PNOA-H_AMS_1956-57_33k_ES_PAN_21mic_H50_0380_fot_41B-37372_W_tif
  70
32
  10
577456.500
  20
4594837.000
  30
919.502
  0
VERTEX
  8
PNOA-H_AMS_1956-57_33k_ES_PAN_21mic_H50_0380_fot_41B-37372_W_tif
  70
32
  10
577562.000
  20
4599344.500
  30
1149.123
  0
VERTEX
  8
PNOA-H_AMS_1956-57_33k_ES_PAN_21mic_H50_0380_fot_41B-37372_W_tif
  70
32
  10
577562.549
  20
4599344.638
  30
1149.102
  0
VERTEX
  8
PNOA-H_AMS_1956-57_33k_ES_PAN_21mic_H50_0380_fot_41B-37372_W_tif
  70
32
  10
579051.500
  20
4599720.000
  30
1090.562
  0
VERTEX
  8
PNOA-H_AMS_1956-57_33k_ES_PAN_21mic_H50_0380_fot_41B-37372_W_tif
  70
32
  10
579051.922
  20
4599719.854
  30
1090.548
  0
VERTEX
  8
PNOA-H_AMS_1956-57_33k_ES_PAN_21mic_H50_0380_fot_41B-37372_W_tif
  70
32
  10
580042.500
  20
4599378.000
  30
1058.958
  0
VERTEX
  8
PNOA-H_AMS_1956-57_33k_ES_PAN_21mic_H50_0380_fot_41B-37372_W_tif
  70
32
  10
580044.000
  20
4599377.500
  30
1058.961
  0
VERTEX
  8
PNOA-H_AMS_1956-57_33k_ES_PAN_21mic_H50_0380_fot_41B-37372_W_tif
  70
32
  10
580072.907
  20
4599367.648
  30
1057.821
  0
VERTEX
  8
PNOA-H_AMS_1956-57_33k_ES_PAN_21mic_H50_0380_fot_41B-37372_W_tif
  70
32
  10
580155.082
  20
4599339.642
  30
1054.581
  0
VERTEX
  8
PNOA-H_AMS_1956-57_33k_ES_PAN_21mic_H50_0380_fot_41B-37372_W_tif
  70
32
  10
580155.500
  20
4599339.500
  30
1054.565
  0
VERTEX
  8
PNOA-H_AMS_1956-57_33k_ES_PAN_21mic_H50_0380_fot_41B-37372_W_tif
  70
32
  10
580168.500
  20
4594875.000
  30
1118.002
  0
VERTEX
  8
PNOA-H_AMS_1956-57_33k_ES_PAN_21mic_H50_0380_fot_41B-37372_W_tif
  70
32
  10
580167.922
  20
4594874.806
  30
1117.991
  0
VERTEX
  8
PNOA-H_AMS_1956-57_33k_ES_PAN_21mic_H50_0380_fot_41B-37372_W_tif
  70
32
  10
579658.445
  20
4594704.069
  30
1108.795
  0
VERTEX
  8
PNOA-H_AMS_1956-57_33k_ES_PAN_21mic_H50_0380_fot_41B-37372_W_tif
  70
32
  10
579657.361
  20
4594704.057
  30
0
  0
VERTEX
  8
PNOA-H_AMS_1956-57_33k_ES_PAN_21mic_H50_0380_fot_41B-37372_W_tif
  70
32
  10
578246.780
  20
4594688.422
  30
0
  0
VERTEX
  8
PNOA-H_AMS_1956-57_33k_ES_PAN_21mic_H50_0380_fot_41B-37372_W_tif
  70
32
  10
578166.291
  20
4594687.569
  30
0
  0
SEQEND
  8
PNOA-H_AMS_1956-57_33k_ES_PAN_21mic_H50_0380_fot_41B-37372_W_tif
  0
INSERT
  8
FeatureAttribs
  2
FEATURE
  41
1
  42
1
  43
1
  50
0
  10
581776.112
  20
4602820.818
 66
1
  0
ATTRIB
  8
FeatureAttribs
 70
0
  1
PNOA-H_AMS_1956-57_33k_ES_PAN_21mic_H50_0380_fot_40B-38884_W.tif
  2
NAME
  10
581776.112
  20
4602820.818
 40
33.53142
  0
SEQEND
  0
POLYLINE
  8
PNOA-H_AMS_1956-57_33k_ES_PAN_21mic_H50_0380_fot_40B-38884_W_tif
  70
9
  66
1
  0
VERTEX
  8
PNOA-H_AMS_1956-57_33k_ES_PAN_21mic_H50_0380_fot_40B-38884_W_tif
  70
32
  10
581780.000
  20
4603806.984
  30
1022.204
  0
VERTEX
  8
PNOA-H_AMS_1956-57_33k_ES_PAN_21mic_H50_0380_fot_40B-38884_W_tif
  70
32
  10
581780.000
  20
4601834.422
  30
1047.903
  0
VERTEX
  8
PNOA-H_AMS_1956-57_33k_ES_PAN_21mic_H50_0380_fot_40B-38884_W_tif
  70
32
  10
581764.500
  20
4603800.500
  30
1021.197
  0
VERTEX
  8
PNOA-H_AMS_1956-57_33k_ES_PAN_21mic_H50_0380_fot_40B-38884_W_tif
  70
32
  10
581764.667
  20
4603800.572
  30
1021.208
  0
VERTEX
  8
PNOA-H_AMS_1956-57_33k_ES_PAN_21mic_H50_0380_fot_40B-38884_W_tif
  70
32
  10
581780.000
  20
4603807.214
  30
1022.201
  0
VERTEX
  8
PNOA-H_AMS_1956-57_33k_ES_PAN_21mic_H50_0380_fot_40B-38884_W_tif
  70
32
  10
581780.000
  20
4603806.984
  30
1022.204
  0
SEQEND
  8
PNOA-H_AMS_1956-57_33k_ES_PAN_21mic_H50_0380_fot_40B-38884_W_tif
  0
INSERT
  8
FeatureAttribs
  2
FEATURE
  41
1
  42
1
  43
1
  50
0
  10
577507.665
  20
4594755.518
 66
1
  0
ATTRIB
  8
FeatureAttribs
 70
0
  1
PNOA-H_AMS_1956-57_33k_ES_PAN_21mic_H50_0408_fot_000-36343_R.tif
  2
NAME
  10
577507.665
  20
4594755.518
 40
33.53142
  0
SEQEND
  0
POLYLINE
  8
PNOA-H_AMS_1956-57_33k_ES_PAN_21mic_H50_0408_fot_000-36343_R_tif
  70
9
  66
1
  0
VERTEX
  8
PNOA-H_AMS_1956-57_33k_ES_PAN_21mic_H50_0408_fot_000-36343_R_tif
  70
32
  10
577936.577
  20
4594735.685
  30
932.84
  0
VERTEX
  8
PNOA-H_AMS_1956-57_33k_ES_PAN_21mic_H50_0408_fot_000-36343_R_tif
  70
32
  10
577994.000
  20
4594723.500
  30
934.659
  0
VERTEX
  8
PNOA-H_AMS_1956-57_33k_ES_PAN_21mic_H50_0408_fot_000-36343_R_tif
  70
32
  10
577994.318
  20
4594723.500
  30
934.786
  0
VERTEX
  8
PNOA-H_AMS_1956-57_33k_ES_PAN_21mic_H50_0408_fot_000-36343_R_tif
  70
32
  10
577996.000
  20
4594723.500
  30
935.462
  0
VERTEX
  8
PNOA-H_AMS_1956-57_33k_ES_PAN_21mic_H50_0408_fot_000-36343_R_tif
  70
32
  10
578166.291
  20
4594687.569
  30
961.685
  0
VERTEX
  8
PNOA-H_AMS_1956-57_33k_ES_PAN_21mic_H50_0408_fot_000-36343_R_tif
  70
32
  10
578164.660
  20
4594687.551
  30
0
  0
VERTEX
  8
PNOA-H_AMS_1956-57_33k_ES_PAN_21mic_H50_0408_fot_000-36343_R_tif
  70
32
  10
576891.764
  20
4594674.056
  30
0
  0
VERTEX
  8
PNOA-H_AMS_1956-57_33k_ES_PAN_21mic_H50_0408_fot_000-36343_R_tif
  70
32
  10
576889.923
  20
4594674.036
  30
936.317
  0
VERTEX
  8
PNOA-H_AMS_1956-57_33k_ES_PAN_21mic_H50_0408_fot_000-36343_R_tif
  70
32
  10
577454.500
  20
4594837.000
  30
919.898
  0
VERTEX
  8
PNOA-H_AMS_1956-57_33k_ES_PAN_21mic_H50_0408_fot_000-36343_R_tif
  70
32
  10
577456.103
  20
4594836.885
  30
919.416
  0
VERTEX
  8
PNOA-H_AMS_1956-57_33k_ES_PAN_21mic_H50_0408_fot_000-36343_R_tif
  70
32
  10
577457.523
  20
4594836.784
  30
918.99
  0
VERTEX
  8
PNOA-H_AMS_1956-57_33k_ES_PAN_21mic_H50_0408_fot_000-36343_R_tif
  70
32
  10
577461.500
  20
4594836.500
  30
917.795
  0
VERTEX
  8
PNOA-H_AMS_1956-57_33k_ES_PAN_21mic_H50_0408_fot_000-36343_R_tif
  70
32
  10
577936.577
  20
4594735.685
  30
932.84
  0
SEQEND
  8
PNOA-H_AMS_1956-57_33k_ES_PAN_21mic_H50_0408_fot_000-36343_R_tif
  0
INSERT
  8
FeatureAttribs
  2
FEATURE
  41
1
  42
1
  43
1
  50
0
  10
580242.960
  20
4594789.528
 66
1
  0
ATTRIB
  8
FeatureAttribs
 70
0
  1
PNOA-H_AMS_1956-57_33k_ES_PAN_21mic_H50_0408_fot_000-36344_R.tif
  2
NAME
  10
580242.960
  20
4594789.528
 40
33.53142
  0
SEQEND
  0
POLYLINE
  8
PNOA-H_AMS_1956-57_33k_ES_PAN_21mic_H50_0408_fot_000-36344_R_tif
  70
9
  66
1
  0
VERTEX
  8
PNOA-H_AMS_1956-57_33k_ES_PAN_21mic_H50_0408_fot_000-36344_R_tif
  70
32
  10
579658.445
  20
4594704.069
  30
0
  0
VERTEX
  8
PNOA-H_AMS_1956-57_33k_ES_PAN_21mic_H50_0408_fot_000-36344_R_tif
  70
32
  10
579657.361
  20
4594704.057
  30
1109.749
  0
VERTEX
  8
PNOA-H_AMS_1956-57_33k_ES_PAN_21mic_H50_0408_fot_000-36344_R_tif
  70
32
  10
580165.500
  20
4594874.500
  30
1119.835
  0
VERTEX
  8
PNOA-H_AMS_1956-57_33k_ES_PAN_21mic_H50_0408_fot_000-36344_R_tif
  70
32
  10
580167.000
  20
4594875.000
  30
1118.893
  0
VERTEX
  8
PNOA-H_AMS_1956-57_33k_ES_PAN_21mic_H50_0408_fot_000-36344_R_tif
  70
32
  10
580167.922
  20
4594874.806
  30
1118.839
  0
VERTEX
  8
PNOA-H_AMS_1956-57_33k_ES_PAN_21mic_H50_0408_fot_000-36344_R_tif
  70
32
  10
580518.442
  20
4594801.149
  30
1098.243
  0
VERTEX
  8
PNOA-H_AMS_1956-57_33k_ES_PAN_21mic_H50_0408_fot_000-36344_R_tif
  70
32
  10
580914.192
  20
4594717.988
  30
1074.99
  0
VERTEX
  8
PNOA-H_AMS_1956-57_33k_ES_PAN_21mic_H50_0408_fot_000-36344_R_tif
  70
32
  10
580913.524
  20
4594717.980
  30
0
  0
VERTEX
  8
PNOA-H_AMS_1956-57_33k_ES_PAN_21mic_H50_0408_fot_000-36344_R_tif
  70
32
  10
579658.445
  20
4594704.069
  30
0
  0
SEQEND
  8
PNOA-H_AMS_1956-57_33k_ES_PAN_21mic_H50_0408_fot_000-36344_R_tif
  0
INSERT
  8
FeatureAttribs
  2
FEATURE
  41
1
  42
1
  43
1
  50
0
  10
583916.872
  20
4610492.500
 66
1
  0
ATTRIB
  8
FeatureAttribs
 70
0
  1
PNOA-H_AMS_1956-57_33k_ES_PAN_21mic_H50_0380_fot_38C-40601_E.tif
  2
NAME
  10
583916.872
  20
4610492.500
 40
33.53142
  0
SEQEND
  0
POLYLINE
  8
PNOA-H_AMS_1956-57_33k_ES_PAN_21mic_H50_0380_fot_38C-40601_E_tif
  70
9
  66
1
  0
VERTEX
  8
PNOA-H_AMS_1956-57_33k_ES_PAN_21mic_H50_0380_fot_38C-40601_E_tif
  70
32
  10
582619.450
  20
4608500.000
  30
1095.703
  0
VERTEX
  8
PNOA-H_AMS_1956-57_33k_ES_PAN_21mic_H50_0380_fot_38C-40601_E_tif
  70
32
  10
582619.075
  20
4608500.000
  30
1095.71
  0
VERTEX
  8
PNOA-H_AMS_1956-57_33k_ES_PAN_21mic_H50_0380_fot_38C-40601_E_tif
  70
32
  10
582562.000
  20
4612255.000
  30
1107.117
  0
VERTEX
  8
PNOA-H_AMS_1956-57_33k_ES_PAN_21mic_H50_0380_fot_38C-40601_E_tif
  70
32
  10
582563.913
  20
4612255.181
  30
1107.143
  0
VERTEX
  8
PNOA-H_AMS_1956-57_33k_ES_PAN_21mic_H50_0380_fot_38C-40601_E_tif
  70
32
  10
584985.000
  20
4612484.500
  30
1140.245
  0
VERTEX
  8
PNOA-H_AMS_1956-57_33k_ES_PAN_21mic_H50_0380_fot_38C-40601_E_tif
  70
32
  10
584990.500
  20
4612485.000
  30
1139.884
  0
VERTEX
  8
PNOA-H_AMS_1956-57_33k_ES_PAN_21mic_H50_0380_fot_38C-40601_E_tif
  70
32
  10
584993.500
  20
4612485.000
  30
1139.682
  0
VERTEX
  8
PNOA-H_AMS_1956-57_33k_ES_PAN_21mic_H50_0380_fot_38C-40601_E_tif
  70
32
  10
584994.500
  20
4612485.000
  30
1139.615
  0
VERTEX
  8
PNOA-H_AMS_1956-57_33k_ES_PAN_21mic_H50_0380_fot_38C-40601_E_tif
  70
32
  10
585187.840
  20
4612403.068
  30
1124.748
  0
VERTEX
  8
PNOA-H_AMS_1956-57_33k_ES_PAN_21mic_H50_0380_fot_38C-40601_E_tif
  70
32
  10
585188.000
  20
4612403.000
  30
1124.735
  0
VERTEX
  8
PNOA-H_AMS_1956-57_33k_ES_PAN_21mic_H50_0380_fot_38C-40601_E_tif
  70
32
  10
585304.352
  20
4608500.000
  30
1049.338
  0
VERTEX
  8
PNOA-H_AMS_1956-57_33k_ES_PAN_21mic_H50_0380_fot_38C-40601_E_tif
  70
32
  10
582619.450
  20
4608500.000
  30
1095.703
  0
SEQEND
  8
PNOA-H_AMS_1956-57_33k_ES_PAN_21mic_H50_0380_fot_38C-40601_E_tif
  0
INSERT
  8
FeatureAttribs
  2
FEATURE
  41
1
  42
1
  43
1
  50
0
  10
586557.616
  20
4610552.500
 66
1
  0
ATTRIB
  8
FeatureAttribs
 70
0
  1
PNOA-H_AMS_1956-57_33k_ES_PAN_21mic_H50_0380_fot_38C-40602_E.tif
  2
NAME
  10
586557.616
  20
4610552.500
 40
33.53142
  0
SEQEND
  0
POLYLINE
  8
PNOA-H_AMS_1956-57_33k_ES_PAN_21mic_H50_0380_fot_38C-40602_E_tif
  70
9
  66
1
  0
VERTEX
  8
PNOA-H_AMS_1956-57_33k_ES_PAN_21mic_H50_0380_fot_38C-40602_E_tif
  70
32
  10
587913.043
  20
4608500.000
  30
1104.538
  0
VERTEX
  8
PNOA-H_AMS_1956-57_33k_ES_PAN_21mic_H50_0380_fot_38C-40602_E_tif
  70
32
  10
585304.352
  20
4608500.000
  30
1049.338
  0
VERTEX
  8
PNOA-H_AMS_1956-57_33k_ES_PAN_21mic_H50_0380_fot_38C-40602_E_tif
  70
32
  10
585188.000
  20
4612403.000
  30
1124.735
  0
VERTEX
  8
PNOA-H_AMS_1956-57_33k_ES_PAN_21mic_H50_0380_fot_38C-40602_E_tif
  70
32
  10
585656.072
  20
4612440.916
  30
1124.665
  0
VERTEX
  8
PNOA-H_AMS_1956-57_33k_ES_PAN_21mic_H50_0380_fot_38C-40602_E_tif
  70
32
  10
587675.500
  20
4612604.500
  30
1124.364
  0
VERTEX
  8
PNOA-H_AMS_1956-57_33k_ES_PAN_21mic_H50_0380_fot_38C-40602_E_tif
  70
32
  10
587682.000
  20
4612605.000
  30
1124.121
  0
VERTEX
  8
PNOA-H_AMS_1956-57_33k_ES_PAN_21mic_H50_0380_fot_38C-40602_E_tif
  70
32
  10
587683.970
  20
4612604.836
  30
1124.077
  0
VERTEX
  8
PNOA-H_AMS_1956-57_33k_ES_PAN_21mic_H50_0380_fot_38C-40602_E_tif
  70
32
  10
587686.988
  20
4612604.584
  30
1124.008
  0
VERTEX
  8
PNOA-H_AMS_1956-57_33k_ES_PAN_21mic_H50_0380_fot_38C-40602_E_tif
  70
32
  10
587688.000
  20
4612604.500
  30
1123.985
  0
VERTEX
  8
PNOA-H_AMS_1956-57_33k_ES_PAN_21mic_H50_0380_fot_38C-40602_E_tif
  70
32
  10
587829.000
  20
4612545.500
  30
1125.938
  0
VERTEX
  8
PNOA-H_AMS_1956-57_33k_ES_PAN_21mic_H50_0380_fot_38C-40602_E_tif
  70
32
  10
587831.500
  20
4612544.000
  30
1126.042
  0
VERTEX
  8
PNOA-H_AMS_1956-57_33k_ES_PAN_21mic_H50_0380_fot_38C-40602_E_tif
  70
32
  10
587832.000
  20
4612540.000
  30
1126.337
  0
VERTEX
  8
PNOA-H_AMS_1956-57_33k_ES_PAN_21mic_H50_0380_fot_38C-40602_E_tif
  70
32
  10
587913.444
  20
4608500.000
  30
1104.547
  0
VERTEX
  8
PNOA-H_AMS_1956-57_33k_ES_PAN_21mic_H50_0380_fot_38C-40602_E_tif
  70
32
  10
587913.043
  20
4608500.000
  30
1104.538
  0
SEQEND
  8
PNOA-H_AMS_1956-57_33k_ES_PAN_21mic_H50_0380_fot_38C-40602_E_tif
  0
INSERT
  8
FeatureAttribs
  2
FEATURE
  41
1
  42
1
  43
1
  50
0
  10
588240.840
  20
4610551.296
 66
1
  0
ATTRIB
  8
FeatureAttribs
 70
0
  1
PNOA-H_AMS_1956-57_33k_ES_PAN_21mic_H50_0380_fot_38C-40603_E.tif
  2
NAME
  10
588240.840
  20
4610551.296
 40
33.53142
  0
SEQEND
  0
POLYLINE
  8
PNOA-H_AMS_1956-57_33k_ES_PAN_21mic_H50_0380_fot_38C-40603_E_tif
  70
9
  66
1
  0
VERTEX
  8
PNOA-H_AMS_1956-57_33k_ES_PAN_21mic_H50_0380_fot_38C-40603_E_tif
  70
32
  10
587913.444
  20
4608500.000
  30
1102.761
  0
VERTEX
  8
PNOA-H_AMS_1956-57_33k_ES_PAN_21mic_H50_0380_fot_38C-40603_E_tif
  70
32
  10
587913.043
  20
4608500.000
  30
1102.752
  0
VERTEX
  8
PNOA-H_AMS_1956-57_33k_ES_PAN_21mic_H50_0380_fot_38C-40603_E_tif
  70
32
  10
587831.500
  20
4612544.000
  30
1126.042
  0
VERTEX
  8
PNOA-H_AMS_1956-57_33k_ES_PAN_21mic_H50_0380_fot_38C-40603_E_tif
  70
32
  10
588228.000
  20
4612574.000
  30
1118.587
  0
VERTEX
  8
PNOA-H_AMS_1956-57_33k_ES_PAN_21mic_H50_0380_fot_38C-40603_E_tif
  70
32
  10
588235.000
  20
4612574.500
  30
1118.512
  0
VERTEX
  8
PNOA-H_AMS_1956-57_33k_ES_PAN_21mic_H50_0380_fot_38C-40603_E_tif
  70
32
  10
588610.000
  20
4612602.593
  30
1114.157
  0
VERTEX
  8
PNOA-H_AMS_1956-57_33k_ES_PAN_21mic_H50_0380_fot_38C-40603_E_tif
  70
32
  10
588610.000
  20
4612602.095
  30
1114.158
  0
VERTEX
  8
PNOA-H_AMS_1956-57_33k_ES_PAN_21mic_H50_0380_fot_38C-40603_E_tif
  70
32
  10
588610.000
  20
4608500.000
  30
1118.255
  0
VERTEX
  8
PNOA-H_AMS_1956-57_33k_ES_PAN_21mic_H50_0380_fot_38C-40603_E_tif
  70
32
  10
587913.444
  20
4608500.000
  30
1102.761
  0
SEQEND
  8
PNOA-H_AMS_1956-57_33k_ES_PAN_21mic_H50_0380_fot_38C-40603_E_tif
  0
ENDSEC
  0
EOF
