  0
SECTION
  2
HEADER
  9
$ACADVER
  1
AC1009
  9
$LUNITS
  70
2
  9
$LIMMIN
  10
539889.927
  20
4594375.033
  9
$LIMMAX
  10
567813.783
  20
4613086.527
  9
$EXTMIN
  10
539889.927
  20
4594375.033
  9
$EXTMAX
  10
567813.783
  20
4613086.527
  999
Created by Global Mapper
  999
Projection: UTM
  999
Datum: ETRS89
  999
Ground Units: meters
  999
ZONE: 30
  0
ENDSEC
  0
SECTION
  2
TABLES
  0
ENDSEC
  0
SECTION
  2
BLOCKS
  0
BLOCK
  8
FeatureAttribs
  70
0
  2
FEATURE
  3
FEATURE
  10
0.00000000
  20
0.00000000
  0
ATTDEF
  8
FeatureAttribs
  70
0
  1
 
  2
NAME
  3
NAME
  10
0.00000000
  20
0.00000000
  40
1.00000000
  0
ENDBLK
  0
ENDSEC
  0
SECTION
  2
ENTITIES
  0
INSERT
  8
FeatureAttribs
  2
FEATURE
  41
1
  42
1
  43
1
  50
0
  10
540245.034
  20
4612574.249
 66
1
  0
ATTRIB
  8
FeatureAttribs
 70
0
  1
PNOA-H_AMS_1956-57_33k_ES_PAN_21mic_H50_0349_fot_38998.tif
  2
NAME
  10
540245.034
  20
4612574.249
 40
33.61342
  0
SEQEND
  0
POLYLINE
  8
PNOA-H_AMS_1956-57_33k_ES_PAN_21mic_H50_0349_fot_38998_tif
  70
9
  66
1
  0
VERTEX
  8
PNOA-H_AMS_1956-57_33k_ES_PAN_21mic_H50_0349_fot_38998_tif
  70
32
  10
540596.000
  20
4612369.500
  30
1069.345
  0
VERTEX
  8
PNOA-H_AMS_1956-57_33k_ES_PAN_21mic_H50_0349_fot_38998_tif
  70
32
  10
539893.333
  20
4612265.793
  30
1064.329
  0
VERTEX
  8
PNOA-H_AMS_1956-57_33k_ES_PAN_21mic_H50_0349_fot_38998_tif
  70
32
  10
539889.927
  20
4612878.574
  30
0
  0
VERTEX
  8
PNOA-H_AMS_1956-57_33k_ES_PAN_21mic_H50_0349_fot_38998_tif
  70
32
  10
540602.142
  20
4612882.706
  30
1070.49
  0
VERTEX
  8
PNOA-H_AMS_1956-57_33k_ES_PAN_21mic_H50_0349_fot_38998_tif
  70
32
  10
540596.000
  20
4612369.500
  30
1069.345
  0
SEQEND
  8
PNOA-H_AMS_1956-57_33k_ES_PAN_21mic_H50_0349_fot_38998_tif
  0
INSERT
  8
FeatureAttribs
  2
FEATURE
  41
1
  42
1
  43
1
  50
0
  10
547748.727
  20
4612479.189
 66
1
  0
ATTRIB
  8
FeatureAttribs
 70
0
  1
PNOA-H_AMS_1956-57_33k_ES_PAN_21mic_H50_0350_fot_39001.tif
  2
NAME
  10
547748.727
  20
4612479.189
 40
33.61342
  0
SEQEND
  0
POLYLINE
  8
PNOA-H_AMS_1956-57_33k_ES_PAN_21mic_H50_0350_fot_39001_tif
  70
9
  66
1
  0
VERTEX
  8
PNOA-H_AMS_1956-57_33k_ES_PAN_21mic_H50_0350_fot_39001_tif
  70
32
  10
546685.000
  20
4612022.000
  30
1046.855
  0
VERTEX
  8
PNOA-H_AMS_1956-57_33k_ES_PAN_21mic_H50_0350_fot_39001_tif
  70
32
  10
546684.000
  20
4612022.000
  30
1046.881
  0
VERTEX
  8
PNOA-H_AMS_1956-57_33k_ES_PAN_21mic_H50_0350_fot_39001_tif
  70
32
  10
546329.500
  20
4612219.000
  30
1065.193
  0
VERTEX
  8
PNOA-H_AMS_1956-57_33k_ES_PAN_21mic_H50_0350_fot_39001_tif
  70
32
  10
546329.505
  20
4612219.220
  30
1065.19
  0
VERTEX
  8
PNOA-H_AMS_1956-57_33k_ES_PAN_21mic_H50_0350_fot_39001_tif
  70
32
  10
546346.397
  20
4612917.476
  30
1052.765
  0
VERTEX
  8
PNOA-H_AMS_1956-57_33k_ES_PAN_21mic_H50_0350_fot_39001_tif
  70
32
  10
546827.330
  20
4612920.499
  30
0
  0
VERTEX
  8
PNOA-H_AMS_1956-57_33k_ES_PAN_21mic_H50_0350_fot_39001_tif
  70
32
  10
549173.119
  20
4612936.377
  30
0
  0
VERTEX
  8
PNOA-H_AMS_1956-57_33k_ES_PAN_21mic_H50_0350_fot_39001_tif
  70
32
  10
549173.179
  20
4612936.377
  30
991.519
  0
VERTEX
  8
PNOA-H_AMS_1956-57_33k_ES_PAN_21mic_H50_0350_fot_39001_tif
  70
32
  10
549156.487
  20
4612273.880
  30
991.869
  0
VERTEX
  8
PNOA-H_AMS_1956-57_33k_ES_PAN_21mic_H50_0350_fot_39001_tif
  70
32
  10
549153.000
  20
4612135.500
  30
991.943
  0
VERTEX
  8
PNOA-H_AMS_1956-57_33k_ES_PAN_21mic_H50_0350_fot_39001_tif
  70
32
  10
546694.000
  20
4612022.000
  30
1046.617
  0
VERTEX
  8
PNOA-H_AMS_1956-57_33k_ES_PAN_21mic_H50_0350_fot_39001_tif
  70
32
  10
546685.000
  20
4612022.000
  30
1046.855
  0
SEQEND
  8
PNOA-H_AMS_1956-57_33k_ES_PAN_21mic_H50_0350_fot_39001_tif
  0
INSERT
  8
FeatureAttribs
  2
FEATURE
  41
1
  42
1
  43
1
  50
0
  10
542049.180
  20
4612470.825
 66
1
  0
ATTRIB
  8
FeatureAttribs
 70
0
  1
PNOA-H_AMS_1956-57_33k_ES_PAN_21mic_H50_0350_fot_38999.tif
  2
NAME
  10
542049.180
  20
4612470.825
 40
33.61342
  0
SEQEND
  0
POLYLINE
  8
PNOA-H_AMS_1956-57_33k_ES_PAN_21mic_H50_0350_fot_38999_tif
  70
9
  66
1
  0
VERTEX
  8
PNOA-H_AMS_1956-57_33k_ES_PAN_21mic_H50_0350_fot_38999_tif
  70
32
  10
541228.309
  20
4612042.099
  30
1059.772
  0
VERTEX
  8
PNOA-H_AMS_1956-57_33k_ES_PAN_21mic_H50_0350_fot_38999_tif
  70
32
  10
541227.500
  20
4612042.000
  30
1059.776
  0
VERTEX
  8
PNOA-H_AMS_1956-57_33k_ES_PAN_21mic_H50_0350_fot_38999_tif
  70
32
  10
540596.111
  20
4612369.443
  30
1069.343
  0
VERTEX
  8
PNOA-H_AMS_1956-57_33k_ES_PAN_21mic_H50_0350_fot_38999_tif
  70
32
  10
540596.000
  20
4612369.500
  30
1069.345
  0
VERTEX
  8
PNOA-H_AMS_1956-57_33k_ES_PAN_21mic_H50_0350_fot_38999_tif
  70
32
  10
540602.142
  20
4612882.706
  30
1070.492
  0
VERTEX
  8
PNOA-H_AMS_1956-57_33k_ES_PAN_21mic_H50_0350_fot_38999_tif
  70
32
  10
543358.627
  20
4612898.698
  30
0
  0
VERTEX
  8
PNOA-H_AMS_1956-57_33k_ES_PAN_21mic_H50_0350_fot_38999_tif
  70
32
  10
543510.095
  20
4612899.650
  30
1044.477
  0
VERTEX
  8
PNOA-H_AMS_1956-57_33k_ES_PAN_21mic_H50_0350_fot_38999_tif
  70
32
  10
543498.000
  20
4612320.000
  30
1049.701
  0
VERTEX
  8
PNOA-H_AMS_1956-57_33k_ES_PAN_21mic_H50_0350_fot_38999_tif
  70
32
  10
543497.592
  20
4612319.950
  30
1049.702
  0
VERTEX
  8
PNOA-H_AMS_1956-57_33k_ES_PAN_21mic_H50_0350_fot_38999_tif
  70
32
  10
542827.662
  20
4612237.924
  30
1052.675
  0
VERTEX
  8
PNOA-H_AMS_1956-57_33k_ES_PAN_21mic_H50_0350_fot_38999_tif
  70
32
  10
541228.309
  20
4612042.099
  30
1059.772
  0
SEQEND
  8
PNOA-H_AMS_1956-57_33k_ES_PAN_21mic_H50_0350_fot_38999_tif
  0
INSERT
  8
FeatureAttribs
  2
FEATURE
  41
1
  42
1
  43
1
  50
0
  10
544918.429
  20
4612473.488
 66
1
  0
ATTRIB
  8
FeatureAttribs
 70
0
  1
PNOA-H_AMS_1956-57_33k_ES_PAN_21mic_H50_0350_fot_39000.tif
  2
NAME
  10
544918.429
  20
4612473.488
 40
33.61342
  0
SEQEND
  0
POLYLINE
  8
PNOA-H_AMS_1956-57_33k_ES_PAN_21mic_H50_0350_fot_39000_tif
  70
9
  66
1
  0
VERTEX
  8
PNOA-H_AMS_1956-57_33k_ES_PAN_21mic_H50_0350_fot_39000_tif
  70
32
  10
544032.500
  20
4612029.500
  30
1061.073
  0
VERTEX
  8
PNOA-H_AMS_1956-57_33k_ES_PAN_21mic_H50_0350_fot_39000_tif
  70
32
  10
544031.500
  20
4612029.500
  30
1061.064
  0
VERTEX
  8
PNOA-H_AMS_1956-57_33k_ES_PAN_21mic_H50_0350_fot_39000_tif
  70
32
  10
544029.500
  20
4612030.500
  30
1061.064
  0
VERTEX
  8
PNOA-H_AMS_1956-57_33k_ES_PAN_21mic_H50_0350_fot_39000_tif
  70
32
  10
543498.000
  20
4612319.500
  30
1049.723
  0
VERTEX
  8
PNOA-H_AMS_1956-57_33k_ES_PAN_21mic_H50_0350_fot_39000_tif
  70
32
  10
543498.005
  20
4612319.726
  30
1049.721
  0
VERTEX
  8
PNOA-H_AMS_1956-57_33k_ES_PAN_21mic_H50_0350_fot_39000_tif
  70
32
  10
543510.104
  20
4612899.650
  30
1044.492
  0
VERTEX
  8
PNOA-H_AMS_1956-57_33k_ES_PAN_21mic_H50_0350_fot_39000_tif
  70
32
  10
546346.385
  20
4612917.476
  30
1052.774
  0
VERTEX
  8
PNOA-H_AMS_1956-57_33k_ES_PAN_21mic_H50_0350_fot_39000_tif
  70
32
  10
546329.500
  20
4612219.500
  30
1065.192
  0
VERTEX
  8
PNOA-H_AMS_1956-57_33k_ES_PAN_21mic_H50_0350_fot_39000_tif
  70
32
  10
546329.065
  20
4612219.464
  30
1065.191
  0
VERTEX
  8
PNOA-H_AMS_1956-57_33k_ES_PAN_21mic_H50_0350_fot_39000_tif
  70
32
  10
544039.000
  20
4612029.500
  30
1061.132
  0
VERTEX
  8
PNOA-H_AMS_1956-57_33k_ES_PAN_21mic_H50_0350_fot_39000_tif
  70
32
  10
544032.500
  20
4612029.500
  30
1061.073
  0
SEQEND
  8
PNOA-H_AMS_1956-57_33k_ES_PAN_21mic_H50_0350_fot_39000_tif
  0
INSERT
  8
FeatureAttribs
  2
FEATURE
  41
1
  42
1
  43
1
  50
0
  10
553422.880
  20
4612488.357
 66
1
  0
ATTRIB
  8
FeatureAttribs
 70
0
  1
PNOA-H_AMS_1956-57_33k_ES_PAN_21mic_H50_0350_fot_39003.tif
  2
NAME
  10
553422.880
  20
4612488.357
 40
33.61342
  0
SEQEND
  0
POLYLINE
  8
PNOA-H_AMS_1956-57_33k_ES_PAN_21mic_H50_0350_fot_39003_tif
  70
9
  66
1
  0
VERTEX
  8
PNOA-H_AMS_1956-57_33k_ES_PAN_21mic_H50_0350_fot_39003_tif
  70
32
  10
552157.500
  20
4611999.500
  30
980.156
  0
VERTEX
  8
PNOA-H_AMS_1956-57_33k_ES_PAN_21mic_H50_0350_fot_39003_tif
  70
32
  10
552105.500
  20
4611999.500
  30
976.855
  0
VERTEX
  8
PNOA-H_AMS_1956-57_33k_ES_PAN_21mic_H50_0350_fot_39003_tif
  70
32
  10
552104.500
  20
4611999.500
  30
976.791
  0
VERTEX
  8
PNOA-H_AMS_1956-57_33k_ES_PAN_21mic_H50_0350_fot_39003_tif
  70
32
  10
552036.500
  20
4612041.500
  30
975.474
  0
VERTEX
  8
PNOA-H_AMS_1956-57_33k_ES_PAN_21mic_H50_0350_fot_39003_tif
  70
32
  10
552036.707
  20
4612956.601
  30
982.475
  0
VERTEX
  8
PNOA-H_AMS_1956-57_33k_ES_PAN_21mic_H50_0350_fot_39003_tif
  70
32
  10
553764.744
  20
4612969.133
  30
0
  0
VERTEX
  8
PNOA-H_AMS_1956-57_33k_ES_PAN_21mic_H50_0350_fot_39003_tif
  70
32
  10
554809.326
  20
4612977.213
  30
1007.89
  0
VERTEX
  8
PNOA-H_AMS_1956-57_33k_ES_PAN_21mic_H50_0350_fot_39003_tif
  70
32
  10
554809.000
  20
4612024.500
  30
1006.415
  0
VERTEX
  8
PNOA-H_AMS_1956-57_33k_ES_PAN_21mic_H50_0350_fot_39003_tif
  70
32
  10
552157.500
  20
4611999.500
  30
980.156
  0
SEQEND
  8
PNOA-H_AMS_1956-57_33k_ES_PAN_21mic_H50_0350_fot_39003_tif
  0
INSERT
  8
FeatureAttribs
  2
FEATURE
  41
1
  42
1
  43
1
  50
0
  10
550598.982
  20
4612468.300
 66
1
  0
ATTRIB
  8
FeatureAttribs
 70
0
  1
PNOA-H_AMS_1956-57_33k_ES_PAN_21mic_H50_0350_fot_39002.tif
  2
NAME
  10
550598.982
  20
4612468.300
 40
33.61342
  0
SEQEND
  0
POLYLINE
  8
PNOA-H_AMS_1956-57_33k_ES_PAN_21mic_H50_0350_fot_39002_tif
  70
9
  66
1
  0
VERTEX
  8
PNOA-H_AMS_1956-57_33k_ES_PAN_21mic_H50_0350_fot_39002_tif
  70
32
  10
552036.500
  20
4612041.500
  30
975.474
  0
VERTEX
  8
PNOA-H_AMS_1956-57_33k_ES_PAN_21mic_H50_0350_fot_39002_tif
  70
32
  10
549401.500
  20
4611980.000
  30
991.902
  0
VERTEX
  8
PNOA-H_AMS_1956-57_33k_ES_PAN_21mic_H50_0350_fot_39002_tif
  70
32
  10
549401.490
  20
4611980.007
  30
991.902
  0
VERTEX
  8
PNOA-H_AMS_1956-57_33k_ES_PAN_21mic_H50_0350_fot_39002_tif
  70
32
  10
549153.000
  20
4612135.000
  30
991.939
  0
VERTEX
  8
PNOA-H_AMS_1956-57_33k_ES_PAN_21mic_H50_0350_fot_39002_tif
  70
32
  10
549153.012
  20
4612135.492
  30
991.938
  0
VERTEX
  8
PNOA-H_AMS_1956-57_33k_ES_PAN_21mic_H50_0350_fot_39002_tif
  70
32
  10
549156.487
  20
4612273.880
  30
991.869
  0
VERTEX
  8
PNOA-H_AMS_1956-57_33k_ES_PAN_21mic_H50_0350_fot_39002_tif
  70
32
  10
549173.119
  20
4612936.377
  30
991.539
  0
VERTEX
  8
PNOA-H_AMS_1956-57_33k_ES_PAN_21mic_H50_0350_fot_39002_tif
  70
32
  10
549173.179
  20
4612936.377
  30
991.519
  0
VERTEX
  8
PNOA-H_AMS_1956-57_33k_ES_PAN_21mic_H50_0350_fot_39002_tif
  70
32
  10
550296.035
  20
4612943.977
  30
0
  0
VERTEX
  8
PNOA-H_AMS_1956-57_33k_ES_PAN_21mic_H50_0350_fot_39002_tif
  70
32
  10
552036.707
  20
4612956.601
  30
982.475
  0
VERTEX
  8
PNOA-H_AMS_1956-57_33k_ES_PAN_21mic_H50_0350_fot_39002_tif
  70
32
  10
552036.500
  20
4612041.500
  30
975.474
  0
SEQEND
  8
PNOA-H_AMS_1956-57_33k_ES_PAN_21mic_H50_0350_fot_39002_tif
  0
INSERT
  8
FeatureAttribs
  2
FEATURE
  41
1
  42
1
  43
1
  50
0
  10
558927.489
  20
4612496.022
 66
1
  0
ATTRIB
  8
FeatureAttribs
 70
0
  1
PNOA-H_AMS_1956-57_33k_ES_PAN_21mic_H50_0350_fot_39005.tif
  2
NAME
  10
558927.489
  20
4612496.022
 40
33.61342
  0
SEQEND
  0
POLYLINE
  8
PNOA-H_AMS_1956-57_33k_ES_PAN_21mic_H50_0350_fot_39005_tif
  70
9
  66
1
  0
VERTEX
  8
PNOA-H_AMS_1956-57_33k_ES_PAN_21mic_H50_0350_fot_39005_tif
  70
32
  10
560291.500
  20
4612102.500
  30
989.127
  0
VERTEX
  8
PNOA-H_AMS_1956-57_33k_ES_PAN_21mic_H50_0350_fot_39005_tif
  70
32
  10
557707.500
  20
4611971.000
  30
997.207
  0
VERTEX
  8
PNOA-H_AMS_1956-57_33k_ES_PAN_21mic_H50_0350_fot_39005_tif
  70
32
  10
557698.500
  20
4611971.000
  30
997.215
  0
VERTEX
  8
PNOA-H_AMS_1956-57_33k_ES_PAN_21mic_H50_0350_fot_39005_tif
  70
32
  10
557697.500
  20
4611971.000
  30
997.216
  0
VERTEX
  8
PNOA-H_AMS_1956-57_33k_ES_PAN_21mic_H50_0350_fot_39005_tif
  70
32
  10
557571.550
  20
4612044.971
  30
997.673
  0
VERTEX
  8
PNOA-H_AMS_1956-57_33k_ES_PAN_21mic_H50_0350_fot_39005_tif
  70
32
  10
557571.500
  20
4612045.000
  30
997.673
  0
VERTEX
  8
PNOA-H_AMS_1956-57_33k_ES_PAN_21mic_H50_0350_fot_39005_tif
  70
32
  10
557560.678
  20
4612998.655
  30
997.505
  0
VERTEX
  8
PNOA-H_AMS_1956-57_33k_ES_PAN_21mic_H50_0350_fot_39005_tif
  70
32
  10
560284.724
  20
4613021.044
  30
990.906
  0
VERTEX
  8
PNOA-H_AMS_1956-57_33k_ES_PAN_21mic_H50_0350_fot_39005_tif
  70
32
  10
560291.500
  20
4612102.500
  30
989.127
  0
SEQEND
  8
PNOA-H_AMS_1956-57_33k_ES_PAN_21mic_H50_0350_fot_39005_tif
  0
INSERT
  8
FeatureAttribs
  2
FEATURE
  41
1
  42
1
  43
1
  50
0
  10
561667.910
  20
4612498.447
 66
1
  0
ATTRIB
  8
FeatureAttribs
 70
0
  1
PNOA-H_AMS_1956-57_33k_ES_PAN_21mic_H50_0350_fot_39006.tif
  2
NAME
  10
561667.910
  20
4612498.447
 40
33.61342
  0
SEQEND
  0
POLYLINE
  8
PNOA-H_AMS_1956-57_33k_ES_PAN_21mic_H50_0350_fot_39006_tif
  70
9
  66
1
  0
VERTEX
  8
PNOA-H_AMS_1956-57_33k_ES_PAN_21mic_H50_0350_fot_39006_tif
  70
32
  10
560552.444
  20
4611952.032
  30
984.113
  0
VERTEX
  8
PNOA-H_AMS_1956-57_33k_ES_PAN_21mic_H50_0350_fot_39006_tif
  70
32
  10
560552.000
  20
4611952.000
  30
984.107
  0
VERTEX
  8
PNOA-H_AMS_1956-57_33k_ES_PAN_21mic_H50_0350_fot_39006_tif
  70
32
  10
560291.500
  20
4612102.500
  30
989.127
  0
VERTEX
  8
PNOA-H_AMS_1956-57_33k_ES_PAN_21mic_H50_0350_fot_39006_tif
  70
32
  10
560284.724
  20
4613021.044
  30
990.906
  0
VERTEX
  8
PNOA-H_AMS_1956-57_33k_ES_PAN_21mic_H50_0350_fot_39006_tif
  70
32
  10
560702.172
  20
4613024.475
  30
0
  0
VERTEX
  8
PNOA-H_AMS_1956-57_33k_ES_PAN_21mic_H50_0350_fot_39006_tif
  70
32
  10
563048.349
  20
4613044.893
  30
1017.953
  0
VERTEX
  8
PNOA-H_AMS_1956-57_33k_ES_PAN_21mic_H50_0350_fot_39006_tif
  70
32
  10
563046.500
  20
4612132.500
  30
1018.353
  0
VERTEX
  8
PNOA-H_AMS_1956-57_33k_ES_PAN_21mic_H50_0350_fot_39006_tif
  70
32
  10
560863.812
  20
4611974.562
  30
988.387
  0
VERTEX
  8
PNOA-H_AMS_1956-57_33k_ES_PAN_21mic_H50_0350_fot_39006_tif
  70
32
  10
560552.444
  20
4611952.032
  30
984.113
  0
SEQEND
  8
PNOA-H_AMS_1956-57_33k_ES_PAN_21mic_H50_0350_fot_39006_tif
  0
INSERT
  8
FeatureAttribs
  2
FEATURE
  41
1
  42
1
  43
1
  50
0
  10
556187.855
  20
4612480.827
 66
1
  0
ATTRIB
  8
FeatureAttribs
 70
0
  1
PNOA-H_AMS_1956-57_33k_ES_PAN_21mic_H50_0350_fot_39004.tif
  2
NAME
  10
556187.855
  20
4612480.827
 40
33.61342
  0
SEQEND
  0
POLYLINE
  8
PNOA-H_AMS_1956-57_33k_ES_PAN_21mic_H50_0350_fot_39004_tif
  70
9
  66
1
  0
VERTEX
  8
PNOA-H_AMS_1956-57_33k_ES_PAN_21mic_H50_0350_fot_39004_tif
  70
32
  10
557443.560
  20
4612041.050
  30
998.261
  0
VERTEX
  8
PNOA-H_AMS_1956-57_33k_ES_PAN_21mic_H50_0350_fot_39004_tif
  70
32
  10
554915.500
  20
4611963.000
  30
1009.879
  0
VERTEX
  8
PNOA-H_AMS_1956-57_33k_ES_PAN_21mic_H50_0350_fot_39004_tif
  70
32
  10
554912.516
  20
4611963.157
  30
1009.591
  0
VERTEX
  8
PNOA-H_AMS_1956-57_33k_ES_PAN_21mic_H50_0350_fot_39004_tif
  70
32
  10
554906.768
  20
4611963.460
  30
1009.038
  0
VERTEX
  8
PNOA-H_AMS_1956-57_33k_ES_PAN_21mic_H50_0350_fot_39004_tif
  70
32
  10
554906.000
  20
4611963.500
  30
1008.964
  0
VERTEX
  8
PNOA-H_AMS_1956-57_33k_ES_PAN_21mic_H50_0350_fot_39004_tif
  70
32
  10
554809.000
  20
4612024.500
  30
1006.415
  0
VERTEX
  8
PNOA-H_AMS_1956-57_33k_ES_PAN_21mic_H50_0350_fot_39004_tif
  70
32
  10
554809.326
  20
4612977.213
  30
1007.89
  0
VERTEX
  8
PNOA-H_AMS_1956-57_33k_ES_PAN_21mic_H50_0350_fot_39004_tif
  70
32
  10
557233.457
  20
4612995.965
  30
0
  0
VERTEX
  8
PNOA-H_AMS_1956-57_33k_ES_PAN_21mic_H50_0350_fot_39004_tif
  70
32
  10
557560.678
  20
4612998.655
  30
997.505
  0
VERTEX
  8
PNOA-H_AMS_1956-57_33k_ES_PAN_21mic_H50_0350_fot_39004_tif
  70
32
  10
557571.500
  20
4612045.000
  30
997.673
  0
VERTEX
  8
PNOA-H_AMS_1956-57_33k_ES_PAN_21mic_H50_0350_fot_39004_tif
  70
32
  10
557443.560
  20
4612041.050
  30
998.261
  0
SEQEND
  8
PNOA-H_AMS_1956-57_33k_ES_PAN_21mic_H50_0350_fot_39004_tif
  0
INSERT
  8
FeatureAttribs
  2
FEATURE
  41
1
  42
1
  43
1
  50
0
  10
566765.125
  20
4612484.763
 66
1
  0
ATTRIB
  8
FeatureAttribs
 70
0
  1
PNOA-H_AMS_1956-57_33k_ES_PAN_21mic_H50_0350_fot_39008.tif
  2
NAME
  10
566765.125
  20
4612484.763
 40
33.61342
  0
SEQEND
  0
POLYLINE
  8
PNOA-H_AMS_1956-57_33k_ES_PAN_21mic_H50_0350_fot_39008_tif
  70
9
  66
1
  0
VERTEX
  8
PNOA-H_AMS_1956-57_33k_ES_PAN_21mic_H50_0350_fot_39008_tif
  70
32
  10
567650.187
  20
4611965.002
  30
1008.93
  0
VERTEX
  8
PNOA-H_AMS_1956-57_33k_ES_PAN_21mic_H50_0350_fot_39008_tif
  70
32
  10
566264.500
  20
4611883.000
  30
1020.04
  0
VERTEX
  8
PNOA-H_AMS_1956-57_33k_ES_PAN_21mic_H50_0350_fot_39008_tif
  70
32
  10
566258.000
  20
4611883.000
  30
1020.214
  0
VERTEX
  8
PNOA-H_AMS_1956-57_33k_ES_PAN_21mic_H50_0350_fot_39008_tif
  70
32
  10
566257.000
  20
4611883.000
  30
1020.241
  0
VERTEX
  8
PNOA-H_AMS_1956-57_33k_ES_PAN_21mic_H50_0350_fot_39008_tif
  70
32
  10
565883.051
  20
4612102.470
  30
1005.37
  0
VERTEX
  8
PNOA-H_AMS_1956-57_33k_ES_PAN_21mic_H50_0350_fot_39008_tif
  70
32
  10
565883.000
  20
4612102.500
  30
1005.368
  0
VERTEX
  8
PNOA-H_AMS_1956-57_33k_ES_PAN_21mic_H50_0350_fot_39008_tif
  70
32
  10
565887.968
  20
4613070.436
  30
1011.533
  0
VERTEX
  8
PNOA-H_AMS_1956-57_33k_ES_PAN_21mic_H50_0350_fot_39008_tif
  70
32
  10
567639.616
  20
4613086.527
  30
0
  0
VERTEX
  8
PNOA-H_AMS_1956-57_33k_ES_PAN_21mic_H50_0350_fot_39008_tif
  70
32
  10
567650.184
  20
4611965.334
  30
0
  0
VERTEX
  8
PNOA-H_AMS_1956-57_33k_ES_PAN_21mic_H50_0350_fot_39008_tif
  70
32
  10
567650.187
  20
4611965.002
  30
1008.93
  0
SEQEND
  8
PNOA-H_AMS_1956-57_33k_ES_PAN_21mic_H50_0350_fot_39008_tif
  0
INSERT
  8
FeatureAttribs
  2
FEATURE
  41
1
  42
1
  43
1
  50
0
  10
564466.154
  20
4612503.218
 66
1
  0
ATTRIB
  8
FeatureAttribs
 70
0
  1
PNOA-H_AMS_1956-57_33k_ES_PAN_21mic_H50_0350_fot_39007.tif
  2
NAME
  10
564466.154
  20
4612503.218
 40
33.61342
  0
SEQEND
  0
POLYLINE
  8
PNOA-H_AMS_1956-57_33k_ES_PAN_21mic_H50_0350_fot_39007_tif
  70
9
  66
1
  0
VERTEX
  8
PNOA-H_AMS_1956-57_33k_ES_PAN_21mic_H50_0350_fot_39007_tif
  70
32
  10
565673.298
  20
4612088.483
  30
1007.198
  0
VERTEX
  8
PNOA-H_AMS_1956-57_33k_ES_PAN_21mic_H50_0350_fot_39007_tif
  70
32
  10
563392.000
  20
4611936.000
  30
1027.107
  0
VERTEX
  8
PNOA-H_AMS_1956-57_33k_ES_PAN_21mic_H50_0350_fot_39007_tif
  70
32
  10
563391.992
  20
4611936.005
  30
1027.106
  0
VERTEX
  8
PNOA-H_AMS_1956-57_33k_ES_PAN_21mic_H50_0350_fot_39007_tif
  70
32
  10
563046.500
  20
4612132.500
  30
1018.353
  0
VERTEX
  8
PNOA-H_AMS_1956-57_33k_ES_PAN_21mic_H50_0350_fot_39007_tif
  70
32
  10
563048.349
  20
4613044.893
  30
1017.953
  0
VERTEX
  8
PNOA-H_AMS_1956-57_33k_ES_PAN_21mic_H50_0350_fot_39007_tif
  70
32
  10
564170.892
  20
4613054.662
  30
0
  0
VERTEX
  8
PNOA-H_AMS_1956-57_33k_ES_PAN_21mic_H50_0350_fot_39007_tif
  70
32
  10
565887.968
  20
4613070.436
  30
1011.533
  0
VERTEX
  8
PNOA-H_AMS_1956-57_33k_ES_PAN_21mic_H50_0350_fot_39007_tif
  70
32
  10
565883.000
  20
4612102.500
  30
1005.368
  0
VERTEX
  8
PNOA-H_AMS_1956-57_33k_ES_PAN_21mic_H50_0350_fot_39007_tif
  70
32
  10
565673.298
  20
4612088.483
  30
1007.198
  0
SEQEND
  8
PNOA-H_AMS_1956-57_33k_ES_PAN_21mic_H50_0350_fot_39007_tif
  0
INSERT
  8
FeatureAttribs
  2
FEATURE
  41
1
  42
1
  43
1
  50
0
  10
540561.982
  20
4610075.058
 66
1
  0
ATTRIB
  8
FeatureAttribs
 70
0
  1
PNOA-H_AMS_1956-57_33k_ES_PAN_21mic_H50_0379_fot_38C-40585_E.tif
  2
NAME
  10
540561.982
  20
4610075.058
 40
33.61342
  0
SEQEND
  0
POLYLINE
  8
PNOA-H_AMS_1956-57_33k_ES_PAN_21mic_H50_0379_fot_38C-40585_E_tif
  70
9
  66
1
  0
VERTEX
  8
PNOA-H_AMS_1956-57_33k_ES_PAN_21mic_H50_0379_fot_38C-40585_E_tif
  70
32
  10
541185.908
  20
4607927.990
  30
1038.613
  0
VERTEX
  8
PNOA-H_AMS_1956-57_33k_ES_PAN_21mic_H50_0379_fot_38C-40585_E_tif
  70
32
  10
539918.257
  20
4607780.616
  30
1068.347
  0
VERTEX
  8
PNOA-H_AMS_1956-57_33k_ES_PAN_21mic_H50_0379_fot_38C-40585_E_tif
  70
32
  10
539918.257
  20
4607780.730
  30
0
  0
VERTEX
  8
PNOA-H_AMS_1956-57_33k_ES_PAN_21mic_H50_0379_fot_38C-40585_E_tif
  70
32
  10
539915.636
  20
4608252.639
  30
0
  0
VERTEX
  8
PNOA-H_AMS_1956-57_33k_ES_PAN_21mic_H50_0379_fot_38C-40585_E_tif
  70
32
  10
539902.784
  20
4610565.602
  30
0
  0
VERTEX
  8
PNOA-H_AMS_1956-57_33k_ES_PAN_21mic_H50_0379_fot_38C-40585_E_tif
  70
32
  10
539893.333
  20
4612265.765
  30
1068.915
  0
VERTEX
  8
PNOA-H_AMS_1956-57_33k_ES_PAN_21mic_H50_0379_fot_38C-40585_E_tif
  70
32
  10
540596.111
  20
4612369.443
  30
1069.323
  0
VERTEX
  8
PNOA-H_AMS_1956-57_33k_ES_PAN_21mic_H50_0379_fot_38C-40585_E_tif
  70
32
  10
540596.500
  20
4612369.500
  30
1069.323
  0
VERTEX
  8
PNOA-H_AMS_1956-57_33k_ES_PAN_21mic_H50_0379_fot_38C-40585_E_tif
  70
32
  10
541228.309
  20
4612042.099
  30
1059.74
  0
VERTEX
  8
PNOA-H_AMS_1956-57_33k_ES_PAN_21mic_H50_0379_fot_38C-40585_E_tif
  70
32
  10
541228.500
  20
4612042.000
  30
1059.737
  0
VERTEX
  8
PNOA-H_AMS_1956-57_33k_ES_PAN_21mic_H50_0379_fot_38C-40585_E_tif
  70
32
  10
541207.500
  20
4607930.500
  30
1038.106
  0
VERTEX
  8
PNOA-H_AMS_1956-57_33k_ES_PAN_21mic_H50_0379_fot_38C-40585_E_tif
  70
32
  10
541185.908
  20
4607927.990
  30
1038.613
  0
SEQEND
  8
PNOA-H_AMS_1956-57_33k_ES_PAN_21mic_H50_0379_fot_38C-40585_E_tif
  0
INSERT
  8
FeatureAttribs
  2
FEATURE
  41
1
  42
1
  43
1
  50
0
  10
540760.793
  20
4605494.250
 66
1
  0
ATTRIB
  8
FeatureAttribs
 70
0
  1
PNOA-H_AMS_1956-57_33k_ES_PAN_21mic_H50_0379_fot_39D-44204_E.tif
  2
NAME
  10
540760.793
  20
4605494.250
 40
33.61342
  0
SEQEND
  0
POLYLINE
  8
PNOA-H_AMS_1956-57_33k_ES_PAN_21mic_H50_0379_fot_39D-44204_E_tif
  70
9
  66
1
  0
VERTEX
  8
PNOA-H_AMS_1956-57_33k_ES_PAN_21mic_H50_0379_fot_39D-44204_E_tif
  70
32
  10
541519.000
  20
4603392.500
  30
1071.356
  0
VERTEX
  8
PNOA-H_AMS_1956-57_33k_ES_PAN_21mic_H50_0379_fot_39D-44204_E_tif
  70
32
  10
540271.000
  20
4603058.000
  30
1090.509
  0
VERTEX
  8
PNOA-H_AMS_1956-57_33k_ES_PAN_21mic_H50_0379_fot_39D-44204_E_tif
  70
32
  10
540270.531
  20
4603058.143
  30
1090.507
  0
VERTEX
  8
PNOA-H_AMS_1956-57_33k_ES_PAN_21mic_H50_0379_fot_39D-44204_E_tif
  70
32
  10
539943.927
  20
4603157.544
  30
1089.015
  0
VERTEX
  8
PNOA-H_AMS_1956-57_33k_ES_PAN_21mic_H50_0379_fot_39D-44204_E_tif
  70
32
  10
539941.323
  20
4603626.737
  30
0
  0
VERTEX
  8
PNOA-H_AMS_1956-57_33k_ES_PAN_21mic_H50_0379_fot_39D-44204_E_tif
  70
32
  10
539928.482
  20
4605939.684
  30
0
  0
VERTEX
  8
PNOA-H_AMS_1956-57_33k_ES_PAN_21mic_H50_0379_fot_39D-44204_E_tif
  70
32
  10
539918.257
  20
4607780.616
  30
0
  0
VERTEX
  8
PNOA-H_AMS_1956-57_33k_ES_PAN_21mic_H50_0379_fot_39D-44204_E_tif
  70
32
  10
539918.257
  20
4607780.730
  30
1067.62
  0
VERTEX
  8
PNOA-H_AMS_1956-57_33k_ES_PAN_21mic_H50_0379_fot_39D-44204_E_tif
  70
32
  10
541130.500
  20
4607922.000
  30
1037.998
  0
VERTEX
  8
PNOA-H_AMS_1956-57_33k_ES_PAN_21mic_H50_0379_fot_39D-44204_E_tif
  70
32
  10
541132.000
  20
4607922.000
  30
1037.982
  0
VERTEX
  8
PNOA-H_AMS_1956-57_33k_ES_PAN_21mic_H50_0379_fot_39D-44204_E_tif
  70
32
  10
541185.908
  20
4607927.990
  30
1038.08
  0
VERTEX
  8
PNOA-H_AMS_1956-57_33k_ES_PAN_21mic_H50_0379_fot_39D-44204_E_tif
  70
32
  10
541207.674
  20
4607930.408
  30
1038.119
  0
VERTEX
  8
PNOA-H_AMS_1956-57_33k_ES_PAN_21mic_H50_0379_fot_39D-44204_E_tif
  70
32
  10
541208.500
  20
4607930.500
  30
1038.121
  0
VERTEX
  8
PNOA-H_AMS_1956-57_33k_ES_PAN_21mic_H50_0379_fot_39D-44204_E_tif
  70
32
  10
541645.408
  20
4607699.549
  30
1056.388
  0
VERTEX
  8
PNOA-H_AMS_1956-57_33k_ES_PAN_21mic_H50_0379_fot_39D-44204_E_tif
  70
32
  10
541645.500
  20
4607699.500
  30
1056.392
  0
VERTEX
  8
PNOA-H_AMS_1956-57_33k_ES_PAN_21mic_H50_0379_fot_39D-44204_E_tif
  70
32
  10
541538.500
  20
4603399.000
  30
1070.52
  0
VERTEX
  8
PNOA-H_AMS_1956-57_33k_ES_PAN_21mic_H50_0379_fot_39D-44204_E_tif
  70
32
  10
541538.250
  20
4603398.625
  30
1070.595
  0
VERTEX
  8
PNOA-H_AMS_1956-57_33k_ES_PAN_21mic_H50_0379_fot_39D-44204_E_tif
  70
32
  10
541537.782
  20
4603397.923
  30
1070.736
  0
VERTEX
  8
PNOA-H_AMS_1956-57_33k_ES_PAN_21mic_H50_0379_fot_39D-44204_E_tif
  70
32
  10
541537.500
  20
4603397.500
  30
1070.821
  0
VERTEX
  8
PNOA-H_AMS_1956-57_33k_ES_PAN_21mic_H50_0379_fot_39D-44204_E_tif
  70
32
  10
541519.000
  20
4603392.500
  30
1071.356
  0
SEQEND
  8
PNOA-H_AMS_1956-57_33k_ES_PAN_21mic_H50_0379_fot_39D-44204_E_tif
  0
INSERT
  8
FeatureAttribs
  2
FEATURE
  41
1
  42
1
  43
1
  50
0
  10
540331.915
  20
4596651.267
 66
1
  0
ATTRIB
  8
FeatureAttribs
 70
0
  1
PNOA-H_AMS_1956-57_33k_ES_PAN_21mic_H50_0378_fot_41B-37387_W.tif
  2
NAME
  10
540331.915
  20
4596651.267
 40
33.61342
  0
SEQEND
  0
POLYLINE
  8
PNOA-H_AMS_1956-57_33k_ES_PAN_21mic_H50_0378_fot_41B-37387_W_tif
  70
9
  66
1
  0
VERTEX
  8
PNOA-H_AMS_1956-57_33k_ES_PAN_21mic_H50_0378_fot_41B-37387_W_tif
  70
32
  10
540575.128
  20
4594378.402
  30
940.167
  0
VERTEX
  8
PNOA-H_AMS_1956-57_33k_ES_PAN_21mic_H50_0378_fot_41B-37387_W_tif
  70
32
  10
539992.635
  20
4594375.033
  30
0
  0
VERTEX
  8
PNOA-H_AMS_1956-57_33k_ES_PAN_21mic_H50_0378_fot_41B-37387_W_tif
  70
32
  10
539979.815
  20
4596687.947
  30
0
  0
VERTEX
  8
PNOA-H_AMS_1956-57_33k_ES_PAN_21mic_H50_0378_fot_41B-37387_W_tif
  70
32
  10
539967.541
  20
4598901.549
  30
0
  0
VERTEX
  8
PNOA-H_AMS_1956-57_33k_ES_PAN_21mic_H50_0378_fot_41B-37387_W_tif
  70
32
  10
539967.540
  20
4598901.576
  30
1036.768
  0
VERTEX
  8
PNOA-H_AMS_1956-57_33k_ES_PAN_21mic_H50_0378_fot_41B-37387_W_tif
  70
32
  10
540204.000
  20
4598927.000
  30
1039.42
  0
VERTEX
  8
PNOA-H_AMS_1956-57_33k_ES_PAN_21mic_H50_0378_fot_41B-37387_W_tif
  70
32
  10
540208.500
  20
4598927.500
  30
1039.357
  0
VERTEX
  8
PNOA-H_AMS_1956-57_33k_ES_PAN_21mic_H50_0378_fot_41B-37387_W_tif
  70
32
  10
540208.583
  20
4598927.455
  30
1039.352
  0
VERTEX
  8
PNOA-H_AMS_1956-57_33k_ES_PAN_21mic_H50_0378_fot_41B-37387_W_tif
  70
32
  10
540209.003
  20
4598927.229
  30
1039.327
  0
VERTEX
  8
PNOA-H_AMS_1956-57_33k_ES_PAN_21mic_H50_0378_fot_41B-37387_W_tif
  70
32
  10
540777.921
  20
4598621.043
  30
1005.21
  0
VERTEX
  8
PNOA-H_AMS_1956-57_33k_ES_PAN_21mic_H50_0378_fot_41B-37387_W_tif
  70
32
  10
540778.000
  20
4598621.000
  30
1005.205
  0
VERTEX
  8
PNOA-H_AMS_1956-57_33k_ES_PAN_21mic_H50_0378_fot_41B-37387_W_tif
  70
32
  10
540575.128
  20
4594378.402
  30
940.167
  0
SEQEND
  8
PNOA-H_AMS_1956-57_33k_ES_PAN_21mic_H50_0378_fot_41B-37387_W_tif
  0
INSERT
  8
FeatureAttribs
  2
FEATURE
  41
1
  42
1
  43
1
  50
0
  10
540097.889
  20
4601029.400
 66
1
  0
ATTRIB
  8
FeatureAttribs
 70
0
  1
PNOA-H_AMS_1956-57_33k_ES_PAN_21mic_H50_0378_fot_40B-38900_W.tif
  2
NAME
  10
540097.889
  20
4601029.400
 40
33.61342
  0
SEQEND
  0
POLYLINE
  8
PNOA-H_AMS_1956-57_33k_ES_PAN_21mic_H50_0378_fot_40B-38900_W_tif
  70
9
  66
1
  0
VERTEX
  8
PNOA-H_AMS_1956-57_33k_ES_PAN_21mic_H50_0378_fot_40B-38900_W_tif
  70
32
  10
540208.583
  20
4598927.455
  30
1039.345
  0
VERTEX
  8
PNOA-H_AMS_1956-57_33k_ES_PAN_21mic_H50_0378_fot_40B-38900_W_tif
  70
32
  10
539967.541
  20
4598901.549
  30
1036.638
  0
VERTEX
  8
PNOA-H_AMS_1956-57_33k_ES_PAN_21mic_H50_0378_fot_40B-38900_W_tif
  70
32
  10
539967.540
  20
4598901.576
  30
0
  0
VERTEX
  8
PNOA-H_AMS_1956-57_33k_ES_PAN_21mic_H50_0378_fot_40B-38900_W_tif
  70
32
  10
539966.990
  20
4599000.869
  30
0
  0
VERTEX
  8
PNOA-H_AMS_1956-57_33k_ES_PAN_21mic_H50_0378_fot_40B-38900_W_tif
  70
32
  10
539954.159
  20
4601313.799
  30
0
  0
VERTEX
  8
PNOA-H_AMS_1956-57_33k_ES_PAN_21mic_H50_0378_fot_40B-38900_W_tif
  70
32
  10
539943.929
  20
4603157.251
  30
1088.882
  0
VERTEX
  8
PNOA-H_AMS_1956-57_33k_ES_PAN_21mic_H50_0378_fot_40B-38900_W_tif
  70
32
  10
540270.000
  20
4603058.000
  30
1090.523
  0
VERTEX
  8
PNOA-H_AMS_1956-57_33k_ES_PAN_21mic_H50_0378_fot_40B-38900_W_tif
  70
32
  10
540209.000
  20
4598927.500
  30
1039.349
  0
VERTEX
  8
PNOA-H_AMS_1956-57_33k_ES_PAN_21mic_H50_0378_fot_40B-38900_W_tif
  70
32
  10
540208.583
  20
4598927.455
  30
1039.345
  0
SEQEND
  8
PNOA-H_AMS_1956-57_33k_ES_PAN_21mic_H50_0378_fot_40B-38900_W_tif
  0
INSERT
  8
FeatureAttribs
  2
FEATURE
  41
1
  42
1
  43
1
  50
0
  10
542606.102
  20
4610009.750
 66
1
  0
ATTRIB
  8
FeatureAttribs
 70
0
  1
PNOA-H_AMS_1956-57_33k_ES_PAN_21mic_H50_0379_fot_38C-40586_E.tif
  2
NAME
  10
542606.102
  20
4610009.750
 40
33.61342
  0
SEQEND
  0
POLYLINE
  8
PNOA-H_AMS_1956-57_33k_ES_PAN_21mic_H50_0379_fot_38C-40586_E_tif
  70
9
  66
1
  0
VERTEX
  8
PNOA-H_AMS_1956-57_33k_ES_PAN_21mic_H50_0379_fot_38C-40586_E_tif
  70
32
  10
541645.408
  20
4607699.549
  30
1056.392
  0
VERTEX
  8
PNOA-H_AMS_1956-57_33k_ES_PAN_21mic_H50_0379_fot_38C-40586_E_tif
  70
32
  10
541644.500
  20
4607699.500
  30
1056.382
  0
VERTEX
  8
PNOA-H_AMS_1956-57_33k_ES_PAN_21mic_H50_0379_fot_38C-40586_E_tif
  70
32
  10
541207.674
  20
4607930.408
  30
1038.113
  0
VERTEX
  8
PNOA-H_AMS_1956-57_33k_ES_PAN_21mic_H50_0379_fot_38C-40586_E_tif
  70
32
  10
541207.500
  20
4607930.500
  30
1038.106
  0
VERTEX
  8
PNOA-H_AMS_1956-57_33k_ES_PAN_21mic_H50_0379_fot_38C-40586_E_tif
  70
32
  10
541228.500
  20
4612042.000
  30
1059.737
  0
VERTEX
  8
PNOA-H_AMS_1956-57_33k_ES_PAN_21mic_H50_0379_fot_38C-40586_E_tif
  70
32
  10
542827.662
  20
4612237.924
  30
1052.701
  0
VERTEX
  8
PNOA-H_AMS_1956-57_33k_ES_PAN_21mic_H50_0379_fot_38C-40586_E_tif
  70
32
  10
543493.500
  20
4612319.500
  30
1049.772
  0
VERTEX
  8
PNOA-H_AMS_1956-57_33k_ES_PAN_21mic_H50_0379_fot_38C-40586_E_tif
  70
32
  10
543497.500
  20
4612320.000
  30
1049.707
  0
VERTEX
  8
PNOA-H_AMS_1956-57_33k_ES_PAN_21mic_H50_0379_fot_38C-40586_E_tif
  70
32
  10
543497.592
  20
4612319.950
  30
1049.709
  0
VERTEX
  8
PNOA-H_AMS_1956-57_33k_ES_PAN_21mic_H50_0379_fot_38C-40586_E_tif
  70
32
  10
543498.005
  20
4612319.726
  30
1049.718
  0
VERTEX
  8
PNOA-H_AMS_1956-57_33k_ES_PAN_21mic_H50_0379_fot_38C-40586_E_tif
  70
32
  10
544032.500
  20
4612029.500
  30
1061.062
  0
VERTEX
  8
PNOA-H_AMS_1956-57_33k_ES_PAN_21mic_H50_0379_fot_38C-40586_E_tif
  70
32
  10
543952.500
  20
4607823.500
  30
1081.609
  0
VERTEX
  8
PNOA-H_AMS_1956-57_33k_ES_PAN_21mic_H50_0379_fot_38C-40586_E_tif
  70
32
  10
543844.149
  20
4607817.679
  30
1080.425
  0
VERTEX
  8
PNOA-H_AMS_1956-57_33k_ES_PAN_21mic_H50_0379_fot_38C-40586_E_tif
  70
32
  10
542002.939
  20
4607718.758
  30
1060.3
  0
VERTEX
  8
PNOA-H_AMS_1956-57_33k_ES_PAN_21mic_H50_0379_fot_38C-40586_E_tif
  70
32
  10
541645.408
  20
4607699.549
  30
1056.392
  0
SEQEND
  8
PNOA-H_AMS_1956-57_33k_ES_PAN_21mic_H50_0379_fot_38C-40586_E_tif
  0
INSERT
  8
FeatureAttribs
  2
FEATURE
  41
1
  42
1
  43
1
  50
0
  10
545327.958
  20
4609963.000
 66
1
  0
ATTRIB
  8
FeatureAttribs
 70
0
  1
PNOA-H_AMS_1956-57_33k_ES_PAN_21mic_H50_0379_fot_38C-40587_E.tif
  2
NAME
  10
545327.958
  20
4609963.000
 40
33.61342
  0
SEQEND
  0
POLYLINE
  8
PNOA-H_AMS_1956-57_33k_ES_PAN_21mic_H50_0379_fot_38C-40587_E_tif
  70
9
  66
1
  0
VERTEX
  8
PNOA-H_AMS_1956-57_33k_ES_PAN_21mic_H50_0379_fot_38C-40587_E_tif
  70
32
  10
544157.994
  20
4607706.504
  30
1077.143
  0
VERTEX
  8
PNOA-H_AMS_1956-57_33k_ES_PAN_21mic_H50_0379_fot_38C-40587_E_tif
  70
32
  10
544157.500
  20
4607706.500
  30
1077.144
  0
VERTEX
  8
PNOA-H_AMS_1956-57_33k_ES_PAN_21mic_H50_0379_fot_38C-40587_E_tif
  70
32
  10
543952.543
  20
4607823.476
  30
1081.609
  0
VERTEX
  8
PNOA-H_AMS_1956-57_33k_ES_PAN_21mic_H50_0379_fot_38C-40587_E_tif
  70
32
  10
543952.500
  20
4607823.500
  30
1081.609
  0
VERTEX
  8
PNOA-H_AMS_1956-57_33k_ES_PAN_21mic_H50_0379_fot_38C-40587_E_tif
  70
32
  10
544032.500
  20
4612029.500
  30
1061.062
  0
VERTEX
  8
PNOA-H_AMS_1956-57_33k_ES_PAN_21mic_H50_0379_fot_38C-40587_E_tif
  70
32
  10
546323.000
  20
4612219.000
  30
1065.456
  0
VERTEX
  8
PNOA-H_AMS_1956-57_33k_ES_PAN_21mic_H50_0379_fot_38C-40587_E_tif
  70
32
  10
546329.000
  20
4612219.500
  30
1065.209
  0
VERTEX
  8
PNOA-H_AMS_1956-57_33k_ES_PAN_21mic_H50_0379_fot_38C-40587_E_tif
  70
32
  10
546329.065
  20
4612219.464
  30
1065.206
  0
VERTEX
  8
PNOA-H_AMS_1956-57_33k_ES_PAN_21mic_H50_0379_fot_38C-40587_E_tif
  70
32
  10
546329.505
  20
4612219.220
  30
1065.183
  0
VERTEX
  8
PNOA-H_AMS_1956-57_33k_ES_PAN_21mic_H50_0379_fot_38C-40587_E_tif
  70
32
  10
546685.000
  20
4612022.000
  30
1046.803
  0
VERTEX
  8
PNOA-H_AMS_1956-57_33k_ES_PAN_21mic_H50_0379_fot_38C-40587_E_tif
  70
32
  10
546638.500
  20
4607724.500
  30
1073.445
  0
VERTEX
  8
PNOA-H_AMS_1956-57_33k_ES_PAN_21mic_H50_0379_fot_38C-40587_E_tif
  70
32
  10
546616.328
  20
4607724.339
  30
1073.478
  0
VERTEX
  8
PNOA-H_AMS_1956-57_33k_ES_PAN_21mic_H50_0379_fot_38C-40587_E_tif
  70
32
  10
544165.870
  20
4607706.561
  30
1077.131
  0
VERTEX
  8
PNOA-H_AMS_1956-57_33k_ES_PAN_21mic_H50_0379_fot_38C-40587_E_tif
  70
32
  10
544157.994
  20
4607706.504
  30
1077.143
  0
SEQEND
  8
PNOA-H_AMS_1956-57_33k_ES_PAN_21mic_H50_0379_fot_38C-40587_E_tif
  0
INSERT
  8
FeatureAttribs
  2
FEATURE
  41
1
  42
1
  43
1
  50
0
  10
548009.885
  20
4609908.250
 66
1
  0
ATTRIB
  8
FeatureAttribs
 70
0
  1
PNOA-H_AMS_1956-57_33k_ES_PAN_21mic_H50_0379_fot_38C-40588_E.tif
  2
NAME
  10
548009.885
  20
4609908.250
 40
33.61342
  0
SEQEND
  0
POLYLINE
  8
PNOA-H_AMS_1956-57_33k_ES_PAN_21mic_H50_0379_fot_38C-40588_E_tif
  70
9
  66
1
  0
VERTEX
  8
PNOA-H_AMS_1956-57_33k_ES_PAN_21mic_H50_0379_fot_38C-40588_E_tif
  70
32
  10
549311.000
  20
4607704.500
  30
979.72
  0
VERTEX
  8
PNOA-H_AMS_1956-57_33k_ES_PAN_21mic_H50_0379_fot_38C-40588_E_tif
  70
32
  10
549271.000
  20
4607681.000
  30
979.67
  0
VERTEX
  8
PNOA-H_AMS_1956-57_33k_ES_PAN_21mic_H50_0379_fot_38C-40588_E_tif
  70
32
  10
549270.989
  20
4607681.000
  30
979.67
  0
VERTEX
  8
PNOA-H_AMS_1956-57_33k_ES_PAN_21mic_H50_0379_fot_38C-40588_E_tif
  70
32
  10
546693.500
  20
4607692.498
  30
1075.818
  0
VERTEX
  8
PNOA-H_AMS_1956-57_33k_ES_PAN_21mic_H50_0379_fot_38C-40588_E_tif
  70
32
  10
546693.000
  20
4607692.500
  30
1075.836
  0
VERTEX
  8
PNOA-H_AMS_1956-57_33k_ES_PAN_21mic_H50_0379_fot_38C-40588_E_tif
  70
32
  10
546638.512
  20
4607724.493
  30
1073.445
  0
VERTEX
  8
PNOA-H_AMS_1956-57_33k_ES_PAN_21mic_H50_0379_fot_38C-40588_E_tif
  70
32
  10
546638.500
  20
4607724.500
  30
1073.445
  0
VERTEX
  8
PNOA-H_AMS_1956-57_33k_ES_PAN_21mic_H50_0379_fot_38C-40588_E_tif
  70
32
  10
546685.000
  20
4612022.000
  30
1046.803
  0
VERTEX
  8
PNOA-H_AMS_1956-57_33k_ES_PAN_21mic_H50_0379_fot_38C-40588_E_tif
  70
32
  10
547259.000
  20
4612048.500
  30
1028.378
  0
VERTEX
  8
PNOA-H_AMS_1956-57_33k_ES_PAN_21mic_H50_0379_fot_38C-40588_E_tif
  70
32
  10
547270.000
  20
4612049.000
  30
1028.201
  0
VERTEX
  8
PNOA-H_AMS_1956-57_33k_ES_PAN_21mic_H50_0379_fot_38C-40588_E_tif
  70
32
  10
549153.000
  20
4612135.500
  30
991.943
  0
VERTEX
  8
PNOA-H_AMS_1956-57_33k_ES_PAN_21mic_H50_0379_fot_38C-40588_E_tif
  70
32
  10
549153.012
  20
4612135.492
  30
991.943
  0
VERTEX
  8
PNOA-H_AMS_1956-57_33k_ES_PAN_21mic_H50_0379_fot_38C-40588_E_tif
  70
32
  10
549401.500
  20
4611980.500
  30
991.904
  0
VERTEX
  8
PNOA-H_AMS_1956-57_33k_ES_PAN_21mic_H50_0379_fot_38C-40588_E_tif
  70
32
  10
549401.490
  20
4611980.007
  30
991.902
  0
VERTEX
  8
PNOA-H_AMS_1956-57_33k_ES_PAN_21mic_H50_0379_fot_38C-40588_E_tif
  70
32
  10
549311.000
  20
4607704.500
  30
979.72
  0
SEQEND
  8
PNOA-H_AMS_1956-57_33k_ES_PAN_21mic_H50_0379_fot_38C-40588_E_tif
  0
INSERT
  8
FeatureAttribs
  2
FEATURE
  41
1
  42
1
  43
1
  50
0
  10
547963.422
  20
4605331.250
 66
1
  0
ATTRIB
  8
FeatureAttribs
 70
0
  1
PNOA-H_AMS_1956-57_33k_ES_PAN_21mic_H50_0379_fot_39D-44207_E.tif
  2
NAME
  10
547963.422
  20
4605331.250
 40
33.61342
  0
SEQEND
  0
POLYLINE
  8
PNOA-H_AMS_1956-57_33k_ES_PAN_21mic_H50_0379_fot_39D-44207_E_tif
  70
9
  66
1
  0
VERTEX
  8
PNOA-H_AMS_1956-57_33k_ES_PAN_21mic_H50_0379_fot_39D-44207_E_tif
  70
32
  10
549250.245
  20
4603277.893
  30
973.201
  0
VERTEX
  8
PNOA-H_AMS_1956-57_33k_ES_PAN_21mic_H50_0379_fot_39D-44207_E_tif
  70
32
  10
548516.000
  20
4602970.000
  30
1027.142
  0
VERTEX
  8
PNOA-H_AMS_1956-57_33k_ES_PAN_21mic_H50_0379_fot_39D-44207_E_tif
  70
32
  10
548515.288
  20
4602970.121
  30
1027.119
  0
VERTEX
  8
PNOA-H_AMS_1956-57_33k_ES_PAN_21mic_H50_0379_fot_39D-44207_E_tif
  70
32
  10
546643.500
  20
4603288.000
  30
967.063
  0
VERTEX
  8
PNOA-H_AMS_1956-57_33k_ES_PAN_21mic_H50_0379_fot_39D-44207_E_tif
  70
32
  10
546693.500
  20
4607675.500
  30
1075.743
  0
VERTEX
  8
PNOA-H_AMS_1956-57_33k_ES_PAN_21mic_H50_0379_fot_39D-44207_E_tif
  70
32
  10
546693.500
  20
4607692.498
  30
1075.853
  0
VERTEX
  8
PNOA-H_AMS_1956-57_33k_ES_PAN_21mic_H50_0379_fot_39D-44207_E_tif
  70
32
  10
546693.500
  20
4607692.500
  30
1075.853
  0
VERTEX
  8
PNOA-H_AMS_1956-57_33k_ES_PAN_21mic_H50_0379_fot_39D-44207_E_tif
  70
32
  10
549270.989
  20
4607681.000
  30
979.67
  0
VERTEX
  8
PNOA-H_AMS_1956-57_33k_ES_PAN_21mic_H50_0379_fot_39D-44207_E_tif
  70
32
  10
549271.000
  20
4607681.000
  30
979.67
  0
VERTEX
  8
PNOA-H_AMS_1956-57_33k_ES_PAN_21mic_H50_0379_fot_39D-44207_E_tif
  70
32
  10
549250.500
  20
4603278.000
  30
973.182
  0
VERTEX
  8
PNOA-H_AMS_1956-57_33k_ES_PAN_21mic_H50_0379_fot_39D-44207_E_tif
  70
32
  10
549250.245
  20
4603277.893
  30
973.201
  0
SEQEND
  8
PNOA-H_AMS_1956-57_33k_ES_PAN_21mic_H50_0379_fot_39D-44207_E_tif
  0
INSERT
  8
FeatureAttribs
  2
FEATURE
  41
1
  42
1
  43
1
  50
0
  10
545396.436
  20
4605348.000
 66
1
  0
ATTRIB
  8
FeatureAttribs
 70
0
  1
PNOA-H_AMS_1956-57_33k_ES_PAN_21mic_H50_0379_fot_39D-44206_E.tif
  2
NAME
  10
545396.436
  20
4605348.000
 40
33.61342
  0
SEQEND
  0
POLYLINE
  8
PNOA-H_AMS_1956-57_33k_ES_PAN_21mic_H50_0379_fot_39D-44206_E_tif
  70
9
  66
1
  0
VERTEX
  8
PNOA-H_AMS_1956-57_33k_ES_PAN_21mic_H50_0379_fot_39D-44206_E_tif
  70
32
  10
546643.343
  20
4603287.942
  30
967.062
  0
VERTEX
  8
PNOA-H_AMS_1956-57_33k_ES_PAN_21mic_H50_0379_fot_39D-44206_E_tif
  70
32
  10
545795.500
  20
4602971.500
  30
961.45
  0
VERTEX
  8
PNOA-H_AMS_1956-57_33k_ES_PAN_21mic_H50_0379_fot_39D-44206_E_tif
  70
32
  10
545794.857
  20
4602971.633
  30
961.47
  0
VERTEX
  8
PNOA-H_AMS_1956-57_33k_ES_PAN_21mic_H50_0379_fot_39D-44206_E_tif
  70
32
  10
545116.700
  20
4603112.100
  30
982.914
  0
VERTEX
  8
PNOA-H_AMS_1956-57_33k_ES_PAN_21mic_H50_0379_fot_39D-44206_E_tif
  70
32
  10
544099.237
  20
4603322.847
  30
1015.089
  0
VERTEX
  8
PNOA-H_AMS_1956-57_33k_ES_PAN_21mic_H50_0379_fot_39D-44206_E_tif
  70
32
  10
544098.500
  20
4603323.000
  30
1015.112
  0
VERTEX
  8
PNOA-H_AMS_1956-57_33k_ES_PAN_21mic_H50_0379_fot_39D-44206_E_tif
  70
32
  10
544158.000
  20
4607706.500
  30
1077.209
  0
VERTEX
  8
PNOA-H_AMS_1956-57_33k_ES_PAN_21mic_H50_0379_fot_39D-44206_E_tif
  70
32
  10
544165.870
  20
4607706.561
  30
1077.316
  0
VERTEX
  8
PNOA-H_AMS_1956-57_33k_ES_PAN_21mic_H50_0379_fot_39D-44206_E_tif
  70
32
  10
545130.000
  20
4607714.000
  30
1090.405
  0
VERTEX
  8
PNOA-H_AMS_1956-57_33k_ES_PAN_21mic_H50_0379_fot_39D-44206_E_tif
  70
32
  10
545199.000
  20
4607714.500
  30
1091.913
  0
VERTEX
  8
PNOA-H_AMS_1956-57_33k_ES_PAN_21mic_H50_0379_fot_39D-44206_E_tif
  70
32
  10
546616.328
  20
4607724.339
  30
1073.794
  0
VERTEX
  8
PNOA-H_AMS_1956-57_33k_ES_PAN_21mic_H50_0379_fot_39D-44206_E_tif
  70
32
  10
546638.512
  20
4607724.493
  30
1073.51
  0
VERTEX
  8
PNOA-H_AMS_1956-57_33k_ES_PAN_21mic_H50_0379_fot_39D-44206_E_tif
  70
32
  10
546639.500
  20
4607724.500
  30
1073.498
  0
VERTEX
  8
PNOA-H_AMS_1956-57_33k_ES_PAN_21mic_H50_0379_fot_39D-44206_E_tif
  70
32
  10
546693.500
  20
4607692.500
  30
1075.853
  0
VERTEX
  8
PNOA-H_AMS_1956-57_33k_ES_PAN_21mic_H50_0379_fot_39D-44206_E_tif
  70
32
  10
546693.500
  20
4607692.498
  30
1075.853
  0
VERTEX
  8
PNOA-H_AMS_1956-57_33k_ES_PAN_21mic_H50_0379_fot_39D-44206_E_tif
  70
32
  10
546643.500
  20
4603288.000
  30
967.063
  0
VERTEX
  8
PNOA-H_AMS_1956-57_33k_ES_PAN_21mic_H50_0379_fot_39D-44206_E_tif
  70
32
  10
546643.343
  20
4603287.942
  30
967.062
  0
SEQEND
  8
PNOA-H_AMS_1956-57_33k_ES_PAN_21mic_H50_0379_fot_39D-44206_E_tif
  0
INSERT
  8
FeatureAttribs
  2
FEATURE
  41
1
  42
1
  43
1
  50
0
  10
542857.409
  20
4605402.750
 66
1
  0
ATTRIB
  8
FeatureAttribs
 70
0
  1
PNOA-H_AMS_1956-57_33k_ES_PAN_21mic_H50_0379_fot_39D-44205_E.tif
  2
NAME
  10
542857.409
  20
4605402.750
 40
33.61342
  0
SEQEND
  0
POLYLINE
  8
PNOA-H_AMS_1956-57_33k_ES_PAN_21mic_H50_0379_fot_39D-44205_E_tif
  70
9
  66
1
  0
VERTEX
  8
PNOA-H_AMS_1956-57_33k_ES_PAN_21mic_H50_0379_fot_39D-44205_E_tif
  70
32
  10
544096.137
  20
4603322.227
  30
1015.058
  0
VERTEX
  8
PNOA-H_AMS_1956-57_33k_ES_PAN_21mic_H50_0379_fot_39D-44205_E_tif
  70
32
  10
543055.500
  20
4602982.000
  30
991.547
  0
VERTEX
  8
PNOA-H_AMS_1956-57_33k_ES_PAN_21mic_H50_0379_fot_39D-44205_E_tif
  70
32
  10
543055.227
  20
4602982.075
  30
991.562
  0
VERTEX
  8
PNOA-H_AMS_1956-57_33k_ES_PAN_21mic_H50_0379_fot_39D-44205_E_tif
  70
32
  10
542350.722
  20
4603175.067
  30
1028.803
  0
VERTEX
  8
PNOA-H_AMS_1956-57_33k_ES_PAN_21mic_H50_0379_fot_39D-44205_E_tif
  70
32
  10
541557.000
  20
4603392.500
  30
1070.761
  0
VERTEX
  8
PNOA-H_AMS_1956-57_33k_ES_PAN_21mic_H50_0379_fot_39D-44205_E_tif
  70
32
  10
541539.000
  20
4603397.500
  30
1070.765
  0
VERTEX
  8
PNOA-H_AMS_1956-57_33k_ES_PAN_21mic_H50_0379_fot_39D-44205_E_tif
  70
32
  10
541538.928
  20
4603397.609
  30
1070.748
  0
VERTEX
  8
PNOA-H_AMS_1956-57_33k_ES_PAN_21mic_H50_0379_fot_39D-44205_E_tif
  70
32
  10
541538.250
  20
4603398.625
  30
1070.593
  0
VERTEX
  8
PNOA-H_AMS_1956-57_33k_ES_PAN_21mic_H50_0379_fot_39D-44205_E_tif
  70
32
  10
541538.000
  20
4603399.000
  30
1070.536
  0
VERTEX
  8
PNOA-H_AMS_1956-57_33k_ES_PAN_21mic_H50_0379_fot_39D-44205_E_tif
  70
32
  10
541645.500
  20
4607699.500
  30
1056.392
  0
VERTEX
  8
PNOA-H_AMS_1956-57_33k_ES_PAN_21mic_H50_0379_fot_39D-44205_E_tif
  70
32
  10
542002.939
  20
4607718.758
  30
1060.951
  0
VERTEX
  8
PNOA-H_AMS_1956-57_33k_ES_PAN_21mic_H50_0379_fot_39D-44205_E_tif
  70
32
  10
543167.500
  20
4607781.500
  30
1075.807
  0
VERTEX
  8
PNOA-H_AMS_1956-57_33k_ES_PAN_21mic_H50_0379_fot_39D-44205_E_tif
  70
32
  10
543177.000
  20
4607782.000
  30
1075.548
  0
VERTEX
  8
PNOA-H_AMS_1956-57_33k_ES_PAN_21mic_H50_0379_fot_39D-44205_E_tif
  70
32
  10
543844.149
  20
4607817.679
  30
1080.758
  0
VERTEX
  8
PNOA-H_AMS_1956-57_33k_ES_PAN_21mic_H50_0379_fot_39D-44205_E_tif
  70
32
  10
543952.543
  20
4607823.476
  30
1081.605
  0
VERTEX
  8
PNOA-H_AMS_1956-57_33k_ES_PAN_21mic_H50_0379_fot_39D-44205_E_tif
  70
32
  10
543953.000
  20
4607823.500
  30
1081.608
  0
VERTEX
  8
PNOA-H_AMS_1956-57_33k_ES_PAN_21mic_H50_0379_fot_39D-44205_E_tif
  70
32
  10
544157.994
  20
4607706.504
  30
1077.209
  0
VERTEX
  8
PNOA-H_AMS_1956-57_33k_ES_PAN_21mic_H50_0379_fot_39D-44205_E_tif
  70
32
  10
544158.000
  20
4607706.500
  30
1077.209
  0
VERTEX
  8
PNOA-H_AMS_1956-57_33k_ES_PAN_21mic_H50_0379_fot_39D-44205_E_tif
  70
32
  10
544098.500
  20
4603323.000
  30
1015.112
  0
VERTEX
  8
PNOA-H_AMS_1956-57_33k_ES_PAN_21mic_H50_0379_fot_39D-44205_E_tif
  70
32
  10
544096.137
  20
4603322.227
  30
1015.058
  0
SEQEND
  8
PNOA-H_AMS_1956-57_33k_ES_PAN_21mic_H50_0379_fot_39D-44205_E_tif
  0
INSERT
  8
FeatureAttribs
  2
FEATURE
  41
1
  42
1
  43
1
  50
0
  10
547155.192
  20
4600981.500
 66
1
  0
ATTRIB
  8
FeatureAttribs
 70
0
  1
PNOA-H_AMS_1956-57_33k_ES_PAN_21mic_H50_0379_fot_40B-38897_W.tif
  2
NAME
  10
547155.192
  20
4600981.500
 40
33.61342
  0
SEQEND
  0
POLYLINE
  8
PNOA-H_AMS_1956-57_33k_ES_PAN_21mic_H50_0379_fot_40B-38897_W_tif
  70
9
  66
1
  0
VERTEX
  8
PNOA-H_AMS_1956-57_33k_ES_PAN_21mic_H50_0379_fot_40B-38897_W_tif
  70
32
  10
546643.343
  20
4603287.942
  30
967.113
  0
VERTEX
  8
PNOA-H_AMS_1956-57_33k_ES_PAN_21mic_H50_0379_fot_40B-38897_W_tif
  70
32
  10
547274.000
  20
4603180.500
  30
961.9
  0
VERTEX
  8
PNOA-H_AMS_1956-57_33k_ES_PAN_21mic_H50_0379_fot_40B-38897_W_tif
  70
32
  10
547276.000
  20
4603180.500
  30
961.904
  0
VERTEX
  8
PNOA-H_AMS_1956-57_33k_ES_PAN_21mic_H50_0379_fot_40B-38897_W_tif
  70
32
  10
548515.000
  20
4602970.000
  30
1027.09
  0
VERTEX
  8
PNOA-H_AMS_1956-57_33k_ES_PAN_21mic_H50_0379_fot_40B-38897_W_tif
  70
32
  10
548540.500
  20
4598760.000
  30
1002.238
  0
VERTEX
  8
PNOA-H_AMS_1956-57_33k_ES_PAN_21mic_H50_0379_fot_40B-38897_W_tif
  70
32
  10
548540.497
  20
4598760.000
  30
1002.238
  0
VERTEX
  8
PNOA-H_AMS_1956-57_33k_ES_PAN_21mic_H50_0379_fot_40B-38897_W_tif
  70
32
  10
545964.500
  20
4598675.000
  30
1017.891
  0
VERTEX
  8
PNOA-H_AMS_1956-57_33k_ES_PAN_21mic_H50_0379_fot_40B-38897_W_tif
  70
32
  10
545962.255
  20
4598675.140
  30
1017.68
  0
VERTEX
  8
PNOA-H_AMS_1956-57_33k_ES_PAN_21mic_H50_0379_fot_40B-38897_W_tif
  70
32
  10
545957.203
  20
4598675.456
  30
1017.203
  0
VERTEX
  8
PNOA-H_AMS_1956-57_33k_ES_PAN_21mic_H50_0379_fot_40B-38897_W_tif
  70
32
  10
545956.500
  20
4598675.500
  30
1017.137
  0
VERTEX
  8
PNOA-H_AMS_1956-57_33k_ES_PAN_21mic_H50_0379_fot_40B-38897_W_tif
  70
32
  10
545771.000
  20
4598781.500
  30
1020.794
  0
VERTEX
  8
PNOA-H_AMS_1956-57_33k_ES_PAN_21mic_H50_0379_fot_40B-38897_W_tif
  70
32
  10
545794.500
  20
4602971.500
  30
961.505
  0
VERTEX
  8
PNOA-H_AMS_1956-57_33k_ES_PAN_21mic_H50_0379_fot_40B-38897_W_tif
  70
32
  10
545794.857
  20
4602971.633
  30
961.508
  0
VERTEX
  8
PNOA-H_AMS_1956-57_33k_ES_PAN_21mic_H50_0379_fot_40B-38897_W_tif
  70
32
  10
546643.000
  20
4603288.000
  30
967.115
  0
VERTEX
  8
PNOA-H_AMS_1956-57_33k_ES_PAN_21mic_H50_0379_fot_40B-38897_W_tif
  70
32
  10
546643.343
  20
4603287.942
  30
967.113
  0
SEQEND
  8
PNOA-H_AMS_1956-57_33k_ES_PAN_21mic_H50_0379_fot_40B-38897_W_tif
  0
INSERT
  8
FeatureAttribs
  2
FEATURE
  41
1
  42
1
  43
1
  50
0
  10
541622.528
  20
4601009.500
 66
1
  0
ATTRIB
  8
FeatureAttribs
 70
0
  1
PNOA-H_AMS_1956-57_33k_ES_PAN_21mic_H50_0379_fot_40B-38899_W.tif
  2
NAME
  10
541622.528
  20
4601009.500
 40
33.61342
  0
SEQEND
  0
POLYLINE
  8
PNOA-H_AMS_1956-57_33k_ES_PAN_21mic_H50_0379_fot_40B-38899_W_tif
  70
9
  66
1
  0
VERTEX
  8
PNOA-H_AMS_1956-57_33k_ES_PAN_21mic_H50_0379_fot_40B-38899_W_tif
  70
32
  10
540777.921
  20
4598621.043
  30
1005.2
  0
VERTEX
  8
PNOA-H_AMS_1956-57_33k_ES_PAN_21mic_H50_0379_fot_40B-38899_W_tif
  70
32
  10
540777.500
  20
4598621.000
  30
1005.208
  0
VERTEX
  8
PNOA-H_AMS_1956-57_33k_ES_PAN_21mic_H50_0379_fot_40B-38899_W_tif
  70
32
  10
540209.000
  20
4598927.000
  30
1039.338
  0
VERTEX
  8
PNOA-H_AMS_1956-57_33k_ES_PAN_21mic_H50_0379_fot_40B-38899_W_tif
  70
32
  10
540209.003
  20
4598927.229
  30
1039.34
  0
VERTEX
  8
PNOA-H_AMS_1956-57_33k_ES_PAN_21mic_H50_0379_fot_40B-38899_W_tif
  70
32
  10
540270.000
  20
4603058.000
  30
1090.523
  0
VERTEX
  8
PNOA-H_AMS_1956-57_33k_ES_PAN_21mic_H50_0379_fot_40B-38899_W_tif
  70
32
  10
540270.531
  20
4603058.143
  30
1090.514
  0
VERTEX
  8
PNOA-H_AMS_1956-57_33k_ES_PAN_21mic_H50_0379_fot_40B-38899_W_tif
  70
32
  10
541535.500
  20
4603397.500
  30
1070.79
  0
VERTEX
  8
PNOA-H_AMS_1956-57_33k_ES_PAN_21mic_H50_0379_fot_40B-38899_W_tif
  70
32
  10
541537.500
  20
4603398.000
  30
1070.732
  0
VERTEX
  8
PNOA-H_AMS_1956-57_33k_ES_PAN_21mic_H50_0379_fot_40B-38899_W_tif
  70
32
  10
541537.782
  20
4603397.923
  30
1070.717
  0
VERTEX
  8
PNOA-H_AMS_1956-57_33k_ES_PAN_21mic_H50_0379_fot_40B-38899_W_tif
  70
32
  10
541538.928
  20
4603397.609
  30
1070.657
  0
VERTEX
  8
PNOA-H_AMS_1956-57_33k_ES_PAN_21mic_H50_0379_fot_40B-38899_W_tif
  70
32
  10
542350.722
  20
4603175.067
  30
1028.309
  0
VERTEX
  8
PNOA-H_AMS_1956-57_33k_ES_PAN_21mic_H50_0379_fot_40B-38899_W_tif
  70
32
  10
543055.000
  20
4602982.000
  30
991.57
  0
VERTEX
  8
PNOA-H_AMS_1956-57_33k_ES_PAN_21mic_H50_0379_fot_40B-38899_W_tif
  70
32
  10
542951.000
  20
4598854.000
  30
960.597
  0
VERTEX
  8
PNOA-H_AMS_1956-57_33k_ES_PAN_21mic_H50_0379_fot_40B-38899_W_tif
  70
32
  10
542950.530
  20
4598843.192
  30
960.833
  0
VERTEX
  8
PNOA-H_AMS_1956-57_33k_ES_PAN_21mic_H50_0379_fot_40B-38899_W_tif
  70
32
  10
542950.500
  20
4598842.500
  30
960.848
  0
VERTEX
  8
PNOA-H_AMS_1956-57_33k_ES_PAN_21mic_H50_0379_fot_40B-38899_W_tif
  70
32
  10
542949.500
  20
4598842.000
  30
960.87
  0
VERTEX
  8
PNOA-H_AMS_1956-57_33k_ES_PAN_21mic_H50_0379_fot_40B-38899_W_tif
  70
32
  10
540902.469
  20
4598633.716
  30
1002.657
  0
VERTEX
  8
PNOA-H_AMS_1956-57_33k_ES_PAN_21mic_H50_0379_fot_40B-38899_W_tif
  70
32
  10
540777.921
  20
4598621.043
  30
1005.2
  0
SEQEND
  8
PNOA-H_AMS_1956-57_33k_ES_PAN_21mic_H50_0379_fot_40B-38899_W_tif
  0
INSERT
  8
FeatureAttribs
  2
FEATURE
  41
1
  42
1
  43
1
  50
0
  10
544393.578
  20
4600959.250
 66
1
  0
ATTRIB
  8
FeatureAttribs
 70
0
  1
PNOA-H_AMS_1956-57_33k_ES_PAN_21mic_H50_0379_fot_40B-38898_W.tif
  2
NAME
  10
544393.578
  20
4600959.250
 40
33.61342
  0
SEQEND
  0
POLYLINE
  8
PNOA-H_AMS_1956-57_33k_ES_PAN_21mic_H50_0379_fot_40B-38898_W_tif
  70
9
  66
1
  0
VERTEX
  8
PNOA-H_AMS_1956-57_33k_ES_PAN_21mic_H50_0379_fot_40B-38898_W_tif
  70
32
  10
545771.000
  20
4598781.500
  30
1020.794
  0
VERTEX
  8
PNOA-H_AMS_1956-57_33k_ES_PAN_21mic_H50_0379_fot_40B-38898_W_tif
  70
32
  10
543387.000
  20
4598595.500
  30
1014.585
  0
VERTEX
  8
PNOA-H_AMS_1956-57_33k_ES_PAN_21mic_H50_0379_fot_40B-38898_W_tif
  70
32
  10
542950.500
  20
4598842.000
  30
960.877
  0
VERTEX
  8
PNOA-H_AMS_1956-57_33k_ES_PAN_21mic_H50_0379_fot_40B-38898_W_tif
  70
32
  10
542950.512
  20
4598842.493
  30
960.88
  0
VERTEX
  8
PNOA-H_AMS_1956-57_33k_ES_PAN_21mic_H50_0379_fot_40B-38898_W_tif
  70
32
  10
542950.530
  20
4598843.192
  30
960.885
  0
VERTEX
  8
PNOA-H_AMS_1956-57_33k_ES_PAN_21mic_H50_0379_fot_40B-38898_W_tif
  70
32
  10
543055.000
  20
4602982.000
  30
991.57
  0
VERTEX
  8
PNOA-H_AMS_1956-57_33k_ES_PAN_21mic_H50_0379_fot_40B-38898_W_tif
  70
32
  10
543055.227
  20
4602982.075
  30
991.648
  0
VERTEX
  8
PNOA-H_AMS_1956-57_33k_ES_PAN_21mic_H50_0379_fot_40B-38898_W_tif
  70
32
  10
543177.500
  20
4603022.500
  30
1033.891
  0
VERTEX
  8
PNOA-H_AMS_1956-57_33k_ES_PAN_21mic_H50_0379_fot_40B-38898_W_tif
  70
32
  10
543179.500
  20
4603023.000
  30
1034.177
  0
VERTEX
  8
PNOA-H_AMS_1956-57_33k_ES_PAN_21mic_H50_0379_fot_40B-38898_W_tif
  70
32
  10
544092.500
  20
4603321.500
  30
1015.341
  0
VERTEX
  8
PNOA-H_AMS_1956-57_33k_ES_PAN_21mic_H50_0379_fot_40B-38898_W_tif
  70
32
  10
544096.137
  20
4603322.227
  30
1015.222
  0
VERTEX
  8
PNOA-H_AMS_1956-57_33k_ES_PAN_21mic_H50_0379_fot_40B-38898_W_tif
  70
32
  10
544099.237
  20
4603322.847
  30
1015.12
  0
VERTEX
  8
PNOA-H_AMS_1956-57_33k_ES_PAN_21mic_H50_0379_fot_40B-38898_W_tif
  70
32
  10
544100.000
  20
4603323.000
  30
1015.095
  0
VERTEX
  8
PNOA-H_AMS_1956-57_33k_ES_PAN_21mic_H50_0379_fot_40B-38898_W_tif
  70
32
  10
545116.700
  20
4603112.100
  30
982.941
  0
VERTEX
  8
PNOA-H_AMS_1956-57_33k_ES_PAN_21mic_H50_0379_fot_40B-38898_W_tif
  70
32
  10
545794.500
  20
4602971.500
  30
961.505
  0
VERTEX
  8
PNOA-H_AMS_1956-57_33k_ES_PAN_21mic_H50_0379_fot_40B-38898_W_tif
  70
32
  10
545771.000
  20
4598781.500
  30
1020.794
  0
SEQEND
  8
PNOA-H_AMS_1956-57_33k_ES_PAN_21mic_H50_0379_fot_40B-38898_W_tif
  0
INSERT
  8
FeatureAttribs
  2
FEATURE
  41
1
  42
1
  43
1
  50
0
  10
547310.499
  20
4596585.736
 66
1
  0
ATTRIB
  8
FeatureAttribs
 70
0
  1
PNOA-H_AMS_1956-57_33k_ES_PAN_21mic_H50_0379_fot_41B-37384_W.tif
  2
NAME
  10
547310.499
  20
4596585.736
 40
33.61342
  0
SEQEND
  0
POLYLINE
  8
PNOA-H_AMS_1956-57_33k_ES_PAN_21mic_H50_0379_fot_41B-37384_W_tif
  70
9
  66
1
  0
VERTEX
  8
PNOA-H_AMS_1956-57_33k_ES_PAN_21mic_H50_0379_fot_41B-37384_W_tif
  70
32
  10
548540.500
  20
4598760.000
  30
1002.238
  0
VERTEX
  8
PNOA-H_AMS_1956-57_33k_ES_PAN_21mic_H50_0379_fot_41B-37384_W_tif
  70
32
  10
548543.500
  20
4598758.000
  30
1002.208
  0
VERTEX
  8
PNOA-H_AMS_1956-57_33k_ES_PAN_21mic_H50_0379_fot_41B-37384_W_tif
  70
32
  10
548544.000
  20
4598744.000
  30
1001.581
  0
VERTEX
  8
PNOA-H_AMS_1956-57_33k_ES_PAN_21mic_H50_0379_fot_41B-37384_W_tif
  70
32
  10
548665.549
  20
4594428.517
  30
1101.218
  0
VERTEX
  8
PNOA-H_AMS_1956-57_33k_ES_PAN_21mic_H50_0379_fot_41B-37384_W_tif
  70
32
  10
546947.902
  20
4594416.929
  30
0
  0
VERTEX
  8
PNOA-H_AMS_1956-57_33k_ES_PAN_21mic_H50_0379_fot_41B-37384_W_tif
  70
32
  10
546077.222
  20
4594411.475
  30
1039.49
  0
VERTEX
  8
PNOA-H_AMS_1956-57_33k_ES_PAN_21mic_H50_0379_fot_41B-37384_W_tif
  70
32
  10
546076.786
  20
4594411.472
  30
1039.441
  0
VERTEX
  8
PNOA-H_AMS_1956-57_33k_ES_PAN_21mic_H50_0379_fot_41B-37384_W_tif
  70
32
  10
545958.000
  20
4598675.000
  30
1017.208
  0
VERTEX
  8
PNOA-H_AMS_1956-57_33k_ES_PAN_21mic_H50_0379_fot_41B-37384_W_tif
  70
32
  10
545962.255
  20
4598675.140
  30
1017.182
  0
VERTEX
  8
PNOA-H_AMS_1956-57_33k_ES_PAN_21mic_H50_0379_fot_41B-37384_W_tif
  70
32
  10
548520.500
  20
4598759.500
  30
1001.923
  0
VERTEX
  8
PNOA-H_AMS_1956-57_33k_ES_PAN_21mic_H50_0379_fot_41B-37384_W_tif
  70
32
  10
548535.500
  20
4598760.000
  30
1002.161
  0
VERTEX
  8
PNOA-H_AMS_1956-57_33k_ES_PAN_21mic_H50_0379_fot_41B-37384_W_tif
  70
32
  10
548540.497
  20
4598760.000
  30
1002.238
  0
VERTEX
  8
PNOA-H_AMS_1956-57_33k_ES_PAN_21mic_H50_0379_fot_41B-37384_W_tif
  70
32
  10
548540.500
  20
4598760.000
  30
1002.238
  0
SEQEND
  8
PNOA-H_AMS_1956-57_33k_ES_PAN_21mic_H50_0379_fot_41B-37384_W_tif
  0
INSERT
  8
FeatureAttribs
  2
FEATURE
  41
1
  42
1
  43
1
  50
0
  10
544700.758
  20
4596588.070
 66
1
  0
ATTRIB
  8
FeatureAttribs
 70
0
  1
PNOA-H_AMS_1956-57_33k_ES_PAN_21mic_H50_0379_fot_41B-37385_W.tif
  2
NAME
  10
544700.758
  20
4596588.070
 40
33.61342
  0
SEQEND
  0
POLYLINE
  8
PNOA-H_AMS_1956-57_33k_ES_PAN_21mic_H50_0379_fot_41B-37385_W_tif
  70
9
  66
1
  0
VERTEX
  8
PNOA-H_AMS_1956-57_33k_ES_PAN_21mic_H50_0379_fot_41B-37385_W_tif
  70
32
  10
543470.267
  20
4594395.143
  30
0
  0
VERTEX
  8
PNOA-H_AMS_1956-57_33k_ES_PAN_21mic_H50_0379_fot_41B-37385_W_tif
  70
32
  10
543383.148
  20
4594394.639
  30
961.717
  0
VERTEX
  8
PNOA-H_AMS_1956-57_33k_ES_PAN_21mic_H50_0379_fot_41B-37385_W_tif
  70
32
  10
543387.000
  20
4598595.500
  30
1014.585
  0
VERTEX
  8
PNOA-H_AMS_1956-57_33k_ES_PAN_21mic_H50_0379_fot_41B-37385_W_tif
  70
32
  10
545758.500
  20
4598781.000
  30
1018.206
  0
VERTEX
  8
PNOA-H_AMS_1956-57_33k_ES_PAN_21mic_H50_0379_fot_41B-37385_W_tif
  70
32
  10
545764.500
  20
4598781.500
  30
1019.536
  0
VERTEX
  8
PNOA-H_AMS_1956-57_33k_ES_PAN_21mic_H50_0379_fot_41B-37385_W_tif
  70
32
  10
545771.000
  20
4598781.500
  30
1020.783
  0
VERTEX
  8
PNOA-H_AMS_1956-57_33k_ES_PAN_21mic_H50_0379_fot_41B-37385_W_tif
  70
32
  10
545771.500
  20
4598781.500
  30
1020.879
  0
VERTEX
  8
PNOA-H_AMS_1956-57_33k_ES_PAN_21mic_H50_0379_fot_41B-37385_W_tif
  70
32
  10
545774.500
  20
4598780.000
  30
1021.394
  0
VERTEX
  8
PNOA-H_AMS_1956-57_33k_ES_PAN_21mic_H50_0379_fot_41B-37385_W_tif
  70
32
  10
545957.203
  20
4598675.456
  30
1017.226
  0
VERTEX
  8
PNOA-H_AMS_1956-57_33k_ES_PAN_21mic_H50_0379_fot_41B-37385_W_tif
  70
32
  10
545958.000
  20
4598675.000
  30
1017.208
  0
VERTEX
  8
PNOA-H_AMS_1956-57_33k_ES_PAN_21mic_H50_0379_fot_41B-37385_W_tif
  70
32
  10
546077.222
  20
4594411.475
  30
1039.503
  0
VERTEX
  8
PNOA-H_AMS_1956-57_33k_ES_PAN_21mic_H50_0379_fot_41B-37385_W_tif
  70
32
  10
546076.786
  20
4594411.472
  30
0
  0
VERTEX
  8
PNOA-H_AMS_1956-57_33k_ES_PAN_21mic_H50_0379_fot_41B-37385_W_tif
  70
32
  10
543470.267
  20
4594395.143
  30
0
  0
SEQEND
  8
PNOA-H_AMS_1956-57_33k_ES_PAN_21mic_H50_0379_fot_41B-37385_W_tif
  0
INSERT
  8
FeatureAttribs
  2
FEATURE
  41
1
  42
1
  43
1
  50
0
  10
542033.520
  20
4596610.451
 66
1
  0
ATTRIB
  8
FeatureAttribs
 70
0
  1
PNOA-H_AMS_1956-57_33k_ES_PAN_21mic_H50_0379_fot_41B-37386_W.tif
  2
NAME
  10
542033.520
  20
4596610.451
 40
33.61342
  0
SEQEND
  0
POLYLINE
  8
PNOA-H_AMS_1956-57_33k_ES_PAN_21mic_H50_0379_fot_41B-37386_W_tif
  70
9
  66
1
  0
VERTEX
  8
PNOA-H_AMS_1956-57_33k_ES_PAN_21mic_H50_0379_fot_41B-37386_W_tif
  70
32
  10
543383.148
  20
4594394.639
  30
961.716
  0
VERTEX
  8
PNOA-H_AMS_1956-57_33k_ES_PAN_21mic_H50_0379_fot_41B-37386_W_tif
  70
32
  10
540575.128
  20
4594378.402
  30
940.167
  0
VERTEX
  8
PNOA-H_AMS_1956-57_33k_ES_PAN_21mic_H50_0379_fot_41B-37386_W_tif
  70
32
  10
540778.000
  20
4598621.000
  30
1005.205
  0
VERTEX
  8
PNOA-H_AMS_1956-57_33k_ES_PAN_21mic_H50_0379_fot_41B-37386_W_tif
  70
32
  10
540902.469
  20
4598633.716
  30
999.988
  0
VERTEX
  8
PNOA-H_AMS_1956-57_33k_ES_PAN_21mic_H50_0379_fot_41B-37386_W_tif
  70
32
  10
541125.500
  20
4598656.500
  30
990.639
  0
VERTEX
  8
PNOA-H_AMS_1956-57_33k_ES_PAN_21mic_H50_0379_fot_41B-37386_W_tif
  70
32
  10
541130.000
  20
4598657.000
  30
990.394
  0
VERTEX
  8
PNOA-H_AMS_1956-57_33k_ES_PAN_21mic_H50_0379_fot_41B-37386_W_tif
  70
32
  10
542950.500
  20
4598842.500
  30
960.848
  0
VERTEX
  8
PNOA-H_AMS_1956-57_33k_ES_PAN_21mic_H50_0379_fot_41B-37386_W_tif
  70
32
  10
542950.512
  20
4598842.493
  30
960.849
  0
VERTEX
  8
PNOA-H_AMS_1956-57_33k_ES_PAN_21mic_H50_0379_fot_41B-37386_W_tif
  70
32
  10
543387.000
  20
4598596.000
  30
1014.587
  0
VERTEX
  8
PNOA-H_AMS_1956-57_33k_ES_PAN_21mic_H50_0379_fot_41B-37386_W_tif
  70
32
  10
543387.000
  20
4598595.500
  30
1014.581
  0
VERTEX
  8
PNOA-H_AMS_1956-57_33k_ES_PAN_21mic_H50_0379_fot_41B-37386_W_tif
  70
32
  10
543383.148
  20
4594394.639
  30
961.716
  0
SEQEND
  8
PNOA-H_AMS_1956-57_33k_ES_PAN_21mic_H50_0379_fot_41B-37386_W_tif
  0
INSERT
  8
FeatureAttribs
  2
FEATURE
  41
1
  42
1
  43
1
  50
0
  10
550732.071
  20
4609820.750
 66
1
  0
ATTRIB
  8
FeatureAttribs
 70
0
  1
PNOA-H_AMS_1956-57_33k_ES_PAN_21mic_H50_0379_fot_38C-40589_E.tif
  2
NAME
  10
550732.071
  20
4609820.750
 40
33.61342
  0
SEQEND
  0
POLYLINE
  8
PNOA-H_AMS_1956-57_33k_ES_PAN_21mic_H50_0379_fot_38C-40589_E_tif
  70
9
  66
1
  0
VERTEX
  8
PNOA-H_AMS_1956-57_33k_ES_PAN_21mic_H50_0379_fot_38C-40589_E_tif
  70
32
  10
551951.031
  20
4607600.019
  30
967.823
  0
VERTEX
  8
PNOA-H_AMS_1956-57_33k_ES_PAN_21mic_H50_0379_fot_38C-40589_E_tif
  70
32
  10
551951.000
  20
4607600.000
  30
967.823
  0
VERTEX
  8
PNOA-H_AMS_1956-57_33k_ES_PAN_21mic_H50_0379_fot_38C-40589_E_tif
  70
32
  10
549311.000
  20
4607704.500
  30
979.72
  0
VERTEX
  8
PNOA-H_AMS_1956-57_33k_ES_PAN_21mic_H50_0379_fot_38C-40589_E_tif
  70
32
  10
549401.500
  20
4611980.000
  30
991.902
  0
VERTEX
  8
PNOA-H_AMS_1956-57_33k_ES_PAN_21mic_H50_0379_fot_38C-40589_E_tif
  70
32
  10
552015.500
  20
4612041.500
  30
975.433
  0
VERTEX
  8
PNOA-H_AMS_1956-57_33k_ES_PAN_21mic_H50_0379_fot_38C-40589_E_tif
  70
32
  10
552036.500
  20
4612041.500
  30
975.474
  0
VERTEX
  8
PNOA-H_AMS_1956-57_33k_ES_PAN_21mic_H50_0379_fot_38C-40589_E_tif
  70
32
  10
552037.000
  20
4612041.500
  30
975.475
  0
VERTEX
  8
PNOA-H_AMS_1956-57_33k_ES_PAN_21mic_H50_0379_fot_38C-40589_E_tif
  70
32
  10
552105.500
  20
4611999.500
  30
976.864
  0
VERTEX
  8
PNOA-H_AMS_1956-57_33k_ES_PAN_21mic_H50_0379_fot_38C-40589_E_tif
  70
32
  10
552108.500
  20
4609703.000
  30
971.66
  0
VERTEX
  8
PNOA-H_AMS_1956-57_33k_ES_PAN_21mic_H50_0379_fot_38C-40589_E_tif
  70
32
  10
552108.500
  20
4609651.591
  30
971.925
  0
VERTEX
  8
PNOA-H_AMS_1956-57_33k_ES_PAN_21mic_H50_0379_fot_38C-40589_E_tif
  70
32
  10
552108.500
  20
4609573.000
  30
970.173
  0
VERTEX
  8
PNOA-H_AMS_1956-57_33k_ES_PAN_21mic_H50_0379_fot_38C-40589_E_tif
  70
32
  10
552111.000
  20
4607695.000
  30
967.81
  0
VERTEX
  8
PNOA-H_AMS_1956-57_33k_ES_PAN_21mic_H50_0379_fot_38C-40589_E_tif
  70
32
  10
552110.954
  20
4607694.973
  30
967.81
  0
VERTEX
  8
PNOA-H_AMS_1956-57_33k_ES_PAN_21mic_H50_0379_fot_38C-40589_E_tif
  70
32
  10
552109.578
  20
4607694.156
  30
967.81
  0
VERTEX
  8
PNOA-H_AMS_1956-57_33k_ES_PAN_21mic_H50_0379_fot_38C-40589_E_tif
  70
32
  10
552054.200
  20
4607661.275
  30
967.815
  0
VERTEX
  8
PNOA-H_AMS_1956-57_33k_ES_PAN_21mic_H50_0379_fot_38C-40589_E_tif
  70
32
  10
551951.501
  20
4607600.297
  30
967.823
  0
VERTEX
  8
PNOA-H_AMS_1956-57_33k_ES_PAN_21mic_H50_0379_fot_38C-40589_E_tif
  70
32
  10
551951.031
  20
4607600.019
  30
967.823
  0
SEQEND
  8
PNOA-H_AMS_1956-57_33k_ES_PAN_21mic_H50_0379_fot_38C-40589_E_tif
  0
INSERT
  8
FeatureAttribs
  2
FEATURE
  41
1
  42
1
  43
1
  50
0
  10
553502.814
  20
4609823.000
 66
1
  0
ATTRIB
  8
FeatureAttribs
 70
0
  1
PNOA-H_AMS_1956-57_33k_ES_PAN_21mic_H50_0379_fot_38C-40590_E.tif
  2
NAME
  10
553502.814
  20
4609823.000
 40
33.61342
  0
SEQEND
  0
POLYLINE
  8
PNOA-H_AMS_1956-57_33k_ES_PAN_21mic_H50_0379_fot_38C-40590_E_tif
  70
9
  66
1
  0
VERTEX
  8
PNOA-H_AMS_1956-57_33k_ES_PAN_21mic_H50_0379_fot_38C-40590_E_tif
  70
32
  10
554774.000
  20
4612024.500
  30
1006.548
  0
VERTEX
  8
PNOA-H_AMS_1956-57_33k_ES_PAN_21mic_H50_0379_fot_38C-40590_E_tif
  70
32
  10
554809.000
  20
4612024.500
  30
1006.431
  0
VERTEX
  8
PNOA-H_AMS_1956-57_33k_ES_PAN_21mic_H50_0379_fot_38C-40590_E_tif
  70
32
  10
554809.500
  20
4612024.500
  30
1006.429
  0
VERTEX
  8
PNOA-H_AMS_1956-57_33k_ES_PAN_21mic_H50_0379_fot_38C-40590_E_tif
  70
32
  10
554906.768
  20
4611963.460
  30
1009.079
  0
VERTEX
  8
PNOA-H_AMS_1956-57_33k_ES_PAN_21mic_H50_0379_fot_38C-40590_E_tif
  70
32
  10
554907.500
  20
4611963.000
  30
1009.099
  0
VERTEX
  8
PNOA-H_AMS_1956-57_33k_ES_PAN_21mic_H50_0379_fot_38C-40590_E_tif
  70
32
  10
554887.500
  20
4607747.500
  30
999.417
  0
VERTEX
  8
PNOA-H_AMS_1956-57_33k_ES_PAN_21mic_H50_0379_fot_38C-40590_E_tif
  70
32
  10
554887.454
  20
4607747.473
  30
999.416
  0
VERTEX
  8
PNOA-H_AMS_1956-57_33k_ES_PAN_21mic_H50_0379_fot_38C-40590_E_tif
  70
32
  10
554677.500
  20
4607621.500
  30
993.37
  0
VERTEX
  8
PNOA-H_AMS_1956-57_33k_ES_PAN_21mic_H50_0379_fot_38C-40590_E_tif
  70
32
  10
554677.023
  20
4607621.514
  30
993.365
  0
VERTEX
  8
PNOA-H_AMS_1956-57_33k_ES_PAN_21mic_H50_0379_fot_38C-40590_E_tif
  70
32
  10
552111.000
  20
4607695.000
  30
967.81
  0
VERTEX
  8
PNOA-H_AMS_1956-57_33k_ES_PAN_21mic_H50_0379_fot_38C-40590_E_tif
  70
32
  10
552108.500
  20
4609651.591
  30
971.925
  0
VERTEX
  8
PNOA-H_AMS_1956-57_33k_ES_PAN_21mic_H50_0379_fot_38C-40590_E_tif
  70
32
  10
552105.500
  20
4611999.500
  30
976.864
  0
VERTEX
  8
PNOA-H_AMS_1956-57_33k_ES_PAN_21mic_H50_0379_fot_38C-40590_E_tif
  70
32
  10
554721.000
  20
4612024.000
  30
1008.163
  0
VERTEX
  8
PNOA-H_AMS_1956-57_33k_ES_PAN_21mic_H50_0379_fot_38C-40590_E_tif
  70
32
  10
554774.000
  20
4612024.500
  30
1006.548
  0
SEQEND
  8
PNOA-H_AMS_1956-57_33k_ES_PAN_21mic_H50_0379_fot_38C-40590_E_tif
  0
INSERT
  8
FeatureAttribs
  2
FEATURE
  41
1
  42
1
  43
1
  50
0
  10
553332.506
  20
4605355.250
 66
1
  0
ATTRIB
  8
FeatureAttribs
 70
0
  1
PNOA-H_AMS_1956-57_33k_ES_PAN_21mic_H50_0379_fot_39D-44209_E.tif
  2
NAME
  10
553332.506
  20
4605355.250
 40
33.61342
  0
SEQEND
  0
POLYLINE
  8
PNOA-H_AMS_1956-57_33k_ES_PAN_21mic_H50_0379_fot_39D-44209_E_tif
  70
9
  66
1
  0
VERTEX
  8
PNOA-H_AMS_1956-57_33k_ES_PAN_21mic_H50_0379_fot_39D-44209_E_tif
  70
32
  10
554731.306
  20
4603316.408
  30
990.112
  0
VERTEX
  8
PNOA-H_AMS_1956-57_33k_ES_PAN_21mic_H50_0379_fot_39D-44209_E_tif
  70
32
  10
554099.000
  20
4603015.500
  30
982.591
  0
VERTEX
  8
PNOA-H_AMS_1956-57_33k_ES_PAN_21mic_H50_0379_fot_39D-44209_E_tif
  70
32
  10
554098.608
  20
4603015.551
  30
982.59
  0
VERTEX
  8
PNOA-H_AMS_1956-57_33k_ES_PAN_21mic_H50_0379_fot_39D-44209_E_tif
  70
32
  10
553032.750
  20
4603155.250
  30
980.712
  0
VERTEX
  8
PNOA-H_AMS_1956-57_33k_ES_PAN_21mic_H50_0379_fot_39D-44209_E_tif
  70
32
  10
551966.890
  20
4603294.949
  30
978.834
  0
VERTEX
  8
PNOA-H_AMS_1956-57_33k_ES_PAN_21mic_H50_0379_fot_39D-44209_E_tif
  70
32
  10
551966.500
  20
4603295.000
  30
978.834
  0
VERTEX
  8
PNOA-H_AMS_1956-57_33k_ES_PAN_21mic_H50_0379_fot_39D-44209_E_tif
  70
32
  10
551951.501
  20
4607600.297
  30
967.818
  0
VERTEX
  8
PNOA-H_AMS_1956-57_33k_ES_PAN_21mic_H50_0379_fot_39D-44209_E_tif
  70
32
  10
551951.500
  20
4607600.500
  30
967.818
  0
VERTEX
  8
PNOA-H_AMS_1956-57_33k_ES_PAN_21mic_H50_0379_fot_39D-44209_E_tif
  70
32
  10
552054.200
  20
4607661.275
  30
967.82
  0
VERTEX
  8
PNOA-H_AMS_1956-57_33k_ES_PAN_21mic_H50_0379_fot_39D-44209_E_tif
  70
32
  10
552109.500
  20
4607694.000
  30
967.821
  0
VERTEX
  8
PNOA-H_AMS_1956-57_33k_ES_PAN_21mic_H50_0379_fot_39D-44209_E_tif
  70
32
  10
552109.578
  20
4607694.156
  30
967.827
  0
VERTEX
  8
PNOA-H_AMS_1956-57_33k_ES_PAN_21mic_H50_0379_fot_39D-44209_E_tif
  70
32
  10
552110.000
  20
4607695.000
  30
967.817
  0
VERTEX
  8
PNOA-H_AMS_1956-57_33k_ES_PAN_21mic_H50_0379_fot_39D-44209_E_tif
  70
32
  10
552110.954
  20
4607694.973
  30
967.827
  0
VERTEX
  8
PNOA-H_AMS_1956-57_33k_ES_PAN_21mic_H50_0379_fot_39D-44209_E_tif
  70
32
  10
554677.000
  20
4607621.500
  30
993.359
  0
VERTEX
  8
PNOA-H_AMS_1956-57_33k_ES_PAN_21mic_H50_0379_fot_39D-44209_E_tif
  70
32
  10
554731.500
  20
4603316.500
  30
990.114
  0
VERTEX
  8
PNOA-H_AMS_1956-57_33k_ES_PAN_21mic_H50_0379_fot_39D-44209_E_tif
  70
32
  10
554731.306
  20
4603316.408
  30
990.112
  0
SEQEND
  8
PNOA-H_AMS_1956-57_33k_ES_PAN_21mic_H50_0379_fot_39D-44209_E_tif
  0
INSERT
  8
FeatureAttribs
  2
FEATURE
  41
1
  42
1
  43
1
  50
0
  10
550609.646
  20
4605344.500
 66
1
  0
ATTRIB
  8
FeatureAttribs
 70
0
  1
PNOA-H_AMS_1956-57_33k_ES_PAN_21mic_H50_0379_fot_39D-44208_E.tif
  2
NAME
  10
550609.646
  20
4605344.500
 40
33.61342
  0
SEQEND
  0
POLYLINE
  8
PNOA-H_AMS_1956-57_33k_ES_PAN_21mic_H50_0379_fot_39D-44208_E_tif
  70
9
  66
1
  0
VERTEX
  8
PNOA-H_AMS_1956-57_33k_ES_PAN_21mic_H50_0379_fot_39D-44208_E_tif
  70
32
  10
549323.500
  20
4607704.500
  30
979.915
  0
VERTEX
  8
PNOA-H_AMS_1956-57_33k_ES_PAN_21mic_H50_0379_fot_39D-44208_E_tif
  70
32
  10
551370.000
  20
4607623.000
  30
978.953
  0
VERTEX
  8
PNOA-H_AMS_1956-57_33k_ES_PAN_21mic_H50_0379_fot_39D-44208_E_tif
  70
32
  10
551372.000
  20
4607623.000
  30
978.771
  0
VERTEX
  8
PNOA-H_AMS_1956-57_33k_ES_PAN_21mic_H50_0379_fot_39D-44208_E_tif
  70
32
  10
551951.031
  20
4607600.019
  30
967.817
  0
VERTEX
  8
PNOA-H_AMS_1956-57_33k_ES_PAN_21mic_H50_0379_fot_39D-44208_E_tif
  70
32
  10
551951.500
  20
4607600.000
  30
967.808
  0
VERTEX
  8
PNOA-H_AMS_1956-57_33k_ES_PAN_21mic_H50_0379_fot_39D-44208_E_tif
  70
32
  10
551966.500
  20
4603295.000
  30
978.834
  0
VERTEX
  8
PNOA-H_AMS_1956-57_33k_ES_PAN_21mic_H50_0379_fot_39D-44208_E_tif
  70
32
  10
551794.548
  20
4603214.773
  30
977.971
  0
VERTEX
  8
PNOA-H_AMS_1956-57_33k_ES_PAN_21mic_H50_0379_fot_39D-44208_E_tif
  70
32
  10
551301.000
  20
4602984.500
  30
975.497
  0
VERTEX
  8
PNOA-H_AMS_1956-57_33k_ES_PAN_21mic_H50_0379_fot_39D-44208_E_tif
  70
32
  10
551300.617
  20
4602984.555
  30
975.496
  0
VERTEX
  8
PNOA-H_AMS_1956-57_33k_ES_PAN_21mic_H50_0379_fot_39D-44208_E_tif
  70
32
  10
549763.804
  20
4603204.528
  30
973.761
  0
VERTEX
  8
PNOA-H_AMS_1956-57_33k_ES_PAN_21mic_H50_0379_fot_39D-44208_E_tif
  70
32
  10
549323.857
  20
4603267.500
  30
973.265
  0
VERTEX
  8
PNOA-H_AMS_1956-57_33k_ES_PAN_21mic_H50_0379_fot_39D-44208_E_tif
  70
32
  10
549250.500
  20
4603278.000
  30
973.182
  0
VERTEX
  8
PNOA-H_AMS_1956-57_33k_ES_PAN_21mic_H50_0379_fot_39D-44208_E_tif
  70
32
  10
549270.500
  20
4607659.000
  30
980.135
  0
VERTEX
  8
PNOA-H_AMS_1956-57_33k_ES_PAN_21mic_H50_0379_fot_39D-44208_E_tif
  70
32
  10
549270.989
  20
4607681.000
  30
979.672
  0
VERTEX
  8
PNOA-H_AMS_1956-57_33k_ES_PAN_21mic_H50_0379_fot_39D-44208_E_tif
  70
32
  10
549271.000
  20
4607681.500
  30
979.661
  0
VERTEX
  8
PNOA-H_AMS_1956-57_33k_ES_PAN_21mic_H50_0379_fot_39D-44208_E_tif
  70
32
  10
549310.000
  20
4607704.500
  30
979.708
  0
VERTEX
  8
PNOA-H_AMS_1956-57_33k_ES_PAN_21mic_H50_0379_fot_39D-44208_E_tif
  70
32
  10
549311.000
  20
4607704.500
  30
979.724
  0
VERTEX
  8
PNOA-H_AMS_1956-57_33k_ES_PAN_21mic_H50_0379_fot_39D-44208_E_tif
  70
32
  10
549323.500
  20
4607704.500
  30
979.915
  0
SEQEND
  8
PNOA-H_AMS_1956-57_33k_ES_PAN_21mic_H50_0379_fot_39D-44208_E_tif
  0
INSERT
  8
FeatureAttribs
  2
FEATURE
  41
1
  42
1
  43
1
  50
0
  10
552725.270
  20
4600988.500
 66
1
  0
ATTRIB
  8
FeatureAttribs
 70
0
  1
PNOA-H_AMS_1956-57_33k_ES_PAN_21mic_H50_0379_fot_40B-38895_W.tif
  2
NAME
  10
552725.270
  20
4600988.500
 40
33.61342
  0
SEQEND
  0
POLYLINE
  8
PNOA-H_AMS_1956-57_33k_ES_PAN_21mic_H50_0379_fot_40B-38895_W_tif
  70
9
  66
1
  0
VERTEX
  8
PNOA-H_AMS_1956-57_33k_ES_PAN_21mic_H50_0379_fot_40B-38895_W_tif
  70
32
  10
553996.095
  20
4598682.032
  30
1045.586
  0
VERTEX
  8
PNOA-H_AMS_1956-57_33k_ES_PAN_21mic_H50_0379_fot_40B-38895_W_tif
  70
32
  10
553996.000
  20
4598682.000
  30
1045.589
  0
VERTEX
  8
PNOA-H_AMS_1956-57_33k_ES_PAN_21mic_H50_0379_fot_40B-38895_W_tif
  70
32
  10
551339.500
  20
4598774.500
  30
1027.407
  0
VERTEX
  8
PNOA-H_AMS_1956-57_33k_ES_PAN_21mic_H50_0379_fot_40B-38895_W_tif
  70
32
  10
551300.500
  20
4602984.500
  30
975.489
  0
VERTEX
  8
PNOA-H_AMS_1956-57_33k_ES_PAN_21mic_H50_0379_fot_40B-38895_W_tif
  70
32
  10
551300.617
  20
4602984.555
  30
975.489
  0
VERTEX
  8
PNOA-H_AMS_1956-57_33k_ES_PAN_21mic_H50_0379_fot_40B-38895_W_tif
  70
32
  10
551369.500
  20
4603017.000
  30
975.171
  0
VERTEX
  8
PNOA-H_AMS_1956-57_33k_ES_PAN_21mic_H50_0379_fot_40B-38895_W_tif
  70
32
  10
551370.500
  20
4603017.500
  30
975.151
  0
VERTEX
  8
PNOA-H_AMS_1956-57_33k_ES_PAN_21mic_H50_0379_fot_40B-38895_W_tif
  70
32
  10
551794.548
  20
4603214.773
  30
977.783
  0
VERTEX
  8
PNOA-H_AMS_1956-57_33k_ES_PAN_21mic_H50_0379_fot_40B-38895_W_tif
  70
32
  10
551966.890
  20
4603294.949
  30
978.852
  0
VERTEX
  8
PNOA-H_AMS_1956-57_33k_ES_PAN_21mic_H50_0379_fot_40B-38895_W_tif
  70
32
  10
551967.000
  20
4603295.000
  30
978.853
  0
VERTEX
  8
PNOA-H_AMS_1956-57_33k_ES_PAN_21mic_H50_0379_fot_40B-38895_W_tif
  70
32
  10
553032.750
  20
4603155.250
  30
980.723
  0
VERTEX
  8
PNOA-H_AMS_1956-57_33k_ES_PAN_21mic_H50_0379_fot_40B-38895_W_tif
  70
32
  10
554098.500
  20
4603015.500
  30
982.594
  0
VERTEX
  8
PNOA-H_AMS_1956-57_33k_ES_PAN_21mic_H50_0379_fot_40B-38895_W_tif
  70
32
  10
554167.500
  20
4598783.500
  30
1038.006
  0
VERTEX
  8
PNOA-H_AMS_1956-57_33k_ES_PAN_21mic_H50_0379_fot_40B-38895_W_tif
  70
32
  10
554167.413
  20
4598783.448
  30
1038.01
  0
VERTEX
  8
PNOA-H_AMS_1956-57_33k_ES_PAN_21mic_H50_0379_fot_40B-38895_W_tif
  70
32
  10
553999.000
  20
4598683.000
  30
1045.484
  0
VERTEX
  8
PNOA-H_AMS_1956-57_33k_ES_PAN_21mic_H50_0379_fot_40B-38895_W_tif
  70
32
  10
553996.995
  20
4598682.332
  30
1045.554
  0
VERTEX
  8
PNOA-H_AMS_1956-57_33k_ES_PAN_21mic_H50_0379_fot_40B-38895_W_tif
  70
32
  10
553996.095
  20
4598682.032
  30
1045.586
  0
SEQEND
  8
PNOA-H_AMS_1956-57_33k_ES_PAN_21mic_H50_0379_fot_40B-38895_W_tif
  0
INSERT
  8
FeatureAttribs
  2
FEATURE
  41
1
  42
1
  43
1
  50
0
  10
549922.768
  20
4601018.000
 66
1
  0
ATTRIB
  8
FeatureAttribs
 70
0
  1
PNOA-H_AMS_1956-57_33k_ES_PAN_21mic_H50_0379_fot_40B-38896_W.tif
  2
NAME
  10
549922.768
  20
4601018.000
 40
33.61342
  0
SEQEND
  0
POLYLINE
  8
PNOA-H_AMS_1956-57_33k_ES_PAN_21mic_H50_0379_fot_40B-38896_W_tif
  70
9
  66
1
  0
VERTEX
  8
PNOA-H_AMS_1956-57_33k_ES_PAN_21mic_H50_0379_fot_40B-38896_W_tif
  70
32
  10
549322.500
  20
4603267.500
  30
972.041
  0
VERTEX
  8
PNOA-H_AMS_1956-57_33k_ES_PAN_21mic_H50_0379_fot_40B-38896_W_tif
  70
32
  10
549323.857
  20
4603267.500
  30
972.009
  0
VERTEX
  8
PNOA-H_AMS_1956-57_33k_ES_PAN_21mic_H50_0379_fot_40B-38896_W_tif
  70
32
  10
549324.000
  20
4603267.500
  30
972.005
  0
VERTEX
  8
PNOA-H_AMS_1956-57_33k_ES_PAN_21mic_H50_0379_fot_40B-38896_W_tif
  70
32
  10
549763.804
  20
4603204.528
  30
972.781
  0
VERTEX
  8
PNOA-H_AMS_1956-57_33k_ES_PAN_21mic_H50_0379_fot_40B-38896_W_tif
  70
32
  10
551300.500
  20
4602984.500
  30
975.489
  0
VERTEX
  8
PNOA-H_AMS_1956-57_33k_ES_PAN_21mic_H50_0379_fot_40B-38896_W_tif
  70
32
  10
551339.495
  20
4598774.498
  30
1027.396
  0
VERTEX
  8
PNOA-H_AMS_1956-57_33k_ES_PAN_21mic_H50_0379_fot_40B-38896_W_tif
  70
32
  10
551339.500
  20
4598774.000
  30
1027.402
  0
VERTEX
  8
PNOA-H_AMS_1956-57_33k_ES_PAN_21mic_H50_0379_fot_40B-38896_W_tif
  70
32
  10
551327.000
  20
4598766.000
  30
1027.184
  0
VERTEX
  8
PNOA-H_AMS_1956-57_33k_ES_PAN_21mic_H50_0379_fot_40B-38896_W_tif
  70
32
  10
551325.999
  20
4598765.975
  30
1027.167
  0
VERTEX
  8
PNOA-H_AMS_1956-57_33k_ES_PAN_21mic_H50_0379_fot_40B-38896_W_tif
  70
32
  10
551307.000
  20
4598765.500
  30
1026.856
  0
VERTEX
  8
PNOA-H_AMS_1956-57_33k_ES_PAN_21mic_H50_0379_fot_40B-38896_W_tif
  70
32
  10
548614.000
  20
4598758.000
  30
1003.208
  0
VERTEX
  8
PNOA-H_AMS_1956-57_33k_ES_PAN_21mic_H50_0379_fot_40B-38896_W_tif
  70
32
  10
548543.500
  20
4598758.000
  30
1002.206
  0
VERTEX
  8
PNOA-H_AMS_1956-57_33k_ES_PAN_21mic_H50_0379_fot_40B-38896_W_tif
  70
32
  10
548543.000
  20
4598758.000
  30
1002.199
  0
VERTEX
  8
PNOA-H_AMS_1956-57_33k_ES_PAN_21mic_H50_0379_fot_40B-38896_W_tif
  70
32
  10
548540.500
  20
4598759.500
  30
1002.218
  0
VERTEX
  8
PNOA-H_AMS_1956-57_33k_ES_PAN_21mic_H50_0379_fot_40B-38896_W_tif
  70
32
  10
548540.497
  20
4598760.000
  30
1002.221
  0
VERTEX
  8
PNOA-H_AMS_1956-57_33k_ES_PAN_21mic_H50_0379_fot_40B-38896_W_tif
  70
32
  10
548515.000
  20
4602970.000
  30
1027.09
  0
VERTEX
  8
PNOA-H_AMS_1956-57_33k_ES_PAN_21mic_H50_0379_fot_40B-38896_W_tif
  70
32
  10
548515.288
  20
4602970.121
  30
1027.068
  0
VERTEX
  8
PNOA-H_AMS_1956-57_33k_ES_PAN_21mic_H50_0379_fot_40B-38896_W_tif
  70
32
  10
549249.500
  20
4603278.000
  30
973.227
  0
VERTEX
  8
PNOA-H_AMS_1956-57_33k_ES_PAN_21mic_H50_0379_fot_40B-38896_W_tif
  70
32
  10
549250.245
  20
4603277.893
  30
973.215
  0
VERTEX
  8
PNOA-H_AMS_1956-57_33k_ES_PAN_21mic_H50_0379_fot_40B-38896_W_tif
  70
32
  10
549322.500
  20
4603267.500
  30
972.041
  0
SEQEND
  8
PNOA-H_AMS_1956-57_33k_ES_PAN_21mic_H50_0379_fot_40B-38896_W_tif
  0
INSERT
  8
FeatureAttribs
  2
FEATURE
  41
1
  42
1
  43
1
  50
0
  10
555241.263
  20
4596624.422
 66
1
  0
ATTRIB
  8
FeatureAttribs
 70
0
  1
PNOA-H_AMS_1956-57_33k_ES_PAN_21mic_H50_0379_fot_41B-37381_W.tif
  2
NAME
  10
555241.263
  20
4596624.422
 40
33.61342
  0
SEQEND
  0
POLYLINE
  8
PNOA-H_AMS_1956-57_33k_ES_PAN_21mic_H50_0379_fot_41B-37381_W_tif
  70
9
  66
1
  0
VERTEX
  8
PNOA-H_AMS_1956-57_33k_ES_PAN_21mic_H50_0379_fot_41B-37381_W_tif
  70
32
  10
554167.413
  20
4598783.448
  30
1038.039
  0
VERTEX
  8
PNOA-H_AMS_1956-57_33k_ES_PAN_21mic_H50_0379_fot_41B-37381_W_tif
  70
32
  10
555461.000
  20
4598710.000
  30
1045.309
  0
VERTEX
  8
PNOA-H_AMS_1956-57_33k_ES_PAN_21mic_H50_0379_fot_41B-37381_W_tif
  70
32
  10
555461.100
  20
4598710.000
  30
1045.308
  0
VERTEX
  8
PNOA-H_AMS_1956-57_33k_ES_PAN_21mic_H50_0379_fot_41B-37381_W_tif
  70
32
  10
555468.000
  20
4598710.000
  30
1045.278
  0
VERTEX
  8
PNOA-H_AMS_1956-57_33k_ES_PAN_21mic_H50_0379_fot_41B-37381_W_tif
  70
32
  10
556725.500
  20
4598638.500
  30
1066.737
  0
VERTEX
  8
PNOA-H_AMS_1956-57_33k_ES_PAN_21mic_H50_0379_fot_41B-37381_W_tif
  70
32
  10
556350.708
  20
4594484.399
  30
1147.042
  0
VERTEX
  8
PNOA-H_AMS_1956-57_33k_ES_PAN_21mic_H50_0379_fot_41B-37381_W_tif
  70
32
  10
553903.181
  20
4594465.528
  30
0
  0
VERTEX
  8
PNOA-H_AMS_1956-57_33k_ES_PAN_21mic_H50_0379_fot_41B-37381_W_tif
  70
32
  10
553877.623
  20
4594465.343
  30
1127.202
  0
VERTEX
  8
PNOA-H_AMS_1956-57_33k_ES_PAN_21mic_H50_0379_fot_41B-37381_W_tif
  70
32
  10
553996.986
  20
4598682.000
  30
1045.557
  0
VERTEX
  8
PNOA-H_AMS_1956-57_33k_ES_PAN_21mic_H50_0379_fot_41B-37381_W_tif
  70
32
  10
553996.995
  20
4598682.332
  30
1045.551
  0
VERTEX
  8
PNOA-H_AMS_1956-57_33k_ES_PAN_21mic_H50_0379_fot_41B-37381_W_tif
  70
32
  10
553997.000
  20
4598682.500
  30
1045.548
  0
VERTEX
  8
PNOA-H_AMS_1956-57_33k_ES_PAN_21mic_H50_0379_fot_41B-37381_W_tif
  70
32
  10
554166.500
  20
4598783.500
  30
1038.034
  0
VERTEX
  8
PNOA-H_AMS_1956-57_33k_ES_PAN_21mic_H50_0379_fot_41B-37381_W_tif
  70
32
  10
554167.413
  20
4598783.448
  30
1038.039
  0
SEQEND
  8
PNOA-H_AMS_1956-57_33k_ES_PAN_21mic_H50_0379_fot_41B-37381_W_tif
  0
INSERT
  8
FeatureAttribs
  2
FEATURE
  41
1
  42
1
  43
1
  50
0
  10
549927.651
  20
4596597.258
 66
1
  0
ATTRIB
  8
FeatureAttribs
 70
0
  1
PNOA-H_AMS_1956-57_33k_ES_PAN_21mic_H50_0379_fot_41B-37383_W.tif
  2
NAME
  10
549927.651
  20
4596597.258
 40
33.61342
  0
SEQEND
  0
POLYLINE
  8
PNOA-H_AMS_1956-57_33k_ES_PAN_21mic_H50_0379_fot_41B-37383_W_tif
  70
9
  66
1
  0
VERTEX
  8
PNOA-H_AMS_1956-57_33k_ES_PAN_21mic_H50_0379_fot_41B-37383_W_tif
  70
32
  10
550425.539
  20
4594440.391
  30
0
  0
VERTEX
  8
PNOA-H_AMS_1956-57_33k_ES_PAN_21mic_H50_0379_fot_41B-37383_W_tif
  70
32
  10
548665.549
  20
4594428.517
  30
1101.218
  0
VERTEX
  8
PNOA-H_AMS_1956-57_33k_ES_PAN_21mic_H50_0379_fot_41B-37383_W_tif
  70
32
  10
548543.500
  20
4598758.000
  30
1002.208
  0
VERTEX
  8
PNOA-H_AMS_1956-57_33k_ES_PAN_21mic_H50_0379_fot_41B-37383_W_tif
  70
32
  10
551127.500
  20
4598765.500
  30
1023.909
  0
VERTEX
  8
PNOA-H_AMS_1956-57_33k_ES_PAN_21mic_H50_0379_fot_41B-37383_W_tif
  70
32
  10
551307.000
  20
4598766.000
  30
1026.866
  0
VERTEX
  8
PNOA-H_AMS_1956-57_33k_ES_PAN_21mic_H50_0379_fot_41B-37383_W_tif
  70
32
  10
551326.000
  20
4598766.000
  30
1027.175
  0
VERTEX
  8
PNOA-H_AMS_1956-57_33k_ES_PAN_21mic_H50_0379_fot_41B-37383_W_tif
  70
32
  10
551325.999
  20
4598765.975
  30
1027.174
  0
VERTEX
  8
PNOA-H_AMS_1956-57_33k_ES_PAN_21mic_H50_0379_fot_41B-37383_W_tif
  70
32
  10
551326.000
  20
4598753.500
  30
1026.888
  0
VERTEX
  8
PNOA-H_AMS_1956-57_33k_ES_PAN_21mic_H50_0379_fot_41B-37383_W_tif
  70
32
  10
551180.549
  20
4594577.951
  30
1139.132
  0
VERTEX
  8
PNOA-H_AMS_1956-57_33k_ES_PAN_21mic_H50_0379_fot_41B-37383_W_tif
  70
32
  10
551175.946
  20
4594445.815
  30
1142.684
  0
VERTEX
  8
PNOA-H_AMS_1956-57_33k_ES_PAN_21mic_H50_0379_fot_41B-37383_W_tif
  70
32
  10
550425.539
  20
4594440.391
  30
0
  0
SEQEND
  8
PNOA-H_AMS_1956-57_33k_ES_PAN_21mic_H50_0379_fot_41B-37383_W_tif
  0
INSERT
  8
FeatureAttribs
  2
FEATURE
  41
1
  42
1
  43
1
  50
0
  10
552594.720
  20
4596610.157
 66
1
  0
ATTRIB
  8
FeatureAttribs
 70
0
  1
PNOA-H_AMS_1956-57_33k_ES_PAN_21mic_H50_0379_fot_41B-37382_W.tif
  2
NAME
  10
552594.720
  20
4596610.157
 40
33.61342
  0
SEQEND
  0
POLYLINE
  8
PNOA-H_AMS_1956-57_33k_ES_PAN_21mic_H50_0379_fot_41B-37382_W_tif
  70
9
  66
1
  0
VERTEX
  8
PNOA-H_AMS_1956-57_33k_ES_PAN_21mic_H50_0379_fot_41B-37382_W_tif
  70
32
  10
553877.623
  20
4594465.343
  30
1127.202
  0
VERTEX
  8
PNOA-H_AMS_1956-57_33k_ES_PAN_21mic_H50_0379_fot_41B-37382_W_tif
  70
32
  10
551175.962
  20
4594445.815
  30
1142.646
  0
VERTEX
  8
PNOA-H_AMS_1956-57_33k_ES_PAN_21mic_H50_0379_fot_41B-37382_W_tif
  70
32
  10
551180.549
  20
4594577.951
  30
1139.095
  0
VERTEX
  8
PNOA-H_AMS_1956-57_33k_ES_PAN_21mic_H50_0379_fot_41B-37382_W_tif
  70
32
  10
551325.500
  20
4598753.500
  30
1026.892
  0
VERTEX
  8
PNOA-H_AMS_1956-57_33k_ES_PAN_21mic_H50_0379_fot_41B-37382_W_tif
  70
32
  10
551325.999
  20
4598765.975
  30
1027.174
  0
VERTEX
  8
PNOA-H_AMS_1956-57_33k_ES_PAN_21mic_H50_0379_fot_41B-37382_W_tif
  70
32
  10
551326.000
  20
4598766.000
  30
1027.175
  0
VERTEX
  8
PNOA-H_AMS_1956-57_33k_ES_PAN_21mic_H50_0379_fot_41B-37382_W_tif
  70
32
  10
551338.500
  20
4598774.000
  30
1027.387
  0
VERTEX
  8
PNOA-H_AMS_1956-57_33k_ES_PAN_21mic_H50_0379_fot_41B-37382_W_tif
  70
32
  10
551339.495
  20
4598774.498
  30
1027.407
  0
VERTEX
  8
PNOA-H_AMS_1956-57_33k_ES_PAN_21mic_H50_0379_fot_41B-37382_W_tif
  70
32
  10
551339.500
  20
4598774.500
  30
1027.407
  0
VERTEX
  8
PNOA-H_AMS_1956-57_33k_ES_PAN_21mic_H50_0379_fot_41B-37382_W_tif
  70
32
  10
553996.095
  20
4598682.032
  30
1045.545
  0
VERTEX
  8
PNOA-H_AMS_1956-57_33k_ES_PAN_21mic_H50_0379_fot_41B-37382_W_tif
  70
32
  10
553996.986
  20
4598682.000
  30
1045.551
  0
VERTEX
  8
PNOA-H_AMS_1956-57_33k_ES_PAN_21mic_H50_0379_fot_41B-37382_W_tif
  70
32
  10
553997.000
  20
4598682.000
  30
1045.551
  0
VERTEX
  8
PNOA-H_AMS_1956-57_33k_ES_PAN_21mic_H50_0379_fot_41B-37382_W_tif
  70
32
  10
553877.623
  20
4594465.343
  30
1127.202
  0
SEQEND
  8
PNOA-H_AMS_1956-57_33k_ES_PAN_21mic_H50_0379_fot_41B-37382_W_tif
  0
INSERT
  8
FeatureAttribs
  2
FEATURE
  41
1
  42
1
  43
1
  50
0
  10
559135.073
  20
4609842.000
 66
1
  0
ATTRIB
  8
FeatureAttribs
 70
0
  1
PNOA-H_AMS_1956-57_33k_ES_PAN_21mic_H50_0379_fot_38C-40592_E.tif
  2
NAME
  10
559135.073
  20
4609842.000
 40
33.61342
  0
SEQEND
  0
POLYLINE
  8
PNOA-H_AMS_1956-57_33k_ES_PAN_21mic_H50_0379_fot_38C-40592_E_tif
  70
9
  66
1
  0
VERTEX
  8
PNOA-H_AMS_1956-57_33k_ES_PAN_21mic_H50_0379_fot_38C-40592_E_tif
  70
32
  10
560287.500
  20
4612102.500
  30
989.21
  0
VERTEX
  8
PNOA-H_AMS_1956-57_33k_ES_PAN_21mic_H50_0379_fot_38C-40592_E_tif
  70
32
  10
560291.500
  20
4612102.500
  30
989.127
  0
VERTEX
  8
PNOA-H_AMS_1956-57_33k_ES_PAN_21mic_H50_0379_fot_38C-40592_E_tif
  70
32
  10
560292.000
  20
4612102.500
  30
989.116
  0
VERTEX
  8
PNOA-H_AMS_1956-57_33k_ES_PAN_21mic_H50_0379_fot_38C-40592_E_tif
  70
32
  10
560552.444
  20
4611952.032
  30
984.106
  0
VERTEX
  8
PNOA-H_AMS_1956-57_33k_ES_PAN_21mic_H50_0379_fot_38C-40592_E_tif
  70
32
  10
560552.500
  20
4611952.000
  30
984.105
  0
VERTEX
  8
PNOA-H_AMS_1956-57_33k_ES_PAN_21mic_H50_0379_fot_38C-40592_E_tif
  70
32
  10
560538.000
  20
4607831.500
  30
977.08
  0
VERTEX
  8
PNOA-H_AMS_1956-57_33k_ES_PAN_21mic_H50_0379_fot_38C-40592_E_tif
  70
32
  10
560537.886
  20
4607831.443
  30
977.084
  0
VERTEX
  8
PNOA-H_AMS_1956-57_33k_ES_PAN_21mic_H50_0379_fot_38C-40592_E_tif
  70
32
  10
560039.500
  20
4607581.500
  30
994.347
  0
VERTEX
  8
PNOA-H_AMS_1956-57_33k_ES_PAN_21mic_H50_0379_fot_38C-40592_E_tif
  70
32
  10
560039.081
  20
4607581.541
  30
994.344
  0
VERTEX
  8
PNOA-H_AMS_1956-57_33k_ES_PAN_21mic_H50_0379_fot_38C-40592_E_tif
  70
32
  10
559935.860
  20
4607591.597
  30
993.554
  0
VERTEX
  8
PNOA-H_AMS_1956-57_33k_ES_PAN_21mic_H50_0379_fot_38C-40592_E_tif
  70
32
  10
559562.197
  20
4607628.000
  30
990.696
  0
VERTEX
  8
PNOA-H_AMS_1956-57_33k_ES_PAN_21mic_H50_0379_fot_38C-40592_E_tif
  70
32
  10
557750.500
  20
4607804.500
  30
976.839
  0
VERTEX
  8
PNOA-H_AMS_1956-57_33k_ES_PAN_21mic_H50_0379_fot_38C-40592_E_tif
  70
32
  10
557698.500
  20
4611971.000
  30
997.215
  0
VERTEX
  8
PNOA-H_AMS_1956-57_33k_ES_PAN_21mic_H50_0379_fot_38C-40592_E_tif
  70
32
  10
560277.500
  20
4612102.000
  30
989.416
  0
VERTEX
  8
PNOA-H_AMS_1956-57_33k_ES_PAN_21mic_H50_0379_fot_38C-40592_E_tif
  70
32
  10
560287.500
  20
4612102.500
  30
989.21
  0
SEQEND
  8
PNOA-H_AMS_1956-57_33k_ES_PAN_21mic_H50_0379_fot_38C-40592_E_tif
  0
INSERT
  8
FeatureAttribs
  2
FEATURE
  41
1
  42
1
  43
1
  50
0
  10
556311.335
  20
4609821.000
 66
1
  0
ATTRIB
  8
FeatureAttribs
 70
0
  1
PNOA-H_AMS_1956-57_33k_ES_PAN_21mic_H50_0379_fot_38C-40591_E.tif
  2
NAME
  10
556311.335
  20
4609821.000
 40
33.61342
  0
SEQEND
  0
POLYLINE
  8
PNOA-H_AMS_1956-57_33k_ES_PAN_21mic_H50_0379_fot_38C-40591_E_tif
  70
9
  66
1
  0
VERTEX
  8
PNOA-H_AMS_1956-57_33k_ES_PAN_21mic_H50_0379_fot_38C-40591_E_tif
  70
32
  10
557750.425
  20
4607804.459
  30
976.839
  0
VERTEX
  8
PNOA-H_AMS_1956-57_33k_ES_PAN_21mic_H50_0379_fot_38C-40591_E_tif
  70
32
  10
557375.000
  20
4607597.000
  30
976.414
  0
VERTEX
  8
PNOA-H_AMS_1956-57_33k_ES_PAN_21mic_H50_0379_fot_38C-40591_E_tif
  70
32
  10
557374.549
  20
4607597.027
  30
976.418
  0
VERTEX
  8
PNOA-H_AMS_1956-57_33k_ES_PAN_21mic_H50_0379_fot_38C-40591_E_tif
  70
32
  10
554887.500
  20
4607747.500
  30
999.417
  0
VERTEX
  8
PNOA-H_AMS_1956-57_33k_ES_PAN_21mic_H50_0379_fot_38C-40591_E_tif
  70
32
  10
554907.500
  20
4611963.000
  30
1009.099
  0
VERTEX
  8
PNOA-H_AMS_1956-57_33k_ES_PAN_21mic_H50_0379_fot_38C-40591_E_tif
  70
32
  10
554912.516
  20
4611963.157
  30
1009.183
  0
VERTEX
  8
PNOA-H_AMS_1956-57_33k_ES_PAN_21mic_H50_0379_fot_38C-40591_E_tif
  70
32
  10
555450.500
  20
4611980.000
  30
1018.19
  0
VERTEX
  8
PNOA-H_AMS_1956-57_33k_ES_PAN_21mic_H50_0379_fot_38C-40591_E_tif
  70
32
  10
555467.000
  20
4611980.500
  30
1018.171
  0
VERTEX
  8
PNOA-H_AMS_1956-57_33k_ES_PAN_21mic_H50_0379_fot_38C-40591_E_tif
  70
32
  10
557443.560
  20
4612041.050
  30
998.909
  0
VERTEX
  8
PNOA-H_AMS_1956-57_33k_ES_PAN_21mic_H50_0379_fot_38C-40591_E_tif
  70
32
  10
557571.550
  20
4612044.971
  30
997.661
  0
VERTEX
  8
PNOA-H_AMS_1956-57_33k_ES_PAN_21mic_H50_0379_fot_38C-40591_E_tif
  70
32
  10
557572.500
  20
4612045.000
  30
997.652
  0
VERTEX
  8
PNOA-H_AMS_1956-57_33k_ES_PAN_21mic_H50_0379_fot_38C-40591_E_tif
  70
32
  10
557698.500
  20
4611971.000
  30
997.215
  0
VERTEX
  8
PNOA-H_AMS_1956-57_33k_ES_PAN_21mic_H50_0379_fot_38C-40591_E_tif
  70
32
  10
557750.500
  20
4607804.500
  30
976.839
  0
VERTEX
  8
PNOA-H_AMS_1956-57_33k_ES_PAN_21mic_H50_0379_fot_38C-40591_E_tif
  70
32
  10
557750.425
  20
4607804.459
  30
976.839
  0
SEQEND
  8
PNOA-H_AMS_1956-57_33k_ES_PAN_21mic_H50_0379_fot_38C-40591_E_tif
  0
INSERT
  8
FeatureAttribs
  2
FEATURE
  41
1
  42
1
  43
1
  50
0
  10
561951.073
  20
4609823.000
 66
1
  0
ATTRIB
  8
FeatureAttribs
 70
0
  1
PNOA-H_AMS_1956-57_33k_ES_PAN_21mic_H50_0379_fot_38C-40593_E.tif
  2
NAME
  10
561951.073
  20
4609823.000
 40
33.61342
  0
SEQEND
  0
POLYLINE
  8
PNOA-H_AMS_1956-57_33k_ES_PAN_21mic_H50_0379_fot_38C-40593_E_tif
  70
9
  66
1
  0
VERTEX
  8
PNOA-H_AMS_1956-57_33k_ES_PAN_21mic_H50_0379_fot_38C-40593_E_tif
  70
32
  10
563324.000
  20
4607814.000
  30
1010.59
  0
VERTEX
  8
PNOA-H_AMS_1956-57_33k_ES_PAN_21mic_H50_0379_fot_38C-40593_E_tif
  70
32
  10
562699.000
  20
4607525.000
  30
995.584
  0
VERTEX
  8
PNOA-H_AMS_1956-57_33k_ES_PAN_21mic_H50_0379_fot_38C-40593_E_tif
  70
32
  10
562698.000
  20
4607525.000
  30
995.613
  0
VERTEX
  8
PNOA-H_AMS_1956-57_33k_ES_PAN_21mic_H50_0379_fot_38C-40593_E_tif
  70
32
  10
562674.000
  20
4607513.960
  30
995.114
  0
VERTEX
  8
PNOA-H_AMS_1956-57_33k_ES_PAN_21mic_H50_0379_fot_38C-40593_E_tif
  70
32
  10
562673.244
  20
4607513.612
  30
995.099
  0
VERTEX
  8
PNOA-H_AMS_1956-57_33k_ES_PAN_21mic_H50_0379_fot_38C-40593_E_tif
  70
32
  10
562673.000
  20
4607513.500
  30
995.093
  0
VERTEX
  8
PNOA-H_AMS_1956-57_33k_ES_PAN_21mic_H50_0379_fot_38C-40593_E_tif
  70
32
  10
561249.667
  20
4607725.500
  30
983.084
  0
VERTEX
  8
PNOA-H_AMS_1956-57_33k_ES_PAN_21mic_H50_0379_fot_38C-40593_E_tif
  70
32
  10
560538.000
  20
4607831.500
  30
977.08
  0
VERTEX
  8
PNOA-H_AMS_1956-57_33k_ES_PAN_21mic_H50_0379_fot_38C-40593_E_tif
  70
32
  10
560552.500
  20
4611952.000
  30
984.105
  0
VERTEX
  8
PNOA-H_AMS_1956-57_33k_ES_PAN_21mic_H50_0379_fot_38C-40593_E_tif
  70
32
  10
560863.812
  20
4611974.562
  30
988.451
  0
VERTEX
  8
PNOA-H_AMS_1956-57_33k_ES_PAN_21mic_H50_0379_fot_38C-40593_E_tif
  70
32
  10
563043.000
  20
4612132.500
  30
1018.877
  0
VERTEX
  8
PNOA-H_AMS_1956-57_33k_ES_PAN_21mic_H50_0379_fot_38C-40593_E_tif
  70
32
  10
563046.500
  20
4612132.500
  30
1018.353
  0
VERTEX
  8
PNOA-H_AMS_1956-57_33k_ES_PAN_21mic_H50_0379_fot_38C-40593_E_tif
  70
32
  10
563047.000
  20
4612132.500
  30
1018.278
  0
VERTEX
  8
PNOA-H_AMS_1956-57_33k_ES_PAN_21mic_H50_0379_fot_38C-40593_E_tif
  70
32
  10
563392.000
  20
4611936.500
  30
1027.026
  0
VERTEX
  8
PNOA-H_AMS_1956-57_33k_ES_PAN_21mic_H50_0379_fot_38C-40593_E_tif
  70
32
  10
563391.992
  20
4611936.005
  30
1027.024
  0
VERTEX
  8
PNOA-H_AMS_1956-57_33k_ES_PAN_21mic_H50_0379_fot_38C-40593_E_tif
  70
32
  10
563358.000
  20
4609875.250
  30
1018.808
  0
VERTEX
  8
PNOA-H_AMS_1956-57_33k_ES_PAN_21mic_H50_0379_fot_38C-40593_E_tif
  70
32
  10
563324.008
  20
4607814.499
  30
1010.592
  0
VERTEX
  8
PNOA-H_AMS_1956-57_33k_ES_PAN_21mic_H50_0379_fot_38C-40593_E_tif
  70
32
  10
563324.000
  20
4607814.000
  30
1010.59
  0
SEQEND
  8
PNOA-H_AMS_1956-57_33k_ES_PAN_21mic_H50_0379_fot_38C-40593_E_tif
  0
INSERT
  8
FeatureAttribs
  2
FEATURE
  41
1
  42
1
  43
1
  50
0
  10
556044.111
  20
4605414.000
 66
1
  0
ATTRIB
  8
FeatureAttribs
 70
0
  1
PNOA-H_AMS_1956-57_33k_ES_PAN_21mic_H50_0379_fot_39D-44210_E.tif
  2
NAME
  10
556044.111
  20
4605414.000
 40
33.61342
  0
SEQEND
  0
POLYLINE
  8
PNOA-H_AMS_1956-57_33k_ES_PAN_21mic_H50_0379_fot_39D-44210_E_tif
  70
9
  66
1
  0
VERTEX
  8
PNOA-H_AMS_1956-57_33k_ES_PAN_21mic_H50_0379_fot_39D-44210_E_tif
  70
32
  10
557391.500
  20
4603367.500
  30
991.442
  0
VERTEX
  8
PNOA-H_AMS_1956-57_33k_ES_PAN_21mic_H50_0379_fot_39D-44210_E_tif
  70
32
  10
556793.500
  20
4603080.500
  30
1027.854
  0
VERTEX
  8
PNOA-H_AMS_1956-57_33k_ES_PAN_21mic_H50_0379_fot_39D-44210_E_tif
  70
32
  10
556792.693
  20
4603080.592
  30
1027.839
  0
VERTEX
  8
PNOA-H_AMS_1956-57_33k_ES_PAN_21mic_H50_0379_fot_39D-44210_E_tif
  70
32
  10
554731.500
  20
4603316.500
  30
990.114
  0
VERTEX
  8
PNOA-H_AMS_1956-57_33k_ES_PAN_21mic_H50_0379_fot_39D-44210_E_tif
  70
32
  10
554677.000
  20
4607621.500
  30
993.359
  0
VERTEX
  8
PNOA-H_AMS_1956-57_33k_ES_PAN_21mic_H50_0379_fot_39D-44210_E_tif
  70
32
  10
554677.023
  20
4607621.514
  30
993.36
  0
VERTEX
  8
PNOA-H_AMS_1956-57_33k_ES_PAN_21mic_H50_0379_fot_39D-44210_E_tif
  70
32
  10
554886.000
  20
4607747.000
  30
999.416
  0
VERTEX
  8
PNOA-H_AMS_1956-57_33k_ES_PAN_21mic_H50_0379_fot_39D-44210_E_tif
  70
32
  10
554887.000
  20
4607747.500
  30
999.418
  0
VERTEX
  8
PNOA-H_AMS_1956-57_33k_ES_PAN_21mic_H50_0379_fot_39D-44210_E_tif
  70
32
  10
554887.454
  20
4607747.473
  30
999.414
  0
VERTEX
  8
PNOA-H_AMS_1956-57_33k_ES_PAN_21mic_H50_0379_fot_39D-44210_E_tif
  70
32
  10
557374.500
  20
4607597.000
  30
976.411
  0
VERTEX
  8
PNOA-H_AMS_1956-57_33k_ES_PAN_21mic_H50_0379_fot_39D-44210_E_tif
  70
32
  10
557391.499
  20
4603367.999
  30
991.44
  0
VERTEX
  8
PNOA-H_AMS_1956-57_33k_ES_PAN_21mic_H50_0379_fot_39D-44210_E_tif
  70
32
  10
557391.500
  20
4603367.500
  30
991.442
  0
SEQEND
  8
PNOA-H_AMS_1956-57_33k_ES_PAN_21mic_H50_0379_fot_39D-44210_E_tif
  0
INSERT
  8
FeatureAttribs
  2
FEATURE
  41
1
  42
1
  43
1
  50
0
  10
561332.951
  20
4605530.750
 66
1
  0
ATTRIB
  8
FeatureAttribs
 70
0
  1
PNOA-H_AMS_1956-57_33k_ES_PAN_21mic_H50_0379_fot_39D-44212_E.tif
  2
NAME
  10
561332.951
  20
4605530.750
 40
33.61342
  0
SEQEND
  0
POLYLINE
  8
PNOA-H_AMS_1956-57_33k_ES_PAN_21mic_H50_0379_fot_39D-44212_E_tif
  70
9
  66
1
  0
VERTEX
  8
PNOA-H_AMS_1956-57_33k_ES_PAN_21mic_H50_0379_fot_39D-44212_E_tif
  70
32
  10
562234.500
  20
4603231.500
  30
1006.763
  0
VERTEX
  8
PNOA-H_AMS_1956-57_33k_ES_PAN_21mic_H50_0379_fot_39D-44212_E_tif
  70
32
  10
562231.500
  20
4603230.000
  30
1006.78
  0
VERTEX
  8
PNOA-H_AMS_1956-57_33k_ES_PAN_21mic_H50_0379_fot_39D-44212_E_tif
  70
32
  10
562231.417
  20
4603230.005
  30
1006.78
  0
VERTEX
  8
PNOA-H_AMS_1956-57_33k_ES_PAN_21mic_H50_0379_fot_39D-44212_E_tif
  70
32
  10
562229.693
  20
4603230.103
  30
1006.774
  0
VERTEX
  8
PNOA-H_AMS_1956-57_33k_ES_PAN_21mic_H50_0379_fot_39D-44212_E_tif
  70
32
  10
562214.000
  20
4603231.000
  30
1006.728
  0
VERTEX
  8
PNOA-H_AMS_1956-57_33k_ES_PAN_21mic_H50_0379_fot_39D-44212_E_tif
  70
32
  10
560397.328
  20
4603374.871
  30
1008.162
  0
VERTEX
  8
PNOA-H_AMS_1956-57_33k_ES_PAN_21mic_H50_0379_fot_39D-44212_E_tif
  70
32
  10
559979.000
  20
4603408.000
  30
1008.492
  0
VERTEX
  8
PNOA-H_AMS_1956-57_33k_ES_PAN_21mic_H50_0379_fot_39D-44212_E_tif
  70
32
  10
560039.000
  20
4607581.500
  30
994.359
  0
VERTEX
  8
PNOA-H_AMS_1956-57_33k_ES_PAN_21mic_H50_0379_fot_39D-44212_E_tif
  70
32
  10
560039.081
  20
4607581.541
  30
994.356
  0
VERTEX
  8
PNOA-H_AMS_1956-57_33k_ES_PAN_21mic_H50_0379_fot_39D-44212_E_tif
  70
32
  10
560536.500
  20
4607831.000
  30
977.094
  0
VERTEX
  8
PNOA-H_AMS_1956-57_33k_ES_PAN_21mic_H50_0379_fot_39D-44212_E_tif
  70
32
  10
560537.500
  20
4607831.500
  30
977.084
  0
VERTEX
  8
PNOA-H_AMS_1956-57_33k_ES_PAN_21mic_H50_0379_fot_39D-44212_E_tif
  70
32
  10
560537.886
  20
4607831.443
  30
977.087
  0
VERTEX
  8
PNOA-H_AMS_1956-57_33k_ES_PAN_21mic_H50_0379_fot_39D-44212_E_tif
  70
32
  10
561249.667
  20
4607725.500
  30
983.084
  0
VERTEX
  8
PNOA-H_AMS_1956-57_33k_ES_PAN_21mic_H50_0379_fot_39D-44212_E_tif
  70
32
  10
562673.244
  20
4607513.612
  30
995.076
  0
VERTEX
  8
PNOA-H_AMS_1956-57_33k_ES_PAN_21mic_H50_0379_fot_39D-44212_E_tif
  70
32
  10
562673.996
  20
4607513.501
  30
995.083
  0
VERTEX
  8
PNOA-H_AMS_1956-57_33k_ES_PAN_21mic_H50_0379_fot_39D-44212_E_tif
  70
32
  10
562674.000
  20
4607513.500
  30
995.083
  0
VERTEX
  8
PNOA-H_AMS_1956-57_33k_ES_PAN_21mic_H50_0379_fot_39D-44212_E_tif
  70
32
  10
562638.000
  20
4603461.500
  30
1005.933
  0
VERTEX
  8
PNOA-H_AMS_1956-57_33k_ES_PAN_21mic_H50_0379_fot_39D-44212_E_tif
  70
32
  10
562637.945
  20
4603461.469
  30
1005.933
  0
VERTEX
  8
PNOA-H_AMS_1956-57_33k_ES_PAN_21mic_H50_0379_fot_39D-44212_E_tif
  70
32
  10
562234.500
  20
4603231.500
  30
1006.763
  0
SEQEND
  8
PNOA-H_AMS_1956-57_33k_ES_PAN_21mic_H50_0379_fot_39D-44212_E_tif
  0
INSERT
  8
FeatureAttribs
  2
FEATURE
  41
1
  42
1
  43
1
  50
0
  10
558695.952
  20
4605478.250
 66
1
  0
ATTRIB
  8
FeatureAttribs
 70
0
  1
PNOA-H_AMS_1956-57_33k_ES_PAN_21mic_H50_0379_fot_39D-44211_E.tif
  2
NAME
  10
558695.952
  20
4605478.250
 40
33.61342
  0
SEQEND
  0
POLYLINE
  8
PNOA-H_AMS_1956-57_33k_ES_PAN_21mic_H50_0379_fot_39D-44211_E_tif
  70
9
  66
1
  0
VERTEX
  8
PNOA-H_AMS_1956-57_33k_ES_PAN_21mic_H50_0379_fot_39D-44211_E_tif
  70
32
  10
559559.000
  20
4607628.000
  30
999.892
  0
VERTEX
  8
PNOA-H_AMS_1956-57_33k_ES_PAN_21mic_H50_0379_fot_39D-44211_E_tif
  70
32
  10
559562.197
  20
4607628.000
  30
999.888
  0
VERTEX
  8
PNOA-H_AMS_1956-57_33k_ES_PAN_21mic_H50_0379_fot_39D-44211_E_tif
  70
32
  10
559564.000
  20
4607628.000
  30
999.886
  0
VERTEX
  8
PNOA-H_AMS_1956-57_33k_ES_PAN_21mic_H50_0379_fot_39D-44211_E_tif
  70
32
  10
559935.860
  20
4607591.597
  30
995.559
  0
VERTEX
  8
PNOA-H_AMS_1956-57_33k_ES_PAN_21mic_H50_0379_fot_39D-44211_E_tif
  70
32
  10
560039.000
  20
4607581.500
  30
994.359
  0
VERTEX
  8
PNOA-H_AMS_1956-57_33k_ES_PAN_21mic_H50_0379_fot_39D-44211_E_tif
  70
32
  10
559979.500
  20
4603425.500
  30
1008.047
  0
VERTEX
  8
PNOA-H_AMS_1956-57_33k_ES_PAN_21mic_H50_0379_fot_39D-44211_E_tif
  70
32
  10
559979.000
  20
4603408.000
  30
1008.492
  0
VERTEX
  8
PNOA-H_AMS_1956-57_33k_ES_PAN_21mic_H50_0379_fot_39D-44211_E_tif
  70
32
  10
559978.884
  20
4603407.930
  30
1008.494
  0
VERTEX
  8
PNOA-H_AMS_1956-57_33k_ES_PAN_21mic_H50_0379_fot_39D-44211_E_tif
  70
32
  10
559976.500
  20
4603406.500
  30
1008.527
  0
VERTEX
  8
PNOA-H_AMS_1956-57_33k_ES_PAN_21mic_H50_0379_fot_39D-44211_E_tif
  70
32
  10
559486.000
  20
4603152.000
  30
1034.856
  0
VERTEX
  8
PNOA-H_AMS_1956-57_33k_ES_PAN_21mic_H50_0379_fot_39D-44211_E_tif
  70
32
  10
559485.576
  20
4603152.044
  30
1034.848
  0
VERTEX
  8
PNOA-H_AMS_1956-57_33k_ES_PAN_21mic_H50_0379_fot_39D-44211_E_tif
  70
32
  10
557391.499
  20
4603367.999
  30
991.426
  0
VERTEX
  8
PNOA-H_AMS_1956-57_33k_ES_PAN_21mic_H50_0379_fot_39D-44211_E_tif
  70
32
  10
557374.500
  20
4607597.000
  30
976.411
  0
VERTEX
  8
PNOA-H_AMS_1956-57_33k_ES_PAN_21mic_H50_0379_fot_39D-44211_E_tif
  70
32
  10
557374.549
  20
4607597.027
  30
976.411
  0
VERTEX
  8
PNOA-H_AMS_1956-57_33k_ES_PAN_21mic_H50_0379_fot_39D-44211_E_tif
  70
32
  10
557750.000
  20
4607804.500
  30
976.843
  0
VERTEX
  8
PNOA-H_AMS_1956-57_33k_ES_PAN_21mic_H50_0379_fot_39D-44211_E_tif
  70
32
  10
557750.425
  20
4607804.459
  30
976.849
  0
VERTEX
  8
PNOA-H_AMS_1956-57_33k_ES_PAN_21mic_H50_0379_fot_39D-44211_E_tif
  70
32
  10
559559.000
  20
4607628.000
  30
999.892
  0
SEQEND
  8
PNOA-H_AMS_1956-57_33k_ES_PAN_21mic_H50_0379_fot_39D-44211_E_tif
  0
INSERT
  8
FeatureAttribs
  2
FEATURE
  41
1
  42
1
  43
1
  50
0
  10
560977.506
  20
4601021.000
 66
1
  0
ATTRIB
  8
FeatureAttribs
 70
0
  1
PNOA-H_AMS_1956-57_33k_ES_PAN_21mic_H50_0379_fot_40B-38892_W.tif
  2
NAME
  10
560977.506
  20
4601021.000
 40
33.61342
  0
SEQEND
  0
POLYLINE
  8
PNOA-H_AMS_1956-57_33k_ES_PAN_21mic_H50_0379_fot_40B-38892_W_tif
  70
9
  66
1
  0
VERTEX
  8
PNOA-H_AMS_1956-57_33k_ES_PAN_21mic_H50_0379_fot_40B-38892_W_tif
  70
32
  10
562456.000
  20
4598993.500
  30
1043.085
  0
VERTEX
  8
PNOA-H_AMS_1956-57_33k_ES_PAN_21mic_H50_0379_fot_40B-38892_W_tif
  70
32
  10
561592.500
  20
4598634.000
  30
1087.592
  0
VERTEX
  8
PNOA-H_AMS_1956-57_33k_ES_PAN_21mic_H50_0379_fot_40B-38892_W_tif
  70
32
  10
561591.714
  20
4598634.107
  30
1087.592
  0
VERTEX
  8
PNOA-H_AMS_1956-57_33k_ES_PAN_21mic_H50_0379_fot_40B-38892_W_tif
  70
32
  10
561059.643
  20
4598706.714
  30
1087.811
  0
VERTEX
  8
PNOA-H_AMS_1956-57_33k_ES_PAN_21mic_H50_0379_fot_40B-38892_W_tif
  70
32
  10
559728.928
  20
4598888.305
  30
1088.358
  0
VERTEX
  8
PNOA-H_AMS_1956-57_33k_ES_PAN_21mic_H50_0379_fot_40B-38892_W_tif
  70
32
  10
559727.500
  20
4598888.500
  30
1088.359
  0
VERTEX
  8
PNOA-H_AMS_1956-57_33k_ES_PAN_21mic_H50_0379_fot_40B-38892_W_tif
  70
32
  10
559726.737
  20
4598901.918
  30
1088.193
  0
VERTEX
  8
PNOA-H_AMS_1956-57_33k_ES_PAN_21mic_H50_0379_fot_40B-38892_W_tif
  70
32
  10
559485.500
  20
4603146.500
  30
1035.726
  0
VERTEX
  8
PNOA-H_AMS_1956-57_33k_ES_PAN_21mic_H50_0379_fot_40B-38892_W_tif
  70
32
  10
559485.500
  20
4603152.000
  30
1034.852
  0
VERTEX
  8
PNOA-H_AMS_1956-57_33k_ES_PAN_21mic_H50_0379_fot_40B-38892_W_tif
  70
32
  10
559485.576
  20
4603152.044
  30
1034.842
  0
VERTEX
  8
PNOA-H_AMS_1956-57_33k_ES_PAN_21mic_H50_0379_fot_40B-38892_W_tif
  70
32
  10
559492.500
  20
4603156.000
  30
1033.939
  0
VERTEX
  8
PNOA-H_AMS_1956-57_33k_ES_PAN_21mic_H50_0379_fot_40B-38892_W_tif
  70
32
  10
559978.000
  20
4603408.000
  30
1008.503
  0
VERTEX
  8
PNOA-H_AMS_1956-57_33k_ES_PAN_21mic_H50_0379_fot_40B-38892_W_tif
  70
32
  10
559978.884
  20
4603407.930
  30
1008.502
  0
VERTEX
  8
PNOA-H_AMS_1956-57_33k_ES_PAN_21mic_H50_0379_fot_40B-38892_W_tif
  70
32
  10
560397.328
  20
4603374.871
  30
1008.182
  0
VERTEX
  8
PNOA-H_AMS_1956-57_33k_ES_PAN_21mic_H50_0379_fot_40B-38892_W_tif
  70
32
  10
562229.693
  20
4603230.103
  30
1006.781
  0
VERTEX
  8
PNOA-H_AMS_1956-57_33k_ES_PAN_21mic_H50_0379_fot_40B-38892_W_tif
  70
32
  10
562231.000
  20
4603230.000
  30
1006.78
  0
VERTEX
  8
PNOA-H_AMS_1956-57_33k_ES_PAN_21mic_H50_0379_fot_40B-38892_W_tif
  70
32
  10
562231.101
  20
4603228.106
  30
1006.795
  0
VERTEX
  8
PNOA-H_AMS_1956-57_33k_ES_PAN_21mic_H50_0379_fot_40B-38892_W_tif
  70
32
  10
562438.500
  20
4599336.000
  30
1037.142
  0
VERTEX
  8
PNOA-H_AMS_1956-57_33k_ES_PAN_21mic_H50_0379_fot_40B-38892_W_tif
  70
32
  10
562438.500
  20
4599333.000
  30
1037.148
  0
VERTEX
  8
PNOA-H_AMS_1956-57_33k_ES_PAN_21mic_H50_0379_fot_40B-38892_W_tif
  70
32
  10
562440.210
  20
4599299.819
  30
1037.728
  0
VERTEX
  8
PNOA-H_AMS_1956-57_33k_ES_PAN_21mic_H50_0379_fot_40B-38892_W_tif
  70
32
  10
562455.975
  20
4598993.989
  30
1043.076
  0
VERTEX
  8
PNOA-H_AMS_1956-57_33k_ES_PAN_21mic_H50_0379_fot_40B-38892_W_tif
  70
32
  10
562456.000
  20
4598993.500
  30
1043.085
  0
SEQEND
  8
PNOA-H_AMS_1956-57_33k_ES_PAN_21mic_H50_0379_fot_40B-38892_W_tif
  0
INSERT
  8
FeatureAttribs
  2
FEATURE
  41
1
  42
1
  43
1
  50
0
  10
555506.785
  20
4600977.500
 66
1
  0
ATTRIB
  8
FeatureAttribs
 70
0
  1
PNOA-H_AMS_1956-57_33k_ES_PAN_21mic_H50_0379_fot_40B-38894_W.tif
  2
NAME
  10
555506.785
  20
4600977.500
 40
33.61342
  0
SEQEND
  0
POLYLINE
  8
PNOA-H_AMS_1956-57_33k_ES_PAN_21mic_H50_0379_fot_40B-38894_W_tif
  70
9
  66
1
  0
VERTEX
  8
PNOA-H_AMS_1956-57_33k_ES_PAN_21mic_H50_0379_fot_40B-38894_W_tif
  70
32
  10
556725.500
  20
4598638.500
  30
1066.737
  0
VERTEX
  8
PNOA-H_AMS_1956-57_33k_ES_PAN_21mic_H50_0379_fot_40B-38894_W_tif
  70
32
  10
556719.500
  20
4598638.500
  30
1066.433
  0
VERTEX
  8
PNOA-H_AMS_1956-57_33k_ES_PAN_21mic_H50_0379_fot_40B-38894_W_tif
  70
32
  10
555461.100
  20
4598710.000
  30
1052.416
  0
VERTEX
  8
PNOA-H_AMS_1956-57_33k_ES_PAN_21mic_H50_0379_fot_40B-38894_W_tif
  70
32
  10
554167.500
  20
4598783.500
  30
1038.006
  0
VERTEX
  8
PNOA-H_AMS_1956-57_33k_ES_PAN_21mic_H50_0379_fot_40B-38894_W_tif
  70
32
  10
554098.500
  20
4603015.500
  30
982.594
  0
VERTEX
  8
PNOA-H_AMS_1956-57_33k_ES_PAN_21mic_H50_0379_fot_40B-38894_W_tif
  70
32
  10
554098.608
  20
4603015.551
  30
982.595
  0
VERTEX
  8
PNOA-H_AMS_1956-57_33k_ES_PAN_21mic_H50_0379_fot_40B-38894_W_tif
  70
32
  10
554730.500
  20
4603316.500
  30
990.096
  0
VERTEX
  8
PNOA-H_AMS_1956-57_33k_ES_PAN_21mic_H50_0379_fot_40B-38894_W_tif
  70
32
  10
554731.306
  20
4603316.408
  30
990.119
  0
VERTEX
  8
PNOA-H_AMS_1956-57_33k_ES_PAN_21mic_H50_0379_fot_40B-38894_W_tif
  70
32
  10
555463.000
  20
4603232.500
  30
1010.314
  0
VERTEX
  8
PNOA-H_AMS_1956-57_33k_ES_PAN_21mic_H50_0379_fot_40B-38894_W_tif
  70
32
  10
555468.000
  20
4603232.000
  30
1010.357
  0
VERTEX
  8
PNOA-H_AMS_1956-57_33k_ES_PAN_21mic_H50_0379_fot_40B-38894_W_tif
  70
32
  10
556792.519
  20
4603080.055
  30
1027.797
  0
VERTEX
  8
PNOA-H_AMS_1956-57_33k_ES_PAN_21mic_H50_0379_fot_40B-38894_W_tif
  70
32
  10
556793.000
  20
4603080.000
  30
1027.804
  0
VERTEX
  8
PNOA-H_AMS_1956-57_33k_ES_PAN_21mic_H50_0379_fot_40B-38894_W_tif
  70
32
  10
556975.500
  20
4598761.000
  30
1079.749
  0
VERTEX
  8
PNOA-H_AMS_1956-57_33k_ES_PAN_21mic_H50_0379_fot_40B-38894_W_tif
  70
32
  10
556975.331
  20
4598760.917
  30
1079.74
  0
VERTEX
  8
PNOA-H_AMS_1956-57_33k_ES_PAN_21mic_H50_0379_fot_40B-38894_W_tif
  70
32
  10
556732.500
  20
4598641.500
  30
1066.961
  0
VERTEX
  8
PNOA-H_AMS_1956-57_33k_ES_PAN_21mic_H50_0379_fot_40B-38894_W_tif
  70
32
  10
556726.000
  20
4598638.500
  30
1066.762
  0
VERTEX
  8
PNOA-H_AMS_1956-57_33k_ES_PAN_21mic_H50_0379_fot_40B-38894_W_tif
  70
32
  10
556725.500
  20
4598638.500
  30
1066.737
  0
SEQEND
  8
PNOA-H_AMS_1956-57_33k_ES_PAN_21mic_H50_0379_fot_40B-38894_W_tif
  0
INSERT
  8
FeatureAttribs
  2
FEATURE
  41
1
  42
1
  43
1
  50
0
  10
558246.090
  20
4600963.250
 66
1
  0
ATTRIB
  8
FeatureAttribs
 70
0
  1
PNOA-H_AMS_1956-57_33k_ES_PAN_21mic_H50_0379_fot_40B-38893_W.tif
  2
NAME
  10
558246.090
  20
4600963.250
 40
33.61342
  0
SEQEND
  0
POLYLINE
  8
PNOA-H_AMS_1956-57_33k_ES_PAN_21mic_H50_0379_fot_40B-38893_W_tif
  70
9
  66
1
  0
VERTEX
  8
PNOA-H_AMS_1956-57_33k_ES_PAN_21mic_H50_0379_fot_40B-38893_W_tif
  70
32
  10
559726.832
  20
4598887.924
  30
1088.375
  0
VERTEX
  8
PNOA-H_AMS_1956-57_33k_ES_PAN_21mic_H50_0379_fot_40B-38893_W_tif
  70
32
  10
558998.500
  20
4598558.500
  30
1082.139
  0
VERTEX
  8
PNOA-H_AMS_1956-57_33k_ES_PAN_21mic_H50_0379_fot_40B-38893_W_tif
  70
32
  10
558998.091
  20
4598558.541
  30
1082.139
  0
VERTEX
  8
PNOA-H_AMS_1956-57_33k_ES_PAN_21mic_H50_0379_fot_40B-38893_W_tif
  70
32
  10
558514.739
  20
4598606.924
  30
1081.568
  0
VERTEX
  8
PNOA-H_AMS_1956-57_33k_ES_PAN_21mic_H50_0379_fot_40B-38893_W_tif
  70
32
  10
557514.967
  20
4598707.000
  30
1080.386
  0
VERTEX
  8
PNOA-H_AMS_1956-57_33k_ES_PAN_21mic_H50_0379_fot_40B-38893_W_tif
  70
32
  10
556975.500
  20
4598761.000
  30
1079.749
  0
VERTEX
  8
PNOA-H_AMS_1956-57_33k_ES_PAN_21mic_H50_0379_fot_40B-38893_W_tif
  70
32
  10
556792.519
  20
4603080.055
  30
1027.77
  0
VERTEX
  8
PNOA-H_AMS_1956-57_33k_ES_PAN_21mic_H50_0379_fot_40B-38893_W_tif
  70
32
  10
556792.500
  20
4603080.500
  30
1027.765
  0
VERTEX
  8
PNOA-H_AMS_1956-57_33k_ES_PAN_21mic_H50_0379_fot_40B-38893_W_tif
  70
32
  10
556792.693
  20
4603080.592
  30
1027.753
  0
VERTEX
  8
PNOA-H_AMS_1956-57_33k_ES_PAN_21mic_H50_0379_fot_40B-38893_W_tif
  70
32
  10
557390.500
  20
4603367.500
  30
991.471
  0
VERTEX
  8
PNOA-H_AMS_1956-57_33k_ES_PAN_21mic_H50_0379_fot_40B-38893_W_tif
  70
32
  10
557391.499
  20
4603367.999
  30
991.426
  0
VERTEX
  8
PNOA-H_AMS_1956-57_33k_ES_PAN_21mic_H50_0379_fot_40B-38893_W_tif
  70
32
  10
559485.500
  20
4603152.000
  30
1034.852
  0
VERTEX
  8
PNOA-H_AMS_1956-57_33k_ES_PAN_21mic_H50_0379_fot_40B-38893_W_tif
  70
32
  10
559726.500
  20
4598914.500
  30
1089.086
  0
VERTEX
  8
PNOA-H_AMS_1956-57_33k_ES_PAN_21mic_H50_0379_fot_40B-38893_W_tif
  70
32
  10
559726.737
  20
4598901.918
  30
1088.749
  0
VERTEX
  8
PNOA-H_AMS_1956-57_33k_ES_PAN_21mic_H50_0379_fot_40B-38893_W_tif
  70
32
  10
559727.000
  20
4598888.000
  30
1088.376
  0
VERTEX
  8
PNOA-H_AMS_1956-57_33k_ES_PAN_21mic_H50_0379_fot_40B-38893_W_tif
  70
32
  10
559726.832
  20
4598887.924
  30
1088.375
  0
SEQEND
  8
PNOA-H_AMS_1956-57_33k_ES_PAN_21mic_H50_0379_fot_40B-38893_W_tif
  0
INSERT
  8
FeatureAttribs
  2
FEATURE
  41
1
  42
1
  43
1
  50
0
  10
557791.085
  20
4596622.700
 66
1
  0
ATTRIB
  8
FeatureAttribs
 70
0
  1
PNOA-H_AMS_1956-57_33k_ES_PAN_21mic_H50_0379_fot_41B-37380_W.tif
  2
NAME
  10
557791.085
  20
4596622.700
 40
33.61342
  0
SEQEND
  0
POLYLINE
  8
PNOA-H_AMS_1956-57_33k_ES_PAN_21mic_H50_0379_fot_41B-37380_W_tif
  70
9
  66
1
  0
VERTEX
  8
PNOA-H_AMS_1956-57_33k_ES_PAN_21mic_H50_0379_fot_41B-37380_W_tif
  70
32
  10
557513.500
  20
4598707.000
  30
1098.446
  0
VERTEX
  8
PNOA-H_AMS_1956-57_33k_ES_PAN_21mic_H50_0379_fot_41B-37380_W_tif
  70
32
  10
557514.967
  20
4598707.000
  30
1098.469
  0
VERTEX
  8
PNOA-H_AMS_1956-57_33k_ES_PAN_21mic_H50_0379_fot_41B-37380_W_tif
  70
32
  10
557516.000
  20
4598707.000
  30
1098.484
  0
VERTEX
  8
PNOA-H_AMS_1956-57_33k_ES_PAN_21mic_H50_0379_fot_41B-37380_W_tif
  70
32
  10
558514.739
  20
4598606.924
  30
1087.443
  0
VERTEX
  8
PNOA-H_AMS_1956-57_33k_ES_PAN_21mic_H50_0379_fot_41B-37380_W_tif
  70
32
  10
558998.000
  20
4598558.500
  30
1082.101
  0
VERTEX
  8
PNOA-H_AMS_1956-57_33k_ES_PAN_21mic_H50_0379_fot_41B-37380_W_tif
  70
32
  10
559082.861
  20
4594506.285
  30
1115.595
  0
VERTEX
  8
PNOA-H_AMS_1956-57_33k_ES_PAN_21mic_H50_0379_fot_41B-37380_W_tif
  70
32
  10
557380.825
  20
4594492.342
  30
0
  0
VERTEX
  8
PNOA-H_AMS_1956-57_33k_ES_PAN_21mic_H50_0379_fot_41B-37380_W_tif
  70
32
  10
556350.708
  20
4594484.399
  30
1147.042
  0
VERTEX
  8
PNOA-H_AMS_1956-57_33k_ES_PAN_21mic_H50_0379_fot_41B-37380_W_tif
  70
32
  10
556725.500
  20
4598638.500
  30
1066.737
  0
VERTEX
  8
PNOA-H_AMS_1956-57_33k_ES_PAN_21mic_H50_0379_fot_41B-37380_W_tif
  70
32
  10
556974.500
  20
4598761.000
  30
1079.674
  0
VERTEX
  8
PNOA-H_AMS_1956-57_33k_ES_PAN_21mic_H50_0379_fot_41B-37380_W_tif
  70
32
  10
556975.331
  20
4598760.917
  30
1079.703
  0
VERTEX
  8
PNOA-H_AMS_1956-57_33k_ES_PAN_21mic_H50_0379_fot_41B-37380_W_tif
  70
32
  10
557513.500
  20
4598707.000
  30
1098.446
  0
SEQEND
  8
PNOA-H_AMS_1956-57_33k_ES_PAN_21mic_H50_0379_fot_41B-37380_W_tif
  0
INSERT
  8
FeatureAttribs
  2
FEATURE
  41
1
  42
1
  43
1
  50
0
  10
560331.149
  20
4596697.393
 66
1
  0
ATTRIB
  8
FeatureAttribs
 70
0
  1
PNOA-H_AMS_1956-57_33k_ES_PAN_21mic_H50_0379_fot_41B-37379_W.tif
  2
NAME
  10
560331.149
  20
4596697.393
 40
33.61342
  0
SEQEND
  0
POLYLINE
  8
PNOA-H_AMS_1956-57_33k_ES_PAN_21mic_H50_0379_fot_41B-37379_W_tif
  70
9
  66
1
  0
VERTEX
  8
PNOA-H_AMS_1956-57_33k_ES_PAN_21mic_H50_0379_fot_41B-37379_W_tif
  70
32
  10
560858.474
  20
4594520.831
  30
0
  0
VERTEX
  8
PNOA-H_AMS_1956-57_33k_ES_PAN_21mic_H50_0379_fot_41B-37379_W_tif
  70
32
  10
559082.870
  20
4594506.285
  30
1115.63
  0
VERTEX
  8
PNOA-H_AMS_1956-57_33k_ES_PAN_21mic_H50_0379_fot_41B-37379_W_tif
  70
32
  10
558998.000
  20
4598558.500
  30
1082.101
  0
VERTEX
  8
PNOA-H_AMS_1956-57_33k_ES_PAN_21mic_H50_0379_fot_41B-37379_W_tif
  70
32
  10
558998.091
  20
4598558.541
  30
1082.1
  0
VERTEX
  8
PNOA-H_AMS_1956-57_33k_ES_PAN_21mic_H50_0379_fot_41B-37379_W_tif
  70
32
  10
559562.500
  20
4598814.000
  30
1079.841
  0
VERTEX
  8
PNOA-H_AMS_1956-57_33k_ES_PAN_21mic_H50_0379_fot_41B-37379_W_tif
  70
32
  10
559563.500
  20
4598814.500
  30
1079.903
  0
VERTEX
  8
PNOA-H_AMS_1956-57_33k_ES_PAN_21mic_H50_0379_fot_41B-37379_W_tif
  70
32
  10
559724.500
  20
4598887.500
  30
1088.514
  0
VERTEX
  8
PNOA-H_AMS_1956-57_33k_ES_PAN_21mic_H50_0379_fot_41B-37379_W_tif
  70
32
  10
559726.832
  20
4598887.924
  30
1088.364
  0
VERTEX
  8
PNOA-H_AMS_1956-57_33k_ES_PAN_21mic_H50_0379_fot_41B-37379_W_tif
  70
32
  10
559728.928
  20
4598888.305
  30
1088.229
  0
VERTEX
  8
PNOA-H_AMS_1956-57_33k_ES_PAN_21mic_H50_0379_fot_41B-37379_W_tif
  70
32
  10
559730.000
  20
4598888.500
  30
1088.16
  0
VERTEX
  8
PNOA-H_AMS_1956-57_33k_ES_PAN_21mic_H50_0379_fot_41B-37379_W_tif
  70
32
  10
561059.643
  20
4598706.714
  30
1087.748
  0
VERTEX
  8
PNOA-H_AMS_1956-57_33k_ES_PAN_21mic_H50_0379_fot_41B-37379_W_tif
  70
32
  10
561591.500
  20
4598634.000
  30
1087.583
  0
VERTEX
  8
PNOA-H_AMS_1956-57_33k_ES_PAN_21mic_H50_0379_fot_41B-37379_W_tif
  70
32
  10
561663.206
  20
4594527.812
  30
1025.312
  0
VERTEX
  8
PNOA-H_AMS_1956-57_33k_ES_PAN_21mic_H50_0379_fot_41B-37379_W_tif
  70
32
  10
561663.191
  20
4594527.812
  30
0
  0
VERTEX
  8
PNOA-H_AMS_1956-57_33k_ES_PAN_21mic_H50_0379_fot_41B-37379_W_tif
  70
32
  10
560858.474
  20
4594520.831
  30
0
  0
SEQEND
  8
PNOA-H_AMS_1956-57_33k_ES_PAN_21mic_H50_0379_fot_41B-37379_W_tif
  0
INSERT
  8
FeatureAttribs
  2
FEATURE
  41
1
  42
1
  43
1
  50
0
  10
564766.880
  20
4609794.250
 66
1
  0
ATTRIB
  8
FeatureAttribs
 70
0
  1
PNOA-H_AMS_1956-57_33k_ES_PAN_21mic_H50_0379_fot_38C-40594_E.tif
  2
NAME
  10
564766.880
  20
4609794.250
 40
33.61342
  0
SEQEND
  0
POLYLINE
  8
PNOA-H_AMS_1956-57_33k_ES_PAN_21mic_H50_0379_fot_38C-40594_E_tif
  70
9
  66
1
  0
VERTEX
  8
PNOA-H_AMS_1956-57_33k_ES_PAN_21mic_H50_0379_fot_38C-40594_E_tif
  70
32
  10
566107.000
  20
4607984.500
  30
1083.052
  0
VERTEX
  8
PNOA-H_AMS_1956-57_33k_ES_PAN_21mic_H50_0379_fot_38C-40594_E_tif
  70
32
  10
565217.500
  20
4607486.000
  30
1048.627
  0
VERTEX
  8
PNOA-H_AMS_1956-57_33k_ES_PAN_21mic_H50_0379_fot_38C-40594_E_tif
  70
32
  10
565217.419
  20
4607486.014
  30
1048.626
  0
VERTEX
  8
PNOA-H_AMS_1956-57_33k_ES_PAN_21mic_H50_0379_fot_38C-40594_E_tif
  70
32
  10
563324.008
  20
4607814.499
  30
1010.643
  0
VERTEX
  8
PNOA-H_AMS_1956-57_33k_ES_PAN_21mic_H50_0379_fot_38C-40594_E_tif
  70
32
  10
563324.000
  20
4607814.500
  30
1010.643
  0
VERTEX
  8
PNOA-H_AMS_1956-57_33k_ES_PAN_21mic_H50_0379_fot_38C-40594_E_tif
  70
32
  10
563358.000
  20
4609875.250
  30
1018.875
  0
VERTEX
  8
PNOA-H_AMS_1956-57_33k_ES_PAN_21mic_H50_0379_fot_38C-40594_E_tif
  70
32
  10
563392.000
  20
4611936.000
  30
1027.107
  0
VERTEX
  8
PNOA-H_AMS_1956-57_33k_ES_PAN_21mic_H50_0379_fot_38C-40594_E_tif
  70
32
  10
563649.000
  20
4611953.500
  30
1023.537
  0
VERTEX
  8
PNOA-H_AMS_1956-57_33k_ES_PAN_21mic_H50_0379_fot_38C-40594_E_tif
  70
32
  10
563656.500
  20
4611954.000
  30
1022.683
  0
VERTEX
  8
PNOA-H_AMS_1956-57_33k_ES_PAN_21mic_H50_0379_fot_38C-40594_E_tif
  70
32
  10
565673.298
  20
4612088.483
  30
1007.03
  0
VERTEX
  8
PNOA-H_AMS_1956-57_33k_ES_PAN_21mic_H50_0379_fot_38C-40594_E_tif
  70
32
  10
565883.051
  20
4612102.470
  30
1005.402
  0
VERTEX
  8
PNOA-H_AMS_1956-57_33k_ES_PAN_21mic_H50_0379_fot_38C-40594_E_tif
  70
32
  10
565883.500
  20
4612102.500
  30
1005.399
  0
VERTEX
  8
PNOA-H_AMS_1956-57_33k_ES_PAN_21mic_H50_0379_fot_38C-40594_E_tif
  70
32
  10
566258.000
  20
4611883.000
  30
1020.244
  0
VERTEX
  8
PNOA-H_AMS_1956-57_33k_ES_PAN_21mic_H50_0379_fot_38C-40594_E_tif
  70
32
  10
566107.019
  20
4607984.997
  30
1083.044
  0
VERTEX
  8
PNOA-H_AMS_1956-57_33k_ES_PAN_21mic_H50_0379_fot_38C-40594_E_tif
  70
32
  10
566107.009
  20
4607984.725
  30
1083.049
  0
VERTEX
  8
PNOA-H_AMS_1956-57_33k_ES_PAN_21mic_H50_0379_fot_38C-40594_E_tif
  70
32
  10
566107.000
  20
4607984.500
  30
1083.052
  0
SEQEND
  8
PNOA-H_AMS_1956-57_33k_ES_PAN_21mic_H50_0379_fot_38C-40594_E_tif
  0
INSERT
  8
FeatureAttribs
  2
FEATURE
  41
1
  42
1
  43
1
  50
0
  10
566924.449
  20
4609839.956
 66
1
  0
ATTRIB
  8
FeatureAttribs
 70
0
  1
PNOA-H_AMS_1956-57_33k_ES_PAN_21mic_H50_0380_fot_38C-40595_E.tif
  2
NAME
  10
566924.449
  20
4609839.956
 40
33.61342
  0
SEQEND
  0
POLYLINE
  8
PNOA-H_AMS_1956-57_33k_ES_PAN_21mic_H50_0380_fot_38C-40595_E_tif
  70
9
  66
1
  0
VERTEX
  8
PNOA-H_AMS_1956-57_33k_ES_PAN_21mic_H50_0380_fot_38C-40595_E_tif
  70
32
  10
567683.211
  20
4608460.555
  30
0
  0
VERTEX
  8
PNOA-H_AMS_1956-57_33k_ES_PAN_21mic_H50_0380_fot_38C-40595_E_tif
  70
32
  10
567690.237
  20
4607714.578
  30
1093.452
  0
VERTEX
  8
PNOA-H_AMS_1956-57_33k_ES_PAN_21mic_H50_0380_fot_38C-40595_E_tif
  70
32
  10
567215.000
  20
4607795.750
  30
1090.322
  0
VERTEX
  8
PNOA-H_AMS_1956-57_33k_ES_PAN_21mic_H50_0380_fot_38C-40595_E_tif
  70
32
  10
566107.383
  20
4607984.935
  30
1083.026
  0
VERTEX
  8
PNOA-H_AMS_1956-57_33k_ES_PAN_21mic_H50_0380_fot_38C-40595_E_tif
  70
32
  10
566107.019
  20
4607984.997
  30
1083.024
  0
VERTEX
  8
PNOA-H_AMS_1956-57_33k_ES_PAN_21mic_H50_0380_fot_38C-40595_E_tif
  70
32
  10
566107.000
  20
4607985.000
  30
1083.023
  0
VERTEX
  8
PNOA-H_AMS_1956-57_33k_ES_PAN_21mic_H50_0380_fot_38C-40595_E_tif
  70
32
  10
566257.500
  20
4611879.500
  30
1020.193
  0
VERTEX
  8
PNOA-H_AMS_1956-57_33k_ES_PAN_21mic_H50_0380_fot_38C-40595_E_tif
  70
32
  10
566258.000
  20
4611883.000
  30
1020.244
  0
VERTEX
  8
PNOA-H_AMS_1956-57_33k_ES_PAN_21mic_H50_0380_fot_38C-40595_E_tif
  70
32
  10
566264.500
  20
4611883.500
  30
1020.008
  0
VERTEX
  8
PNOA-H_AMS_1956-57_33k_ES_PAN_21mic_H50_0380_fot_38C-40595_E_tif
  70
32
  10
567650.184
  20
4611965.334
  30
1008.631
  0
VERTEX
  8
PNOA-H_AMS_1956-57_33k_ES_PAN_21mic_H50_0380_fot_38C-40595_E_tif
  70
32
  10
567650.187
  20
4611965.002
  30
0
  0
VERTEX
  8
PNOA-H_AMS_1956-57_33k_ES_PAN_21mic_H50_0380_fot_38C-40595_E_tif
  70
32
  10
567661.418
  20
4610773.537
  30
0
  0
VERTEX
  8
PNOA-H_AMS_1956-57_33k_ES_PAN_21mic_H50_0380_fot_38C-40595_E_tif
  70
32
  10
567683.211
  20
4608460.555
  30
0
  0
SEQEND
  8
PNOA-H_AMS_1956-57_33k_ES_PAN_21mic_H50_0380_fot_38C-40595_E_tif
  0
INSERT
  8
FeatureAttribs
  2
FEATURE
  41
1
  42
1
  43
1
  50
0
  10
566583.930
  20
4605762.740
 66
1
  0
ATTRIB
  8
FeatureAttribs
 70
0
  1
PNOA-H_AMS_1956-57_33k_ES_PAN_21mic_H50_0380_fot_39D-50433_E.tif
  2
NAME
  10
566583.930
  20
4605762.740
 40
33.61342
  0
SEQEND
  0
POLYLINE
  8
PNOA-H_AMS_1956-57_33k_ES_PAN_21mic_H50_0380_fot_39D-50433_E_tif
  70
9
  66
1
  0
VERTEX
  8
PNOA-H_AMS_1956-57_33k_ES_PAN_21mic_H50_0380_fot_39D-50433_E_tif
  70
32
  10
567729.539
  20
4603540.500
  30
0
  0
VERTEX
  8
PNOA-H_AMS_1956-57_33k_ES_PAN_21mic_H50_0380_fot_39D-50433_E_tif
  70
32
  10
567729.539
  20
4603540.481
  30
1072.943
  0
VERTEX
  8
PNOA-H_AMS_1956-57_33k_ES_PAN_21mic_H50_0380_fot_39D-50433_E_tif
  70
32
  10
567189.689
  20
4603595.666
  30
1056.762
  0
VERTEX
  8
PNOA-H_AMS_1956-57_33k_ES_PAN_21mic_H50_0380_fot_39D-50433_E_tif
  70
32
  10
565743.500
  20
4603743.500
  30
1013.414
  0
VERTEX
  8
PNOA-H_AMS_1956-57_33k_ES_PAN_21mic_H50_0380_fot_39D-50433_E_tif
  70
32
  10
565217.000
  20
4607483.500
  30
1048.143
  0
VERTEX
  8
PNOA-H_AMS_1956-57_33k_ES_PAN_21mic_H50_0380_fot_39D-50433_E_tif
  70
32
  10
565217.191
  20
4607484.644
  30
1048.359
  0
VERTEX
  8
PNOA-H_AMS_1956-57_33k_ES_PAN_21mic_H50_0380_fot_39D-50433_E_tif
  70
32
  10
565217.419
  20
4607486.014
  30
1048.619
  0
VERTEX
  8
PNOA-H_AMS_1956-57_33k_ES_PAN_21mic_H50_0380_fot_39D-50433_E_tif
  70
32
  10
565217.500
  20
4607486.500
  30
1048.711
  0
VERTEX
  8
PNOA-H_AMS_1956-57_33k_ES_PAN_21mic_H50_0380_fot_39D-50433_E_tif
  70
32
  10
565224.500
  20
4607490.500
  30
1050.397
  0
VERTEX
  8
PNOA-H_AMS_1956-57_33k_ES_PAN_21mic_H50_0380_fot_39D-50433_E_tif
  70
32
  10
565706.500
  20
4607760.500
  30
1089.391
  0
VERTEX
  8
PNOA-H_AMS_1956-57_33k_ES_PAN_21mic_H50_0380_fot_39D-50433_E_tif
  70
32
  10
565707.500
  20
4607761.000
  30
1089.537
  0
VERTEX
  8
PNOA-H_AMS_1956-57_33k_ES_PAN_21mic_H50_0380_fot_39D-50433_E_tif
  70
32
  10
566107.009
  20
4607984.725
  30
1083.046
  0
VERTEX
  8
PNOA-H_AMS_1956-57_33k_ES_PAN_21mic_H50_0380_fot_39D-50433_E_tif
  70
32
  10
566107.383
  20
4607984.935
  30
1083.04
  0
VERTEX
  8
PNOA-H_AMS_1956-57_33k_ES_PAN_21mic_H50_0380_fot_39D-50433_E_tif
  70
32
  10
566107.500
  20
4607985.000
  30
1083.038
  0
VERTEX
  8
PNOA-H_AMS_1956-57_33k_ES_PAN_21mic_H50_0380_fot_39D-50433_E_tif
  70
32
  10
567215.000
  20
4607795.750
  30
1090.341
  0
VERTEX
  8
PNOA-H_AMS_1956-57_33k_ES_PAN_21mic_H50_0380_fot_39D-50433_E_tif
  70
32
  10
567690.238
  20
4607714.541
  30
1093.474
  0
VERTEX
  8
PNOA-H_AMS_1956-57_33k_ES_PAN_21mic_H50_0380_fot_39D-50433_E_tif
  70
32
  10
567704.996
  20
4606147.582
  30
0
  0
VERTEX
  8
PNOA-H_AMS_1956-57_33k_ES_PAN_21mic_H50_0380_fot_39D-50433_E_tif
  70
32
  10
567726.771
  20
4603834.617
  30
0
  0
VERTEX
  8
PNOA-H_AMS_1956-57_33k_ES_PAN_21mic_H50_0380_fot_39D-50433_E_tif
  70
32
  10
567729.539
  20
4603540.500
  30
0
  0
SEQEND
  8
PNOA-H_AMS_1956-57_33k_ES_PAN_21mic_H50_0380_fot_39D-50433_E_tif
  0
INSERT
  8
FeatureAttribs
  2
FEATURE
  41
1
  42
1
  43
1
  50
0
  10
566426.014
  20
4601281.750
 66
1
  0
ATTRIB
  8
FeatureAttribs
 70
0
  1
PNOA-H_AMS_1956-57_33k_ES_PAN_21mic_H50_0379_fot_40B-38890_W.tif
  2
NAME
  10
566426.014
  20
4601281.750
 40
33.61342
  0
SEQEND
  0
POLYLINE
  8
PNOA-H_AMS_1956-57_33k_ES_PAN_21mic_H50_0379_fot_40B-38890_W_tif
  70
9
  66
1
  0
VERTEX
  8
PNOA-H_AMS_1956-57_33k_ES_PAN_21mic_H50_0379_fot_40B-38890_W_tif
  70
32
  10
567770.510
  20
4599185.879
  30
1045.496
  0
VERTEX
  8
PNOA-H_AMS_1956-57_33k_ES_PAN_21mic_H50_0379_fot_40B-38890_W_tif
  70
32
  10
566741.500
  20
4598820.000
  30
993.308
  0
VERTEX
  8
PNOA-H_AMS_1956-57_33k_ES_PAN_21mic_H50_0379_fot_40B-38890_W_tif
  70
32
  10
566740.419
  20
4598820.149
  30
993.378
  0
VERTEX
  8
PNOA-H_AMS_1956-57_33k_ES_PAN_21mic_H50_0379_fot_40B-38890_W_tif
  70
32
  10
566736.537
  20
4598820.685
  30
993.628
  0
VERTEX
  8
PNOA-H_AMS_1956-57_33k_ES_PAN_21mic_H50_0379_fot_40B-38890_W_tif
  70
32
  10
566727.000
  20
4598822.000
  30
994.243
  0
VERTEX
  8
PNOA-H_AMS_1956-57_33k_ES_PAN_21mic_H50_0379_fot_40B-38890_W_tif
  70
32
  10
565707.365
  20
4599024.000
  30
1025.607
  0
VERTEX
  8
PNOA-H_AMS_1956-57_33k_ES_PAN_21mic_H50_0379_fot_40B-38890_W_tif
  70
32
  10
565192.500
  20
4599126.000
  30
1041.444
  0
VERTEX
  8
PNOA-H_AMS_1956-57_33k_ES_PAN_21mic_H50_0379_fot_40B-38890_W_tif
  70
32
  10
565016.000
  20
4603295.000
  30
1010.928
  0
VERTEX
  8
PNOA-H_AMS_1956-57_33k_ES_PAN_21mic_H50_0379_fot_40B-38890_W_tif
  70
32
  10
565016.037
  20
4603295.023
  30
1010.928
  0
VERTEX
  8
PNOA-H_AMS_1956-57_33k_ES_PAN_21mic_H50_0379_fot_40B-38890_W_tif
  70
32
  10
565743.000
  20
4603743.500
  30
1013.43
  0
VERTEX
  8
PNOA-H_AMS_1956-57_33k_ES_PAN_21mic_H50_0379_fot_40B-38890_W_tif
  70
32
  10
565743.429
  20
4603743.456
  30
1013.443
  0
VERTEX
  8
PNOA-H_AMS_1956-57_33k_ES_PAN_21mic_H50_0379_fot_40B-38890_W_tif
  70
32
  10
567189.689
  20
4603595.666
  30
1055.548
  0
VERTEX
  8
PNOA-H_AMS_1956-57_33k_ES_PAN_21mic_H50_0379_fot_40B-38890_W_tif
  70
32
  10
567729.539
  20
4603540.500
  30
1071.264
  0
VERTEX
  8
PNOA-H_AMS_1956-57_33k_ES_PAN_21mic_H50_0379_fot_40B-38890_W_tif
  70
32
  10
567729.539
  20
4603540.481
  30
0
  0
VERTEX
  8
PNOA-H_AMS_1956-57_33k_ES_PAN_21mic_H50_0379_fot_40B-38890_W_tif
  70
32
  10
567748.537
  20
4601521.660
  30
0
  0
VERTEX
  8
PNOA-H_AMS_1956-57_33k_ES_PAN_21mic_H50_0379_fot_40B-38890_W_tif
  70
32
  10
567770.295
  20
4599208.712
  30
0
  0
VERTEX
  8
PNOA-H_AMS_1956-57_33k_ES_PAN_21mic_H50_0379_fot_40B-38890_W_tif
  70
32
  10
567770.506
  20
4599186.297
  30
0
  0
VERTEX
  8
PNOA-H_AMS_1956-57_33k_ES_PAN_21mic_H50_0379_fot_40B-38890_W_tif
  70
32
  10
567770.510
  20
4599185.879
  30
1045.496
  0
SEQEND
  8
PNOA-H_AMS_1956-57_33k_ES_PAN_21mic_H50_0379_fot_40B-38890_W_tif
  0
INSERT
  8
FeatureAttribs
  2
FEATURE
  41
1
  42
1
  43
1
  50
0
  10
564072.643
  20
4605554.750
 66
1
  0
ATTRIB
  8
FeatureAttribs
 70
0
  1
PNOA-H_AMS_1956-57_33k_ES_PAN_21mic_H50_0379_fot_39D-44213_E.tif
  2
NAME
  10
564072.643
  20
4605554.750
 40
33.61342
  0
SEQEND
  0
POLYLINE
  8
PNOA-H_AMS_1956-57_33k_ES_PAN_21mic_H50_0379_fot_39D-44213_E_tif
  70
9
  66
1
  0
VERTEX
  8
PNOA-H_AMS_1956-57_33k_ES_PAN_21mic_H50_0379_fot_39D-44213_E_tif
  70
32
  10
565018.500
  20
4603296.000
  30
1010.946
  0
VERTEX
  8
PNOA-H_AMS_1956-57_33k_ES_PAN_21mic_H50_0379_fot_39D-44213_E_tif
  70
32
  10
565016.500
  20
4603295.000
  30
1010.933
  0
VERTEX
  8
PNOA-H_AMS_1956-57_33k_ES_PAN_21mic_H50_0379_fot_39D-44213_E_tif
  70
32
  10
565016.037
  20
4603295.023
  30
1010.928
  0
VERTEX
  8
PNOA-H_AMS_1956-57_33k_ES_PAN_21mic_H50_0379_fot_39D-44213_E_tif
  70
32
  10
565014.851
  20
4603295.080
  30
1010.916
  0
VERTEX
  8
PNOA-H_AMS_1956-57_33k_ES_PAN_21mic_H50_0379_fot_39D-44213_E_tif
  70
32
  10
564996.000
  20
4603296.000
  30
1010.723
  0
VERTEX
  8
PNOA-H_AMS_1956-57_33k_ES_PAN_21mic_H50_0379_fot_39D-44213_E_tif
  70
32
  10
562827.711
  20
4603448.185
  30
1006.319
  0
VERTEX
  8
PNOA-H_AMS_1956-57_33k_ES_PAN_21mic_H50_0379_fot_39D-44213_E_tif
  70
32
  10
562638.000
  20
4603461.500
  30
1005.933
  0
VERTEX
  8
PNOA-H_AMS_1956-57_33k_ES_PAN_21mic_H50_0379_fot_39D-44213_E_tif
  70
32
  10
562673.996
  20
4607513.501
  30
995.125
  0
VERTEX
  8
PNOA-H_AMS_1956-57_33k_ES_PAN_21mic_H50_0379_fot_39D-44213_E_tif
  70
32
  10
562674.000
  20
4607513.960
  30
995.124
  0
VERTEX
  8
PNOA-H_AMS_1956-57_33k_ES_PAN_21mic_H50_0379_fot_39D-44213_E_tif
  70
32
  10
562674.000
  20
4607514.000
  30
995.124
  0
VERTEX
  8
PNOA-H_AMS_1956-57_33k_ES_PAN_21mic_H50_0379_fot_39D-44213_E_tif
  70
32
  10
563323.000
  20
4607814.000
  30
1010.593
  0
VERTEX
  8
PNOA-H_AMS_1956-57_33k_ES_PAN_21mic_H50_0379_fot_39D-44213_E_tif
  70
32
  10
563324.000
  20
4607814.500
  30
1010.643
  0
VERTEX
  8
PNOA-H_AMS_1956-57_33k_ES_PAN_21mic_H50_0379_fot_39D-44213_E_tif
  70
32
  10
563324.008
  20
4607814.499
  30
1010.643
  0
VERTEX
  8
PNOA-H_AMS_1956-57_33k_ES_PAN_21mic_H50_0379_fot_39D-44213_E_tif
  70
32
  10
565217.000
  20
4607486.000
  30
1048.57
  0
VERTEX
  8
PNOA-H_AMS_1956-57_33k_ES_PAN_21mic_H50_0379_fot_39D-44213_E_tif
  70
32
  10
565217.191
  20
4607484.644
  30
1048.558
  0
VERTEX
  8
PNOA-H_AMS_1956-57_33k_ES_PAN_21mic_H50_0379_fot_39D-44213_E_tif
  70
32
  10
565743.500
  20
4603743.500
  30
1013.414
  0
VERTEX
  8
PNOA-H_AMS_1956-57_33k_ES_PAN_21mic_H50_0379_fot_39D-44213_E_tif
  70
32
  10
565743.429
  20
4603743.456
  30
1013.414
  0
VERTEX
  8
PNOA-H_AMS_1956-57_33k_ES_PAN_21mic_H50_0379_fot_39D-44213_E_tif
  70
32
  10
565018.500
  20
4603296.000
  30
1010.946
  0
SEQEND
  8
PNOA-H_AMS_1956-57_33k_ES_PAN_21mic_H50_0379_fot_39D-44213_E_tif
  0
INSERT
  8
FeatureAttribs
  2
FEATURE
  41
1
  42
1
  43
1
  50
0
  10
565530.336
  20
4596838.350
 66
1
  0
ATTRIB
  8
FeatureAttribs
 70
0
  1
PNOA-H_AMS_1956-57_33k_ES_PAN_21mic_H50_0379_fot_41B-37377_W.tif
  2
NAME
  10
565530.336
  20
4596838.350
 40
33.61342
  0
SEQEND
  0
POLYLINE
  8
PNOA-H_AMS_1956-57_33k_ES_PAN_21mic_H50_0379_fot_41B-37377_W_tif
  70
9
  66
1
  0
VERTEX
  8
PNOA-H_AMS_1956-57_33k_ES_PAN_21mic_H50_0379_fot_41B-37377_W_tif
  70
32
  10
565192.159
  20
4599125.870
  30
1041.422
  0
VERTEX
  8
PNOA-H_AMS_1956-57_33k_ES_PAN_21mic_H50_0379_fot_41B-37377_W_tif
  70
32
  10
565707.000
  20
4599024.000
  30
1035.561
  0
VERTEX
  8
PNOA-H_AMS_1956-57_33k_ES_PAN_21mic_H50_0379_fot_41B-37377_W_tif
  70
32
  10
565707.365
  20
4599024.000
  30
1035.564
  0
VERTEX
  8
PNOA-H_AMS_1956-57_33k_ES_PAN_21mic_H50_0379_fot_41B-37377_W_tif
  70
32
  10
565708.000
  20
4599024.000
  30
1035.569
  0
VERTEX
  8
PNOA-H_AMS_1956-57_33k_ES_PAN_21mic_H50_0379_fot_41B-37377_W_tif
  70
32
  10
566736.537
  20
4598820.685
  30
993.519
  0
VERTEX
  8
PNOA-H_AMS_1956-57_33k_ES_PAN_21mic_H50_0379_fot_41B-37377_W_tif
  70
32
  10
566740.000
  20
4598820.000
  30
993.377
  0
VERTEX
  8
PNOA-H_AMS_1956-57_33k_ES_PAN_21mic_H50_0379_fot_41B-37377_W_tif
  70
32
  10
566957.848
  20
4594575.002
  30
920.629
  0
VERTEX
  8
PNOA-H_AMS_1956-57_33k_ES_PAN_21mic_H50_0379_fot_41B-37377_W_tif
  70
32
  10
564336.126
  20
4594550.997
  30
0
  0
VERTEX
  8
PNOA-H_AMS_1956-57_33k_ES_PAN_21mic_H50_0379_fot_41B-37377_W_tif
  70
32
  10
564301.887
  20
4594550.700
  30
0
  0
VERTEX
  8
PNOA-H_AMS_1956-57_33k_ES_PAN_21mic_H50_0379_fot_41B-37377_W_tif
  70
32
  10
564301.853
  20
4594550.700
  30
1014.281
  0
VERTEX
  8
PNOA-H_AMS_1956-57_33k_ES_PAN_21mic_H50_0379_fot_41B-37377_W_tif
  70
32
  10
564150.500
  20
4598728.500
  30
1088.821
  0
VERTEX
  8
PNOA-H_AMS_1956-57_33k_ES_PAN_21mic_H50_0379_fot_41B-37377_W_tif
  70
32
  10
564150.791
  20
4598728.611
  30
1088.807
  0
VERTEX
  8
PNOA-H_AMS_1956-57_33k_ES_PAN_21mic_H50_0379_fot_41B-37377_W_tif
  70
32
  10
565191.500
  20
4599126.000
  30
1041.43
  0
VERTEX
  8
PNOA-H_AMS_1956-57_33k_ES_PAN_21mic_H50_0379_fot_41B-37377_W_tif
  70
32
  10
565192.159
  20
4599125.870
  30
1041.422
  0
SEQEND
  8
PNOA-H_AMS_1956-57_33k_ES_PAN_21mic_H50_0379_fot_41B-37377_W_tif
  0
INSERT
  8
FeatureAttribs
  2
FEATURE
  41
1
  42
1
  43
1
  50
0
  10
563726.946
  20
4601095.000
 66
1
  0
ATTRIB
  8
FeatureAttribs
 70
0
  1
PNOA-H_AMS_1956-57_33k_ES_PAN_21mic_H50_0379_fot_40B-38891_W.tif
  2
NAME
  10
563726.946
  20
4601095.000
 40
33.61342
  0
SEQEND
  0
POLYLINE
  8
PNOA-H_AMS_1956-57_33k_ES_PAN_21mic_H50_0379_fot_40B-38891_W_tif
  70
9
  66
1
  0
VERTEX
  8
PNOA-H_AMS_1956-57_33k_ES_PAN_21mic_H50_0379_fot_40B-38891_W_tif
  70
32
  10
565192.159
  20
4599125.870
  30
1041.46
  0
VERTEX
  8
PNOA-H_AMS_1956-57_33k_ES_PAN_21mic_H50_0379_fot_40B-38891_W_tif
  70
32
  10
564151.500
  20
4598728.500
  30
1088.919
  0
VERTEX
  8
PNOA-H_AMS_1956-57_33k_ES_PAN_21mic_H50_0379_fot_40B-38891_W_tif
  70
32
  10
564150.791
  20
4598728.611
  30
1088.899
  0
VERTEX
  8
PNOA-H_AMS_1956-57_33k_ES_PAN_21mic_H50_0379_fot_40B-38891_W_tif
  70
32
  10
562456.500
  20
4598994.000
  30
1043.041
  0
VERTEX
  8
PNOA-H_AMS_1956-57_33k_ES_PAN_21mic_H50_0379_fot_40B-38891_W_tif
  70
32
  10
562440.210
  20
4599299.819
  30
1040.424
  0
VERTEX
  8
PNOA-H_AMS_1956-57_33k_ES_PAN_21mic_H50_0379_fot_40B-38891_W_tif
  70
32
  10
562231.000
  20
4603227.500
  30
1006.812
  0
VERTEX
  8
PNOA-H_AMS_1956-57_33k_ES_PAN_21mic_H50_0379_fot_40B-38891_W_tif
  70
32
  10
562231.101
  20
4603228.106
  30
1006.805
  0
VERTEX
  8
PNOA-H_AMS_1956-57_33k_ES_PAN_21mic_H50_0379_fot_40B-38891_W_tif
  70
32
  10
562231.417
  20
4603230.005
  30
1006.78
  0
VERTEX
  8
PNOA-H_AMS_1956-57_33k_ES_PAN_21mic_H50_0379_fot_40B-38891_W_tif
  70
32
  10
562231.500
  20
4603230.500
  30
1006.774
  0
VERTEX
  8
PNOA-H_AMS_1956-57_33k_ES_PAN_21mic_H50_0379_fot_40B-38891_W_tif
  70
32
  10
562637.500
  20
4603461.500
  30
1005.942
  0
VERTEX
  8
PNOA-H_AMS_1956-57_33k_ES_PAN_21mic_H50_0379_fot_40B-38891_W_tif
  70
32
  10
562637.945
  20
4603461.469
  30
1005.943
  0
VERTEX
  8
PNOA-H_AMS_1956-57_33k_ES_PAN_21mic_H50_0379_fot_40B-38891_W_tif
  70
32
  10
562827.711
  20
4603448.185
  30
1006.341
  0
VERTEX
  8
PNOA-H_AMS_1956-57_33k_ES_PAN_21mic_H50_0379_fot_40B-38891_W_tif
  70
32
  10
565014.851
  20
4603295.080
  30
1010.925
  0
VERTEX
  8
PNOA-H_AMS_1956-57_33k_ES_PAN_21mic_H50_0379_fot_40B-38891_W_tif
  70
32
  10
565016.000
  20
4603295.000
  30
1010.928
  0
VERTEX
  8
PNOA-H_AMS_1956-57_33k_ES_PAN_21mic_H50_0379_fot_40B-38891_W_tif
  70
32
  10
565183.500
  20
4599345.500
  30
1041.831
  0
VERTEX
  8
PNOA-H_AMS_1956-57_33k_ES_PAN_21mic_H50_0379_fot_40B-38891_W_tif
  70
32
  10
565184.000
  20
4599333.000
  30
1042.482
  0
VERTEX
  8
PNOA-H_AMS_1956-57_33k_ES_PAN_21mic_H50_0379_fot_40B-38891_W_tif
  70
32
  10
565192.500
  20
4599126.000
  30
1041.444
  0
VERTEX
  8
PNOA-H_AMS_1956-57_33k_ES_PAN_21mic_H50_0379_fot_40B-38891_W_tif
  70
32
  10
565192.159
  20
4599125.870
  30
1041.46
  0
SEQEND
  8
PNOA-H_AMS_1956-57_33k_ES_PAN_21mic_H50_0379_fot_40B-38891_W_tif
  0
INSERT
  8
FeatureAttribs
  2
FEATURE
  41
1
  42
1
  43
1
  50
0
  10
567315.855
  20
4596880.650
 66
1
  0
ATTRIB
  8
FeatureAttribs
 70
0
  1
PNOA-H_AMS_1956-57_33k_ES_PAN_21mic_H50_0380_fot_41B-37376_W.tif
  2
NAME
  10
567315.855
  20
4596880.650
 40
33.61342
  0
SEQEND
  0
POLYLINE
  8
PNOA-H_AMS_1956-57_33k_ES_PAN_21mic_H50_0380_fot_41B-37376_W_tif
  70
9
  66
1
  0
VERTEX
  8
PNOA-H_AMS_1956-57_33k_ES_PAN_21mic_H50_0380_fot_41B-37376_W_tif
  70
32
  10
567813.783
  20
4594582.839
  30
0
  0
VERTEX
  8
PNOA-H_AMS_1956-57_33k_ES_PAN_21mic_H50_0380_fot_41B-37376_W_tif
  70
32
  10
566957.848
  20
4594575.002
  30
920.629
  0
VERTEX
  8
PNOA-H_AMS_1956-57_33k_ES_PAN_21mic_H50_0380_fot_41B-37376_W_tif
  70
32
  10
566740.000
  20
4598820.000
  30
993.377
  0
VERTEX
  8
PNOA-H_AMS_1956-57_33k_ES_PAN_21mic_H50_0380_fot_41B-37376_W_tif
  70
32
  10
566740.419
  20
4598820.149
  30
993.399
  0
VERTEX
  8
PNOA-H_AMS_1956-57_33k_ES_PAN_21mic_H50_0380_fot_41B-37376_W_tif
  70
32
  10
567770.506
  20
4599186.297
  30
1045.892
  0
VERTEX
  8
PNOA-H_AMS_1956-57_33k_ES_PAN_21mic_H50_0380_fot_41B-37376_W_tif
  70
32
  10
567770.510
  20
4599185.879
  30
0
  0
VERTEX
  8
PNOA-H_AMS_1956-57_33k_ES_PAN_21mic_H50_0380_fot_41B-37376_W_tif
  70
32
  10
567792.043
  20
4596895.771
  30
0
  0
VERTEX
  8
PNOA-H_AMS_1956-57_33k_ES_PAN_21mic_H50_0380_fot_41B-37376_W_tif
  70
32
  10
567813.783
  20
4594582.839
  30
0
  0
SEQEND
  8
PNOA-H_AMS_1956-57_33k_ES_PAN_21mic_H50_0380_fot_41B-37376_W_tif
  0
INSERT
  8
FeatureAttribs
  2
FEATURE
  41
1
  42
1
  43
1
  50
0
  10
562923.053
  20
4596760.906
 66
1
  0
ATTRIB
  8
FeatureAttribs
 70
0
  1
PNOA-H_AMS_1956-57_33k_ES_PAN_21mic_H50_0379_fot_41B-37378_W.tif
  2
NAME
  10
562923.053
  20
4596760.906
 40
33.61342
  0
SEQEND
  0
POLYLINE
  8
PNOA-H_AMS_1956-57_33k_ES_PAN_21mic_H50_0379_fot_41B-37378_W_tif
  70
9
  66
1
  0
VERTEX
  8
PNOA-H_AMS_1956-57_33k_ES_PAN_21mic_H50_0379_fot_41B-37378_W_tif
  70
32
  10
561663.206
  20
4594527.812
  30
1025.312
  0
VERTEX
  8
PNOA-H_AMS_1956-57_33k_ES_PAN_21mic_H50_0379_fot_41B-37378_W_tif
  70
32
  10
561663.191
  20
4594527.812
  30
1025.313
  0
VERTEX
  8
PNOA-H_AMS_1956-57_33k_ES_PAN_21mic_H50_0379_fot_41B-37378_W_tif
  70
32
  10
561591.500
  20
4598622.500
  30
1087.422
  0
VERTEX
  8
PNOA-H_AMS_1956-57_33k_ES_PAN_21mic_H50_0379_fot_41B-37378_W_tif
  70
32
  10
561591.500
  20
4598634.000
  30
1087.583
  0
VERTEX
  8
PNOA-H_AMS_1956-57_33k_ES_PAN_21mic_H50_0379_fot_41B-37378_W_tif
  70
32
  10
561591.714
  20
4598634.107
  30
1087.586
  0
VERTEX
  8
PNOA-H_AMS_1956-57_33k_ES_PAN_21mic_H50_0379_fot_41B-37378_W_tif
  70
32
  10
561593.500
  20
4598635.000
  30
1087.606
  0
VERTEX
  8
PNOA-H_AMS_1956-57_33k_ES_PAN_21mic_H50_0379_fot_41B-37378_W_tif
  70
32
  10
562455.975
  20
4598993.989
  30
1043.077
  0
VERTEX
  8
PNOA-H_AMS_1956-57_33k_ES_PAN_21mic_H50_0379_fot_41B-37378_W_tif
  70
32
  10
562456.000
  20
4598994.000
  30
1043.076
  0
VERTEX
  8
PNOA-H_AMS_1956-57_33k_ES_PAN_21mic_H50_0379_fot_41B-37378_W_tif
  70
32
  10
564150.500
  20
4598728.500
  30
1088.821
  0
VERTEX
  8
PNOA-H_AMS_1956-57_33k_ES_PAN_21mic_H50_0379_fot_41B-37378_W_tif
  70
32
  10
564277.000
  20
4595248.000
  30
1016.888
  0
VERTEX
  8
PNOA-H_AMS_1956-57_33k_ES_PAN_21mic_H50_0379_fot_41B-37378_W_tif
  70
32
  10
564277.000
  20
4595237.000
  30
1018.228
  0
VERTEX
  8
PNOA-H_AMS_1956-57_33k_ES_PAN_21mic_H50_0379_fot_41B-37378_W_tif
  70
32
  10
564301.887
  20
4594550.700
  30
1009.391
  0
VERTEX
  8
PNOA-H_AMS_1956-57_33k_ES_PAN_21mic_H50_0379_fot_41B-37378_W_tif
  70
32
  10
564301.853
  20
4594550.700
  30
0
  0
VERTEX
  8
PNOA-H_AMS_1956-57_33k_ES_PAN_21mic_H50_0379_fot_41B-37378_W_tif
  70
32
  10
561663.206
  20
4594527.812
  30
1025.312
  0
SEQEND
  8
PNOA-H_AMS_1956-57_33k_ES_PAN_21mic_H50_0379_fot_41B-37378_W_tif
  0
ENDSEC
  0
EOF
