  0
SECTION
  2
HEADER
  9
$ACADVER
  1
AC1009
  9
$LUNITS
  70
2
  9
$LIMMIN
  10
512140.397
  20
4594274.486
  9
$LIMMAX
  10
539992.635
  20
4612878.574
  9
$EXTMIN
  10
512140.397
  20
4594274.486
  9
$EXTMAX
  10
539992.635
  20
4612878.574
  999
Created by Global Mapper
  999
Projection: UTM
  999
Datum: ETRS89
  999
Ground Units: meters
  999
ZONE: 30
  0
ENDSEC
  0
SECTION
  2
TABLES
  0
ENDSEC
  0
SECTION
  2
BLOCKS
  0
BLOCK
  8
FeatureAttribs
  70
0
  2
FEATURE
  3
FEATURE
  10
0.00000000
  20
0.00000000
  0
ATTDEF
  8
FeatureAttribs
  70
0
  1
 
  2
NAME
  3
NAME
  10
0.00000000
  20
0.00000000
  40
1.00000000
  0
ENDBLK
  0
ENDSEC
  0
SECTION
  2
ENTITIES
  0
INSERT
  8
FeatureAttribs
  2
FEATURE
  41
1
  42
1
  43
1
  50
0
  10
512655.801
  20
4612399.763
 66
1
  0
ATTRIB
  8
FeatureAttribs
 70
0
  1
PNOA-H_AMS_1956-57_33k_ES_PAN_21mic_H50_0348_fot_38988.tif
  2
NAME
  10
512655.801
  20
4612399.763
 40
33.49417
  0
SEQEND
  0
POLYLINE
  8
PNOA-H_AMS_1956-57_33k_ES_PAN_21mic_H50_0348_fot_38988_tif
  70
9
  66
1
  0
VERTEX
  8
PNOA-H_AMS_1956-57_33k_ES_PAN_21mic_H50_0348_fot_38988_tif
  70
32
  10
513171.500
  20
4612232.000
  30
1052.789
  0
VERTEX
  8
PNOA-H_AMS_1956-57_33k_ES_PAN_21mic_H50_0348_fot_38988_tif
  70
32
  10
512141.680
  20
4612019.586
  30
1024.271
  0
VERTEX
  8
PNOA-H_AMS_1956-57_33k_ES_PAN_21mic_H50_0348_fot_38988_tif
  70
32
  10
512141.679
  20
4612020.047
  30
0
  0
VERTEX
  8
PNOA-H_AMS_1956-57_33k_ES_PAN_21mic_H50_0348_fot_38988_tif
  70
32
  10
512140.397
  20
4612777.956
  30
0
  0
VERTEX
  8
PNOA-H_AMS_1956-57_33k_ES_PAN_21mic_H50_0348_fot_38988_tif
  70
32
  10
513166.202
  20
4612779.939
  30
0
  0
VERTEX
  8
PNOA-H_AMS_1956-57_33k_ES_PAN_21mic_H50_0348_fot_38988_tif
  70
32
  10
513166.501
  20
4612779.940
  30
1054.177
  0
VERTEX
  8
PNOA-H_AMS_1956-57_33k_ES_PAN_21mic_H50_0348_fot_38988_tif
  70
32
  10
513172.000
  20
4612265.500
  30
1052.561
  0
VERTEX
  8
PNOA-H_AMS_1956-57_33k_ES_PAN_21mic_H50_0348_fot_38988_tif
  70
32
  10
513171.796
  20
4612251.803
  30
1052.654
  0
VERTEX
  8
PNOA-H_AMS_1956-57_33k_ES_PAN_21mic_H50_0348_fot_38988_tif
  70
32
  10
513171.504
  20
4612232.295
  30
1052.787
  0
VERTEX
  8
PNOA-H_AMS_1956-57_33k_ES_PAN_21mic_H50_0348_fot_38988_tif
  70
32
  10
513171.500
  20
4612232.000
  30
1052.789
  0
SEQEND
  8
PNOA-H_AMS_1956-57_33k_ES_PAN_21mic_H50_0348_fot_38988_tif
  0
INSERT
  8
FeatureAttribs
  2
FEATURE
  41
1
  42
1
  43
1
  50
0
  10
514548.275
  20
4612327.715
 66
1
  0
ATTRIB
  8
FeatureAttribs
 70
0
  1
PNOA-H_AMS_1956-57_33k_ES_PAN_21mic_H50_0349_fot_38989.tif
  2
NAME
  10
514548.275
  20
4612327.715
 40
33.49417
  0
SEQEND
  0
POLYLINE
  8
PNOA-H_AMS_1956-57_33k_ES_PAN_21mic_H50_0349_fot_38989_tif
  70
9
  66
1
  0
VERTEX
  8
PNOA-H_AMS_1956-57_33k_ES_PAN_21mic_H50_0349_fot_38989_tif
  70
32
  10
513979.213
  20
4611870.129
  30
1039.392
  0
VERTEX
  8
PNOA-H_AMS_1956-57_33k_ES_PAN_21mic_H50_0349_fot_38989_tif
  70
32
  10
513978.500
  20
4611870.000
  30
1039.383
  0
VERTEX
  8
PNOA-H_AMS_1956-57_33k_ES_PAN_21mic_H50_0349_fot_38989_tif
  70
32
  10
513172.157
  20
4612232.429
  30
1052.778
  0
VERTEX
  8
PNOA-H_AMS_1956-57_33k_ES_PAN_21mic_H50_0349_fot_38989_tif
  70
32
  10
513172.000
  20
4612232.500
  30
1052.78
  0
VERTEX
  8
PNOA-H_AMS_1956-57_33k_ES_PAN_21mic_H50_0349_fot_38989_tif
  70
32
  10
513171.796
  20
4612251.803
  30
1052.839
  0
VERTEX
  8
PNOA-H_AMS_1956-57_33k_ES_PAN_21mic_H50_0349_fot_38989_tif
  70
32
  10
513166.202
  20
4612779.939
  30
1054.448
  0
VERTEX
  8
PNOA-H_AMS_1956-57_33k_ES_PAN_21mic_H50_0349_fot_38989_tif
  70
32
  10
513166.501
  20
4612779.940
  30
0
  0
VERTEX
  8
PNOA-H_AMS_1956-57_33k_ES_PAN_21mic_H50_0349_fot_38989_tif
  70
32
  10
515609.084
  20
4612784.664
  30
0
  0
VERTEX
  8
PNOA-H_AMS_1956-57_33k_ES_PAN_21mic_H50_0349_fot_38989_tif
  70
32
  10
515925.806
  20
4612785.429
  30
1067.314
  0
VERTEX
  8
PNOA-H_AMS_1956-57_33k_ES_PAN_21mic_H50_0349_fot_38989_tif
  70
32
  10
515925.500
  20
4612222.000
  30
1063.076
  0
VERTEX
  8
PNOA-H_AMS_1956-57_33k_ES_PAN_21mic_H50_0349_fot_38989_tif
  70
32
  10
515107.473
  20
4612074.108
  30
1053.121
  0
VERTEX
  8
PNOA-H_AMS_1956-57_33k_ES_PAN_21mic_H50_0349_fot_38989_tif
  70
32
  10
514336.266
  20
4611934.681
  30
1043.737
  0
VERTEX
  8
PNOA-H_AMS_1956-57_33k_ES_PAN_21mic_H50_0349_fot_38989_tif
  70
32
  10
513979.213
  20
4611870.129
  30
1039.392
  0
SEQEND
  8
PNOA-H_AMS_1956-57_33k_ES_PAN_21mic_H50_0349_fot_38989_tif
  0
INSERT
  8
FeatureAttribs
  2
FEATURE
  41
1
  42
1
  43
1
  50
0
  10
520155.640
  20
4612359.914
 66
1
  0
ATTRIB
  8
FeatureAttribs
 70
0
  1
PNOA-H_AMS_1956-57_33k_ES_PAN_21mic_H50_0349_fot_38991.tif
  2
NAME
  10
520155.640
  20
4612359.914
 40
33.49417
  0
SEQEND
  0
POLYLINE
  8
PNOA-H_AMS_1956-57_33k_ES_PAN_21mic_H50_0349_fot_38991_tif
  70
9
  66
1
  0
VERTEX
  8
PNOA-H_AMS_1956-57_33k_ES_PAN_21mic_H50_0349_fot_38991_tif
  70
32
  10
519398.519
  20
4611919.503
  30
1044.994
  0
VERTEX
  8
PNOA-H_AMS_1956-57_33k_ES_PAN_21mic_H50_0349_fot_38991_tif
  70
32
  10
519398.500
  20
4611919.500
  30
1044.994
  0
VERTEX
  8
PNOA-H_AMS_1956-57_33k_ES_PAN_21mic_H50_0349_fot_38991_tif
  70
32
  10
518717.000
  20
4612257.000
  30
1058.201
  0
VERTEX
  8
PNOA-H_AMS_1956-57_33k_ES_PAN_21mic_H50_0349_fot_38991_tif
  70
32
  10
518720.364
  20
4612792.184
  30
1072.627
  0
VERTEX
  8
PNOA-H_AMS_1956-57_33k_ES_PAN_21mic_H50_0349_fot_38991_tif
  70
32
  10
519077.771
  20
4612793.048
  30
0
  0
VERTEX
  8
PNOA-H_AMS_1956-57_33k_ES_PAN_21mic_H50_0349_fot_38991_tif
  70
32
  10
521587.450
  20
4612800.328
  30
1088.904
  0
VERTEX
  8
PNOA-H_AMS_1956-57_33k_ES_PAN_21mic_H50_0349_fot_38991_tif
  70
32
  10
521595.494
  20
4612227.429
  30
1069.132
  0
VERTEX
  8
PNOA-H_AMS_1956-57_33k_ES_PAN_21mic_H50_0349_fot_38991_tif
  70
32
  10
521595.500
  20
4612227.000
  30
1069.118
  0
VERTEX
  8
PNOA-H_AMS_1956-57_33k_ES_PAN_21mic_H50_0349_fot_38991_tif
  70
32
  10
519619.781
  20
4611950.471
  30
1047.423
  0
VERTEX
  8
PNOA-H_AMS_1956-57_33k_ES_PAN_21mic_H50_0349_fot_38991_tif
  70
32
  10
519398.519
  20
4611919.503
  30
1044.994
  0
SEQEND
  8
PNOA-H_AMS_1956-57_33k_ES_PAN_21mic_H50_0349_fot_38991_tif
  0
INSERT
  8
FeatureAttribs
  2
FEATURE
  41
1
  42
1
  43
1
  50
0
  10
517321.541
  20
4612339.342
 66
1
  0
ATTRIB
  8
FeatureAttribs
 70
0
  1
PNOA-H_AMS_1956-57_33k_ES_PAN_21mic_H50_0349_fot_38990.tif
  2
NAME
  10
517321.541
  20
4612339.342
 40
33.49417
  0
SEQEND
  0
POLYLINE
  8
PNOA-H_AMS_1956-57_33k_ES_PAN_21mic_H50_0349_fot_38990_tif
  70
9
  66
1
  0
VERTEX
  8
PNOA-H_AMS_1956-57_33k_ES_PAN_21mic_H50_0349_fot_38990_tif
  70
32
  10
516673.500
  20
4611886.500
  30
1082.917
  0
VERTEX
  8
PNOA-H_AMS_1956-57_33k_ES_PAN_21mic_H50_0349_fot_38990_tif
  70
32
  10
516672.500
  20
4611886.500
  30
1082.945
  0
VERTEX
  8
PNOA-H_AMS_1956-57_33k_ES_PAN_21mic_H50_0349_fot_38990_tif
  70
32
  10
515925.787
  20
4612221.871
  30
1063.083
  0
VERTEX
  8
PNOA-H_AMS_1956-57_33k_ES_PAN_21mic_H50_0349_fot_38990_tif
  70
32
  10
515925.500
  20
4612222.000
  30
1063.076
  0
VERTEX
  8
PNOA-H_AMS_1956-57_33k_ES_PAN_21mic_H50_0349_fot_38990_tif
  70
32
  10
515925.806
  20
4612785.429
  30
1067.314
  0
VERTEX
  8
PNOA-H_AMS_1956-57_33k_ES_PAN_21mic_H50_0349_fot_38990_tif
  70
32
  10
518720.364
  20
4612792.184
  30
1072.627
  0
VERTEX
  8
PNOA-H_AMS_1956-57_33k_ES_PAN_21mic_H50_0349_fot_38990_tif
  70
32
  10
518717.000
  20
4612257.000
  30
1058.201
  0
VERTEX
  8
PNOA-H_AMS_1956-57_33k_ES_PAN_21mic_H50_0349_fot_38990_tif
  70
32
  10
516675.000
  20
4611886.500
  30
1082.873
  0
VERTEX
  8
PNOA-H_AMS_1956-57_33k_ES_PAN_21mic_H50_0349_fot_38990_tif
  70
32
  10
516673.500
  20
4611886.500
  30
1082.917
  0
SEQEND
  8
PNOA-H_AMS_1956-57_33k_ES_PAN_21mic_H50_0349_fot_38990_tif
  0
INSERT
  8
FeatureAttribs
  2
FEATURE
  41
1
  42
1
  43
1
  50
0
  10
522952.463
  20
4612385.520
 66
1
  0
ATTRIB
  8
FeatureAttribs
 70
0
  1
PNOA-H_AMS_1956-57_33k_ES_PAN_21mic_H50_0349_fot_38992.tif
  2
NAME
  10
522952.463
  20
4612385.520
 40
33.49417
  0
SEQEND
  0
POLYLINE
  8
PNOA-H_AMS_1956-57_33k_ES_PAN_21mic_H50_0349_fot_38992_tif
  70
9
  66
1
  0
VERTEX
  8
PNOA-H_AMS_1956-57_33k_ES_PAN_21mic_H50_0349_fot_38992_tif
  70
32
  10
522111.408
  20
4611962.047
  30
1042.678
  0
VERTEX
  8
PNOA-H_AMS_1956-57_33k_ES_PAN_21mic_H50_0349_fot_38992_tif
  70
32
  10
522111.000
  20
4611962.000
  30
1042.669
  0
VERTEX
  8
PNOA-H_AMS_1956-57_33k_ES_PAN_21mic_H50_0349_fot_38992_tif
  70
32
  10
521596.000
  20
4612227.000
  30
1069.142
  0
VERTEX
  8
PNOA-H_AMS_1956-57_33k_ES_PAN_21mic_H50_0349_fot_38992_tif
  70
32
  10
521595.993
  20
4612227.499
  30
1069.159
  0
VERTEX
  8
PNOA-H_AMS_1956-57_33k_ES_PAN_21mic_H50_0349_fot_38992_tif
  70
32
  10
521587.874
  20
4612800.330
  30
1088.924
  0
VERTEX
  8
PNOA-H_AMS_1956-57_33k_ES_PAN_21mic_H50_0349_fot_38992_tif
  70
32
  10
522546.459
  20
4612803.110
  30
0
  0
VERTEX
  8
PNOA-H_AMS_1956-57_33k_ES_PAN_21mic_H50_0349_fot_38992_tif
  70
32
  10
524298.219
  20
4612809.038
  30
0
  0
VERTEX
  8
PNOA-H_AMS_1956-57_33k_ES_PAN_21mic_H50_0349_fot_38992_tif
  70
32
  10
524298.401
  20
4612809.039
  30
1101.21
  0
VERTEX
  8
PNOA-H_AMS_1956-57_33k_ES_PAN_21mic_H50_0349_fot_38992_tif
  70
32
  10
524316.000
  20
4612225.500
  30
1088.515
  0
VERTEX
  8
PNOA-H_AMS_1956-57_33k_ES_PAN_21mic_H50_0349_fot_38992_tif
  70
32
  10
524316.000
  20
4612218.500
  30
1088.082
  0
VERTEX
  8
PNOA-H_AMS_1956-57_33k_ES_PAN_21mic_H50_0349_fot_38992_tif
  70
32
  10
524315.733
  20
4612218.411
  30
1088.095
  0
VERTEX
  8
PNOA-H_AMS_1956-57_33k_ES_PAN_21mic_H50_0349_fot_38992_tif
  70
32
  10
524314.500
  20
4612218.000
  30
1088.154
  0
VERTEX
  8
PNOA-H_AMS_1956-57_33k_ES_PAN_21mic_H50_0349_fot_38992_tif
  70
32
  10
522187.919
  20
4611970.936
  30
1044.257
  0
VERTEX
  8
PNOA-H_AMS_1956-57_33k_ES_PAN_21mic_H50_0349_fot_38992_tif
  70
32
  10
522111.408
  20
4611962.047
  30
1042.678
  0
SEQEND
  8
PNOA-H_AMS_1956-57_33k_ES_PAN_21mic_H50_0349_fot_38992_tif
  0
INSERT
  8
FeatureAttribs
  2
FEATURE
  41
1
  42
1
  43
1
  50
0
  10
525590.152
  20
4612398.555
 66
1
  0
ATTRIB
  8
FeatureAttribs
 70
0
  1
PNOA-H_AMS_1956-57_33k_ES_PAN_21mic_H50_0349_fot_38993.tif
  2
NAME
  10
525590.152
  20
4612398.555
 40
33.49417
  0
SEQEND
  0
POLYLINE
  8
PNOA-H_AMS_1956-57_33k_ES_PAN_21mic_H50_0349_fot_38993_tif
  70
9
  66
1
  0
VERTEX
  8
PNOA-H_AMS_1956-57_33k_ES_PAN_21mic_H50_0349_fot_38993_tif
  70
32
  10
526871.729
  20
4612279.314
  30
1073.787
  0
VERTEX
  8
PNOA-H_AMS_1956-57_33k_ES_PAN_21mic_H50_0349_fot_38993_tif
  70
32
  10
524818.000
  20
4611979.000
  30
1085.849
  0
VERTEX
  8
PNOA-H_AMS_1956-57_33k_ES_PAN_21mic_H50_0349_fot_38993_tif
  70
32
  10
524817.111
  20
4611979.278
  30
1085.882
  0
VERTEX
  8
PNOA-H_AMS_1956-57_33k_ES_PAN_21mic_H50_0349_fot_38993_tif
  70
32
  10
524812.257
  20
4611980.795
  30
1086.065
  0
VERTEX
  8
PNOA-H_AMS_1956-57_33k_ES_PAN_21mic_H50_0349_fot_38993_tif
  70
32
  10
524810.000
  20
4611981.500
  30
1086.15
  0
VERTEX
  8
PNOA-H_AMS_1956-57_33k_ES_PAN_21mic_H50_0349_fot_38993_tif
  70
32
  10
524316.097
  20
4612218.453
  30
1088.081
  0
VERTEX
  8
PNOA-H_AMS_1956-57_33k_ES_PAN_21mic_H50_0349_fot_38993_tif
  70
32
  10
524316.000
  20
4612218.500
  30
1088.082
  0
VERTEX
  8
PNOA-H_AMS_1956-57_33k_ES_PAN_21mic_H50_0349_fot_38993_tif
  70
32
  10
524298.219
  20
4612809.038
  30
1100.977
  0
VERTEX
  8
PNOA-H_AMS_1956-57_33k_ES_PAN_21mic_H50_0349_fot_38993_tif
  70
32
  10
524298.401
  20
4612809.039
  30
0
  0
VERTEX
  8
PNOA-H_AMS_1956-57_33k_ES_PAN_21mic_H50_0349_fot_38993_tif
  70
32
  10
526015.149
  20
4612814.849
  30
0
  0
VERTEX
  8
PNOA-H_AMS_1956-57_33k_ES_PAN_21mic_H50_0349_fot_38993_tif
  70
32
  10
526858.135
  20
4612818.109
  30
0
  0
VERTEX
  8
PNOA-H_AMS_1956-57_33k_ES_PAN_21mic_H50_0349_fot_38993_tif
  70
32
  10
526858.182
  20
4612818.109
  30
1083.675
  0
VERTEX
  8
PNOA-H_AMS_1956-57_33k_ES_PAN_21mic_H50_0349_fot_38993_tif
  70
32
  10
526873.000
  20
4612279.500
  30
1073.779
  0
VERTEX
  8
PNOA-H_AMS_1956-57_33k_ES_PAN_21mic_H50_0349_fot_38993_tif
  70
32
  10
526871.729
  20
4612279.314
  30
1073.787
  0
SEQEND
  8
PNOA-H_AMS_1956-57_33k_ES_PAN_21mic_H50_0349_fot_38993_tif
  0
INSERT
  8
FeatureAttribs
  2
FEATURE
  41
1
  42
1
  43
1
  50
0
  10
528160.322
  20
4612412.553
 66
1
  0
ATTRIB
  8
FeatureAttribs
 70
0
  1
PNOA-H_AMS_1956-57_33k_ES_PAN_21mic_H50_0349_fot_38994.tif
  2
NAME
  10
528160.322
  20
4612412.553
 40
33.49417
  0
SEQEND
  0
POLYLINE
  8
PNOA-H_AMS_1956-57_33k_ES_PAN_21mic_H50_0349_fot_38994_tif
  70
9
  66
1
  0
VERTEX
  8
PNOA-H_AMS_1956-57_33k_ES_PAN_21mic_H50_0349_fot_38994_tif
  70
32
  10
529310.586
  20
4612327.205
  30
1089.047
  0
VERTEX
  8
PNOA-H_AMS_1956-57_33k_ES_PAN_21mic_H50_0349_fot_38994_tif
  70
32
  10
527528.500
  20
4611997.000
  30
1082.153
  0
VERTEX
  8
PNOA-H_AMS_1956-57_33k_ES_PAN_21mic_H50_0349_fot_38994_tif
  70
32
  10
527528.012
  20
4611997.188
  30
1082.124
  0
VERTEX
  8
PNOA-H_AMS_1956-57_33k_ES_PAN_21mic_H50_0349_fot_38994_tif
  70
32
  10
527520.867
  20
4611999.936
  30
1081.697
  0
VERTEX
  8
PNOA-H_AMS_1956-57_33k_ES_PAN_21mic_H50_0349_fot_38994_tif
  70
32
  10
527509.000
  20
4612004.500
  30
1080.988
  0
VERTEX
  8
PNOA-H_AMS_1956-57_33k_ES_PAN_21mic_H50_0349_fot_38994_tif
  70
32
  10
526873.836
  20
4612279.139
  30
1073.789
  0
VERTEX
  8
PNOA-H_AMS_1956-57_33k_ES_PAN_21mic_H50_0349_fot_38994_tif
  70
32
  10
526873.000
  20
4612279.500
  30
1073.779
  0
VERTEX
  8
PNOA-H_AMS_1956-57_33k_ES_PAN_21mic_H50_0349_fot_38994_tif
  70
32
  10
526858.135
  20
4612818.109
  30
1083.632
  0
VERTEX
  8
PNOA-H_AMS_1956-57_33k_ES_PAN_21mic_H50_0349_fot_38994_tif
  70
32
  10
526858.182
  20
4612818.109
  30
1083.675
  0
VERTEX
  8
PNOA-H_AMS_1956-57_33k_ES_PAN_21mic_H50_0349_fot_38994_tif
  70
32
  10
529442.988
  20
4612828.107
  30
1094.792
  0
VERTEX
  8
PNOA-H_AMS_1956-57_33k_ES_PAN_21mic_H50_0349_fot_38994_tif
  70
32
  10
529452.500
  20
4612353.500
  30
1089.596
  0
VERTEX
  8
PNOA-H_AMS_1956-57_33k_ES_PAN_21mic_H50_0349_fot_38994_tif
  70
32
  10
529310.586
  20
4612327.205
  30
1089.047
  0
SEQEND
  8
PNOA-H_AMS_1956-57_33k_ES_PAN_21mic_H50_0349_fot_38994_tif
  0
INSERT
  8
FeatureAttribs
  2
FEATURE
  41
1
  42
1
  43
1
  50
0
  10
533517.857
  20
4612448.920
 66
1
  0
ATTRIB
  8
FeatureAttribs
 70
0
  1
PNOA-H_AMS_1956-57_33k_ES_PAN_21mic_H50_0349_fot_38996.tif
  2
NAME
  10
533517.857
  20
4612448.920
 40
33.49417
  0
SEQEND
  0
POLYLINE
  8
PNOA-H_AMS_1956-57_33k_ES_PAN_21mic_H50_0349_fot_38996_tif
  70
9
  66
1
  0
VERTEX
  8
PNOA-H_AMS_1956-57_33k_ES_PAN_21mic_H50_0349_fot_38996_tif
  70
32
  10
534911.500
  20
4612422.000
  30
1044.361
  0
VERTEX
  8
PNOA-H_AMS_1956-57_33k_ES_PAN_21mic_H50_0349_fot_38996_tif
  70
32
  10
532910.000
  20
4612045.000
  30
1055.961
  0
VERTEX
  8
PNOA-H_AMS_1956-57_33k_ES_PAN_21mic_H50_0349_fot_38996_tif
  70
32
  10
532909.395
  20
4612045.173
  30
1055.956
  0
VERTEX
  8
PNOA-H_AMS_1956-57_33k_ES_PAN_21mic_H50_0349_fot_38996_tif
  70
32
  10
532905.875
  20
4612046.179
  30
1055.923
  0
VERTEX
  8
PNOA-H_AMS_1956-57_33k_ES_PAN_21mic_H50_0349_fot_38996_tif
  70
32
  10
532903.000
  20
4612047.000
  30
1055.896
  0
VERTEX
  8
PNOA-H_AMS_1956-57_33k_ES_PAN_21mic_H50_0349_fot_38996_tif
  70
32
  10
532124.144
  20
4612396.935
  30
1048.868
  0
VERTEX
  8
PNOA-H_AMS_1956-57_33k_ES_PAN_21mic_H50_0349_fot_38996_tif
  70
32
  10
532124.000
  20
4612397.000
  30
1048.867
  0
VERTEX
  8
PNOA-H_AMS_1956-57_33k_ES_PAN_21mic_H50_0349_fot_38996_tif
  70
32
  10
532124.602
  20
4612839.755
  30
1053.886
  0
VERTEX
  8
PNOA-H_AMS_1956-57_33k_ES_PAN_21mic_H50_0349_fot_38996_tif
  70
32
  10
532952.534
  20
4612843.357
  30
0
  0
VERTEX
  8
PNOA-H_AMS_1956-57_33k_ES_PAN_21mic_H50_0349_fot_38996_tif
  70
32
  10
534913.789
  20
4612852.839
  30
1049.481
  0
VERTEX
  8
PNOA-H_AMS_1956-57_33k_ES_PAN_21mic_H50_0349_fot_38996_tif
  70
32
  10
534913.805
  20
4612852.839
  30
1049.23
  0
VERTEX
  8
PNOA-H_AMS_1956-57_33k_ES_PAN_21mic_H50_0349_fot_38996_tif
  70
32
  10
534911.831
  20
4612483.831
  30
1045.059
  0
VERTEX
  8
PNOA-H_AMS_1956-57_33k_ES_PAN_21mic_H50_0349_fot_38996_tif
  70
32
  10
534911.500
  20
4612422.000
  30
1044.361
  0
SEQEND
  8
PNOA-H_AMS_1956-57_33k_ES_PAN_21mic_H50_0349_fot_38996_tif
  0
INSERT
  8
FeatureAttribs
  2
FEATURE
  41
1
  42
1
  43
1
  50
0
  10
530787.379
  20
4612443.627
 66
1
  0
ATTRIB
  8
FeatureAttribs
 70
0
  1
PNOA-H_AMS_1956-57_33k_ES_PAN_21mic_H50_0349_fot_38995.tif
  2
NAME
  10
530787.379
  20
4612443.627
 40
33.49417
  0
SEQEND
  0
POLYLINE
  8
PNOA-H_AMS_1956-57_33k_ES_PAN_21mic_H50_0349_fot_38995_tif
  70
9
  66
1
  0
VERTEX
  8
PNOA-H_AMS_1956-57_33k_ES_PAN_21mic_H50_0349_fot_38995_tif
  70
32
  10
531929.887
  20
4612361.766
  30
1049.175
  0
VERTEX
  8
PNOA-H_AMS_1956-57_33k_ES_PAN_21mic_H50_0349_fot_38995_tif
  70
32
  10
530198.500
  20
4612047.500
  30
1051.921
  0
VERTEX
  8
PNOA-H_AMS_1956-57_33k_ES_PAN_21mic_H50_0349_fot_38995_tif
  70
32
  10
530196.501
  20
4612047.682
  30
1051.779
  0
VERTEX
  8
PNOA-H_AMS_1956-57_33k_ES_PAN_21mic_H50_0349_fot_38995_tif
  70
32
  10
530194.651
  20
4612047.850
  30
1051.647
  0
VERTEX
  8
PNOA-H_AMS_1956-57_33k_ES_PAN_21mic_H50_0349_fot_38995_tif
  70
32
  10
530193.000
  20
4612048.000
  30
1051.53
  0
VERTEX
  8
PNOA-H_AMS_1956-57_33k_ES_PAN_21mic_H50_0349_fot_38995_tif
  70
32
  10
529452.655
  20
4612353.436
  30
1089.588
  0
VERTEX
  8
PNOA-H_AMS_1956-57_33k_ES_PAN_21mic_H50_0349_fot_38995_tif
  70
32
  10
529452.500
  20
4612353.500
  30
1089.596
  0
VERTEX
  8
PNOA-H_AMS_1956-57_33k_ES_PAN_21mic_H50_0349_fot_38995_tif
  70
32
  10
529442.988
  20
4612828.107
  30
1094.792
  0
VERTEX
  8
PNOA-H_AMS_1956-57_33k_ES_PAN_21mic_H50_0349_fot_38995_tif
  70
32
  10
529483.840
  20
4612828.265
  30
0
  0
VERTEX
  8
PNOA-H_AMS_1956-57_33k_ES_PAN_21mic_H50_0349_fot_38995_tif
  70
32
  10
532124.602
  20
4612839.755
  30
1053.883
  0
VERTEX
  8
PNOA-H_AMS_1956-57_33k_ES_PAN_21mic_H50_0349_fot_38995_tif
  70
32
  10
532124.000
  20
4612397.000
  30
1048.867
  0
VERTEX
  8
PNOA-H_AMS_1956-57_33k_ES_PAN_21mic_H50_0349_fot_38995_tif
  70
32
  10
531929.887
  20
4612361.766
  30
1049.175
  0
SEQEND
  8
PNOA-H_AMS_1956-57_33k_ES_PAN_21mic_H50_0349_fot_38995_tif
  0
INSERT
  8
FeatureAttribs
  2
FEATURE
  41
1
  42
1
  43
1
  50
0
  10
538819.948
  20
4612467.037
 66
1
  0
ATTRIB
  8
FeatureAttribs
 70
0
  1
PNOA-H_AMS_1956-57_33k_ES_PAN_21mic_H50_0349_fot_38998.tif
  2
NAME
  10
538819.948
  20
4612467.037
 40
33.49417
  0
SEQEND
  0
POLYLINE
  8
PNOA-H_AMS_1956-57_33k_ES_PAN_21mic_H50_0349_fot_38998_tif
  70
9
  66
1
  0
VERTEX
  8
PNOA-H_AMS_1956-57_33k_ES_PAN_21mic_H50_0349_fot_38998_tif
  70
32
  10
538469.261
  20
4612055.612
  30
1054.163
  0
VERTEX
  8
PNOA-H_AMS_1956-57_33k_ES_PAN_21mic_H50_0349_fot_38998_tif
  70
32
  10
538468.500
  20
4612055.500
  30
1054.157
  0
VERTEX
  8
PNOA-H_AMS_1956-57_33k_ES_PAN_21mic_H50_0349_fot_38998_tif
  70
32
  10
537748.720
  20
4612393.662
  30
1064.649
  0
VERTEX
  8
PNOA-H_AMS_1956-57_33k_ES_PAN_21mic_H50_0349_fot_38998_tif
  70
32
  10
537748.000
  20
4612394.000
  30
1064.659
  0
VERTEX
  8
PNOA-H_AMS_1956-57_33k_ES_PAN_21mic_H50_0349_fot_38998_tif
  70
32
  10
537745.938
  20
4612867.172
  30
1065.096
  0
VERTEX
  8
PNOA-H_AMS_1956-57_33k_ES_PAN_21mic_H50_0349_fot_38998_tif
  70
32
  10
539889.927
  20
4612878.574
  30
0
  0
VERTEX
  8
PNOA-H_AMS_1956-57_33k_ES_PAN_21mic_H50_0349_fot_38998_tif
  70
32
  10
539893.333
  20
4612265.793
  30
1064.329
  0
VERTEX
  8
PNOA-H_AMS_1956-57_33k_ES_PAN_21mic_H50_0349_fot_38998_tif
  70
32
  10
539483.728
  20
4612205.339
  30
1061.405
  0
VERTEX
  8
PNOA-H_AMS_1956-57_33k_ES_PAN_21mic_H50_0349_fot_38998_tif
  70
32
  10
538940.113
  20
4612125.106
  30
1057.524
  0
VERTEX
  8
PNOA-H_AMS_1956-57_33k_ES_PAN_21mic_H50_0349_fot_38998_tif
  70
32
  10
538469.261
  20
4612055.612
  30
1054.163
  0
SEQEND
  8
PNOA-H_AMS_1956-57_33k_ES_PAN_21mic_H50_0349_fot_38998_tif
  0
INSERT
  8
FeatureAttribs
  2
FEATURE
  41
1
  42
1
  43
1
  50
0
  10
536329.707
  20
4612456.836
 66
1
  0
ATTRIB
  8
FeatureAttribs
 70
0
  1
PNOA-H_AMS_1956-57_33k_ES_PAN_21mic_H50_0349_fot_38997.tif
  2
NAME
  10
536329.707
  20
4612456.836
 40
33.49417
  0
SEQEND
  0
POLYLINE
  8
PNOA-H_AMS_1956-57_33k_ES_PAN_21mic_H50_0349_fot_38997_tif
  70
9
  66
1
  0
VERTEX
  8
PNOA-H_AMS_1956-57_33k_ES_PAN_21mic_H50_0349_fot_38997_tif
  70
32
  10
535736.225
  20
4612046.625
  30
1076.375
  0
VERTEX
  8
PNOA-H_AMS_1956-57_33k_ES_PAN_21mic_H50_0349_fot_38997_tif
  70
32
  10
535735.500
  20
4612046.500
  30
1076.379
  0
VERTEX
  8
PNOA-H_AMS_1956-57_33k_ES_PAN_21mic_H50_0349_fot_38997_tif
  70
32
  10
534911.500
  20
4612421.500
  30
1044.356
  0
VERTEX
  8
PNOA-H_AMS_1956-57_33k_ES_PAN_21mic_H50_0349_fot_38997_tif
  70
32
  10
534911.503
  20
4612421.999
  30
1044.362
  0
VERTEX
  8
PNOA-H_AMS_1956-57_33k_ES_PAN_21mic_H50_0349_fot_38997_tif
  70
32
  10
534911.831
  20
4612483.831
  30
1045.102
  0
VERTEX
  8
PNOA-H_AMS_1956-57_33k_ES_PAN_21mic_H50_0349_fot_38997_tif
  70
32
  10
534913.789
  20
4612852.839
  30
1049.52
  0
VERTEX
  8
PNOA-H_AMS_1956-57_33k_ES_PAN_21mic_H50_0349_fot_38997_tif
  70
32
  10
534913.805
  20
4612852.839
  30
0
  0
VERTEX
  8
PNOA-H_AMS_1956-57_33k_ES_PAN_21mic_H50_0349_fot_38997_tif
  70
32
  10
536421.229
  20
4612860.127
  30
0
  0
VERTEX
  8
PNOA-H_AMS_1956-57_33k_ES_PAN_21mic_H50_0349_fot_38997_tif
  70
32
  10
537745.938
  20
4612867.172
  30
1065.094
  0
VERTEX
  8
PNOA-H_AMS_1956-57_33k_ES_PAN_21mic_H50_0349_fot_38997_tif
  70
32
  10
537748.000
  20
4612394.000
  30
1064.659
  0
VERTEX
  8
PNOA-H_AMS_1956-57_33k_ES_PAN_21mic_H50_0349_fot_38997_tif
  70
32
  10
537746.965
  20
4612393.821
  30
1064.665
  0
VERTEX
  8
PNOA-H_AMS_1956-57_33k_ES_PAN_21mic_H50_0349_fot_38997_tif
  70
32
  10
536225.132
  20
4612131.045
  30
1073.528
  0
VERTEX
  8
PNOA-H_AMS_1956-57_33k_ES_PAN_21mic_H50_0349_fot_38997_tif
  70
32
  10
535736.225
  20
4612046.625
  30
1076.375
  0
SEQEND
  8
PNOA-H_AMS_1956-57_33k_ES_PAN_21mic_H50_0349_fot_38997_tif
  0
INSERT
  8
FeatureAttribs
  2
FEATURE
  41
1
  42
1
  43
1
  50
0
  10
513065.740
  20
4609788.750
 66
1
  0
ATTRIB
  8
FeatureAttribs
 70
0
  1
PNOA-H_AMS_1956-57_33k_ES_PAN_21mic_H50_0378_fot_38C-40575_E.tif
  2
NAME
  10
513065.740
  20
4609788.750
 40
33.49417
  0
SEQEND
  0
POLYLINE
  8
PNOA-H_AMS_1956-57_33k_ES_PAN_21mic_H50_0378_fot_38C-40575_E_tif
  70
9
  66
1
  0
VERTEX
  8
PNOA-H_AMS_1956-57_33k_ES_PAN_21mic_H50_0378_fot_38C-40575_E_tif
  70
32
  10
513992.017
  20
4607724.356
  30
1011.569
  0
VERTEX
  8
PNOA-H_AMS_1956-57_33k_ES_PAN_21mic_H50_0378_fot_38C-40575_E_tif
  70
32
  10
512724.000
  20
4607345.000
  30
1009.336
  0
VERTEX
  8
PNOA-H_AMS_1956-57_33k_ES_PAN_21mic_H50_0378_fot_38C-40575_E_tif
  70
32
  10
512723.074
  20
4607345.172
  30
1009.364
  0
VERTEX
  8
PNOA-H_AMS_1956-57_33k_ES_PAN_21mic_H50_0378_fot_38C-40575_E_tif
  70
32
  10
512718.587
  20
4607346.002
  30
1009.498
  0
VERTEX
  8
PNOA-H_AMS_1956-57_33k_ES_PAN_21mic_H50_0378_fot_38C-40575_E_tif
  70
32
  10
512710.500
  20
4607347.500
  30
1009.739
  0
VERTEX
  8
PNOA-H_AMS_1956-57_33k_ES_PAN_21mic_H50_0378_fot_38C-40575_E_tif
  70
32
  10
512149.338
  20
4607491.574
  30
1000.205
  0
VERTEX
  8
PNOA-H_AMS_1956-57_33k_ES_PAN_21mic_H50_0378_fot_38C-40575_E_tif
  70
32
  10
512149.338
  20
4607491.830
  30
0
  0
VERTEX
  8
PNOA-H_AMS_1956-57_33k_ES_PAN_21mic_H50_0378_fot_38C-40575_E_tif
  70
32
  10
512148.222
  20
4608152.038
  30
0
  0
VERTEX
  8
PNOA-H_AMS_1956-57_33k_ES_PAN_21mic_H50_0378_fot_38C-40575_E_tif
  70
32
  10
512144.310
  20
4610464.993
  30
0
  0
VERTEX
  8
PNOA-H_AMS_1956-57_33k_ES_PAN_21mic_H50_0378_fot_38C-40575_E_tif
  70
32
  10
512141.680
  20
4612019.586
  30
0
  0
VERTEX
  8
PNOA-H_AMS_1956-57_33k_ES_PAN_21mic_H50_0378_fot_38C-40575_E_tif
  70
32
  10
512141.679
  20
4612020.047
  30
1037.437
  0
VERTEX
  8
PNOA-H_AMS_1956-57_33k_ES_PAN_21mic_H50_0378_fot_38C-40575_E_tif
  70
32
  10
512456.500
  20
4612085.000
  30
1050.763
  0
VERTEX
  8
PNOA-H_AMS_1956-57_33k_ES_PAN_21mic_H50_0378_fot_38C-40575_E_tif
  70
32
  10
512458.500
  20
4612085.500
  30
1050.784
  0
VERTEX
  8
PNOA-H_AMS_1956-57_33k_ES_PAN_21mic_H50_0378_fot_38C-40575_E_tif
  70
32
  10
513171.504
  20
4612232.295
  30
1052.797
  0
VERTEX
  8
PNOA-H_AMS_1956-57_33k_ES_PAN_21mic_H50_0378_fot_38C-40575_E_tif
  70
32
  10
513172.157
  20
4612232.429
  30
1052.799
  0
VERTEX
  8
PNOA-H_AMS_1956-57_33k_ES_PAN_21mic_H50_0378_fot_38C-40575_E_tif
  70
32
  10
513172.500
  20
4612232.500
  30
1052.8
  0
VERTEX
  8
PNOA-H_AMS_1956-57_33k_ES_PAN_21mic_H50_0378_fot_38C-40575_E_tif
  70
32
  10
513979.213
  20
4611870.129
  30
1039.403
  0
VERTEX
  8
PNOA-H_AMS_1956-57_33k_ES_PAN_21mic_H50_0378_fot_38C-40575_E_tif
  70
32
  10
513979.500
  20
4611870.000
  30
1039.399
  0
VERTEX
  8
PNOA-H_AMS_1956-57_33k_ES_PAN_21mic_H50_0378_fot_38C-40575_E_tif
  70
32
  10
513992.500
  20
4607724.500
  30
1011.57
  0
VERTEX
  8
PNOA-H_AMS_1956-57_33k_ES_PAN_21mic_H50_0378_fot_38C-40575_E_tif
  70
32
  10
513992.017
  20
4607724.356
  30
1011.569
  0
SEQEND
  8
PNOA-H_AMS_1956-57_33k_ES_PAN_21mic_H50_0378_fot_38C-40575_E_tif
  0
INSERT
  8
FeatureAttribs
  2
FEATURE
  41
1
  42
1
  43
1
  50
0
  10
512438.052
  20
4605262.915
 66
1
  0
ATTRIB
  8
FeatureAttribs
 70
0
  1
PNOA-H_AMS_1956-57_33k_ES_PAN_21mic_H50_0377_fot_39D-44193_E.tif
  2
NAME
  10
512438.052
  20
4605262.915
 40
33.49417
  0
SEQEND
  0
POLYLINE
  8
PNOA-H_AMS_1956-57_33k_ES_PAN_21mic_H50_0377_fot_39D-44193_E_tif
  70
9
  66
1
  0
VERTEX
  8
PNOA-H_AMS_1956-57_33k_ES_PAN_21mic_H50_0377_fot_39D-44193_E_tif
  70
32
  10
512723.000
  20
4603429.000
  30
1000.804
  0
VERTEX
  8
PNOA-H_AMS_1956-57_33k_ES_PAN_21mic_H50_0377_fot_39D-44193_E_tif
  70
32
  10
512723.500
  20
4603034.000
  30
996.639
  0
VERTEX
  8
PNOA-H_AMS_1956-57_33k_ES_PAN_21mic_H50_0377_fot_39D-44193_E_tif
  70
32
  10
512156.858
  20
4603041.526
  30
998.609
  0
VERTEX
  8
PNOA-H_AMS_1956-57_33k_ES_PAN_21mic_H50_0377_fot_39D-44193_E_tif
  70
32
  10
512156.039
  20
4603526.154
  30
0
  0
VERTEX
  8
PNOA-H_AMS_1956-57_33k_ES_PAN_21mic_H50_0377_fot_39D-44193_E_tif
  70
32
  10
512152.131
  20
4605839.092
  30
0
  0
VERTEX
  8
PNOA-H_AMS_1956-57_33k_ES_PAN_21mic_H50_0377_fot_39D-44193_E_tif
  70
32
  10
512149.338
  20
4607491.574
  30
0
  0
VERTEX
  8
PNOA-H_AMS_1956-57_33k_ES_PAN_21mic_H50_0377_fot_39D-44193_E_tif
  70
32
  10
512149.338
  20
4607491.830
  30
999.889
  0
VERTEX
  8
PNOA-H_AMS_1956-57_33k_ES_PAN_21mic_H50_0377_fot_39D-44193_E_tif
  70
32
  10
512718.587
  20
4607346.002
  30
1009.299
  0
VERTEX
  8
PNOA-H_AMS_1956-57_33k_ES_PAN_21mic_H50_0377_fot_39D-44193_E_tif
  70
32
  10
512722.500
  20
4607345.000
  30
1009.364
  0
VERTEX
  8
PNOA-H_AMS_1956-57_33k_ES_PAN_21mic_H50_0377_fot_39D-44193_E_tif
  70
32
  10
512723.000
  20
4605480.500
  30
996.161
  0
VERTEX
  8
PNOA-H_AMS_1956-57_33k_ES_PAN_21mic_H50_0377_fot_39D-44193_E_tif
  70
32
  10
512723.000
  20
4605189.250
  30
996.821
  0
VERTEX
  8
PNOA-H_AMS_1956-57_33k_ES_PAN_21mic_H50_0377_fot_39D-44193_E_tif
  70
32
  10
512723.000
  20
4603429.000
  30
1000.804
  0
SEQEND
  8
PNOA-H_AMS_1956-57_33k_ES_PAN_21mic_H50_0377_fot_39D-44193_E_tif
  0
INSERT
  8
FeatureAttribs
  2
FEATURE
  41
1
  42
1
  43
1
  50
0
  10
512312.488
  20
4596467.717
 66
1
  0
ATTRIB
  8
FeatureAttribs
 70
0
  1
PNOA-H_AMS_1956-57_33k_ES_PAN_21mic_H50_0377_fot_41B-37397_W.tif
  2
NAME
  10
512312.488
  20
4596467.717
 40
33.49417
  0
SEQEND
  0
POLYLINE
  8
PNOA-H_AMS_1956-57_33k_ES_PAN_21mic_H50_0377_fot_41B-37397_W_tif
  70
9
  66
1
  0
VERTEX
  8
PNOA-H_AMS_1956-57_33k_ES_PAN_21mic_H50_0377_fot_41B-37397_W_tif
  70
32
  10
512515.115
  20
4594275.148
  30
0
  0
VERTEX
  8
PNOA-H_AMS_1956-57_33k_ES_PAN_21mic_H50_0377_fot_41B-37397_W_tif
  70
32
  10
512171.656
  20
4594274.486
  30
0
  0
VERTEX
  8
PNOA-H_AMS_1956-57_33k_ES_PAN_21mic_H50_0377_fot_41B-37397_W_tif
  70
32
  10
512167.754
  20
4596587.390
  30
0
  0
VERTEX
  8
PNOA-H_AMS_1956-57_33k_ES_PAN_21mic_H50_0377_fot_41B-37397_W_tif
  70
32
  10
512164.255
  20
4598660.948
  30
941.03
  0
VERTEX
  8
PNOA-H_AMS_1956-57_33k_ES_PAN_21mic_H50_0377_fot_41B-37397_W_tif
  70
32
  10
512399.000
  20
4598644.000
  30
939.094
  0
VERTEX
  8
PNOA-H_AMS_1956-57_33k_ES_PAN_21mic_H50_0377_fot_41B-37397_W_tif
  70
32
  10
512399.238
  20
4598635.059
  30
939.074
  0
VERTEX
  8
PNOA-H_AMS_1956-57_33k_ES_PAN_21mic_H50_0377_fot_41B-37397_W_tif
  70
32
  10
512515.476
  20
4594275.149
  30
929.308
  0
VERTEX
  8
PNOA-H_AMS_1956-57_33k_ES_PAN_21mic_H50_0377_fot_41B-37397_W_tif
  70
32
  10
512515.115
  20
4594275.148
  30
0
  0
SEQEND
  8
PNOA-H_AMS_1956-57_33k_ES_PAN_21mic_H50_0377_fot_41B-37397_W_tif
  0
INSERT
  8
FeatureAttribs
  2
FEATURE
  41
1
  42
1
  43
1
  50
0
  10
512457.033
  20
4600842.763
 66
1
  0
ATTRIB
  8
FeatureAttribs
 70
0
  1
PNOA-H_AMS_1956-57_33k_ES_PAN_21mic_H50_0377_fot_40B-38910_W.tif
  2
NAME
  10
512457.033
  20
4600842.763
 40
33.49417
  0
SEQEND
  0
POLYLINE
  8
PNOA-H_AMS_1956-57_33k_ES_PAN_21mic_H50_0377_fot_40B-38910_W_tif
  70
9
  66
1
  0
VERTEX
  8
PNOA-H_AMS_1956-57_33k_ES_PAN_21mic_H50_0377_fot_40B-38910_W_tif
  70
32
  10
512399.481
  20
4598644.279
  30
939.101
  0
VERTEX
  8
PNOA-H_AMS_1956-57_33k_ES_PAN_21mic_H50_0377_fot_40B-38910_W_tif
  70
32
  10
512399.000
  20
4598644.000
  30
939.094
  0
VERTEX
  8
PNOA-H_AMS_1956-57_33k_ES_PAN_21mic_H50_0377_fot_40B-38910_W_tif
  70
32
  10
512164.255
  20
4598660.952
  30
941.032
  0
VERTEX
  8
PNOA-H_AMS_1956-57_33k_ES_PAN_21mic_H50_0377_fot_40B-38910_W_tif
  70
32
  10
512163.851
  20
4598900.303
  30
0
  0
VERTEX
  8
PNOA-H_AMS_1956-57_33k_ES_PAN_21mic_H50_0377_fot_40B-38910_W_tif
  70
32
  10
512159.946
  20
4601213.224
  30
0
  0
VERTEX
  8
PNOA-H_AMS_1956-57_33k_ES_PAN_21mic_H50_0377_fot_40B-38910_W_tif
  70
32
  10
512156.858
  20
4603041.526
  30
998.609
  0
VERTEX
  8
PNOA-H_AMS_1956-57_33k_ES_PAN_21mic_H50_0377_fot_40B-38910_W_tif
  70
32
  10
512723.500
  20
4603034.000
  30
996.639
  0
VERTEX
  8
PNOA-H_AMS_1956-57_33k_ES_PAN_21mic_H50_0377_fot_40B-38910_W_tif
  70
32
  10
512794.027
  20
4602989.796
  30
986.107
  0
VERTEX
  8
PNOA-H_AMS_1956-57_33k_ES_PAN_21mic_H50_0377_fot_40B-38910_W_tif
  70
32
  10
512794.500
  20
4602989.500
  30
986.037
  0
VERTEX
  8
PNOA-H_AMS_1956-57_33k_ES_PAN_21mic_H50_0377_fot_40B-38910_W_tif
  70
32
  10
512715.000
  20
4598827.500
  30
944.012
  0
VERTEX
  8
PNOA-H_AMS_1956-57_33k_ES_PAN_21mic_H50_0377_fot_40B-38910_W_tif
  70
32
  10
512458.536
  20
4598678.572
  30
940.02
  0
VERTEX
  8
PNOA-H_AMS_1956-57_33k_ES_PAN_21mic_H50_0377_fot_40B-38910_W_tif
  70
32
  10
512454.514
  20
4598676.236
  30
939.958
  0
VERTEX
  8
PNOA-H_AMS_1956-57_33k_ES_PAN_21mic_H50_0377_fot_40B-38910_W_tif
  70
32
  10
512399.481
  20
4598644.279
  30
939.101
  0
SEQEND
  8
PNOA-H_AMS_1956-57_33k_ES_PAN_21mic_H50_0377_fot_40B-38910_W_tif
  0
INSERT
  8
FeatureAttribs
  2
FEATURE
  41
1
  42
1
  43
1
  50
0
  10
518060.835
  20
4609817.000
 66
1
  0
ATTRIB
  8
FeatureAttribs
 70
0
  1
PNOA-H_AMS_1956-57_33k_ES_PAN_21mic_H50_0378_fot_38C-40577_E.tif
  2
NAME
  10
518060.835
  20
4609817.000
 40
33.49417
  0
SEQEND
  0
POLYLINE
  8
PNOA-H_AMS_1956-57_33k_ES_PAN_21mic_H50_0378_fot_38C-40577_E_tif
  70
9
  66
1
  0
VERTEX
  8
PNOA-H_AMS_1956-57_33k_ES_PAN_21mic_H50_0378_fot_38C-40577_E_tif
  70
32
  10
519430.000
  20
4607766.500
  30
998.537
  0
VERTEX
  8
PNOA-H_AMS_1956-57_33k_ES_PAN_21mic_H50_0378_fot_38C-40577_E_tif
  70
32
  10
518041.999
  20
4607377.000
  30
986.46
  0
VERTEX
  8
PNOA-H_AMS_1956-57_33k_ES_PAN_21mic_H50_0378_fot_38C-40577_E_tif
  70
32
  10
516740.735
  20
4607757.785
  30
1008.574
  0
VERTEX
  8
PNOA-H_AMS_1956-57_33k_ES_PAN_21mic_H50_0378_fot_38C-40577_E_tif
  70
32
  10
516740.000
  20
4607758.000
  30
1008.587
  0
VERTEX
  8
PNOA-H_AMS_1956-57_33k_ES_PAN_21mic_H50_0378_fot_38C-40577_E_tif
  70
32
  10
516673.500
  20
4611865.000
  30
1082.42
  0
VERTEX
  8
PNOA-H_AMS_1956-57_33k_ES_PAN_21mic_H50_0378_fot_38C-40577_E_tif
  70
32
  10
516673.500
  20
4611886.500
  30
1082.917
  0
VERTEX
  8
PNOA-H_AMS_1956-57_33k_ES_PAN_21mic_H50_0378_fot_38C-40577_E_tif
  70
32
  10
516675.000
  20
4611887.000
  30
1082.886
  0
VERTEX
  8
PNOA-H_AMS_1956-57_33k_ES_PAN_21mic_H50_0378_fot_38C-40577_E_tif
  70
32
  10
518714.000
  20
4612257.000
  30
1057.998
  0
VERTEX
  8
PNOA-H_AMS_1956-57_33k_ES_PAN_21mic_H50_0378_fot_38C-40577_E_tif
  70
32
  10
518717.000
  20
4612257.000
  30
1058.191
  0
VERTEX
  8
PNOA-H_AMS_1956-57_33k_ES_PAN_21mic_H50_0378_fot_38C-40577_E_tif
  70
32
  10
518718.000
  20
4612257.000
  30
1058.255
  0
VERTEX
  8
PNOA-H_AMS_1956-57_33k_ES_PAN_21mic_H50_0378_fot_38C-40577_E_tif
  70
32
  10
518740.500
  20
4612246.000
  30
1058.237
  0
VERTEX
  8
PNOA-H_AMS_1956-57_33k_ES_PAN_21mic_H50_0378_fot_38C-40577_E_tif
  70
32
  10
519398.500
  20
4611920.000
  30
1045.016
  0
VERTEX
  8
PNOA-H_AMS_1956-57_33k_ES_PAN_21mic_H50_0378_fot_38C-40577_E_tif
  70
32
  10
519398.519
  20
4611919.503
  30
1044.999
  0
VERTEX
  8
PNOA-H_AMS_1956-57_33k_ES_PAN_21mic_H50_0378_fot_38C-40577_E_tif
  70
32
  10
519399.119
  20
4611903.606
  30
1044.438
  0
VERTEX
  8
PNOA-H_AMS_1956-57_33k_ES_PAN_21mic_H50_0378_fot_38C-40577_E_tif
  70
32
  10
519399.500
  20
4611893.500
  30
1044.081
  0
VERTEX
  8
PNOA-H_AMS_1956-57_33k_ES_PAN_21mic_H50_0378_fot_38C-40577_E_tif
  70
32
  10
519416.500
  20
4609617.500
  30
1026.32
  0
VERTEX
  8
PNOA-H_AMS_1956-57_33k_ES_PAN_21mic_H50_0378_fot_38C-40577_E_tif
  70
32
  10
519416.500
  20
4609575.065
  30
1027.36
  0
VERTEX
  8
PNOA-H_AMS_1956-57_33k_ES_PAN_21mic_H50_0378_fot_38C-40577_E_tif
  70
32
  10
519416.500
  20
4609573.000
  30
1027.41
  0
VERTEX
  8
PNOA-H_AMS_1956-57_33k_ES_PAN_21mic_H50_0378_fot_38C-40577_E_tif
  70
32
  10
519430.000
  20
4607766.500
  30
998.537
  0
SEQEND
  8
PNOA-H_AMS_1956-57_33k_ES_PAN_21mic_H50_0378_fot_38C-40577_E_tif
  0
INSERT
  8
FeatureAttribs
  2
FEATURE
  41
1
  42
1
  43
1
  50
0
  10
515346.670
  20
4609787.500
 66
1
  0
ATTRIB
  8
FeatureAttribs
 70
0
  1
PNOA-H_AMS_1956-57_33k_ES_PAN_21mic_H50_0378_fot_38C-40576_E.tif
  2
NAME
  10
515346.670
  20
4609787.500
 40
33.49417
  0
SEQEND
  0
POLYLINE
  8
PNOA-H_AMS_1956-57_33k_ES_PAN_21mic_H50_0378_fot_38C-40576_E_tif
  70
9
  66
1
  0
VERTEX
  8
PNOA-H_AMS_1956-57_33k_ES_PAN_21mic_H50_0378_fot_38C-40576_E_tif
  70
32
  10
516639.773
  20
4607729.364
  30
1009.325
  0
VERTEX
  8
PNOA-H_AMS_1956-57_33k_ES_PAN_21mic_H50_0378_fot_38C-40576_E_tif
  70
32
  10
515322.500
  20
4607353.000
  30
1019.032
  0
VERTEX
  8
PNOA-H_AMS_1956-57_33k_ES_PAN_21mic_H50_0378_fot_38C-40576_E_tif
  70
32
  10
515321.994
  20
4607353.141
  30
1019.029
  0
VERTEX
  8
PNOA-H_AMS_1956-57_33k_ES_PAN_21mic_H50_0378_fot_38C-40576_E_tif
  70
32
  10
513992.500
  20
4607724.500
  30
1011.57
  0
VERTEX
  8
PNOA-H_AMS_1956-57_33k_ES_PAN_21mic_H50_0378_fot_38C-40576_E_tif
  70
32
  10
513979.500
  20
4611870.000
  30
1039.399
  0
VERTEX
  8
PNOA-H_AMS_1956-57_33k_ES_PAN_21mic_H50_0378_fot_38C-40576_E_tif
  70
32
  10
514336.266
  20
4611934.681
  30
1027.838
  0
VERTEX
  8
PNOA-H_AMS_1956-57_33k_ES_PAN_21mic_H50_0378_fot_38C-40576_E_tif
  70
32
  10
514503.500
  20
4611965.000
  30
1022.419
  0
VERTEX
  8
PNOA-H_AMS_1956-57_33k_ES_PAN_21mic_H50_0378_fot_38C-40576_E_tif
  70
32
  10
514506.000
  20
4611965.500
  30
1022.373
  0
VERTEX
  8
PNOA-H_AMS_1956-57_33k_ES_PAN_21mic_H50_0378_fot_38C-40576_E_tif
  70
32
  10
515107.473
  20
4612074.108
  30
1039.616
  0
VERTEX
  8
PNOA-H_AMS_1956-57_33k_ES_PAN_21mic_H50_0378_fot_38C-40576_E_tif
  70
32
  10
515925.787
  20
4612221.871
  30
1063.076
  0
VERTEX
  8
PNOA-H_AMS_1956-57_33k_ES_PAN_21mic_H50_0378_fot_38C-40576_E_tif
  70
32
  10
515926.500
  20
4612222.000
  30
1063.096
  0
VERTEX
  8
PNOA-H_AMS_1956-57_33k_ES_PAN_21mic_H50_0378_fot_38C-40576_E_tif
  70
32
  10
516673.500
  20
4611886.500
  30
1082.917
  0
VERTEX
  8
PNOA-H_AMS_1956-57_33k_ES_PAN_21mic_H50_0378_fot_38C-40576_E_tif
  70
32
  10
516740.000
  20
4607758.000
  30
1008.587
  0
VERTEX
  8
PNOA-H_AMS_1956-57_33k_ES_PAN_21mic_H50_0378_fot_38C-40576_E_tif
  70
32
  10
516639.773
  20
4607729.364
  30
1009.325
  0
SEQEND
  8
PNOA-H_AMS_1956-57_33k_ES_PAN_21mic_H50_0378_fot_38C-40576_E_tif
  0
INSERT
  8
FeatureAttribs
  2
FEATURE
  41
1
  42
1
  43
1
  50
0
  10
514038.395
  20
4605356.750
 66
1
  0
ATTRIB
  8
FeatureAttribs
 70
0
  1
PNOA-H_AMS_1956-57_33k_ES_PAN_21mic_H50_0378_fot_39D-44194_E.tif
  2
NAME
  10
514038.395
  20
4605356.750
 40
33.49417
  0
SEQEND
  0
POLYLINE
  8
PNOA-H_AMS_1956-57_33k_ES_PAN_21mic_H50_0378_fot_39D-44194_E_tif
  70
9
  66
1
  0
VERTEX
  8
PNOA-H_AMS_1956-57_33k_ES_PAN_21mic_H50_0378_fot_39D-44194_E_tif
  70
32
  10
515391.000
  20
4603061.500
  30
970.339
  0
VERTEX
  8
PNOA-H_AMS_1956-57_33k_ES_PAN_21mic_H50_0378_fot_39D-44194_E_tif
  70
32
  10
512800.000
  20
4602989.000
  30
985.594
  0
VERTEX
  8
PNOA-H_AMS_1956-57_33k_ES_PAN_21mic_H50_0378_fot_39D-44194_E_tif
  70
32
  10
512799.042
  20
4602989.128
  30
985.674
  0
VERTEX
  8
PNOA-H_AMS_1956-57_33k_ES_PAN_21mic_H50_0378_fot_39D-44194_E_tif
  70
32
  10
512794.027
  20
4602989.796
  30
986.092
  0
VERTEX
  8
PNOA-H_AMS_1956-57_33k_ES_PAN_21mic_H50_0378_fot_39D-44194_E_tif
  70
32
  10
512792.500
  20
4602990.000
  30
986.22
  0
VERTEX
  8
PNOA-H_AMS_1956-57_33k_ES_PAN_21mic_H50_0378_fot_39D-44194_E_tif
  70
32
  10
512723.500
  20
4603033.500
  30
996.633
  0
VERTEX
  8
PNOA-H_AMS_1956-57_33k_ES_PAN_21mic_H50_0378_fot_39D-44194_E_tif
  70
32
  10
512723.500
  20
4603034.000
  30
996.634
  0
VERTEX
  8
PNOA-H_AMS_1956-57_33k_ES_PAN_21mic_H50_0378_fot_39D-44194_E_tif
  70
32
  10
512723.000
  20
4605189.250
  30
1002.998
  0
VERTEX
  8
PNOA-H_AMS_1956-57_33k_ES_PAN_21mic_H50_0378_fot_39D-44194_E_tif
  70
32
  10
512722.500
  20
4607345.000
  30
1009.364
  0
VERTEX
  8
PNOA-H_AMS_1956-57_33k_ES_PAN_21mic_H50_0378_fot_39D-44194_E_tif
  70
32
  10
512723.074
  20
4607345.172
  30
1009.365
  0
VERTEX
  8
PNOA-H_AMS_1956-57_33k_ES_PAN_21mic_H50_0378_fot_39D-44194_E_tif
  70
32
  10
513989.500
  20
4607724.000
  30
1011.568
  0
VERTEX
  8
PNOA-H_AMS_1956-57_33k_ES_PAN_21mic_H50_0378_fot_39D-44194_E_tif
  70
32
  10
513991.500
  20
4607724.500
  30
1011.571
  0
VERTEX
  8
PNOA-H_AMS_1956-57_33k_ES_PAN_21mic_H50_0378_fot_39D-44194_E_tif
  70
32
  10
513992.017
  20
4607724.356
  30
1011.574
  0
VERTEX
  8
PNOA-H_AMS_1956-57_33k_ES_PAN_21mic_H50_0378_fot_39D-44194_E_tif
  70
32
  10
515321.500
  20
4607353.000
  30
1019.044
  0
VERTEX
  8
PNOA-H_AMS_1956-57_33k_ES_PAN_21mic_H50_0378_fot_39D-44194_E_tif
  70
32
  10
515391.000
  20
4603061.500
  30
970.339
  0
SEQEND
  8
PNOA-H_AMS_1956-57_33k_ES_PAN_21mic_H50_0378_fot_39D-44194_E_tif
  0
INSERT
  8
FeatureAttribs
  2
FEATURE
  41
1
  42
1
  43
1
  50
0
  10
516694.739
  20
4605375.750
 66
1
  0
ATTRIB
  8
FeatureAttribs
 70
0
  1
PNOA-H_AMS_1956-57_33k_ES_PAN_21mic_H50_0378_fot_39D-44195_E.tif
  2
NAME
  10
516694.739
  20
4605375.750
 40
33.49417
  0
SEQEND
  0
POLYLINE
  8
PNOA-H_AMS_1956-57_33k_ES_PAN_21mic_H50_0378_fot_39D-44195_E_tif
  70
9
  66
1
  0
VERTEX
  8
PNOA-H_AMS_1956-57_33k_ES_PAN_21mic_H50_0378_fot_39D-44195_E_tif
  70
32
  10
518029.000
  20
4603072.000
  30
931.055
  0
VERTEX
  8
PNOA-H_AMS_1956-57_33k_ES_PAN_21mic_H50_0378_fot_39D-44195_E_tif
  70
32
  10
515524.000
  20
4602993.500
  30
974.565
  0
VERTEX
  8
PNOA-H_AMS_1956-57_33k_ES_PAN_21mic_H50_0378_fot_39D-44195_E_tif
  70
32
  10
515508.000
  20
4602993.500
  30
976.111
  0
VERTEX
  8
PNOA-H_AMS_1956-57_33k_ES_PAN_21mic_H50_0378_fot_39D-44195_E_tif
  70
32
  10
515507.000
  20
4602993.500
  30
976.208
  0
VERTEX
  8
PNOA-H_AMS_1956-57_33k_ES_PAN_21mic_H50_0378_fot_39D-44195_E_tif
  70
32
  10
515391.000
  20
4603061.500
  30
970.339
  0
VERTEX
  8
PNOA-H_AMS_1956-57_33k_ES_PAN_21mic_H50_0378_fot_39D-44195_E_tif
  70
32
  10
515321.500
  20
4607353.000
  30
1019.044
  0
VERTEX
  8
PNOA-H_AMS_1956-57_33k_ES_PAN_21mic_H50_0378_fot_39D-44195_E_tif
  70
32
  10
515321.994
  20
4607353.141
  30
1019.036
  0
VERTEX
  8
PNOA-H_AMS_1956-57_33k_ES_PAN_21mic_H50_0378_fot_39D-44195_E_tif
  70
32
  10
516553.500
  20
4607705.000
  30
998.382
  0
VERTEX
  8
PNOA-H_AMS_1956-57_33k_ES_PAN_21mic_H50_0378_fot_39D-44195_E_tif
  70
32
  10
516555.000
  20
4607705.500
  30
998.451
  0
VERTEX
  8
PNOA-H_AMS_1956-57_33k_ES_PAN_21mic_H50_0378_fot_39D-44195_E_tif
  70
32
  10
516639.773
  20
4607729.364
  30
1003.021
  0
VERTEX
  8
PNOA-H_AMS_1956-57_33k_ES_PAN_21mic_H50_0378_fot_39D-44195_E_tif
  70
32
  10
516740.735
  20
4607757.785
  30
1008.463
  0
VERTEX
  8
PNOA-H_AMS_1956-57_33k_ES_PAN_21mic_H50_0378_fot_39D-44195_E_tif
  70
32
  10
516741.500
  20
4607758.000
  30
1008.504
  0
VERTEX
  8
PNOA-H_AMS_1956-57_33k_ES_PAN_21mic_H50_0378_fot_39D-44195_E_tif
  70
32
  10
518041.999
  20
4607377.000
  30
986.46
  0
VERTEX
  8
PNOA-H_AMS_1956-57_33k_ES_PAN_21mic_H50_0378_fot_39D-44195_E_tif
  70
32
  10
518029.000
  20
4603072.000
  30
931.055
  0
SEQEND
  8
PNOA-H_AMS_1956-57_33k_ES_PAN_21mic_H50_0378_fot_39D-44195_E_tif
  0
INSERT
  8
FeatureAttribs
  2
FEATURE
  41
1
  42
1
  43
1
  50
0
  10
519407.021
  20
4605373.750
 66
1
  0
ATTRIB
  8
FeatureAttribs
 70
0
  1
PNOA-H_AMS_1956-57_33k_ES_PAN_21mic_H50_0378_fot_39D-44196_E.tif
  2
NAME
  10
519407.021
  20
4605373.750
 40
33.49417
  0
SEQEND
  0
POLYLINE
  8
PNOA-H_AMS_1956-57_33k_ES_PAN_21mic_H50_0378_fot_39D-44196_E_tif
  70
9
  66
1
  0
VERTEX
  8
PNOA-H_AMS_1956-57_33k_ES_PAN_21mic_H50_0378_fot_39D-44196_E_tif
  70
32
  10
519428.000
  20
4607766.500
  30
998.495
  0
VERTEX
  8
PNOA-H_AMS_1956-57_33k_ES_PAN_21mic_H50_0378_fot_39D-44196_E_tif
  70
32
  10
519430.000
  20
4607766.500
  30
998.537
  0
VERTEX
  8
PNOA-H_AMS_1956-57_33k_ES_PAN_21mic_H50_0378_fot_39D-44196_E_tif
  70
32
  10
519432.000
  20
4607766.500
  30
998.578
  0
VERTEX
  8
PNOA-H_AMS_1956-57_33k_ES_PAN_21mic_H50_0378_fot_39D-44196_E_tif
  70
32
  10
519442.500
  20
4607763.500
  30
998.844
  0
VERTEX
  8
PNOA-H_AMS_1956-57_33k_ES_PAN_21mic_H50_0378_fot_39D-44196_E_tif
  70
32
  10
520763.500
  20
4607380.000
  30
983.224
  0
VERTEX
  8
PNOA-H_AMS_1956-57_33k_ES_PAN_21mic_H50_0378_fot_39D-44196_E_tif
  70
32
  10
520763.503
  20
4607379.644
  30
983.221
  0
VERTEX
  8
PNOA-H_AMS_1956-57_33k_ES_PAN_21mic_H50_0378_fot_39D-44196_E_tif
  70
32
  10
520763.504
  20
4607379.501
  30
983.22
  0
VERTEX
  8
PNOA-H_AMS_1956-57_33k_ES_PAN_21mic_H50_0378_fot_39D-44196_E_tif
  70
32
  10
520794.500
  20
4603118.000
  30
948.008
  0
VERTEX
  8
PNOA-H_AMS_1956-57_33k_ES_PAN_21mic_H50_0378_fot_39D-44196_E_tif
  70
32
  10
520683.175
  20
4603112.145
  30
947.241
  0
VERTEX
  8
PNOA-H_AMS_1956-57_33k_ES_PAN_21mic_H50_0378_fot_39D-44196_E_tif
  70
32
  10
518189.500
  20
4602981.000
  30
930.056
  0
VERTEX
  8
PNOA-H_AMS_1956-57_33k_ES_PAN_21mic_H50_0378_fot_39D-44196_E_tif
  70
32
  10
518183.500
  20
4602981.000
  30
930.096
  0
VERTEX
  8
PNOA-H_AMS_1956-57_33k_ES_PAN_21mic_H50_0378_fot_39D-44196_E_tif
  70
32
  10
518183.020
  20
4602981.000
  30
930.099
  0
VERTEX
  8
PNOA-H_AMS_1956-57_33k_ES_PAN_21mic_H50_0378_fot_39D-44196_E_tif
  70
32
  10
518183.000
  20
4602981.000
  30
930.099
  0
VERTEX
  8
PNOA-H_AMS_1956-57_33k_ES_PAN_21mic_H50_0378_fot_39D-44196_E_tif
  70
32
  10
518181.000
  20
4602982.000
  30
930.096
  0
VERTEX
  8
PNOA-H_AMS_1956-57_33k_ES_PAN_21mic_H50_0378_fot_39D-44196_E_tif
  70
32
  10
518029.000
  20
4603072.000
  30
931.055
  0
VERTEX
  8
PNOA-H_AMS_1956-57_33k_ES_PAN_21mic_H50_0378_fot_39D-44196_E_tif
  70
32
  10
518041.999
  20
4607377.000
  30
986.462
  0
VERTEX
  8
PNOA-H_AMS_1956-57_33k_ES_PAN_21mic_H50_0378_fot_39D-44196_E_tif
  70
32
  10
518042.000
  20
4607377.500
  30
986.468
  0
VERTEX
  8
PNOA-H_AMS_1956-57_33k_ES_PAN_21mic_H50_0378_fot_39D-44196_E_tif
  70
32
  10
519426.500
  20
4607766.000
  30
998.464
  0
VERTEX
  8
PNOA-H_AMS_1956-57_33k_ES_PAN_21mic_H50_0378_fot_39D-44196_E_tif
  70
32
  10
519428.000
  20
4607766.500
  30
998.495
  0
SEQEND
  8
PNOA-H_AMS_1956-57_33k_ES_PAN_21mic_H50_0378_fot_39D-44196_E_tif
  0
INSERT
  8
FeatureAttribs
  2
FEATURE
  41
1
  42
1
  43
1
  50
0
  10
516777.011
  20
4596558.408
 66
1
  0
ATTRIB
  8
FeatureAttribs
 70
0
  1
PNOA-H_AMS_1956-57_33k_ES_PAN_21mic_H50_0378_fot_41B-37395_W.tif
  2
NAME
  10
516777.011
  20
4596558.408
 40
33.49417
  0
SEQEND
  0
POLYLINE
  8
PNOA-H_AMS_1956-57_33k_ES_PAN_21mic_H50_0378_fot_41B-37395_W_tif
  70
9
  66
1
  0
VERTEX
  8
PNOA-H_AMS_1956-57_33k_ES_PAN_21mic_H50_0378_fot_41B-37395_W_tif
  70
32
  10
515462.100
  20
4598835.500
  30
922.073
  0
VERTEX
  8
PNOA-H_AMS_1956-57_33k_ES_PAN_21mic_H50_0378_fot_41B-37395_W_tif
  70
32
  10
516477.500
  20
4598831.500
  30
906.921
  0
VERTEX
  8
PNOA-H_AMS_1956-57_33k_ES_PAN_21mic_H50_0378_fot_41B-37395_W_tif
  70
32
  10
516556.000
  20
4598831.500
  30
906.857
  0
VERTEX
  8
PNOA-H_AMS_1956-57_33k_ES_PAN_21mic_H50_0378_fot_41B-37395_W_tif
  70
32
  10
518094.003
  20
4598825.502
  30
950.276
  0
VERTEX
  8
PNOA-H_AMS_1956-57_33k_ES_PAN_21mic_H50_0378_fot_41B-37395_W_tif
  70
32
  10
518094.500
  20
4598825.500
  30
950.29
  0
VERTEX
  8
PNOA-H_AMS_1956-57_33k_ES_PAN_21mic_H50_0378_fot_41B-37395_W_tif
  70
32
  10
518316.500
  20
4594394.500
  30
903.185
  0
VERTEX
  8
PNOA-H_AMS_1956-57_33k_ES_PAN_21mic_H50_0378_fot_41B-37395_W_tif
  70
32
  10
518316.203
  20
4594394.407
  30
903.185
  0
VERTEX
  8
PNOA-H_AMS_1956-57_33k_ES_PAN_21mic_H50_0378_fot_41B-37395_W_tif
  70
32
  10
517970.389
  20
4594286.782
  30
902.209
  0
VERTEX
  8
PNOA-H_AMS_1956-57_33k_ES_PAN_21mic_H50_0378_fot_41B-37395_W_tif
  70
32
  10
517969.131
  20
4594286.779
  30
0
  0
VERTEX
  8
PNOA-H_AMS_1956-57_33k_ES_PAN_21mic_H50_0378_fot_41B-37395_W_tif
  70
32
  10
515703.378
  20
4594281.320
  30
0
  0
VERTEX
  8
PNOA-H_AMS_1956-57_33k_ES_PAN_21mic_H50_0378_fot_41B-37395_W_tif
  70
32
  10
515701.738
  20
4594281.316
  30
906.956
  0
VERTEX
  8
PNOA-H_AMS_1956-57_33k_ES_PAN_21mic_H50_0378_fot_41B-37395_W_tif
  70
32
  10
515503.823
  20
4594331.292
  30
908.173
  0
VERTEX
  8
PNOA-H_AMS_1956-57_33k_ES_PAN_21mic_H50_0378_fot_41B-37395_W_tif
  70
32
  10
515503.000
  20
4594331.500
  30
908.178
  0
VERTEX
  8
PNOA-H_AMS_1956-57_33k_ES_PAN_21mic_H50_0378_fot_41B-37395_W_tif
  70
32
  10
515197.534
  20
4598662.522
  30
928.933
  0
VERTEX
  8
PNOA-H_AMS_1956-57_33k_ES_PAN_21mic_H50_0378_fot_41B-37395_W_tif
  70
32
  10
515197.500
  20
4598663.000
  30
928.935
  0
VERTEX
  8
PNOA-H_AMS_1956-57_33k_ES_PAN_21mic_H50_0378_fot_41B-37395_W_tif
  70
32
  10
515462.000
  20
4598835.500
  30
922.074
  0
VERTEX
  8
PNOA-H_AMS_1956-57_33k_ES_PAN_21mic_H50_0378_fot_41B-37395_W_tif
  70
32
  10
515462.100
  20
4598835.500
  30
922.073
  0
SEQEND
  8
PNOA-H_AMS_1956-57_33k_ES_PAN_21mic_H50_0378_fot_41B-37395_W_tif
  0
INSERT
  8
FeatureAttribs
  2
FEATURE
  41
1
  42
1
  43
1
  50
0
  10
513900.393
  20
4596551.324
 66
1
  0
ATTRIB
  8
FeatureAttribs
 70
0
  1
PNOA-H_AMS_1956-57_33k_ES_PAN_21mic_H50_0378_fot_41B-37396_W.tif
  2
NAME
  10
513900.393
  20
4596551.324
 40
33.49417
  0
SEQEND
  0
POLYLINE
  8
PNOA-H_AMS_1956-57_33k_ES_PAN_21mic_H50_0378_fot_41B-37396_W_tif
  70
9
  66
1
  0
VERTEX
  8
PNOA-H_AMS_1956-57_33k_ES_PAN_21mic_H50_0378_fot_41B-37396_W_tif
  70
32
  10
512515.476
  20
4594275.149
  30
0
  0
VERTEX
  8
PNOA-H_AMS_1956-57_33k_ES_PAN_21mic_H50_0378_fot_41B-37396_W_tif
  70
32
  10
512515.115
  20
4594275.148
  30
929.393
  0
VERTEX
  8
PNOA-H_AMS_1956-57_33k_ES_PAN_21mic_H50_0378_fot_41B-37396_W_tif
  70
32
  10
512399.000
  20
4598626.000
  30
936.92
  0
VERTEX
  8
PNOA-H_AMS_1956-57_33k_ES_PAN_21mic_H50_0378_fot_41B-37396_W_tif
  70
32
  10
512399.238
  20
4598635.059
  30
937.983
  0
VERTEX
  8
PNOA-H_AMS_1956-57_33k_ES_PAN_21mic_H50_0378_fot_41B-37396_W_tif
  70
32
  10
512399.481
  20
4598644.279
  30
939.065
  0
VERTEX
  8
PNOA-H_AMS_1956-57_33k_ES_PAN_21mic_H50_0378_fot_41B-37396_W_tif
  70
32
  10
512399.500
  20
4598645.000
  30
939.149
  0
VERTEX
  8
PNOA-H_AMS_1956-57_33k_ES_PAN_21mic_H50_0378_fot_41B-37396_W_tif
  70
32
  10
512454.514
  20
4598676.236
  30
945.769
  0
VERTEX
  8
PNOA-H_AMS_1956-57_33k_ES_PAN_21mic_H50_0378_fot_41B-37396_W_tif
  70
32
  10
512458.500
  20
4598678.500
  30
946.248
  0
VERTEX
  8
PNOA-H_AMS_1956-57_33k_ES_PAN_21mic_H50_0378_fot_41B-37396_W_tif
  70
32
  10
512458.536
  20
4598678.572
  30
946.25
  0
VERTEX
  8
PNOA-H_AMS_1956-57_33k_ES_PAN_21mic_H50_0378_fot_41B-37396_W_tif
  70
32
  10
512459.000
  20
4598679.500
  30
946.266
  0
VERTEX
  8
PNOA-H_AMS_1956-57_33k_ES_PAN_21mic_H50_0378_fot_41B-37396_W_tif
  70
32
  10
512710.000
  20
4598825.000
  30
944.626
  0
VERTEX
  8
PNOA-H_AMS_1956-57_33k_ES_PAN_21mic_H50_0378_fot_41B-37396_W_tif
  70
32
  10
512714.500
  20
4598827.500
  30
944.048
  0
VERTEX
  8
PNOA-H_AMS_1956-57_33k_ES_PAN_21mic_H50_0378_fot_41B-37396_W_tif
  70
32
  10
512715.000
  20
4598827.500
  30
944.011
  0
VERTEX
  8
PNOA-H_AMS_1956-57_33k_ES_PAN_21mic_H50_0378_fot_41B-37396_W_tif
  70
32
  10
512718.000
  20
4598827.500
  30
943.79
  0
VERTEX
  8
PNOA-H_AMS_1956-57_33k_ES_PAN_21mic_H50_0378_fot_41B-37396_W_tif
  70
32
  10
515197.500
  20
4598662.500
  30
928.887
  0
VERTEX
  8
PNOA-H_AMS_1956-57_33k_ES_PAN_21mic_H50_0378_fot_41B-37396_W_tif
  70
32
  10
515503.000
  20
4594331.500
  30
908.178
  0
VERTEX
  8
PNOA-H_AMS_1956-57_33k_ES_PAN_21mic_H50_0378_fot_41B-37396_W_tif
  70
32
  10
515500.467
  20
4594330.700
  30
908.206
  0
VERTEX
  8
PNOA-H_AMS_1956-57_33k_ES_PAN_21mic_H50_0378_fot_41B-37396_W_tif
  70
32
  10
515341.806
  20
4594280.597
  30
909.929
  0
VERTEX
  8
PNOA-H_AMS_1956-57_33k_ES_PAN_21mic_H50_0378_fot_41B-37396_W_tif
  70
32
  10
515340.059
  20
4594280.593
  30
0
  0
VERTEX
  8
PNOA-H_AMS_1956-57_33k_ES_PAN_21mic_H50_0378_fot_41B-37396_W_tif
  70
32
  10
512515.476
  20
4594275.149
  30
0
  0
SEQEND
  8
PNOA-H_AMS_1956-57_33k_ES_PAN_21mic_H50_0378_fot_41B-37396_W_tif
  0
INSERT
  8
FeatureAttribs
  2
FEATURE
  41
1
  42
1
  43
1
  50
0
  10
519616.449
  20
4596611.665
 66
1
  0
ATTRIB
  8
FeatureAttribs
 70
0
  1
PNOA-H_AMS_1956-57_33k_ES_PAN_21mic_H50_0378_fot_41B-37394_W.tif
  2
NAME
  10
519616.449
  20
4596611.665
 40
33.49417
  0
SEQEND
  0
POLYLINE
  8
PNOA-H_AMS_1956-57_33k_ES_PAN_21mic_H50_0378_fot_41B-37394_W_tif
  70
9
  66
1
  0
VERTEX
  8
PNOA-H_AMS_1956-57_33k_ES_PAN_21mic_H50_0378_fot_41B-37394_W_tif
  70
32
  10
518821.326
  20
4594288.832
  30
0
  0
VERTEX
  8
PNOA-H_AMS_1956-57_33k_ES_PAN_21mic_H50_0378_fot_41B-37394_W_tif
  70
32
  10
518820.477
  20
4594288.830
  30
903.711
  0
VERTEX
  8
PNOA-H_AMS_1956-57_33k_ES_PAN_21mic_H50_0378_fot_41B-37394_W_tif
  70
32
  10
518602.661
  20
4594334.500
  30
903.484
  0
VERTEX
  8
PNOA-H_AMS_1956-57_33k_ES_PAN_21mic_H50_0378_fot_41B-37394_W_tif
  70
32
  10
518545.419
  20
4594346.502
  30
903.424
  0
VERTEX
  8
PNOA-H_AMS_1956-57_33k_ES_PAN_21mic_H50_0378_fot_41B-37394_W_tif
  70
32
  10
518317.369
  20
4594394.318
  30
903.186
  0
VERTEX
  8
PNOA-H_AMS_1956-57_33k_ES_PAN_21mic_H50_0378_fot_41B-37394_W_tif
  70
32
  10
518316.500
  20
4594394.500
  30
903.185
  0
VERTEX
  8
PNOA-H_AMS_1956-57_33k_ES_PAN_21mic_H50_0378_fot_41B-37394_W_tif
  70
32
  10
518094.000
  20
4598825.500
  30
950.29
  0
VERTEX
  8
PNOA-H_AMS_1956-57_33k_ES_PAN_21mic_H50_0378_fot_41B-37394_W_tif
  70
32
  10
518094.003
  20
4598825.502
  30
950.289
  0
VERTEX
  8
PNOA-H_AMS_1956-57_33k_ES_PAN_21mic_H50_0378_fot_41B-37394_W_tif
  70
32
  10
518094.704
  20
4598826.001
  30
950.247
  0
VERTEX
  8
PNOA-H_AMS_1956-57_33k_ES_PAN_21mic_H50_0378_fot_41B-37394_W_tif
  70
32
  10
518246.500
  20
4598934.000
  30
940.958
  0
VERTEX
  8
PNOA-H_AMS_1956-57_33k_ES_PAN_21mic_H50_0378_fot_41B-37394_W_tif
  70
32
  10
518247.492
  20
4598934.496
  30
940.849
  0
VERTEX
  8
PNOA-H_AMS_1956-57_33k_ES_PAN_21mic_H50_0378_fot_41B-37394_W_tif
  70
32
  10
518247.500
  20
4598934.500
  30
940.848
  0
VERTEX
  8
PNOA-H_AMS_1956-57_33k_ES_PAN_21mic_H50_0378_fot_41B-37394_W_tif
  70
32
  10
521019.500
  20
4598909.500
  30
972.832
  0
VERTEX
  8
PNOA-H_AMS_1956-57_33k_ES_PAN_21mic_H50_0378_fot_41B-37394_W_tif
  70
32
  10
521035.500
  20
4594443.500
  30
907.467
  0
VERTEX
  8
PNOA-H_AMS_1956-57_33k_ES_PAN_21mic_H50_0378_fot_41B-37394_W_tif
  70
32
  10
520581.575
  20
4594293.774
  30
906.421
  0
VERTEX
  8
PNOA-H_AMS_1956-57_33k_ES_PAN_21mic_H50_0378_fot_41B-37394_W_tif
  70
32
  10
520580.086
  20
4594293.770
  30
0
  0
VERTEX
  8
PNOA-H_AMS_1956-57_33k_ES_PAN_21mic_H50_0378_fot_41B-37394_W_tif
  70
32
  10
519126.891
  20
4594289.568
  30
0
  0
VERTEX
  8
PNOA-H_AMS_1956-57_33k_ES_PAN_21mic_H50_0378_fot_41B-37394_W_tif
  70
32
  10
518821.326
  20
4594288.832
  30
0
  0
SEQEND
  8
PNOA-H_AMS_1956-57_33k_ES_PAN_21mic_H50_0378_fot_41B-37394_W_tif
  0
INSERT
  8
FeatureAttribs
  2
FEATURE
  41
1
  42
1
  43
1
  50
0
  10
516850.538
  20
4600949.000
 66
1
  0
ATTRIB
  8
FeatureAttribs
 70
0
  1
PNOA-H_AMS_1956-57_33k_ES_PAN_21mic_H50_0378_fot_40B-38908_W.tif
  2
NAME
  10
516850.538
  20
4600949.000
 40
33.49417
  0
SEQEND
  0
POLYLINE
  8
PNOA-H_AMS_1956-57_33k_ES_PAN_21mic_H50_0378_fot_40B-38908_W_tif
  70
9
  66
1
  0
VERTEX
  8
PNOA-H_AMS_1956-57_33k_ES_PAN_21mic_H50_0378_fot_40B-38908_W_tif
  70
32
  10
518247.500
  20
4598934.000
  30
940.891
  0
VERTEX
  8
PNOA-H_AMS_1956-57_33k_ES_PAN_21mic_H50_0378_fot_40B-38908_W_tif
  70
32
  10
518095.000
  20
4598826.000
  30
950.293
  0
VERTEX
  8
PNOA-H_AMS_1956-57_33k_ES_PAN_21mic_H50_0378_fot_40B-38908_W_tif
  70
32
  10
518094.704
  20
4598826.001
  30
950.29
  0
VERTEX
  8
PNOA-H_AMS_1956-57_33k_ES_PAN_21mic_H50_0378_fot_40B-38908_W_tif
  70
32
  10
515462.100
  20
4598835.500
  30
922.075
  0
VERTEX
  8
PNOA-H_AMS_1956-57_33k_ES_PAN_21mic_H50_0378_fot_40B-38908_W_tif
  70
32
  10
515462.000
  20
4598835.500
  30
922.074
  0
VERTEX
  8
PNOA-H_AMS_1956-57_33k_ES_PAN_21mic_H50_0378_fot_40B-38908_W_tif
  70
32
  10
515508.000
  20
4602993.500
  30
976.184
  0
VERTEX
  8
PNOA-H_AMS_1956-57_33k_ES_PAN_21mic_H50_0378_fot_40B-38908_W_tif
  70
32
  10
518007.000
  20
4603071.500
  30
931.212
  0
VERTEX
  8
PNOA-H_AMS_1956-57_33k_ES_PAN_21mic_H50_0378_fot_40B-38908_W_tif
  70
32
  10
518023.500
  20
4603072.000
  30
931.067
  0
VERTEX
  8
PNOA-H_AMS_1956-57_33k_ES_PAN_21mic_H50_0378_fot_40B-38908_W_tif
  70
32
  10
518029.000
  20
4603072.000
  30
931.055
  0
VERTEX
  8
PNOA-H_AMS_1956-57_33k_ES_PAN_21mic_H50_0378_fot_40B-38908_W_tif
  70
32
  10
518029.500
  20
4603072.000
  30
931.054
  0
VERTEX
  8
PNOA-H_AMS_1956-57_33k_ES_PAN_21mic_H50_0378_fot_40B-38908_W_tif
  70
32
  10
518183.000
  20
4602981.500
  30
930.094
  0
VERTEX
  8
PNOA-H_AMS_1956-57_33k_ES_PAN_21mic_H50_0378_fot_40B-38908_W_tif
  70
32
  10
518183.020
  20
4602981.000
  30
930.09
  0
VERTEX
  8
PNOA-H_AMS_1956-57_33k_ES_PAN_21mic_H50_0378_fot_40B-38908_W_tif
  70
32
  10
518183.803
  20
4602961.816
  30
929.935
  0
VERTEX
  8
PNOA-H_AMS_1956-57_33k_ES_PAN_21mic_H50_0378_fot_40B-38908_W_tif
  70
32
  10
518184.000
  20
4602957.000
  30
929.897
  0
VERTEX
  8
PNOA-H_AMS_1956-57_33k_ES_PAN_21mic_H50_0378_fot_40B-38908_W_tif
  70
32
  10
518243.587
  20
4599181.927
  30
940.214
  0
VERTEX
  8
PNOA-H_AMS_1956-57_33k_ES_PAN_21mic_H50_0378_fot_40B-38908_W_tif
  70
32
  10
518247.492
  20
4598934.496
  30
940.89
  0
VERTEX
  8
PNOA-H_AMS_1956-57_33k_ES_PAN_21mic_H50_0378_fot_40B-38908_W_tif
  70
32
  10
518247.500
  20
4598934.000
  30
940.891
  0
SEQEND
  8
PNOA-H_AMS_1956-57_33k_ES_PAN_21mic_H50_0378_fot_40B-38908_W_tif
  0
INSERT
  8
FeatureAttribs
  2
FEATURE
  41
1
  42
1
  43
1
  50
0
  10
519621.072
  20
4601013.750
 66
1
  0
ATTRIB
  8
FeatureAttribs
 70
0
  1
PNOA-H_AMS_1956-57_33k_ES_PAN_21mic_H50_0378_fot_40B-38907_W.tif
  2
NAME
  10
519621.072
  20
4601013.750
 40
33.49417
  0
SEQEND
  0
POLYLINE
  8
PNOA-H_AMS_1956-57_33k_ES_PAN_21mic_H50_0378_fot_40B-38907_W_tif
  70
9
  66
1
  0
VERTEX
  8
PNOA-H_AMS_1956-57_33k_ES_PAN_21mic_H50_0378_fot_40B-38907_W_tif
  70
32
  10
521041.000
  20
4598925.000
  30
972.593
  0
VERTEX
  8
PNOA-H_AMS_1956-57_33k_ES_PAN_21mic_H50_0378_fot_40B-38907_W_tif
  70
32
  10
521020.000
  20
4598909.500
  30
972.834
  0
VERTEX
  8
PNOA-H_AMS_1956-57_33k_ES_PAN_21mic_H50_0378_fot_40B-38907_W_tif
  70
32
  10
521019.506
  20
4598909.504
  30
972.829
  0
VERTEX
  8
PNOA-H_AMS_1956-57_33k_ES_PAN_21mic_H50_0378_fot_40B-38907_W_tif
  70
32
  10
518247.500
  20
4598934.500
  30
940.848
  0
VERTEX
  8
PNOA-H_AMS_1956-57_33k_ES_PAN_21mic_H50_0378_fot_40B-38907_W_tif
  70
32
  10
518243.587
  20
4599181.927
  30
940.19
  0
VERTEX
  8
PNOA-H_AMS_1956-57_33k_ES_PAN_21mic_H50_0378_fot_40B-38907_W_tif
  70
32
  10
518183.803
  20
4602961.816
  30
930.147
  0
VERTEX
  8
PNOA-H_AMS_1956-57_33k_ES_PAN_21mic_H50_0378_fot_40B-38907_W_tif
  70
32
  10
518183.500
  20
4602981.000
  30
930.096
  0
VERTEX
  8
PNOA-H_AMS_1956-57_33k_ES_PAN_21mic_H50_0378_fot_40B-38907_W_tif
  70
32
  10
518589.000
  20
4603002.500
  30
927.782
  0
VERTEX
  8
PNOA-H_AMS_1956-57_33k_ES_PAN_21mic_H50_0378_fot_40B-38907_W_tif
  70
32
  10
518598.500
  20
4603003.000
  30
927.828
  0
VERTEX
  8
PNOA-H_AMS_1956-57_33k_ES_PAN_21mic_H50_0378_fot_40B-38907_W_tif
  70
32
  10
520683.175
  20
4603112.145
  30
946.971
  0
VERTEX
  8
PNOA-H_AMS_1956-57_33k_ES_PAN_21mic_H50_0378_fot_40B-38907_W_tif
  70
32
  10
520794.541
  20
4603117.976
  30
947.994
  0
VERTEX
  8
PNOA-H_AMS_1956-57_33k_ES_PAN_21mic_H50_0378_fot_40B-38907_W_tif
  70
32
  10
520795.000
  20
4603118.000
  30
947.998
  0
VERTEX
  8
PNOA-H_AMS_1956-57_33k_ES_PAN_21mic_H50_0378_fot_40B-38907_W_tif
  70
32
  10
521013.804
  20
4602988.911
  30
940.374
  0
VERTEX
  8
PNOA-H_AMS_1956-57_33k_ES_PAN_21mic_H50_0378_fot_40B-38907_W_tif
  70
32
  10
521014.500
  20
4602988.500
  30
940.35
  0
VERTEX
  8
PNOA-H_AMS_1956-57_33k_ES_PAN_21mic_H50_0378_fot_40B-38907_W_tif
  70
32
  10
521041.000
  20
4598972.500
  30
971.659
  0
VERTEX
  8
PNOA-H_AMS_1956-57_33k_ES_PAN_21mic_H50_0378_fot_40B-38907_W_tif
  70
32
  10
521041.000
  20
4598925.013
  30
972.593
  0
VERTEX
  8
PNOA-H_AMS_1956-57_33k_ES_PAN_21mic_H50_0378_fot_40B-38907_W_tif
  70
32
  10
521041.000
  20
4598925.000
  30
972.593
  0
SEQEND
  8
PNOA-H_AMS_1956-57_33k_ES_PAN_21mic_H50_0378_fot_40B-38907_W_tif
  0
INSERT
  8
FeatureAttribs
  2
FEATURE
  41
1
  42
1
  43
1
  50
0
  10
514119.265
  20
4600862.000
 66
1
  0
ATTRIB
  8
FeatureAttribs
 70
0
  1
PNOA-H_AMS_1956-57_33k_ES_PAN_21mic_H50_0378_fot_40B-38909_W.tif
  2
NAME
  10
514119.265
  20
4600862.000
 40
33.49417
  0
SEQEND
  0
POLYLINE
  8
PNOA-H_AMS_1956-57_33k_ES_PAN_21mic_H50_0378_fot_40B-38909_W_tif
  70
9
  66
1
  0
VERTEX
  8
PNOA-H_AMS_1956-57_33k_ES_PAN_21mic_H50_0378_fot_40B-38909_W_tif
  70
32
  10
515374.000
  20
4603061.500
  30
970.997
  0
VERTEX
  8
PNOA-H_AMS_1956-57_33k_ES_PAN_21mic_H50_0378_fot_40B-38909_W_tif
  70
32
  10
515391.000
  20
4603061.500
  30
970.348
  0
VERTEX
  8
PNOA-H_AMS_1956-57_33k_ES_PAN_21mic_H50_0378_fot_40B-38909_W_tif
  70
32
  10
515391.500
  20
4603061.500
  30
970.329
  0
VERTEX
  8
PNOA-H_AMS_1956-57_33k_ES_PAN_21mic_H50_0378_fot_40B-38909_W_tif
  70
32
  10
515393.500
  20
4603060.500
  30
970.339
  0
VERTEX
  8
PNOA-H_AMS_1956-57_33k_ES_PAN_21mic_H50_0378_fot_40B-38909_W_tif
  70
32
  10
515508.000
  20
4602993.500
  30
976.184
  0
VERTEX
  8
PNOA-H_AMS_1956-57_33k_ES_PAN_21mic_H50_0378_fot_40B-38909_W_tif
  70
32
  10
515462.500
  20
4598837.500
  30
922.021
  0
VERTEX
  8
PNOA-H_AMS_1956-57_33k_ES_PAN_21mic_H50_0378_fot_40B-38909_W_tif
  70
32
  10
515462.100
  20
4598835.500
  30
922.077
  0
VERTEX
  8
PNOA-H_AMS_1956-57_33k_ES_PAN_21mic_H50_0378_fot_40B-38909_W_tif
  70
32
  10
515462.000
  20
4598835.000
  30
922.091
  0
VERTEX
  8
PNOA-H_AMS_1956-57_33k_ES_PAN_21mic_H50_0378_fot_40B-38909_W_tif
  70
32
  10
515456.000
  20
4598831.000
  30
922.09
  0
VERTEX
  8
PNOA-H_AMS_1956-57_33k_ES_PAN_21mic_H50_0378_fot_40B-38909_W_tif
  70
32
  10
515197.534
  20
4598662.522
  30
928.886
  0
VERTEX
  8
PNOA-H_AMS_1956-57_33k_ES_PAN_21mic_H50_0378_fot_40B-38909_W_tif
  70
32
  10
515197.500
  20
4598662.500
  30
928.887
  0
VERTEX
  8
PNOA-H_AMS_1956-57_33k_ES_PAN_21mic_H50_0378_fot_40B-38909_W_tif
  70
32
  10
512715.000
  20
4598827.500
  30
944.012
  0
VERTEX
  8
PNOA-H_AMS_1956-57_33k_ES_PAN_21mic_H50_0378_fot_40B-38909_W_tif
  70
32
  10
512794.500
  20
4602989.000
  30
985.997
  0
VERTEX
  8
PNOA-H_AMS_1956-57_33k_ES_PAN_21mic_H50_0378_fot_40B-38909_W_tif
  70
32
  10
512799.042
  20
4602989.128
  30
985.973
  0
VERTEX
  8
PNOA-H_AMS_1956-57_33k_ES_PAN_21mic_H50_0378_fot_40B-38909_W_tif
  70
32
  10
515356.000
  20
4603061.000
  30
972.625
  0
VERTEX
  8
PNOA-H_AMS_1956-57_33k_ES_PAN_21mic_H50_0378_fot_40B-38909_W_tif
  70
32
  10
515374.000
  20
4603061.500
  30
970.997
  0
SEQEND
  8
PNOA-H_AMS_1956-57_33k_ES_PAN_21mic_H50_0378_fot_40B-38909_W_tif
  0
INSERT
  8
FeatureAttribs
  2
FEATURE
  41
1
  42
1
  43
1
  50
0
  10
518357.562
  20
4594340.639
 66
1
  0
ATTRIB
  8
FeatureAttribs
 70
0
  1
PNOA-H_AMS_1956-57_33k_ES_PAN_21mic_H50_0406_fot_42B-36323_E.tif
  2
NAME
  10
518357.562
  20
4594340.639
 40
33.49417
  0
SEQEND
  0
POLYLINE
  8
PNOA-H_AMS_1956-57_33k_ES_PAN_21mic_H50_0406_fot_42B-36323_E_tif
  70
9
  66
1
  0
VERTEX
  8
PNOA-H_AMS_1956-57_33k_ES_PAN_21mic_H50_0406_fot_42B-36323_E_tif
  70
32
  10
518545.419
  20
4594346.502
  30
903.633
  0
VERTEX
  8
PNOA-H_AMS_1956-57_33k_ES_PAN_21mic_H50_0406_fot_42B-36323_E_tif
  70
32
  10
518602.000
  20
4594334.500
  30
903.733
  0
VERTEX
  8
PNOA-H_AMS_1956-57_33k_ES_PAN_21mic_H50_0406_fot_42B-36323_E_tif
  70
32
  10
518602.661
  20
4594334.500
  30
903.73
  0
VERTEX
  8
PNOA-H_AMS_1956-57_33k_ES_PAN_21mic_H50_0406_fot_42B-36323_E_tif
  70
32
  10
518604.000
  20
4594334.500
  30
903.723
  0
VERTEX
  8
PNOA-H_AMS_1956-57_33k_ES_PAN_21mic_H50_0406_fot_42B-36323_E_tif
  70
32
  10
518821.326
  20
4594288.832
  30
903.909
  0
VERTEX
  8
PNOA-H_AMS_1956-57_33k_ES_PAN_21mic_H50_0406_fot_42B-36323_E_tif
  70
32
  10
518820.477
  20
4594288.830
  30
0
  0
VERTEX
  8
PNOA-H_AMS_1956-57_33k_ES_PAN_21mic_H50_0406_fot_42B-36323_E_tif
  70
32
  10
517970.389
  20
4594286.782
  30
0
  0
VERTEX
  8
PNOA-H_AMS_1956-57_33k_ES_PAN_21mic_H50_0406_fot_42B-36323_E_tif
  70
32
  10
517969.131
  20
4594286.779
  30
902.205
  0
VERTEX
  8
PNOA-H_AMS_1956-57_33k_ES_PAN_21mic_H50_0406_fot_42B-36323_E_tif
  70
32
  10
518315.000
  20
4594394.500
  30
903.173
  0
VERTEX
  8
PNOA-H_AMS_1956-57_33k_ES_PAN_21mic_H50_0406_fot_42B-36323_E_tif
  70
32
  10
518316.203
  20
4594394.407
  30
903.185
  0
VERTEX
  8
PNOA-H_AMS_1956-57_33k_ES_PAN_21mic_H50_0406_fot_42B-36323_E_tif
  70
32
  10
518317.369
  20
4594394.318
  30
903.196
  0
VERTEX
  8
PNOA-H_AMS_1956-57_33k_ES_PAN_21mic_H50_0406_fot_42B-36323_E_tif
  70
32
  10
518321.500
  20
4594394.000
  30
903.237
  0
VERTEX
  8
PNOA-H_AMS_1956-57_33k_ES_PAN_21mic_H50_0406_fot_42B-36323_E_tif
  70
32
  10
518545.419
  20
4594346.502
  30
903.633
  0
SEQEND
  8
PNOA-H_AMS_1956-57_33k_ES_PAN_21mic_H50_0406_fot_42B-36323_E_tif
  0
INSERT
  8
FeatureAttribs
  2
FEATURE
  41
1
  42
1
  43
1
  50
0
  10
515513.139
  20
4594306.047
 66
1
  0
ATTRIB
  8
FeatureAttribs
 70
0
  1
PNOA-H_AMS_1956-57_33k_ES_PAN_21mic_H50_0406_fot_42B-36322_E.tif
  2
NAME
  10
515513.139
  20
4594306.047
 40
33.49417
  0
SEQEND
  0
POLYLINE
  8
PNOA-H_AMS_1956-57_33k_ES_PAN_21mic_H50_0406_fot_42B-36322_E_tif
  70
9
  66
1
  0
VERTEX
  8
PNOA-H_AMS_1956-57_33k_ES_PAN_21mic_H50_0406_fot_42B-36322_E_tif
  70
32
  10
515341.806
  20
4594280.597
  30
0
  0
VERTEX
  8
PNOA-H_AMS_1956-57_33k_ES_PAN_21mic_H50_0406_fot_42B-36322_E_tif
  70
32
  10
515340.059
  20
4594280.593
  30
909.966
  0
VERTEX
  8
PNOA-H_AMS_1956-57_33k_ES_PAN_21mic_H50_0406_fot_42B-36322_E_tif
  70
32
  10
515496.500
  20
4594330.000
  30
908.273
  0
VERTEX
  8
PNOA-H_AMS_1956-57_33k_ES_PAN_21mic_H50_0406_fot_42B-36322_E_tif
  70
32
  10
515500.467
  20
4594330.700
  30
908.223
  0
VERTEX
  8
PNOA-H_AMS_1956-57_33k_ES_PAN_21mic_H50_0406_fot_42B-36322_E_tif
  70
32
  10
515503.823
  20
4594331.292
  30
908.18
  0
VERTEX
  8
PNOA-H_AMS_1956-57_33k_ES_PAN_21mic_H50_0406_fot_42B-36322_E_tif
  70
32
  10
515505.000
  20
4594331.500
  30
908.165
  0
VERTEX
  8
PNOA-H_AMS_1956-57_33k_ES_PAN_21mic_H50_0406_fot_42B-36322_E_tif
  70
32
  10
515703.378
  20
4594281.320
  30
906.947
  0
VERTEX
  8
PNOA-H_AMS_1956-57_33k_ES_PAN_21mic_H50_0406_fot_42B-36322_E_tif
  70
32
  10
515701.738
  20
4594281.316
  30
0
  0
VERTEX
  8
PNOA-H_AMS_1956-57_33k_ES_PAN_21mic_H50_0406_fot_42B-36322_E_tif
  70
32
  10
515649.273
  20
4594281.189
  30
0
  0
VERTEX
  8
PNOA-H_AMS_1956-57_33k_ES_PAN_21mic_H50_0406_fot_42B-36322_E_tif
  70
32
  10
515341.806
  20
4594280.597
  30
0
  0
SEQEND
  8
PNOA-H_AMS_1956-57_33k_ES_PAN_21mic_H50_0406_fot_42B-36322_E_tif
  0
INSERT
  8
FeatureAttribs
  2
FEATURE
  41
1
  42
1
  43
1
  50
0
  10
520764.051
  20
4609803.500
 66
1
  0
ATTRIB
  8
FeatureAttribs
 70
0
  1
PNOA-H_AMS_1956-57_33k_ES_PAN_21mic_H50_0378_fot_38C-40578_E.tif
  2
NAME
  10
520764.051
  20
4609803.500
 40
33.49417
  0
SEQEND
  0
POLYLINE
  8
PNOA-H_AMS_1956-57_33k_ES_PAN_21mic_H50_0378_fot_38C-40578_E_tif
  70
9
  66
1
  0
VERTEX
  8
PNOA-H_AMS_1956-57_33k_ES_PAN_21mic_H50_0378_fot_38C-40578_E_tif
  70
32
  10
522114.623
  20
4607781.388
  30
975.648
  0
VERTEX
  8
PNOA-H_AMS_1956-57_33k_ES_PAN_21mic_H50_0378_fot_38C-40578_E_tif
  70
32
  10
520764.000
  20
4607379.500
  30
983.235
  0
VERTEX
  8
PNOA-H_AMS_1956-57_33k_ES_PAN_21mic_H50_0378_fot_38C-40578_E_tif
  70
32
  10
520763.747
  20
4607379.573
  30
983.237
  0
VERTEX
  8
PNOA-H_AMS_1956-57_33k_ES_PAN_21mic_H50_0378_fot_38C-40578_E_tif
  70
32
  10
520763.503
  20
4607379.644
  30
983.24
  0
VERTEX
  8
PNOA-H_AMS_1956-57_33k_ES_PAN_21mic_H50_0378_fot_38C-40578_E_tif
  70
32
  10
519430.000
  20
4607766.500
  30
998.537
  0
VERTEX
  8
PNOA-H_AMS_1956-57_33k_ES_PAN_21mic_H50_0378_fot_38C-40578_E_tif
  70
32
  10
519416.500
  20
4609575.065
  30
1018.775
  0
VERTEX
  8
PNOA-H_AMS_1956-57_33k_ES_PAN_21mic_H50_0378_fot_38C-40578_E_tif
  70
32
  10
519399.119
  20
4611903.606
  30
1044.831
  0
VERTEX
  8
PNOA-H_AMS_1956-57_33k_ES_PAN_21mic_H50_0378_fot_38C-40578_E_tif
  70
32
  10
519399.000
  20
4611919.500
  30
1045.009
  0
VERTEX
  8
PNOA-H_AMS_1956-57_33k_ES_PAN_21mic_H50_0378_fot_38C-40578_E_tif
  70
32
  10
519619.781
  20
4611950.471
  30
1047.523
  0
VERTEX
  8
PNOA-H_AMS_1956-57_33k_ES_PAN_21mic_H50_0378_fot_38C-40578_E_tif
  70
32
  10
520646.500
  20
4612094.500
  30
1059.212
  0
VERTEX
  8
PNOA-H_AMS_1956-57_33k_ES_PAN_21mic_H50_0378_fot_38C-40578_E_tif
  70
32
  10
520650.000
  20
4612095.000
  30
1059.509
  0
VERTEX
  8
PNOA-H_AMS_1956-57_33k_ES_PAN_21mic_H50_0378_fot_38C-40578_E_tif
  70
32
  10
521595.494
  20
4612227.429
  30
1069.248
  0
VERTEX
  8
PNOA-H_AMS_1956-57_33k_ES_PAN_21mic_H50_0378_fot_38C-40578_E_tif
  70
32
  10
521595.993
  20
4612227.499
  30
1069.253
  0
VERTEX
  8
PNOA-H_AMS_1956-57_33k_ES_PAN_21mic_H50_0378_fot_38C-40578_E_tif
  70
32
  10
521596.000
  20
4612227.500
  30
1069.253
  0
VERTEX
  8
PNOA-H_AMS_1956-57_33k_ES_PAN_21mic_H50_0378_fot_38C-40578_E_tif
  70
32
  10
522111.408
  20
4611962.047
  30
1042.566
  0
VERTEX
  8
PNOA-H_AMS_1956-57_33k_ES_PAN_21mic_H50_0378_fot_38C-40578_E_tif
  70
32
  10
522111.500
  20
4611962.000
  30
1042.561
  0
VERTEX
  8
PNOA-H_AMS_1956-57_33k_ES_PAN_21mic_H50_0378_fot_38C-40578_E_tif
  70
32
  10
522115.000
  20
4607781.500
  30
975.646
  0
VERTEX
  8
PNOA-H_AMS_1956-57_33k_ES_PAN_21mic_H50_0378_fot_38C-40578_E_tif
  70
32
  10
522114.623
  20
4607781.388
  30
975.648
  0
SEQEND
  8
PNOA-H_AMS_1956-57_33k_ES_PAN_21mic_H50_0378_fot_38C-40578_E_tif
  0
INSERT
  8
FeatureAttribs
  2
FEATURE
  41
1
  42
1
  43
1
  50
0
  10
526181.150
  20
4609857.500
 66
1
  0
ATTRIB
  8
FeatureAttribs
 70
0
  1
PNOA-H_AMS_1956-57_33k_ES_PAN_21mic_H50_0378_fot_38C-40580_E.tif
  2
NAME
  10
526181.150
  20
4609857.500
 40
33.49417
  0
SEQEND
  0
POLYLINE
  8
PNOA-H_AMS_1956-57_33k_ES_PAN_21mic_H50_0378_fot_38C-40580_E_tif
  70
9
  66
1
  0
VERTEX
  8
PNOA-H_AMS_1956-57_33k_ES_PAN_21mic_H50_0378_fot_38C-40580_E_tif
  70
32
  10
527554.525
  20
4607855.353
  30
992.306
  0
VERTEX
  8
PNOA-H_AMS_1956-57_33k_ES_PAN_21mic_H50_0378_fot_38C-40580_E_tif
  70
32
  10
526196.000
  20
4607435.500
  30
1012.112
  0
VERTEX
  8
PNOA-H_AMS_1956-57_33k_ES_PAN_21mic_H50_0378_fot_38C-40580_E_tif
  70
32
  10
526194.999
  20
4607435.654
  30
1012.117
  0
VERTEX
  8
PNOA-H_AMS_1956-57_33k_ES_PAN_21mic_H50_0378_fot_38C-40580_E_tif
  70
32
  10
526192.642
  20
4607436.017
  30
1012.13
  0
VERTEX
  8
PNOA-H_AMS_1956-57_33k_ES_PAN_21mic_H50_0378_fot_38C-40580_E_tif
  70
32
  10
526189.500
  20
4607436.500
  30
1012.147
  0
VERTEX
  8
PNOA-H_AMS_1956-57_33k_ES_PAN_21mic_H50_0378_fot_38C-40580_E_tif
  70
32
  10
524825.517
  20
4607815.856
  30
1002.718
  0
VERTEX
  8
PNOA-H_AMS_1956-57_33k_ES_PAN_21mic_H50_0378_fot_38C-40580_E_tif
  70
32
  10
524825.000
  20
4607816.000
  30
1002.714
  0
VERTEX
  8
PNOA-H_AMS_1956-57_33k_ES_PAN_21mic_H50_0378_fot_38C-40580_E_tif
  70
32
  10
524816.000
  20
4611864.500
  30
1084.73
  0
VERTEX
  8
PNOA-H_AMS_1956-57_33k_ES_PAN_21mic_H50_0378_fot_38C-40580_E_tif
  70
32
  10
524816.000
  20
4611979.000
  30
1085.915
  0
VERTEX
  8
PNOA-H_AMS_1956-57_33k_ES_PAN_21mic_H50_0378_fot_38C-40580_E_tif
  70
32
  10
524817.111
  20
4611979.278
  30
1085.879
  0
VERTEX
  8
PNOA-H_AMS_1956-57_33k_ES_PAN_21mic_H50_0378_fot_38C-40580_E_tif
  70
32
  10
524818.000
  20
4611979.500
  30
1085.849
  0
VERTEX
  8
PNOA-H_AMS_1956-57_33k_ES_PAN_21mic_H50_0378_fot_38C-40580_E_tif
  70
32
  10
526869.500
  20
4612279.500
  30
1074.082
  0
VERTEX
  8
PNOA-H_AMS_1956-57_33k_ES_PAN_21mic_H50_0378_fot_38C-40580_E_tif
  70
32
  10
526871.729
  20
4612279.314
  30
1073.885
  0
VERTEX
  8
PNOA-H_AMS_1956-57_33k_ES_PAN_21mic_H50_0378_fot_38C-40580_E_tif
  70
32
  10
526873.836
  20
4612279.139
  30
1073.698
  0
VERTEX
  8
PNOA-H_AMS_1956-57_33k_ES_PAN_21mic_H50_0378_fot_38C-40580_E_tif
  70
32
  10
526875.500
  20
4612279.000
  30
1073.551
  0
VERTEX
  8
PNOA-H_AMS_1956-57_33k_ES_PAN_21mic_H50_0378_fot_38C-40580_E_tif
  70
32
  10
527520.867
  20
4611999.936
  30
1081.975
  0
VERTEX
  8
PNOA-H_AMS_1956-57_33k_ES_PAN_21mic_H50_0378_fot_38C-40580_E_tif
  70
32
  10
527526.500
  20
4611997.500
  30
1082.049
  0
VERTEX
  8
PNOA-H_AMS_1956-57_33k_ES_PAN_21mic_H50_0378_fot_38C-40580_E_tif
  70
32
  10
527527.095
  20
4611982.917
  30
1082.1
  0
VERTEX
  8
PNOA-H_AMS_1956-57_33k_ES_PAN_21mic_H50_0378_fot_38C-40580_E_tif
  70
32
  10
527527.500
  20
4611973.000
  30
1082.134
  0
VERTEX
  8
PNOA-H_AMS_1956-57_33k_ES_PAN_21mic_H50_0378_fot_38C-40580_E_tif
  70
32
  10
527543.500
  20
4609612.500
  30
1020.075
  0
VERTEX
  8
PNOA-H_AMS_1956-57_33k_ES_PAN_21mic_H50_0378_fot_38C-40580_E_tif
  70
32
  10
527543.500
  20
4609573.000
  30
1018.838
  0
VERTEX
  8
PNOA-H_AMS_1956-57_33k_ES_PAN_21mic_H50_0378_fot_38C-40580_E_tif
  70
32
  10
527555.000
  20
4607855.500
  30
992.299
  0
VERTEX
  8
PNOA-H_AMS_1956-57_33k_ES_PAN_21mic_H50_0378_fot_38C-40580_E_tif
  70
32
  10
527554.525
  20
4607855.353
  30
992.306
  0
SEQEND
  8
PNOA-H_AMS_1956-57_33k_ES_PAN_21mic_H50_0378_fot_38C-40580_E_tif
  0
INSERT
  8
FeatureAttribs
  2
FEATURE
  41
1
  42
1
  43
1
  50
0
  10
523466.990
  20
4609813.500
 66
1
  0
ATTRIB
  8
FeatureAttribs
 70
0
  1
PNOA-H_AMS_1956-57_33k_ES_PAN_21mic_H50_0378_fot_38C-40579_E.tif
  2
NAME
  10
523466.990
  20
4609813.500
 40
33.49417
  0
SEQEND
  0
POLYLINE
  8
PNOA-H_AMS_1956-57_33k_ES_PAN_21mic_H50_0378_fot_38C-40579_E_tif
  70
9
  66
1
  0
VERTEX
  8
PNOA-H_AMS_1956-57_33k_ES_PAN_21mic_H50_0378_fot_38C-40579_E_tif
  70
32
  10
523484.000
  20
4607408.500
  30
984.591
  0
VERTEX
  8
PNOA-H_AMS_1956-57_33k_ES_PAN_21mic_H50_0378_fot_38C-40579_E_tif
  70
32
  10
523482.500
  20
4607408.500
  30
984.617
  0
VERTEX
  8
PNOA-H_AMS_1956-57_33k_ES_PAN_21mic_H50_0378_fot_38C-40579_E_tif
  70
32
  10
523480.500
  20
4607408.500
  30
984.652
  0
VERTEX
  8
PNOA-H_AMS_1956-57_33k_ES_PAN_21mic_H50_0378_fot_38C-40579_E_tif
  70
32
  10
522115.866
  20
4607781.263
  30
975.651
  0
VERTEX
  8
PNOA-H_AMS_1956-57_33k_ES_PAN_21mic_H50_0378_fot_38C-40579_E_tif
  70
32
  10
522115.000
  20
4607781.500
  30
975.646
  0
VERTEX
  8
PNOA-H_AMS_1956-57_33k_ES_PAN_21mic_H50_0378_fot_38C-40579_E_tif
  70
32
  10
522111.500
  20
4611962.000
  30
1042.561
  0
VERTEX
  8
PNOA-H_AMS_1956-57_33k_ES_PAN_21mic_H50_0378_fot_38C-40579_E_tif
  70
32
  10
522187.919
  20
4611970.936
  30
1046.577
  0
VERTEX
  8
PNOA-H_AMS_1956-57_33k_ES_PAN_21mic_H50_0378_fot_38C-40579_E_tif
  70
32
  10
522693.000
  20
4612030.000
  30
1073.121
  0
VERTEX
  8
PNOA-H_AMS_1956-57_33k_ES_PAN_21mic_H50_0378_fot_38C-40579_E_tif
  70
32
  10
522697.500
  20
4612030.500
  30
1073.271
  0
VERTEX
  8
PNOA-H_AMS_1956-57_33k_ES_PAN_21mic_H50_0378_fot_38C-40579_E_tif
  70
32
  10
524315.733
  20
4612218.411
  30
1088.04
  0
VERTEX
  8
PNOA-H_AMS_1956-57_33k_ES_PAN_21mic_H50_0378_fot_38C-40579_E_tif
  70
32
  10
524316.097
  20
4612218.453
  30
1088.044
  0
VERTEX
  8
PNOA-H_AMS_1956-57_33k_ES_PAN_21mic_H50_0378_fot_38C-40579_E_tif
  70
32
  10
524316.500
  20
4612218.500
  30
1088.047
  0
VERTEX
  8
PNOA-H_AMS_1956-57_33k_ES_PAN_21mic_H50_0378_fot_38C-40579_E_tif
  70
32
  10
524812.257
  20
4611980.795
  30
1085.931
  0
VERTEX
  8
PNOA-H_AMS_1956-57_33k_ES_PAN_21mic_H50_0378_fot_38C-40579_E_tif
  70
32
  10
524816.000
  20
4611979.000
  30
1085.915
  0
VERTEX
  8
PNOA-H_AMS_1956-57_33k_ES_PAN_21mic_H50_0378_fot_38C-40579_E_tif
  70
32
  10
524825.000
  20
4607816.000
  30
1002.714
  0
VERTEX
  8
PNOA-H_AMS_1956-57_33k_ES_PAN_21mic_H50_0378_fot_38C-40579_E_tif
  70
32
  10
524778.588
  20
4607801.897
  30
1002.087
  0
VERTEX
  8
PNOA-H_AMS_1956-57_33k_ES_PAN_21mic_H50_0378_fot_38C-40579_E_tif
  70
32
  10
523484.000
  20
4607408.500
  30
984.591
  0
SEQEND
  8
PNOA-H_AMS_1956-57_33k_ES_PAN_21mic_H50_0378_fot_38C-40579_E_tif
  0
INSERT
  8
FeatureAttribs
  2
FEATURE
  41
1
  42
1
  43
1
  50
0
  10
522150.323
  20
4605385.000
 66
1
  0
ATTRIB
  8
FeatureAttribs
 70
0
  1
PNOA-H_AMS_1956-57_33k_ES_PAN_21mic_H50_0378_fot_39D-44197_E.tif
  2
NAME
  10
522150.323
  20
4605385.000
 40
33.49417
  0
SEQEND
  0
POLYLINE
  8
PNOA-H_AMS_1956-57_33k_ES_PAN_21mic_H50_0378_fot_39D-44197_E_tif
  70
9
  66
1
  0
VERTEX
  8
PNOA-H_AMS_1956-57_33k_ES_PAN_21mic_H50_0378_fot_39D-44197_E_tif
  70
32
  10
523567.000
  20
4603148.500
  30
965.376
  0
VERTEX
  8
PNOA-H_AMS_1956-57_33k_ES_PAN_21mic_H50_0378_fot_39D-44197_E_tif
  70
32
  10
521017.500
  20
4602988.500
  30
940.313
  0
VERTEX
  8
PNOA-H_AMS_1956-57_33k_ES_PAN_21mic_H50_0378_fot_39D-44197_E_tif
  70
32
  10
521016.416
  20
4602988.620
  30
940.326
  0
VERTEX
  8
PNOA-H_AMS_1956-57_33k_ES_PAN_21mic_H50_0378_fot_39D-44197_E_tif
  70
32
  10
521013.804
  20
4602988.911
  30
940.357
  0
VERTEX
  8
PNOA-H_AMS_1956-57_33k_ES_PAN_21mic_H50_0378_fot_39D-44197_E_tif
  70
32
  10
521013.000
  20
4602989.000
  30
940.367
  0
VERTEX
  8
PNOA-H_AMS_1956-57_33k_ES_PAN_21mic_H50_0378_fot_39D-44197_E_tif
  70
32
  10
520794.541
  20
4603117.976
  30
948.007
  0
VERTEX
  8
PNOA-H_AMS_1956-57_33k_ES_PAN_21mic_H50_0378_fot_39D-44197_E_tif
  70
32
  10
520794.500
  20
4603118.000
  30
948.008
  0
VERTEX
  8
PNOA-H_AMS_1956-57_33k_ES_PAN_21mic_H50_0378_fot_39D-44197_E_tif
  70
32
  10
520763.500
  20
4607379.500
  30
983.179
  0
VERTEX
  8
PNOA-H_AMS_1956-57_33k_ES_PAN_21mic_H50_0378_fot_39D-44197_E_tif
  70
32
  10
520763.504
  20
4607379.501
  30
983.179
  0
VERTEX
  8
PNOA-H_AMS_1956-57_33k_ES_PAN_21mic_H50_0378_fot_39D-44197_E_tif
  70
32
  10
520763.747
  20
4607379.573
  30
983.177
  0
VERTEX
  8
PNOA-H_AMS_1956-57_33k_ES_PAN_21mic_H50_0378_fot_39D-44197_E_tif
  70
32
  10
522112.000
  20
4607781.000
  30
975.159
  0
VERTEX
  8
PNOA-H_AMS_1956-57_33k_ES_PAN_21mic_H50_0378_fot_39D-44197_E_tif
  70
32
  10
522113.500
  20
4607781.500
  30
975.392
  0
VERTEX
  8
PNOA-H_AMS_1956-57_33k_ES_PAN_21mic_H50_0378_fot_39D-44197_E_tif
  70
32
  10
522114.623
  20
4607781.388
  30
975.585
  0
VERTEX
  8
PNOA-H_AMS_1956-57_33k_ES_PAN_21mic_H50_0378_fot_39D-44197_E_tif
  70
32
  10
522115.866
  20
4607781.263
  30
975.799
  0
VERTEX
  8
PNOA-H_AMS_1956-57_33k_ES_PAN_21mic_H50_0378_fot_39D-44197_E_tif
  70
32
  10
522118.500
  20
4607781.000
  30
976.253
  0
VERTEX
  8
PNOA-H_AMS_1956-57_33k_ES_PAN_21mic_H50_0378_fot_39D-44197_E_tif
  70
32
  10
523482.500
  20
4607408.500
  30
984.616
  0
VERTEX
  8
PNOA-H_AMS_1956-57_33k_ES_PAN_21mic_H50_0378_fot_39D-44197_E_tif
  70
32
  10
523567.000
  20
4603148.500
  30
965.376
  0
SEQEND
  8
PNOA-H_AMS_1956-57_33k_ES_PAN_21mic_H50_0378_fot_39D-44197_E_tif
  0
INSERT
  8
FeatureAttribs
  2
FEATURE
  41
1
  42
1
  43
1
  50
0
  10
524881.423
  20
4605400.750
 66
1
  0
ATTRIB
  8
FeatureAttribs
 70
0
  1
PNOA-H_AMS_1956-57_33k_ES_PAN_21mic_H50_0378_fot_39D-44198_E.tif
  2
NAME
  10
524881.423
  20
4605400.750
 40
33.49417
  0
SEQEND
  0
POLYLINE
  8
PNOA-H_AMS_1956-57_33k_ES_PAN_21mic_H50_0378_fot_39D-44198_E_tif
  70
9
  66
1
  0
VERTEX
  8
PNOA-H_AMS_1956-57_33k_ES_PAN_21mic_H50_0378_fot_39D-44198_E_tif
  70
32
  10
523859.000
  20
4602985.500
  30
960.682
  0
VERTEX
  8
PNOA-H_AMS_1956-57_33k_ES_PAN_21mic_H50_0378_fot_39D-44198_E_tif
  70
32
  10
523858.500
  20
4602985.500
  30
960.678
  0
VERTEX
  8
PNOA-H_AMS_1956-57_33k_ES_PAN_21mic_H50_0378_fot_39D-44198_E_tif
  70
32
  10
523567.000
  20
4603148.500
  30
965.376
  0
VERTEX
  8
PNOA-H_AMS_1956-57_33k_ES_PAN_21mic_H50_0378_fot_39D-44198_E_tif
  70
32
  10
523482.500
  20
4607408.500
  30
984.616
  0
VERTEX
  8
PNOA-H_AMS_1956-57_33k_ES_PAN_21mic_H50_0378_fot_39D-44198_E_tif
  70
32
  10
524745.500
  20
4607792.000
  30
999.563
  0
VERTEX
  8
PNOA-H_AMS_1956-57_33k_ES_PAN_21mic_H50_0378_fot_39D-44198_E_tif
  70
32
  10
524747.000
  20
4607792.500
  30
999.484
  0
VERTEX
  8
PNOA-H_AMS_1956-57_33k_ES_PAN_21mic_H50_0378_fot_39D-44198_E_tif
  70
32
  10
524778.588
  20
4607801.897
  30
1000.795
  0
VERTEX
  8
PNOA-H_AMS_1956-57_33k_ES_PAN_21mic_H50_0378_fot_39D-44198_E_tif
  70
32
  10
524825.517
  20
4607815.856
  30
1002.742
  0
VERTEX
  8
PNOA-H_AMS_1956-57_33k_ES_PAN_21mic_H50_0378_fot_39D-44198_E_tif
  70
32
  10
524826.000
  20
4607816.000
  30
1002.762
  0
VERTEX
  8
PNOA-H_AMS_1956-57_33k_ES_PAN_21mic_H50_0378_fot_39D-44198_E_tif
  70
32
  10
526192.642
  20
4607436.017
  30
1012.102
  0
VERTEX
  8
PNOA-H_AMS_1956-57_33k_ES_PAN_21mic_H50_0378_fot_39D-44198_E_tif
  70
32
  10
526194.500
  20
4607435.500
  30
1012.115
  0
VERTEX
  8
PNOA-H_AMS_1956-57_33k_ES_PAN_21mic_H50_0378_fot_39D-44198_E_tif
  70
32
  10
526290.489
  20
4603191.499
  30
1003.964
  0
VERTEX
  8
PNOA-H_AMS_1956-57_33k_ES_PAN_21mic_H50_0378_fot_39D-44198_E_tif
  70
32
  10
526290.500
  20
4603191.000
  30
1003.963
  0
VERTEX
  8
PNOA-H_AMS_1956-57_33k_ES_PAN_21mic_H50_0378_fot_39D-44198_E_tif
  70
32
  10
523861.500
  20
4602985.500
  30
960.7
  0
VERTEX
  8
PNOA-H_AMS_1956-57_33k_ES_PAN_21mic_H50_0378_fot_39D-44198_E_tif
  70
32
  10
523859.000
  20
4602985.500
  30
960.682
  0
SEQEND
  8
PNOA-H_AMS_1956-57_33k_ES_PAN_21mic_H50_0378_fot_39D-44198_E_tif
  0
INSERT
  8
FeatureAttribs
  2
FEATURE
  41
1
  42
1
  43
1
  50
0
  10
525221.605
  20
4596582.201
 66
1
  0
ATTRIB
  8
FeatureAttribs
 70
0
  1
PNOA-H_AMS_1956-57_33k_ES_PAN_21mic_H50_0378_fot_41B-37392_W.tif
  2
NAME
  10
525221.605
  20
4596582.201
 40
33.49417
  0
SEQEND
  0
POLYLINE
  8
PNOA-H_AMS_1956-57_33k_ES_PAN_21mic_H50_0378_fot_41B-37392_W_tif
  70
9
  66
1
  0
VERTEX
  8
PNOA-H_AMS_1956-57_33k_ES_PAN_21mic_H50_0378_fot_41B-37392_W_tif
  70
32
  10
523959.000
  20
4598859.500
  30
996.031
  0
VERTEX
  8
PNOA-H_AMS_1956-57_33k_ES_PAN_21mic_H50_0378_fot_41B-37392_W_tif
  70
32
  10
524627.000
  20
4598857.000
  30
995.589
  0
VERTEX
  8
PNOA-H_AMS_1956-57_33k_ES_PAN_21mic_H50_0378_fot_41B-37392_W_tif
  70
32
  10
524683.722
  20
4598857.000
  30
1003.296
  0
VERTEX
  8
PNOA-H_AMS_1956-57_33k_ES_PAN_21mic_H50_0378_fot_41B-37392_W_tif
  70
32
  10
524748.000
  20
4598857.000
  30
991.104
  0
VERTEX
  8
PNOA-H_AMS_1956-57_33k_ES_PAN_21mic_H50_0378_fot_41B-37392_W_tif
  70
32
  10
526568.000
  20
4598850.500
  30
1022.185
  0
VERTEX
  8
PNOA-H_AMS_1956-57_33k_ES_PAN_21mic_H50_0378_fot_41B-37392_W_tif
  70
32
  10
526568.005
  20
4598850.496
  30
1022.184
  0
VERTEX
  8
PNOA-H_AMS_1956-57_33k_ES_PAN_21mic_H50_0378_fot_41B-37392_W_tif
  70
32
  10
526697.500
  20
4598764.500
  30
1019.197
  0
VERTEX
  8
PNOA-H_AMS_1956-57_33k_ES_PAN_21mic_H50_0378_fot_41B-37392_W_tif
  70
32
  10
526697.479
  20
4598764.014
  30
1019.189
  0
VERTEX
  8
PNOA-H_AMS_1956-57_33k_ES_PAN_21mic_H50_0378_fot_41B-37392_W_tif
  70
32
  10
526688.984
  20
4598564.984
  30
1015.727
  0
VERTEX
  8
PNOA-H_AMS_1956-57_33k_ES_PAN_21mic_H50_0378_fot_41B-37392_W_tif
  70
32
  10
526507.491
  20
4594312.993
  30
941.772
  0
VERTEX
  8
PNOA-H_AMS_1956-57_33k_ES_PAN_21mic_H50_0378_fot_41B-37392_W_tif
  70
32
  10
526507.035
  20
4594312.991
  30
941.782
  0
VERTEX
  8
PNOA-H_AMS_1956-57_33k_ES_PAN_21mic_H50_0378_fot_41B-37392_W_tif
  70
32
  10
526082.132
  20
4594311.353
  30
0
  0
VERTEX
  8
PNOA-H_AMS_1956-57_33k_ES_PAN_21mic_H50_0378_fot_41B-37392_W_tif
  70
32
  10
524169.534
  20
4594304.902
  30
921.898
  0
VERTEX
  8
PNOA-H_AMS_1956-57_33k_ES_PAN_21mic_H50_0378_fot_41B-37392_W_tif
  70
32
  10
523723.000
  20
4594386.000
  30
918.919
  0
VERTEX
  8
PNOA-H_AMS_1956-57_33k_ES_PAN_21mic_H50_0378_fot_41B-37392_W_tif
  70
32
  10
523959.000
  20
4598859.500
  30
996.031
  0
SEQEND
  8
PNOA-H_AMS_1956-57_33k_ES_PAN_21mic_H50_0378_fot_41B-37392_W_tif
  0
INSERT
  8
FeatureAttribs
  2
FEATURE
  41
1
  42
1
  43
1
  50
0
  10
522434.441
  20
4596622.565
 66
1
  0
ATTRIB
  8
FeatureAttribs
 70
0
  1
PNOA-H_AMS_1956-57_33k_ES_PAN_21mic_H50_0378_fot_41B-37393_W.tif
  2
NAME
  10
522434.441
  20
4596622.565
 40
33.49417
  0
SEQEND
  0
POLYLINE
  8
PNOA-H_AMS_1956-57_33k_ES_PAN_21mic_H50_0378_fot_41B-37393_W_tif
  70
9
  66
1
  0
VERTEX
  8
PNOA-H_AMS_1956-57_33k_ES_PAN_21mic_H50_0378_fot_41B-37393_W_tif
  70
32
  10
523775.000
  20
4598948.000
  30
980.465
  0
VERTEX
  8
PNOA-H_AMS_1956-57_33k_ES_PAN_21mic_H50_0378_fot_41B-37393_W_tif
  70
32
  10
523833.500
  20
4598948.000
  30
988.73
  0
VERTEX
  8
PNOA-H_AMS_1956-57_33k_ES_PAN_21mic_H50_0378_fot_41B-37393_W_tif
  70
32
  10
523834.500
  20
4598948.000
  30
988.871
  0
VERTEX
  8
PNOA-H_AMS_1956-57_33k_ES_PAN_21mic_H50_0378_fot_41B-37393_W_tif
  70
32
  10
523959.000
  20
4598860.000
  30
996.024
  0
VERTEX
  8
PNOA-H_AMS_1956-57_33k_ES_PAN_21mic_H50_0378_fot_41B-37393_W_tif
  70
32
  10
523959.000
  20
4598859.500
  30
996.036
  0
VERTEX
  8
PNOA-H_AMS_1956-57_33k_ES_PAN_21mic_H50_0378_fot_41B-37393_W_tif
  70
32
  10
523959.000
  20
4598852.000
  30
996.212
  0
VERTEX
  8
PNOA-H_AMS_1956-57_33k_ES_PAN_21mic_H50_0378_fot_41B-37393_W_tif
  70
32
  10
523723.000
  20
4594386.000
  30
918.919
  0
VERTEX
  8
PNOA-H_AMS_1956-57_33k_ES_PAN_21mic_H50_0378_fot_41B-37393_W_tif
  70
32
  10
523722.825
  20
4594385.941
  30
918.917
  0
VERTEX
  8
PNOA-H_AMS_1956-57_33k_ES_PAN_21mic_H50_0378_fot_41B-37393_W_tif
  70
32
  10
523475.386
  20
4594302.560
  30
916.825
  0
VERTEX
  8
PNOA-H_AMS_1956-57_33k_ES_PAN_21mic_H50_0378_fot_41B-37393_W_tif
  70
32
  10
523474.608
  20
4594302.558
  30
0
  0
VERTEX
  8
PNOA-H_AMS_1956-57_33k_ES_PAN_21mic_H50_0378_fot_41B-37393_W_tif
  70
32
  10
522604.511
  20
4594299.623
  30
0
  0
VERTEX
  8
PNOA-H_AMS_1956-57_33k_ES_PAN_21mic_H50_0378_fot_41B-37393_W_tif
  70
32
  10
521744.721
  20
4594297.137
  30
0
  0
VERTEX
  8
PNOA-H_AMS_1956-57_33k_ES_PAN_21mic_H50_0378_fot_41B-37393_W_tif
  70
32
  10
521742.451
  20
4594297.130
  30
908.949
  0
VERTEX
  8
PNOA-H_AMS_1956-57_33k_ES_PAN_21mic_H50_0378_fot_41B-37393_W_tif
  70
32
  10
521035.500
  20
4594443.500
  30
907.467
  0
VERTEX
  8
PNOA-H_AMS_1956-57_33k_ES_PAN_21mic_H50_0378_fot_41B-37393_W_tif
  70
32
  10
521019.500
  20
4598909.500
  30
972.832
  0
VERTEX
  8
PNOA-H_AMS_1956-57_33k_ES_PAN_21mic_H50_0378_fot_41B-37393_W_tif
  70
32
  10
521019.506
  20
4598909.504
  30
972.831
  0
VERTEX
  8
PNOA-H_AMS_1956-57_33k_ES_PAN_21mic_H50_0378_fot_41B-37393_W_tif
  70
32
  10
521040.500
  20
4598925.000
  30
972.591
  0
VERTEX
  8
PNOA-H_AMS_1956-57_33k_ES_PAN_21mic_H50_0378_fot_41B-37393_W_tif
  70
32
  10
521041.000
  20
4598925.013
  30
972.592
  0
VERTEX
  8
PNOA-H_AMS_1956-57_33k_ES_PAN_21mic_H50_0378_fot_41B-37393_W_tif
  70
32
  10
521059.500
  20
4598925.500
  30
972.62
  0
VERTEX
  8
PNOA-H_AMS_1956-57_33k_ES_PAN_21mic_H50_0378_fot_41B-37393_W_tif
  70
32
  10
523714.500
  20
4598947.500
  30
977.665
  0
VERTEX
  8
PNOA-H_AMS_1956-57_33k_ES_PAN_21mic_H50_0378_fot_41B-37393_W_tif
  70
32
  10
523775.000
  20
4598948.000
  30
980.465
  0
SEQEND
  8
PNOA-H_AMS_1956-57_33k_ES_PAN_21mic_H50_0378_fot_41B-37393_W_tif
  0
INSERT
  8
FeatureAttribs
  2
FEATURE
  41
1
  42
1
  43
1
  50
0
  10
525219.006
  20
4601021.000
 66
1
  0
ATTRIB
  8
FeatureAttribs
 70
0
  1
PNOA-H_AMS_1956-57_33k_ES_PAN_21mic_H50_0378_fot_40B-38905_W.tif
  2
NAME
  10
525219.006
  20
4601021.000
 40
33.49417
  0
SEQEND
  0
POLYLINE
  8
PNOA-H_AMS_1956-57_33k_ES_PAN_21mic_H50_0378_fot_40B-38905_W_tif
  70
9
  66
1
  0
VERTEX
  8
PNOA-H_AMS_1956-57_33k_ES_PAN_21mic_H50_0378_fot_40B-38905_W_tif
  70
32
  10
526613.000
  20
4603021.000
  30
1026.151
  0
VERTEX
  8
PNOA-H_AMS_1956-57_33k_ES_PAN_21mic_H50_0378_fot_40B-38905_W_tif
  70
32
  10
526568.000
  20
4598850.500
  30
1022.185
  0
VERTEX
  8
PNOA-H_AMS_1956-57_33k_ES_PAN_21mic_H50_0378_fot_40B-38905_W_tif
  70
32
  10
524683.722
  20
4598857.000
  30
1003.296
  0
VERTEX
  8
PNOA-H_AMS_1956-57_33k_ES_PAN_21mic_H50_0378_fot_40B-38905_W_tif
  70
32
  10
523959.000
  20
4598859.500
  30
996.031
  0
VERTEX
  8
PNOA-H_AMS_1956-57_33k_ES_PAN_21mic_H50_0378_fot_40B-38905_W_tif
  70
32
  10
523833.500
  20
4598948.000
  30
988.73
  0
VERTEX
  8
PNOA-H_AMS_1956-57_33k_ES_PAN_21mic_H50_0378_fot_40B-38905_W_tif
  70
32
  10
523859.000
  20
4602985.500
  30
960.682
  0
VERTEX
  8
PNOA-H_AMS_1956-57_33k_ES_PAN_21mic_H50_0378_fot_40B-38905_W_tif
  70
32
  10
526284.500
  20
4603191.000
  30
1003.465
  0
VERTEX
  8
PNOA-H_AMS_1956-57_33k_ES_PAN_21mic_H50_0378_fot_40B-38905_W_tif
  70
32
  10
526290.489
  20
4603191.499
  30
1003.965
  0
VERTEX
  8
PNOA-H_AMS_1956-57_33k_ES_PAN_21mic_H50_0378_fot_40B-38905_W_tif
  70
32
  10
526290.500
  20
4603191.500
  30
1003.966
  0
VERTEX
  8
PNOA-H_AMS_1956-57_33k_ES_PAN_21mic_H50_0378_fot_40B-38905_W_tif
  70
32
  10
526613.000
  20
4603021.000
  30
1026.151
  0
SEQEND
  8
PNOA-H_AMS_1956-57_33k_ES_PAN_21mic_H50_0378_fot_40B-38905_W_tif
  0
INSERT
  8
FeatureAttribs
  2
FEATURE
  41
1
  42
1
  43
1
  50
0
  10
522436.960
  20
4601036.750
 66
1
  0
ATTRIB
  8
FeatureAttribs
 70
0
  1
PNOA-H_AMS_1956-57_33k_ES_PAN_21mic_H50_0378_fot_40B-38906_W.tif
  2
NAME
  10
522436.960
  20
4601036.750
 40
33.49417
  0
SEQEND
  0
POLYLINE
  8
PNOA-H_AMS_1956-57_33k_ES_PAN_21mic_H50_0378_fot_40B-38906_W_tif
  70
9
  66
1
  0
VERTEX
  8
PNOA-H_AMS_1956-57_33k_ES_PAN_21mic_H50_0378_fot_40B-38906_W_tif
  70
32
  10
523560.000
  20
4603148.500
  30
965.916
  0
VERTEX
  8
PNOA-H_AMS_1956-57_33k_ES_PAN_21mic_H50_0378_fot_40B-38906_W_tif
  70
32
  10
523567.000
  20
4603148.500
  30
965.373
  0
VERTEX
  8
PNOA-H_AMS_1956-57_33k_ES_PAN_21mic_H50_0378_fot_40B-38906_W_tif
  70
32
  10
523567.500
  20
4603148.500
  30
965.334
  0
VERTEX
  8
PNOA-H_AMS_1956-57_33k_ES_PAN_21mic_H50_0378_fot_40B-38906_W_tif
  70
32
  10
523569.500
  20
4603147.500
  30
965.183
  0
VERTEX
  8
PNOA-H_AMS_1956-57_33k_ES_PAN_21mic_H50_0378_fot_40B-38906_W_tif
  70
32
  10
523859.000
  20
4602985.500
  30
960.682
  0
VERTEX
  8
PNOA-H_AMS_1956-57_33k_ES_PAN_21mic_H50_0378_fot_40B-38906_W_tif
  70
32
  10
523833.500
  20
4598948.000
  30
988.73
  0
VERTEX
  8
PNOA-H_AMS_1956-57_33k_ES_PAN_21mic_H50_0378_fot_40B-38906_W_tif
  70
32
  10
521041.000
  20
4598925.000
  30
972.593
  0
VERTEX
  8
PNOA-H_AMS_1956-57_33k_ES_PAN_21mic_H50_0378_fot_40B-38906_W_tif
  70
32
  10
521041.000
  20
4598925.013
  30
972.593
  0
VERTEX
  8
PNOA-H_AMS_1956-57_33k_ES_PAN_21mic_H50_0378_fot_40B-38906_W_tif
  70
32
  10
521014.500
  20
4602988.500
  30
940.35
  0
VERTEX
  8
PNOA-H_AMS_1956-57_33k_ES_PAN_21mic_H50_0378_fot_40B-38906_W_tif
  70
32
  10
521016.416
  20
4602988.620
  30
940.37
  0
VERTEX
  8
PNOA-H_AMS_1956-57_33k_ES_PAN_21mic_H50_0378_fot_40B-38906_W_tif
  70
32
  10
523552.000
  20
4603148.000
  30
966.273
  0
VERTEX
  8
PNOA-H_AMS_1956-57_33k_ES_PAN_21mic_H50_0378_fot_40B-38906_W_tif
  70
32
  10
523560.000
  20
4603148.500
  30
965.916
  0
SEQEND
  8
PNOA-H_AMS_1956-57_33k_ES_PAN_21mic_H50_0378_fot_40B-38906_W_tif
  0
INSERT
  8
FeatureAttribs
  2
FEATURE
  41
1
  42
1
  43
1
  50
0
  10
523775.260
  20
4594344.279
 66
1
  0
ATTRIB
  8
FeatureAttribs
 70
0
  1
PNOA-H_AMS_1956-57_33k_ES_PAN_21mic_H50_0406_fot_42B-36325_E.tif
  2
NAME
  10
523775.260
  20
4594344.279
 40
33.49417
  0
SEQEND
  0
POLYLINE
  8
PNOA-H_AMS_1956-57_33k_ES_PAN_21mic_H50_0406_fot_42B-36325_E_tif
  70
9
  66
1
  0
VERTEX
  8
PNOA-H_AMS_1956-57_33k_ES_PAN_21mic_H50_0406_fot_42B-36325_E_tif
  70
32
  10
523475.386
  20
4594302.560
  30
916.842
  0
VERTEX
  8
PNOA-H_AMS_1956-57_33k_ES_PAN_21mic_H50_0406_fot_42B-36325_E_tif
  70
32
  10
523474.608
  20
4594302.558
  30
916.825
  0
VERTEX
  8
PNOA-H_AMS_1956-57_33k_ES_PAN_21mic_H50_0406_fot_42B-36325_E_tif
  70
32
  10
523722.500
  20
4594386.000
  30
918.918
  0
VERTEX
  8
PNOA-H_AMS_1956-57_33k_ES_PAN_21mic_H50_0406_fot_42B-36325_E_tif
  70
32
  10
523722.825
  20
4594385.941
  30
918.927
  0
VERTEX
  8
PNOA-H_AMS_1956-57_33k_ES_PAN_21mic_H50_0406_fot_42B-36325_E_tif
  70
32
  10
524168.558
  20
4594304.899
  30
932.31
  0
VERTEX
  8
PNOA-H_AMS_1956-57_33k_ES_PAN_21mic_H50_0406_fot_42B-36325_E_tif
  70
32
  10
523475.386
  20
4594302.560
  30
916.842
  0
SEQEND
  8
PNOA-H_AMS_1956-57_33k_ES_PAN_21mic_H50_0406_fot_42B-36325_E_tif
  0
INSERT
  8
FeatureAttribs
  2
FEATURE
  41
1
  42
1
  43
1
  50
0
  10
521103.175
  20
4594368.635
 66
1
  0
ATTRIB
  8
FeatureAttribs
 70
0
  1
PNOA-H_AMS_1956-57_33k_ES_PAN_21mic_H50_0406_fot_42B-36324_E.tif
  2
NAME
  10
521103.175
  20
4594368.635
 40
33.49417
  0
SEQEND
  0
POLYLINE
  8
PNOA-H_AMS_1956-57_33k_ES_PAN_21mic_H50_0406_fot_42B-36324_E_tif
  70
9
  66
1
  0
VERTEX
  8
PNOA-H_AMS_1956-57_33k_ES_PAN_21mic_H50_0406_fot_42B-36324_E_tif
  70
32
  10
520581.575
  20
4594293.774
  30
0
  0
VERTEX
  8
PNOA-H_AMS_1956-57_33k_ES_PAN_21mic_H50_0406_fot_42B-36324_E_tif
  70
32
  10
520580.086
  20
4594293.770
  30
905.735
  0
VERTEX
  8
PNOA-H_AMS_1956-57_33k_ES_PAN_21mic_H50_0406_fot_42B-36324_E_tif
  70
32
  10
520649.000
  20
4594316.500
  30
905.827
  0
VERTEX
  8
PNOA-H_AMS_1956-57_33k_ES_PAN_21mic_H50_0406_fot_42B-36324_E_tif
  70
32
  10
520650.500
  20
4594317.000
  30
905.821
  0
VERTEX
  8
PNOA-H_AMS_1956-57_33k_ES_PAN_21mic_H50_0406_fot_42B-36324_E_tif
  70
32
  10
521019.000
  20
4594438.500
  30
907.397
  0
VERTEX
  8
PNOA-H_AMS_1956-57_33k_ES_PAN_21mic_H50_0406_fot_42B-36324_E_tif
  70
32
  10
521034.500
  20
4594443.500
  30
907.464
  0
VERTEX
  8
PNOA-H_AMS_1956-57_33k_ES_PAN_21mic_H50_0406_fot_42B-36324_E_tif
  70
32
  10
521035.500
  20
4594443.500
  30
907.467
  0
VERTEX
  8
PNOA-H_AMS_1956-57_33k_ES_PAN_21mic_H50_0406_fot_42B-36324_E_tif
  70
32
  10
521037.500
  20
4594443.500
  30
907.471
  0
VERTEX
  8
PNOA-H_AMS_1956-57_33k_ES_PAN_21mic_H50_0406_fot_42B-36324_E_tif
  70
32
  10
521744.721
  20
4594297.137
  30
908.954
  0
VERTEX
  8
PNOA-H_AMS_1956-57_33k_ES_PAN_21mic_H50_0406_fot_42B-36324_E_tif
  70
32
  10
521742.451
  20
4594297.130
  30
0
  0
VERTEX
  8
PNOA-H_AMS_1956-57_33k_ES_PAN_21mic_H50_0406_fot_42B-36324_E_tif
  70
32
  10
520581.575
  20
4594293.774
  30
0
  0
SEQEND
  8
PNOA-H_AMS_1956-57_33k_ES_PAN_21mic_H50_0406_fot_42B-36324_E_tif
  0
INSERT
  8
FeatureAttribs
  2
FEATURE
  41
1
  42
1
  43
1
  50
0
  10
528880.432
  20
4609925.500
 66
1
  0
ATTRIB
  8
FeatureAttribs
 70
0
  1
PNOA-H_AMS_1956-57_33k_ES_PAN_21mic_H50_0378_fot_38C-40581_E.tif
  2
NAME
  10
528880.432
  20
4609925.500
 40
33.49417
  0
SEQEND
  0
POLYLINE
  8
PNOA-H_AMS_1956-57_33k_ES_PAN_21mic_H50_0378_fot_38C-40581_E_tif
  70
9
  66
1
  0
VERTEX
  8
PNOA-H_AMS_1956-57_33k_ES_PAN_21mic_H50_0378_fot_38C-40581_E_tif
  70
32
  10
530242.506
  20
4607909.355
  30
1008.563
  0
VERTEX
  8
PNOA-H_AMS_1956-57_33k_ES_PAN_21mic_H50_0378_fot_38C-40581_E_tif
  70
32
  10
528836.500
  20
4607497.500
  30
1019.926
  0
VERTEX
  8
PNOA-H_AMS_1956-57_33k_ES_PAN_21mic_H50_0378_fot_38C-40581_E_tif
  70
32
  10
528836.217
  20
4607497.579
  30
1019.92
  0
VERTEX
  8
PNOA-H_AMS_1956-57_33k_ES_PAN_21mic_H50_0378_fot_38C-40581_E_tif
  70
32
  10
527555.000
  20
4607855.500
  30
992.299
  0
VERTEX
  8
PNOA-H_AMS_1956-57_33k_ES_PAN_21mic_H50_0378_fot_38C-40581_E_tif
  70
32
  10
527527.095
  20
4611982.917
  30
1081.772
  0
VERTEX
  8
PNOA-H_AMS_1956-57_33k_ES_PAN_21mic_H50_0378_fot_38C-40581_E_tif
  70
32
  10
527527.000
  20
4611997.000
  30
1082.078
  0
VERTEX
  8
PNOA-H_AMS_1956-57_33k_ES_PAN_21mic_H50_0378_fot_38C-40581_E_tif
  70
32
  10
527528.012
  20
4611997.188
  30
1082.073
  0
VERTEX
  8
PNOA-H_AMS_1956-57_33k_ES_PAN_21mic_H50_0378_fot_38C-40581_E_tif
  70
32
  10
528838.500
  20
4612240.000
  30
1076.491
  0
VERTEX
  8
PNOA-H_AMS_1956-57_33k_ES_PAN_21mic_H50_0378_fot_38C-40581_E_tif
  70
32
  10
528841.000
  20
4612240.500
  30
1076.332
  0
VERTEX
  8
PNOA-H_AMS_1956-57_33k_ES_PAN_21mic_H50_0378_fot_38C-40581_E_tif
  70
32
  10
529310.586
  20
4612327.205
  30
1086.519
  0
VERTEX
  8
PNOA-H_AMS_1956-57_33k_ES_PAN_21mic_H50_0378_fot_38C-40581_E_tif
  70
32
  10
529452.655
  20
4612353.436
  30
1089.601
  0
VERTEX
  8
PNOA-H_AMS_1956-57_33k_ES_PAN_21mic_H50_0378_fot_38C-40581_E_tif
  70
32
  10
529453.000
  20
4612353.500
  30
1089.608
  0
VERTEX
  8
PNOA-H_AMS_1956-57_33k_ES_PAN_21mic_H50_0378_fot_38C-40581_E_tif
  70
32
  10
530194.651
  20
4612047.850
  30
1051.762
  0
VERTEX
  8
PNOA-H_AMS_1956-57_33k_ES_PAN_21mic_H50_0378_fot_38C-40581_E_tif
  70
32
  10
530195.500
  20
4612047.500
  30
1051.719
  0
VERTEX
  8
PNOA-H_AMS_1956-57_33k_ES_PAN_21mic_H50_0378_fot_38C-40581_E_tif
  70
32
  10
530243.000
  20
4607909.500
  30
1008.559
  0
VERTEX
  8
PNOA-H_AMS_1956-57_33k_ES_PAN_21mic_H50_0378_fot_38C-40581_E_tif
  70
32
  10
530242.506
  20
4607909.355
  30
1008.563
  0
SEQEND
  8
PNOA-H_AMS_1956-57_33k_ES_PAN_21mic_H50_0378_fot_38C-40581_E_tif
  0
INSERT
  8
FeatureAttribs
  2
FEATURE
  41
1
  42
1
  43
1
  50
0
  10
534326.047
  20
4610030.000
 66
1
  0
ATTRIB
  8
FeatureAttribs
 70
0
  1
PNOA-H_AMS_1956-57_33k_ES_PAN_21mic_H50_0378_fot_38C-40583_E.tif
  2
NAME
  10
534326.047
  20
4610030.000
 40
33.49417
  0
SEQEND
  0
POLYLINE
  8
PNOA-H_AMS_1956-57_33k_ES_PAN_21mic_H50_0378_fot_38C-40583_E_tif
  70
9
  66
1
  0
VERTEX
  8
PNOA-H_AMS_1956-57_33k_ES_PAN_21mic_H50_0378_fot_38C-40583_E_tif
  70
32
  10
535689.500
  20
4608018.000
  30
1035.517
  0
VERTEX
  8
PNOA-H_AMS_1956-57_33k_ES_PAN_21mic_H50_0378_fot_38C-40583_E_tif
  70
32
  10
533977.000
  20
4607638.000
  30
1034.851
  0
VERTEX
  8
PNOA-H_AMS_1956-57_33k_ES_PAN_21mic_H50_0378_fot_38C-40583_E_tif
  70
32
  10
533976.804
  20
4607638.068
  30
1034.847
  0
VERTEX
  8
PNOA-H_AMS_1956-57_33k_ES_PAN_21mic_H50_0378_fot_38C-40583_E_tif
  70
32
  10
533718.589
  20
4607727.089
  30
1028.386
  0
VERTEX
  8
PNOA-H_AMS_1956-57_33k_ES_PAN_21mic_H50_0378_fot_38C-40583_E_tif
  70
32
  10
532970.500
  20
4607985.000
  30
1009.669
  0
VERTEX
  8
PNOA-H_AMS_1956-57_33k_ES_PAN_21mic_H50_0378_fot_38C-40583_E_tif
  70
32
  10
532970.492
  20
4607985.498
  30
1009.674
  0
VERTEX
  8
PNOA-H_AMS_1956-57_33k_ES_PAN_21mic_H50_0378_fot_38C-40583_E_tif
  70
32
  10
532908.500
  20
4612025.500
  30
1054.046
  0
VERTEX
  8
PNOA-H_AMS_1956-57_33k_ES_PAN_21mic_H50_0378_fot_38C-40583_E_tif
  70
32
  10
532908.500
  20
4612045.000
  30
1055.851
  0
VERTEX
  8
PNOA-H_AMS_1956-57_33k_ES_PAN_21mic_H50_0378_fot_38C-40583_E_tif
  70
32
  10
532909.395
  20
4612045.173
  30
1056.051
  0
VERTEX
  8
PNOA-H_AMS_1956-57_33k_ES_PAN_21mic_H50_0378_fot_38C-40583_E_tif
  70
32
  10
532937.000
  20
4612050.500
  30
1062.222
  0
VERTEX
  8
PNOA-H_AMS_1956-57_33k_ES_PAN_21mic_H50_0378_fot_38C-40583_E_tif
  70
32
  10
532939.500
  20
4612051.000
  30
1062.763
  0
VERTEX
  8
PNOA-H_AMS_1956-57_33k_ES_PAN_21mic_H50_0378_fot_38C-40583_E_tif
  70
32
  10
534911.500
  20
4612422.000
  30
1044.361
  0
VERTEX
  8
PNOA-H_AMS_1956-57_33k_ES_PAN_21mic_H50_0378_fot_38C-40583_E_tif
  70
32
  10
534911.503
  20
4612421.999
  30
1044.361
  0
VERTEX
  8
PNOA-H_AMS_1956-57_33k_ES_PAN_21mic_H50_0378_fot_38C-40583_E_tif
  70
32
  10
535736.225
  20
4612046.625
  30
1076.363
  0
VERTEX
  8
PNOA-H_AMS_1956-57_33k_ES_PAN_21mic_H50_0378_fot_38C-40583_E_tif
  70
32
  10
535736.500
  20
4612046.500
  30
1076.374
  0
VERTEX
  8
PNOA-H_AMS_1956-57_33k_ES_PAN_21mic_H50_0378_fot_38C-40583_E_tif
  70
32
  10
535689.506
  20
4608018.498
  30
1035.523
  0
VERTEX
  8
PNOA-H_AMS_1956-57_33k_ES_PAN_21mic_H50_0378_fot_38C-40583_E_tif
  70
32
  10
535689.505
  20
4608018.390
  30
1035.521
  0
VERTEX
  8
PNOA-H_AMS_1956-57_33k_ES_PAN_21mic_H50_0378_fot_38C-40583_E_tif
  70
32
  10
535689.500
  20
4608018.000
  30
1035.517
  0
SEQEND
  8
PNOA-H_AMS_1956-57_33k_ES_PAN_21mic_H50_0378_fot_38C-40583_E_tif
  0
INSERT
  8
FeatureAttribs
  2
FEATURE
  41
1
  42
1
  43
1
  50
0
  10
531579.622
  20
4609981.000
 66
1
  0
ATTRIB
  8
FeatureAttribs
 70
0
  1
PNOA-H_AMS_1956-57_33k_ES_PAN_21mic_H50_0378_fot_38C-40582_E.tif
  2
NAME
  10
531579.622
  20
4609981.000
 40
33.49417
  0
SEQEND
  0
POLYLINE
  8
PNOA-H_AMS_1956-57_33k_ES_PAN_21mic_H50_0378_fot_38C-40582_E_tif
  70
9
  66
1
  0
VERTEX
  8
PNOA-H_AMS_1956-57_33k_ES_PAN_21mic_H50_0378_fot_38C-40582_E_tif
  70
32
  10
532970.492
  20
4607985.498
  30
1009.636
  0
VERTEX
  8
PNOA-H_AMS_1956-57_33k_ES_PAN_21mic_H50_0378_fot_38C-40582_E_tif
  70
32
  10
531447.000
  20
4607565.000
  30
992.163
  0
VERTEX
  8
PNOA-H_AMS_1956-57_33k_ES_PAN_21mic_H50_0378_fot_38C-40582_E_tif
  70
32
  10
531446.509
  20
4607565.140
  30
992.17
  0
VERTEX
  8
PNOA-H_AMS_1956-57_33k_ES_PAN_21mic_H50_0378_fot_38C-40582_E_tif
  70
32
  10
530243.000
  20
4607909.500
  30
1008.559
  0
VERTEX
  8
PNOA-H_AMS_1956-57_33k_ES_PAN_21mic_H50_0378_fot_38C-40582_E_tif
  70
32
  10
530195.500
  20
4612047.500
  30
1051.719
  0
VERTEX
  8
PNOA-H_AMS_1956-57_33k_ES_PAN_21mic_H50_0378_fot_38C-40582_E_tif
  70
32
  10
530196.501
  20
4612047.682
  30
1051.691
  0
VERTEX
  8
PNOA-H_AMS_1956-57_33k_ES_PAN_21mic_H50_0378_fot_38C-40582_E_tif
  70
32
  10
530887.000
  20
4612173.000
  30
1032.458
  0
VERTEX
  8
PNOA-H_AMS_1956-57_33k_ES_PAN_21mic_H50_0378_fot_38C-40582_E_tif
  70
32
  10
530890.000
  20
4612173.500
  30
1032.571
  0
VERTEX
  8
PNOA-H_AMS_1956-57_33k_ES_PAN_21mic_H50_0378_fot_38C-40582_E_tif
  70
32
  10
531929.887
  20
4612361.766
  30
1046.278
  0
VERTEX
  8
PNOA-H_AMS_1956-57_33k_ES_PAN_21mic_H50_0378_fot_38C-40582_E_tif
  70
32
  10
532124.144
  20
4612396.935
  30
1048.838
  0
VERTEX
  8
PNOA-H_AMS_1956-57_33k_ES_PAN_21mic_H50_0378_fot_38C-40582_E_tif
  70
32
  10
532124.500
  20
4612397.000
  30
1048.843
  0
VERTEX
  8
PNOA-H_AMS_1956-57_33k_ES_PAN_21mic_H50_0378_fot_38C-40582_E_tif
  70
32
  10
532905.875
  20
4612046.179
  30
1055.828
  0
VERTEX
  8
PNOA-H_AMS_1956-57_33k_ES_PAN_21mic_H50_0378_fot_38C-40582_E_tif
  70
32
  10
532908.500
  20
4612045.000
  30
1055.851
  0
VERTEX
  8
PNOA-H_AMS_1956-57_33k_ES_PAN_21mic_H50_0378_fot_38C-40582_E_tif
  70
32
  10
532970.500
  20
4607985.500
  30
1009.637
  0
VERTEX
  8
PNOA-H_AMS_1956-57_33k_ES_PAN_21mic_H50_0378_fot_38C-40582_E_tif
  70
32
  10
532970.492
  20
4607985.498
  30
1009.636
  0
SEQEND
  8
PNOA-H_AMS_1956-57_33k_ES_PAN_21mic_H50_0378_fot_38C-40582_E_tif
  0
INSERT
  8
FeatureAttribs
  2
FEATURE
  41
1
  42
1
  43
1
  50
0
  10
532777.798
  20
4605509.750
 66
1
  0
ATTRIB
  8
FeatureAttribs
 70
0
  1
PNOA-H_AMS_1956-57_33k_ES_PAN_21mic_H50_0378_fot_39D-44201_E.tif
  2
NAME
  10
532777.798
  20
4605509.750
 40
33.49417
  0
SEQEND
  0
POLYLINE
  8
PNOA-H_AMS_1956-57_33k_ES_PAN_21mic_H50_0378_fot_39D-44201_E_tif
  70
9
  66
1
  0
VERTEX
  8
PNOA-H_AMS_1956-57_33k_ES_PAN_21mic_H50_0378_fot_39D-44201_E_tif
  70
32
  10
532108.500
  20
4603034.000
  30
1039.358
  0
VERTEX
  8
PNOA-H_AMS_1956-57_33k_ES_PAN_21mic_H50_0378_fot_39D-44201_E_tif
  70
32
  10
532108.000
  20
4603034.000
  30
1039.385
  0
VERTEX
  8
PNOA-H_AMS_1956-57_33k_ES_PAN_21mic_H50_0378_fot_39D-44201_E_tif
  70
32
  10
532094.000
  20
4603040.000
  30
1040.908
  0
VERTEX
  8
PNOA-H_AMS_1956-57_33k_ES_PAN_21mic_H50_0378_fot_39D-44201_E_tif
  70
32
  10
531562.500
  20
4603270.500
  30
1011.966
  0
VERTEX
  8
PNOA-H_AMS_1956-57_33k_ES_PAN_21mic_H50_0378_fot_39D-44201_E_tif
  70
32
  10
531446.000
  20
4607565.000
  30
992.169
  0
VERTEX
  8
PNOA-H_AMS_1956-57_33k_ES_PAN_21mic_H50_0378_fot_39D-44201_E_tif
  70
32
  10
531446.509
  20
4607565.140
  30
992.175
  0
VERTEX
  8
PNOA-H_AMS_1956-57_33k_ES_PAN_21mic_H50_0378_fot_39D-44201_E_tif
  70
32
  10
532937.500
  20
4607976.500
  30
1010.343
  0
VERTEX
  8
PNOA-H_AMS_1956-57_33k_ES_PAN_21mic_H50_0378_fot_39D-44201_E_tif
  70
32
  10
532939.500
  20
4607977.000
  30
1010.339
  0
VERTEX
  8
PNOA-H_AMS_1956-57_33k_ES_PAN_21mic_H50_0378_fot_39D-44201_E_tif
  70
32
  10
532970.492
  20
4607985.498
  30
1009.637
  0
VERTEX
  8
PNOA-H_AMS_1956-57_33k_ES_PAN_21mic_H50_0378_fot_39D-44201_E_tif
  70
32
  10
532970.500
  20
4607985.500
  30
1009.637
  0
VERTEX
  8
PNOA-H_AMS_1956-57_33k_ES_PAN_21mic_H50_0378_fot_39D-44201_E_tif
  70
32
  10
533718.589
  20
4607727.089
  30
1028.399
  0
VERTEX
  8
PNOA-H_AMS_1956-57_33k_ES_PAN_21mic_H50_0378_fot_39D-44201_E_tif
  70
32
  10
533976.500
  20
4607638.000
  30
1034.867
  0
VERTEX
  8
PNOA-H_AMS_1956-57_33k_ES_PAN_21mic_H50_0378_fot_39D-44201_E_tif
  70
32
  10
534133.000
  20
4603331.500
  30
1070.651
  0
VERTEX
  8
PNOA-H_AMS_1956-57_33k_ES_PAN_21mic_H50_0378_fot_39D-44201_E_tif
  70
32
  10
532110.500
  20
4603034.000
  30
1039.25
  0
VERTEX
  8
PNOA-H_AMS_1956-57_33k_ES_PAN_21mic_H50_0378_fot_39D-44201_E_tif
  70
32
  10
532108.500
  20
4603034.000
  30
1039.358
  0
SEQEND
  8
PNOA-H_AMS_1956-57_33k_ES_PAN_21mic_H50_0378_fot_39D-44201_E_tif
  0
INSERT
  8
FeatureAttribs
  2
FEATURE
  41
1
  42
1
  43
1
  50
0
  10
530208.871
  20
4605463.250
 66
1
  0
ATTRIB
  8
FeatureAttribs
 70
0
  1
PNOA-H_AMS_1956-57_33k_ES_PAN_21mic_H50_0378_fot_39D-44200_E.tif
  2
NAME
  10
530208.871
  20
4605463.250
 40
33.49417
  0
SEQEND
  0
POLYLINE
  8
PNOA-H_AMS_1956-57_33k_ES_PAN_21mic_H50_0378_fot_39D-44200_E_tif
  70
9
  66
1
  0
VERTEX
  8
PNOA-H_AMS_1956-57_33k_ES_PAN_21mic_H50_0378_fot_39D-44200_E_tif
  70
32
  10
531562.500
  20
4603270.500
  30
1011.966
  0
VERTEX
  8
PNOA-H_AMS_1956-57_33k_ES_PAN_21mic_H50_0378_fot_39D-44200_E_tif
  70
32
  10
529354.000
  20
4603017.000
  30
986.249
  0
VERTEX
  8
PNOA-H_AMS_1956-57_33k_ES_PAN_21mic_H50_0378_fot_39D-44200_E_tif
  70
32
  10
529353.907
  20
4603017.047
  30
986.252
  0
VERTEX
  8
PNOA-H_AMS_1956-57_33k_ES_PAN_21mic_H50_0378_fot_39D-44200_E_tif
  70
32
  10
529237.000
  20
4603075.667
  30
989.567
  0
VERTEX
  8
PNOA-H_AMS_1956-57_33k_ES_PAN_21mic_H50_0378_fot_39D-44200_E_tif
  70
32
  10
529003.125
  20
4603192.937
  30
996.201
  0
VERTEX
  8
PNOA-H_AMS_1956-57_33k_ES_PAN_21mic_H50_0378_fot_39D-44200_E_tif
  70
32
  10
529003.000
  20
4603193.000
  30
996.204
  0
VERTEX
  8
PNOA-H_AMS_1956-57_33k_ES_PAN_21mic_H50_0378_fot_39D-44200_E_tif
  70
32
  10
528836.000
  20
4607488.000
  30
1020.607
  0
VERTEX
  8
PNOA-H_AMS_1956-57_33k_ES_PAN_21mic_H50_0378_fot_39D-44200_E_tif
  70
32
  10
528836.000
  20
4607497.500
  30
1019.959
  0
VERTEX
  8
PNOA-H_AMS_1956-57_33k_ES_PAN_21mic_H50_0378_fot_39D-44200_E_tif
  70
32
  10
528836.217
  20
4607497.579
  30
1019.944
  0
VERTEX
  8
PNOA-H_AMS_1956-57_33k_ES_PAN_21mic_H50_0378_fot_39D-44200_E_tif
  70
32
  10
528841.500
  20
4607499.500
  30
1019.573
  0
VERTEX
  8
PNOA-H_AMS_1956-57_33k_ES_PAN_21mic_H50_0378_fot_39D-44200_E_tif
  70
32
  10
528843.500
  20
4607500.000
  30
1019.468
  0
VERTEX
  8
PNOA-H_AMS_1956-57_33k_ES_PAN_21mic_H50_0378_fot_39D-44200_E_tif
  70
32
  10
530242.000
  20
4607909.500
  30
1008.601
  0
VERTEX
  8
PNOA-H_AMS_1956-57_33k_ES_PAN_21mic_H50_0378_fot_39D-44200_E_tif
  70
32
  10
530242.506
  20
4607909.355
  30
1008.594
  0
VERTEX
  8
PNOA-H_AMS_1956-57_33k_ES_PAN_21mic_H50_0378_fot_39D-44200_E_tif
  70
32
  10
531446.000
  20
4607565.000
  30
992.169
  0
VERTEX
  8
PNOA-H_AMS_1956-57_33k_ES_PAN_21mic_H50_0378_fot_39D-44200_E_tif
  70
32
  10
531562.500
  20
4603270.500
  30
1011.966
  0
SEQEND
  8
PNOA-H_AMS_1956-57_33k_ES_PAN_21mic_H50_0378_fot_39D-44200_E_tif
  0
INSERT
  8
FeatureAttribs
  2
FEATURE
  41
1
  42
1
  43
1
  50
0
  10
527577.793
  20
4605438.000
 66
1
  0
ATTRIB
  8
FeatureAttribs
 70
0
  1
PNOA-H_AMS_1956-57_33k_ES_PAN_21mic_H50_0378_fot_39D-44199_E.tif
  2
NAME
  10
527577.793
  20
4605438.000
 40
33.49417
  0
SEQEND
  0
POLYLINE
  8
PNOA-H_AMS_1956-57_33k_ES_PAN_21mic_H50_0378_fot_39D-44199_E_tif
  70
9
  66
1
  0
VERTEX
  8
PNOA-H_AMS_1956-57_33k_ES_PAN_21mic_H50_0378_fot_39D-44199_E_tif
  70
32
  10
528726.544
  20
4603173.038
  30
999.669
  0
VERTEX
  8
PNOA-H_AMS_1956-57_33k_ES_PAN_21mic_H50_0378_fot_39D-44199_E_tif
  70
32
  10
526614.000
  20
4603020.500
  30
1026.142
  0
VERTEX
  8
PNOA-H_AMS_1956-57_33k_ES_PAN_21mic_H50_0378_fot_39D-44199_E_tif
  70
32
  10
526613.876
  20
4603020.565
  30
1026.134
  0
VERTEX
  8
PNOA-H_AMS_1956-57_33k_ES_PAN_21mic_H50_0378_fot_39D-44199_E_tif
  70
32
  10
526290.500
  20
4603191.500
  30
1003.966
  0
VERTEX
  8
PNOA-H_AMS_1956-57_33k_ES_PAN_21mic_H50_0378_fot_39D-44199_E_tif
  70
32
  10
526194.500
  20
4607435.500
  30
1012.115
  0
VERTEX
  8
PNOA-H_AMS_1956-57_33k_ES_PAN_21mic_H50_0378_fot_39D-44199_E_tif
  70
32
  10
526194.999
  20
4607435.654
  30
1012.108
  0
VERTEX
  8
PNOA-H_AMS_1956-57_33k_ES_PAN_21mic_H50_0378_fot_39D-44199_E_tif
  70
32
  10
527552.500
  20
4607855.000
  30
992.299
  0
VERTEX
  8
PNOA-H_AMS_1956-57_33k_ES_PAN_21mic_H50_0378_fot_39D-44199_E_tif
  70
32
  10
527554.000
  20
4607855.500
  30
992.301
  0
VERTEX
  8
PNOA-H_AMS_1956-57_33k_ES_PAN_21mic_H50_0378_fot_39D-44199_E_tif
  70
32
  10
527554.525
  20
4607855.353
  30
992.313
  0
VERTEX
  8
PNOA-H_AMS_1956-57_33k_ES_PAN_21mic_H50_0378_fot_39D-44199_E_tif
  70
32
  10
528836.000
  20
4607497.500
  30
1019.959
  0
VERTEX
  8
PNOA-H_AMS_1956-57_33k_ES_PAN_21mic_H50_0378_fot_39D-44199_E_tif
  70
32
  10
529003.000
  20
4603193.000
  30
996.204
  0
VERTEX
  8
PNOA-H_AMS_1956-57_33k_ES_PAN_21mic_H50_0378_fot_39D-44199_E_tif
  70
32
  10
528726.544
  20
4603173.038
  30
999.669
  0
SEQEND
  8
PNOA-H_AMS_1956-57_33k_ES_PAN_21mic_H50_0378_fot_39D-44199_E_tif
  0
INSERT
  8
FeatureAttribs
  2
FEATURE
  41
1
  42
1
  43
1
  50
0
  10
533478.376
  20
4601037.500
 66
1
  0
ATTRIB
  8
FeatureAttribs
 70
0
  1
PNOA-H_AMS_1956-57_33k_ES_PAN_21mic_H50_0378_fot_40B-38902_W.tif
  2
NAME
  10
533478.376
  20
4601037.500
 40
33.49417
  0
SEQEND
  0
POLYLINE
  8
PNOA-H_AMS_1956-57_33k_ES_PAN_21mic_H50_0378_fot_40B-38902_W_tif
  70
9
  66
1
  0
VERTEX
  8
PNOA-H_AMS_1956-57_33k_ES_PAN_21mic_H50_0378_fot_40B-38902_W_tif
  70
32
  10
534130.500
  20
4603331.500
  30
1070.548
  0
VERTEX
  8
PNOA-H_AMS_1956-57_33k_ES_PAN_21mic_H50_0378_fot_40B-38902_W_tif
  70
32
  10
534133.000
  20
4603331.500
  30
1070.65
  0
VERTEX
  8
PNOA-H_AMS_1956-57_33k_ES_PAN_21mic_H50_0378_fot_40B-38902_W_tif
  70
32
  10
534134.000
  20
4603331.500
  30
1070.691
  0
VERTEX
  8
PNOA-H_AMS_1956-57_33k_ES_PAN_21mic_H50_0378_fot_40B-38902_W_tif
  70
32
  10
534140.500
  20
4603329.000
  30
1071.208
  0
VERTEX
  8
PNOA-H_AMS_1956-57_33k_ES_PAN_21mic_H50_0378_fot_40B-38902_W_tif
  70
32
  10
534510.299
  20
4603183.618
  30
1071.014
  0
VERTEX
  8
PNOA-H_AMS_1956-57_33k_ES_PAN_21mic_H50_0378_fot_40B-38902_W_tif
  70
32
  10
534840.000
  20
4603054.000
  30
1070.84
  0
VERTEX
  8
PNOA-H_AMS_1956-57_33k_ES_PAN_21mic_H50_0378_fot_40B-38902_W_tif
  70
32
  10
534857.000
  20
4598779.000
  30
1076.115
  0
VERTEX
  8
PNOA-H_AMS_1956-57_33k_ES_PAN_21mic_H50_0378_fot_40B-38902_W_tif
  70
32
  10
534821.207
  20
4598778.538
  30
1075.144
  0
VERTEX
  8
PNOA-H_AMS_1956-57_33k_ES_PAN_21mic_H50_0378_fot_40B-38902_W_tif
  70
32
  10
532113.992
  20
4598743.564
  30
1001.698
  0
VERTEX
  8
PNOA-H_AMS_1956-57_33k_ES_PAN_21mic_H50_0378_fot_40B-38902_W_tif
  70
32
  10
532109.000
  20
4598743.500
  30
1001.562
  0
VERTEX
  8
PNOA-H_AMS_1956-57_33k_ES_PAN_21mic_H50_0378_fot_40B-38902_W_tif
  70
32
  10
532108.500
  20
4603034.000
  30
1039.358
  0
VERTEX
  8
PNOA-H_AMS_1956-57_33k_ES_PAN_21mic_H50_0378_fot_40B-38902_W_tif
  70
32
  10
534127.000
  20
4603331.000
  30
1070.467
  0
VERTEX
  8
PNOA-H_AMS_1956-57_33k_ES_PAN_21mic_H50_0378_fot_40B-38902_W_tif
  70
32
  10
534130.500
  20
4603331.500
  30
1070.548
  0
SEQEND
  8
PNOA-H_AMS_1956-57_33k_ES_PAN_21mic_H50_0378_fot_40B-38902_W_tif
  0
INSERT
  8
FeatureAttribs
  2
FEATURE
  41
1
  42
1
  43
1
  50
0
  10
530726.079
  20
4600993.000
 66
1
  0
ATTRIB
  8
FeatureAttribs
 70
0
  1
PNOA-H_AMS_1956-57_33k_ES_PAN_21mic_H50_0378_fot_40B-38903_W.tif
  2
NAME
  10
530726.079
  20
4600993.000
 40
33.49417
  0
SEQEND
  0
POLYLINE
  8
PNOA-H_AMS_1956-57_33k_ES_PAN_21mic_H50_0378_fot_40B-38903_W_tif
  70
9
  66
1
  0
VERTEX
  8
PNOA-H_AMS_1956-57_33k_ES_PAN_21mic_H50_0378_fot_40B-38903_W_tif
  70
32
  10
532066.506
  20
4598715.504
  30
1010.646
  0
VERTEX
  8
PNOA-H_AMS_1956-57_33k_ES_PAN_21mic_H50_0378_fot_40B-38903_W_tif
  70
32
  10
532066.500
  20
4598715.500
  30
1010.648
  0
VERTEX
  8
PNOA-H_AMS_1956-57_33k_ES_PAN_21mic_H50_0378_fot_40B-38903_W_tif
  70
32
  10
530882.794
  20
4598739.500
  30
1005.38
  0
VERTEX
  8
PNOA-H_AMS_1956-57_33k_ES_PAN_21mic_H50_0378_fot_40B-38903_W_tif
  70
32
  10
529378.500
  20
4598770.000
  30
998.687
  0
VERTEX
  8
PNOA-H_AMS_1956-57_33k_ES_PAN_21mic_H50_0378_fot_40B-38903_W_tif
  70
32
  10
529378.488
  20
4598770.008
  30
998.687
  0
VERTEX
  8
PNOA-H_AMS_1956-57_33k_ES_PAN_21mic_H50_0378_fot_40B-38903_W_tif
  70
32
  10
529332.500
  20
4598800.500
  30
999.418
  0
VERTEX
  8
PNOA-H_AMS_1956-57_33k_ES_PAN_21mic_H50_0378_fot_40B-38903_W_tif
  70
32
  10
529332.502
  20
4598800.998
  30
999.416
  0
VERTEX
  8
PNOA-H_AMS_1956-57_33k_ES_PAN_21mic_H50_0378_fot_40B-38903_W_tif
  70
32
  10
529353.500
  20
4603017.000
  30
986.276
  0
VERTEX
  8
PNOA-H_AMS_1956-57_33k_ES_PAN_21mic_H50_0378_fot_40B-38903_W_tif
  70
32
  10
529353.907
  20
4603017.047
  30
986.28
  0
VERTEX
  8
PNOA-H_AMS_1956-57_33k_ES_PAN_21mic_H50_0378_fot_40B-38903_W_tif
  70
32
  10
531555.000
  20
4603270.000
  30
1011.571
  0
VERTEX
  8
PNOA-H_AMS_1956-57_33k_ES_PAN_21mic_H50_0378_fot_40B-38903_W_tif
  70
32
  10
531559.500
  20
4603270.500
  30
1011.783
  0
VERTEX
  8
PNOA-H_AMS_1956-57_33k_ES_PAN_21mic_H50_0378_fot_40B-38903_W_tif
  70
32
  10
531562.500
  20
4603270.500
  30
1011.971
  0
VERTEX
  8
PNOA-H_AMS_1956-57_33k_ES_PAN_21mic_H50_0378_fot_40B-38903_W_tif
  70
32
  10
531563.500
  20
4603270.500
  30
1012.033
  0
VERTEX
  8
PNOA-H_AMS_1956-57_33k_ES_PAN_21mic_H50_0378_fot_40B-38903_W_tif
  70
32
  10
531567.000
  20
4603269.000
  30
1012.422
  0
VERTEX
  8
PNOA-H_AMS_1956-57_33k_ES_PAN_21mic_H50_0378_fot_40B-38903_W_tif
  70
32
  10
532108.500
  20
4603034.000
  30
1039.358
  0
VERTEX
  8
PNOA-H_AMS_1956-57_33k_ES_PAN_21mic_H50_0378_fot_40B-38903_W_tif
  70
32
  10
532109.000
  20
4598743.500
  30
1001.562
  0
VERTEX
  8
PNOA-H_AMS_1956-57_33k_ES_PAN_21mic_H50_0378_fot_40B-38903_W_tif
  70
32
  10
532108.354
  20
4598743.074
  30
1001.7
  0
VERTEX
  8
PNOA-H_AMS_1956-57_33k_ES_PAN_21mic_H50_0378_fot_40B-38903_W_tif
  70
32
  10
532066.506
  20
4598715.504
  30
1010.646
  0
SEQEND
  8
PNOA-H_AMS_1956-57_33k_ES_PAN_21mic_H50_0378_fot_40B-38903_W_tif
  0
INSERT
  8
FeatureAttribs
  2
FEATURE
  41
1
  42
1
  43
1
  50
0
  10
527967.156
  20
4600978.500
 66
1
  0
ATTRIB
  8
FeatureAttribs
 70
0
  1
PNOA-H_AMS_1956-57_33k_ES_PAN_21mic_H50_0378_fot_40B-38904_W.tif
  2
NAME
  10
527967.156
  20
4600978.500
 40
33.49417
  0
SEQEND
  0
POLYLINE
  8
PNOA-H_AMS_1956-57_33k_ES_PAN_21mic_H50_0378_fot_40B-38904_W_tif
  70
9
  66
1
  0
VERTEX
  8
PNOA-H_AMS_1956-57_33k_ES_PAN_21mic_H50_0378_fot_40B-38904_W_tif
  70
32
  10
529332.500
  20
4598801.000
  30
999.33
  0
VERTEX
  8
PNOA-H_AMS_1956-57_33k_ES_PAN_21mic_H50_0378_fot_40B-38904_W_tif
  70
32
  10
526697.500
  20
4598764.000
  30
1019.185
  0
VERTEX
  8
PNOA-H_AMS_1956-57_33k_ES_PAN_21mic_H50_0378_fot_40B-38904_W_tif
  70
32
  10
526697.479
  20
4598764.014
  30
1019.186
  0
VERTEX
  8
PNOA-H_AMS_1956-57_33k_ES_PAN_21mic_H50_0378_fot_40B-38904_W_tif
  70
32
  10
526568.000
  20
4598850.000
  30
1022.153
  0
VERTEX
  8
PNOA-H_AMS_1956-57_33k_ES_PAN_21mic_H50_0378_fot_40B-38904_W_tif
  70
32
  10
526568.005
  20
4598850.496
  30
1022.153
  0
VERTEX
  8
PNOA-H_AMS_1956-57_33k_ES_PAN_21mic_H50_0378_fot_40B-38904_W_tif
  70
32
  10
526613.000
  20
4603020.500
  30
1026.143
  0
VERTEX
  8
PNOA-H_AMS_1956-57_33k_ES_PAN_21mic_H50_0378_fot_40B-38904_W_tif
  70
32
  10
526613.876
  20
4603020.565
  30
1026.152
  0
VERTEX
  8
PNOA-H_AMS_1956-57_33k_ES_PAN_21mic_H50_0378_fot_40B-38904_W_tif
  70
32
  10
526787.000
  20
4603033.500
  30
1027.983
  0
VERTEX
  8
PNOA-H_AMS_1956-57_33k_ES_PAN_21mic_H50_0378_fot_40B-38904_W_tif
  70
32
  10
526794.000
  20
4603034.000
  30
1027.961
  0
VERTEX
  8
PNOA-H_AMS_1956-57_33k_ES_PAN_21mic_H50_0378_fot_40B-38904_W_tif
  70
32
  10
528726.544
  20
4603173.038
  30
1000.139
  0
VERTEX
  8
PNOA-H_AMS_1956-57_33k_ES_PAN_21mic_H50_0378_fot_40B-38904_W_tif
  70
32
  10
529003.125
  20
4603192.937
  30
996.157
  0
VERTEX
  8
PNOA-H_AMS_1956-57_33k_ES_PAN_21mic_H50_0378_fot_40B-38904_W_tif
  70
32
  10
529004.000
  20
4603193.000
  30
996.144
  0
VERTEX
  8
PNOA-H_AMS_1956-57_33k_ES_PAN_21mic_H50_0378_fot_40B-38904_W_tif
  70
32
  10
529237.000
  20
4603075.667
  30
989.565
  0
VERTEX
  8
PNOA-H_AMS_1956-57_33k_ES_PAN_21mic_H50_0378_fot_40B-38904_W_tif
  70
32
  10
529353.500
  20
4603017.000
  30
986.276
  0
VERTEX
  8
PNOA-H_AMS_1956-57_33k_ES_PAN_21mic_H50_0378_fot_40B-38904_W_tif
  70
32
  10
529332.500
  20
4598801.000
  30
999.33
  0
SEQEND
  8
PNOA-H_AMS_1956-57_33k_ES_PAN_21mic_H50_0378_fot_40B-38904_W_tif
  0
INSERT
  8
FeatureAttribs
  2
FEATURE
  41
1
  42
1
  43
1
  50
0
  10
530710.261
  20
4596546.829
 66
1
  0
ATTRIB
  8
FeatureAttribs
 70
0
  1
PNOA-H_AMS_1956-57_33k_ES_PAN_21mic_H50_0378_fot_41B-37390_W.tif
  2
NAME
  10
530710.261
  20
4596546.829
 40
33.49417
  0
SEQEND
  0
POLYLINE
  8
PNOA-H_AMS_1956-57_33k_ES_PAN_21mic_H50_0378_fot_41B-37390_W_tif
  70
9
  66
1
  0
VERTEX
  8
PNOA-H_AMS_1956-57_33k_ES_PAN_21mic_H50_0378_fot_41B-37390_W_tif
  70
32
  10
529378.500
  20
4598770.000
  30
998.687
  0
VERTEX
  8
PNOA-H_AMS_1956-57_33k_ES_PAN_21mic_H50_0378_fot_41B-37390_W_tif
  70
32
  10
530882.500
  20
4598739.500
  30
999.023
  0
VERTEX
  8
PNOA-H_AMS_1956-57_33k_ES_PAN_21mic_H50_0378_fot_41B-37390_W_tif
  70
32
  10
530882.794
  20
4598739.500
  30
1005.38
  0
VERTEX
  8
PNOA-H_AMS_1956-57_33k_ES_PAN_21mic_H50_0378_fot_41B-37390_W_tif
  70
32
  10
530892.000
  20
4598739.500
  30
999.266
  0
VERTEX
  8
PNOA-H_AMS_1956-57_33k_ES_PAN_21mic_H50_0378_fot_41B-37390_W_tif
  70
32
  10
532066.500
  20
4598715.500
  30
1010.648
  0
VERTEX
  8
PNOA-H_AMS_1956-57_33k_ES_PAN_21mic_H50_0378_fot_41B-37390_W_tif
  70
32
  10
532122.580
  20
4594335.874
  30
954.877
  0
VERTEX
  8
PNOA-H_AMS_1956-57_33k_ES_PAN_21mic_H50_0378_fot_41B-37390_W_tif
  70
32
  10
529559.754
  20
4594324.760
  30
0
  0
VERTEX
  8
PNOA-H_AMS_1956-57_33k_ES_PAN_21mic_H50_0378_fot_41B-37390_W_tif
  70
32
  10
529274.006
  20
4594323.658
  30
922.062
  0
VERTEX
  8
PNOA-H_AMS_1956-57_33k_ES_PAN_21mic_H50_0378_fot_41B-37390_W_tif
  70
32
  10
529378.500
  20
4598770.000
  30
998.687
  0
SEQEND
  8
PNOA-H_AMS_1956-57_33k_ES_PAN_21mic_H50_0378_fot_41B-37390_W_tif
  0
INSERT
  8
FeatureAttribs
  2
FEATURE
  41
1
  42
1
  43
1
  50
0
  10
527964.773
  20
4596556.996
 66
1
  0
ATTRIB
  8
FeatureAttribs
 70
0
  1
PNOA-H_AMS_1956-57_33k_ES_PAN_21mic_H50_0378_fot_41B-37391_W.tif
  2
NAME
  10
527964.773
  20
4596556.996
 40
33.49417
  0
SEQEND
  0
POLYLINE
  8
PNOA-H_AMS_1956-57_33k_ES_PAN_21mic_H50_0378_fot_41B-37391_W_tif
  70
9
  66
1
  0
VERTEX
  8
PNOA-H_AMS_1956-57_33k_ES_PAN_21mic_H50_0378_fot_41B-37391_W_tif
  70
32
  10
526507.491
  20
4594312.993
  30
0
  0
VERTEX
  8
PNOA-H_AMS_1956-57_33k_ES_PAN_21mic_H50_0378_fot_41B-37391_W_tif
  70
32
  10
526507.035
  20
4594312.991
  30
941.79
  0
VERTEX
  8
PNOA-H_AMS_1956-57_33k_ES_PAN_21mic_H50_0378_fot_41B-37391_W_tif
  70
32
  10
526688.984
  20
4598564.984
  30
1015.725
  0
VERTEX
  8
PNOA-H_AMS_1956-57_33k_ES_PAN_21mic_H50_0378_fot_41B-37391_W_tif
  70
32
  10
526697.500
  20
4598764.000
  30
1019.185
  0
VERTEX
  8
PNOA-H_AMS_1956-57_33k_ES_PAN_21mic_H50_0378_fot_41B-37391_W_tif
  70
32
  10
526742.500
  20
4598765.000
  30
1018.973
  0
VERTEX
  8
PNOA-H_AMS_1956-57_33k_ES_PAN_21mic_H50_0378_fot_41B-37391_W_tif
  70
32
  10
526778.000
  20
4598765.500
  30
1018.649
  0
VERTEX
  8
PNOA-H_AMS_1956-57_33k_ES_PAN_21mic_H50_0378_fot_41B-37391_W_tif
  70
32
  10
529313.500
  20
4598801.000
  30
1000.436
  0
VERTEX
  8
PNOA-H_AMS_1956-57_33k_ES_PAN_21mic_H50_0378_fot_41B-37391_W_tif
  70
32
  10
529332.500
  20
4598801.000
  30
999.33
  0
VERTEX
  8
PNOA-H_AMS_1956-57_33k_ES_PAN_21mic_H50_0378_fot_41B-37391_W_tif
  70
32
  10
529332.502
  20
4598800.998
  30
999.33
  0
VERTEX
  8
PNOA-H_AMS_1956-57_33k_ES_PAN_21mic_H50_0378_fot_41B-37391_W_tif
  70
32
  10
529378.500
  20
4598770.500
  30
998.667
  0
VERTEX
  8
PNOA-H_AMS_1956-57_33k_ES_PAN_21mic_H50_0378_fot_41B-37391_W_tif
  70
32
  10
529378.488
  20
4598770.008
  30
998.658
  0
VERTEX
  8
PNOA-H_AMS_1956-57_33k_ES_PAN_21mic_H50_0378_fot_41B-37391_W_tif
  70
32
  10
529274.006
  20
4594323.658
  30
922.061
  0
VERTEX
  8
PNOA-H_AMS_1956-57_33k_ES_PAN_21mic_H50_0378_fot_41B-37391_W_tif
  70
32
  10
526507.491
  20
4594312.993
  30
0
  0
SEQEND
  8
PNOA-H_AMS_1956-57_33k_ES_PAN_21mic_H50_0378_fot_41B-37391_W_tif
  0
INSERT
  8
FeatureAttribs
  2
FEATURE
  41
1
  42
1
  43
1
  50
0
  10
533540.605
  20
4596557.437
 66
1
  0
ATTRIB
  8
FeatureAttribs
 70
0
  1
PNOA-H_AMS_1956-57_33k_ES_PAN_21mic_H50_0378_fot_41B-37389_W.tif
  2
NAME
  10
533540.605
  20
4596557.437
 40
33.49417
  0
SEQEND
  0
POLYLINE
  8
PNOA-H_AMS_1956-57_33k_ES_PAN_21mic_H50_0378_fot_41B-37389_W_tif
  70
9
  66
1
  0
VERTEX
  8
PNOA-H_AMS_1956-57_33k_ES_PAN_21mic_H50_0378_fot_41B-37389_W_tif
  70
32
  10
533037.379
  20
4594339.842
  30
0
  0
VERTEX
  8
PNOA-H_AMS_1956-57_33k_ES_PAN_21mic_H50_0378_fot_41B-37389_W_tif
  70
32
  10
532122.587
  20
4594335.874
  30
954.861
  0
VERTEX
  8
PNOA-H_AMS_1956-57_33k_ES_PAN_21mic_H50_0378_fot_41B-37389_W_tif
  70
32
  10
532066.506
  20
4598715.504
  30
1010.579
  0
VERTEX
  8
PNOA-H_AMS_1956-57_33k_ES_PAN_21mic_H50_0378_fot_41B-37389_W_tif
  70
32
  10
532066.500
  20
4598716.000
  30
1010.585
  0
VERTEX
  8
PNOA-H_AMS_1956-57_33k_ES_PAN_21mic_H50_0378_fot_41B-37389_W_tif
  70
32
  10
532107.500
  20
4598743.000
  30
1001.748
  0
VERTEX
  8
PNOA-H_AMS_1956-57_33k_ES_PAN_21mic_H50_0378_fot_41B-37389_W_tif
  70
32
  10
532108.354
  20
4598743.074
  30
1001.674
  0
VERTEX
  8
PNOA-H_AMS_1956-57_33k_ES_PAN_21mic_H50_0378_fot_41B-37389_W_tif
  70
32
  10
532113.992
  20
4598743.564
  30
1001.181
  0
VERTEX
  8
PNOA-H_AMS_1956-57_33k_ES_PAN_21mic_H50_0378_fot_41B-37389_W_tif
  70
32
  10
532119.000
  20
4598744.000
  30
1000.744
  0
VERTEX
  8
PNOA-H_AMS_1956-57_33k_ES_PAN_21mic_H50_0378_fot_41B-37389_W_tif
  70
32
  10
532895.500
  20
4598754.000
  30
1033.71
  0
VERTEX
  8
PNOA-H_AMS_1956-57_33k_ES_PAN_21mic_H50_0378_fot_41B-37389_W_tif
  70
32
  10
532934.500
  20
4598754.500
  30
1035.706
  0
VERTEX
  8
PNOA-H_AMS_1956-57_33k_ES_PAN_21mic_H50_0378_fot_41B-37389_W_tif
  70
32
  10
534821.207
  20
4598778.538
  30
1075.337
  0
VERTEX
  8
PNOA-H_AMS_1956-57_33k_ES_PAN_21mic_H50_0378_fot_41B-37389_W_tif
  70
32
  10
534857.010
  20
4598778.994
  30
1076.089
  0
VERTEX
  8
PNOA-H_AMS_1956-57_33k_ES_PAN_21mic_H50_0378_fot_41B-37389_W_tif
  70
32
  10
534857.500
  20
4598779.000
  30
1076.099
  0
VERTEX
  8
PNOA-H_AMS_1956-57_33k_ES_PAN_21mic_H50_0378_fot_41B-37389_W_tif
  70
32
  10
534941.300
  20
4598724.456
  30
1073.897
  0
VERTEX
  8
PNOA-H_AMS_1956-57_33k_ES_PAN_21mic_H50_0378_fot_41B-37389_W_tif
  70
32
  10
534942.000
  20
4598724.000
  30
1073.879
  0
VERTEX
  8
PNOA-H_AMS_1956-57_33k_ES_PAN_21mic_H50_0378_fot_41B-37389_W_tif
  70
32
  10
535033.003
  20
4594349.458
  30
960.686
  0
VERTEX
  8
PNOA-H_AMS_1956-57_33k_ES_PAN_21mic_H50_0378_fot_41B-37389_W_tif
  70
32
  10
535032.517
  20
4594349.456
  30
0
  0
VERTEX
  8
PNOA-H_AMS_1956-57_33k_ES_PAN_21mic_H50_0378_fot_41B-37389_W_tif
  70
32
  10
533037.379
  20
4594339.842
  30
0
  0
SEQEND
  8
PNOA-H_AMS_1956-57_33k_ES_PAN_21mic_H50_0378_fot_41B-37389_W_tif
  0
INSERT
  8
FeatureAttribs
  2
FEATURE
  41
1
  42
1
  43
1
  50
0
  10
537079.818
  20
4610033.250
 66
1
  0
ATTRIB
  8
FeatureAttribs
 70
0
  1
PNOA-H_AMS_1956-57_33k_ES_PAN_21mic_H50_0378_fot_38C-40584_E.tif
  2
NAME
  10
537079.818
  20
4610033.250
 40
33.49417
  0
SEQEND
  0
POLYLINE
  8
PNOA-H_AMS_1956-57_33k_ES_PAN_21mic_H50_0378_fot_38C-40584_E_tif
  70
9
  66
1
  0
VERTEX
  8
PNOA-H_AMS_1956-57_33k_ES_PAN_21mic_H50_0378_fot_38C-40584_E_tif
  70
32
  10
536558.005
  20
4607672.501
  30
1057.543
  0
VERTEX
  8
PNOA-H_AMS_1956-57_33k_ES_PAN_21mic_H50_0378_fot_38C-40584_E_tif
  70
32
  10
536558.000
  20
4607672.500
  30
1057.544
  0
VERTEX
  8
PNOA-H_AMS_1956-57_33k_ES_PAN_21mic_H50_0378_fot_38C-40584_E_tif
  70
32
  10
536550.000
  20
4607675.500
  30
1058.35
  0
VERTEX
  8
PNOA-H_AMS_1956-57_33k_ES_PAN_21mic_H50_0378_fot_38C-40584_E_tif
  70
32
  10
535689.679
  20
4608018.429
  30
1035.488
  0
VERTEX
  8
PNOA-H_AMS_1956-57_33k_ES_PAN_21mic_H50_0378_fot_38C-40584_E_tif
  70
32
  10
535689.506
  20
4608018.498
  30
1035.484
  0
VERTEX
  8
PNOA-H_AMS_1956-57_33k_ES_PAN_21mic_H50_0378_fot_38C-40584_E_tif
  70
32
  10
535689.500
  20
4608018.500
  30
1035.483
  0
VERTEX
  8
PNOA-H_AMS_1956-57_33k_ES_PAN_21mic_H50_0378_fot_38C-40584_E_tif
  70
32
  10
535736.500
  20
4612046.500
  30
1076.374
  0
VERTEX
  8
PNOA-H_AMS_1956-57_33k_ES_PAN_21mic_H50_0378_fot_38C-40584_E_tif
  70
32
  10
536225.132
  20
4612131.045
  30
1073.486
  0
VERTEX
  8
PNOA-H_AMS_1956-57_33k_ES_PAN_21mic_H50_0378_fot_38C-40584_E_tif
  70
32
  10
537742.000
  20
4612393.500
  30
1064.523
  0
VERTEX
  8
PNOA-H_AMS_1956-57_33k_ES_PAN_21mic_H50_0378_fot_38C-40584_E_tif
  70
32
  10
537745.000
  20
4612394.000
  30
1064.604
  0
VERTEX
  8
PNOA-H_AMS_1956-57_33k_ES_PAN_21mic_H50_0378_fot_38C-40584_E_tif
  70
32
  10
537746.965
  20
4612393.821
  30
1064.645
  0
VERTEX
  8
PNOA-H_AMS_1956-57_33k_ES_PAN_21mic_H50_0378_fot_38C-40584_E_tif
  70
32
  10
537748.720
  20
4612393.662
  30
1064.682
  0
VERTEX
  8
PNOA-H_AMS_1956-57_33k_ES_PAN_21mic_H50_0378_fot_38C-40584_E_tif
  70
32
  10
537750.500
  20
4612393.500
  30
1064.719
  0
VERTEX
  8
PNOA-H_AMS_1956-57_33k_ES_PAN_21mic_H50_0378_fot_38C-40584_E_tif
  70
32
  10
538469.261
  20
4612055.612
  30
1054.138
  0
VERTEX
  8
PNOA-H_AMS_1956-57_33k_ES_PAN_21mic_H50_0378_fot_38C-40584_E_tif
  70
32
  10
538469.500
  20
4612055.500
  30
1054.135
  0
VERTEX
  8
PNOA-H_AMS_1956-57_33k_ES_PAN_21mic_H50_0378_fot_38C-40584_E_tif
  70
32
  10
538423.500
  20
4607988.500
  30
1104.538
  0
VERTEX
  8
PNOA-H_AMS_1956-57_33k_ES_PAN_21mic_H50_0378_fot_38C-40584_E_tif
  70
32
  10
538206.856
  20
4607951.789
  30
1098.922
  0
VERTEX
  8
PNOA-H_AMS_1956-57_33k_ES_PAN_21mic_H50_0378_fot_38C-40584_E_tif
  70
32
  10
536570.500
  20
4607674.500
  30
1056.501
  0
VERTEX
  8
PNOA-H_AMS_1956-57_33k_ES_PAN_21mic_H50_0378_fot_38C-40584_E_tif
  70
32
  10
536558.005
  20
4607672.501
  30
1057.543
  0
SEQEND
  8
PNOA-H_AMS_1956-57_33k_ES_PAN_21mic_H50_0378_fot_38C-40584_E_tif
  0
INSERT
  8
FeatureAttribs
  2
FEATURE
  41
1
  42
1
  43
1
  50
0
  10
539176.017
  20
4609975.133
 66
1
  0
ATTRIB
  8
FeatureAttribs
 70
0
  1
PNOA-H_AMS_1956-57_33k_ES_PAN_21mic_H50_0379_fot_38C-40585_E.tif
  2
NAME
  10
539176.017
  20
4609975.133
 40
33.49417
  0
SEQEND
  0
POLYLINE
  8
PNOA-H_AMS_1956-57_33k_ES_PAN_21mic_H50_0379_fot_38C-40585_E_tif
  70
9
  66
1
  0
VERTEX
  8
PNOA-H_AMS_1956-57_33k_ES_PAN_21mic_H50_0379_fot_38C-40585_E_tif
  70
32
  10
539092.296
  20
4607684.593
  30
1087.72
  0
VERTEX
  8
PNOA-H_AMS_1956-57_33k_ES_PAN_21mic_H50_0379_fot_38C-40585_E_tif
  70
32
  10
539091.500
  20
4607684.500
  30
1087.739
  0
VERTEX
  8
PNOA-H_AMS_1956-57_33k_ES_PAN_21mic_H50_0379_fot_38C-40585_E_tif
  70
32
  10
538423.635
  20
4607988.438
  30
1104.535
  0
VERTEX
  8
PNOA-H_AMS_1956-57_33k_ES_PAN_21mic_H50_0379_fot_38C-40585_E_tif
  70
32
  10
538423.500
  20
4607988.500
  30
1104.538
  0
VERTEX
  8
PNOA-H_AMS_1956-57_33k_ES_PAN_21mic_H50_0379_fot_38C-40585_E_tif
  70
32
  10
538469.500
  20
4612055.500
  30
1054.135
  0
VERTEX
  8
PNOA-H_AMS_1956-57_33k_ES_PAN_21mic_H50_0379_fot_38C-40585_E_tif
  70
32
  10
538940.113
  20
4612125.106
  30
1065.036
  0
VERTEX
  8
PNOA-H_AMS_1956-57_33k_ES_PAN_21mic_H50_0379_fot_38C-40585_E_tif
  70
32
  10
539078.000
  20
4612145.500
  30
1068.23
  0
VERTEX
  8
PNOA-H_AMS_1956-57_33k_ES_PAN_21mic_H50_0379_fot_38C-40585_E_tif
  70
32
  10
539081.500
  20
4612146.000
  30
1068.443
  0
VERTEX
  8
PNOA-H_AMS_1956-57_33k_ES_PAN_21mic_H50_0379_fot_38C-40585_E_tif
  70
32
  10
539483.728
  20
4612205.339
  30
1068.677
  0
VERTEX
  8
PNOA-H_AMS_1956-57_33k_ES_PAN_21mic_H50_0379_fot_38C-40585_E_tif
  70
32
  10
539893.333
  20
4612265.765
  30
1068.915
  0
VERTEX
  8
PNOA-H_AMS_1956-57_33k_ES_PAN_21mic_H50_0379_fot_38C-40585_E_tif
  70
32
  10
539902.784
  20
4610565.602
  30
0
  0
VERTEX
  8
PNOA-H_AMS_1956-57_33k_ES_PAN_21mic_H50_0379_fot_38C-40585_E_tif
  70
32
  10
539915.636
  20
4608252.639
  30
0
  0
VERTEX
  8
PNOA-H_AMS_1956-57_33k_ES_PAN_21mic_H50_0379_fot_38C-40585_E_tif
  70
32
  10
539918.257
  20
4607780.730
  30
0
  0
VERTEX
  8
PNOA-H_AMS_1956-57_33k_ES_PAN_21mic_H50_0379_fot_38C-40585_E_tif
  70
32
  10
539918.257
  20
4607780.616
  30
1068.347
  0
VERTEX
  8
PNOA-H_AMS_1956-57_33k_ES_PAN_21mic_H50_0379_fot_38C-40585_E_tif
  70
32
  10
539509.595
  20
4607733.106
  30
1077.932
  0
VERTEX
  8
PNOA-H_AMS_1956-57_33k_ES_PAN_21mic_H50_0379_fot_38C-40585_E_tif
  70
32
  10
539092.296
  20
4607684.593
  30
1087.72
  0
SEQEND
  8
PNOA-H_AMS_1956-57_33k_ES_PAN_21mic_H50_0379_fot_38C-40585_E_tif
  0
INSERT
  8
FeatureAttribs
  2
FEATURE
  41
1
  42
1
  43
1
  50
0
  10
535315.543
  20
4605536.250
 66
1
  0
ATTRIB
  8
FeatureAttribs
 70
0
  1
PNOA-H_AMS_1956-57_33k_ES_PAN_21mic_H50_0378_fot_39D-44202_E.tif
  2
NAME
  10
535315.543
  20
4605536.250
 40
33.49417
  0
SEQEND
  0
POLYLINE
  8
PNOA-H_AMS_1956-57_33k_ES_PAN_21mic_H50_0378_fot_39D-44202_E_tif
  70
9
  66
1
  0
VERTEX
  8
PNOA-H_AMS_1956-57_33k_ES_PAN_21mic_H50_0378_fot_39D-44202_E_tif
  70
32
  10
536598.500
  20
4603390.500
  30
1088.674
  0
VERTEX
  8
PNOA-H_AMS_1956-57_33k_ES_PAN_21mic_H50_0378_fot_39D-44202_E_tif
  70
32
  10
534841.000
  20
4603054.000
  30
1070.841
  0
VERTEX
  8
PNOA-H_AMS_1956-57_33k_ES_PAN_21mic_H50_0378_fot_39D-44202_E_tif
  70
32
  10
534840.669
  20
4603054.130
  30
1070.841
  0
VERTEX
  8
PNOA-H_AMS_1956-57_33k_ES_PAN_21mic_H50_0378_fot_39D-44202_E_tif
  70
32
  10
534510.299
  20
4603183.618
  30
1070.752
  0
VERTEX
  8
PNOA-H_AMS_1956-57_33k_ES_PAN_21mic_H50_0378_fot_39D-44202_E_tif
  70
32
  10
534133.000
  20
4603331.500
  30
1070.651
  0
VERTEX
  8
PNOA-H_AMS_1956-57_33k_ES_PAN_21mic_H50_0378_fot_39D-44202_E_tif
  70
32
  10
533976.500
  20
4607638.000
  30
1034.867
  0
VERTEX
  8
PNOA-H_AMS_1956-57_33k_ES_PAN_21mic_H50_0378_fot_39D-44202_E_tif
  70
32
  10
533976.804
  20
4607638.068
  30
1034.872
  0
VERTEX
  8
PNOA-H_AMS_1956-57_33k_ES_PAN_21mic_H50_0378_fot_39D-44202_E_tif
  70
32
  10
534984.000
  20
4607862.000
  30
1048.714
  0
VERTEX
  8
PNOA-H_AMS_1956-57_33k_ES_PAN_21mic_H50_0378_fot_39D-44202_E_tif
  70
32
  10
534986.500
  20
4607862.500
  30
1048.979
  0
VERTEX
  8
PNOA-H_AMS_1956-57_33k_ES_PAN_21mic_H50_0378_fot_39D-44202_E_tif
  70
32
  10
535689.505
  20
4608018.390
  30
1035.476
  0
VERTEX
  8
PNOA-H_AMS_1956-57_33k_ES_PAN_21mic_H50_0378_fot_39D-44202_E_tif
  70
32
  10
535689.679
  20
4608018.429
  30
1035.473
  0
VERTEX
  8
PNOA-H_AMS_1956-57_33k_ES_PAN_21mic_H50_0378_fot_39D-44202_E_tif
  70
32
  10
535690.000
  20
4608018.500
  30
1035.467
  0
VERTEX
  8
PNOA-H_AMS_1956-57_33k_ES_PAN_21mic_H50_0378_fot_39D-44202_E_tif
  70
32
  10
536558.000
  20
4607673.000
  30
1057.555
  0
VERTEX
  8
PNOA-H_AMS_1956-57_33k_ES_PAN_21mic_H50_0378_fot_39D-44202_E_tif
  70
32
  10
536558.005
  20
4607672.501
  30
1057.559
  0
VERTEX
  8
PNOA-H_AMS_1956-57_33k_ES_PAN_21mic_H50_0378_fot_39D-44202_E_tif
  70
32
  10
536558.384
  20
4607632.384
  30
1057.85
  0
VERTEX
  8
PNOA-H_AMS_1956-57_33k_ES_PAN_21mic_H50_0378_fot_39D-44202_E_tif
  70
32
  10
536598.495
  20
4603390.999
  30
1088.67
  0
VERTEX
  8
PNOA-H_AMS_1956-57_33k_ES_PAN_21mic_H50_0378_fot_39D-44202_E_tif
  70
32
  10
536598.500
  20
4603390.500
  30
1088.674
  0
SEQEND
  8
PNOA-H_AMS_1956-57_33k_ES_PAN_21mic_H50_0378_fot_39D-44202_E_tif
  0
INSERT
  8
FeatureAttribs
  2
FEATURE
  41
1
  42
1
  43
1
  50
0
  10
537825.255
  20
4605536.250
 66
1
  0
ATTRIB
  8
FeatureAttribs
 70
0
  1
PNOA-H_AMS_1956-57_33k_ES_PAN_21mic_H50_0378_fot_39D-44203_E.tif
  2
NAME
  10
537825.255
  20
4605536.250
 40
33.49417
  0
SEQEND
  0
POLYLINE
  8
PNOA-H_AMS_1956-57_33k_ES_PAN_21mic_H50_0378_fot_39D-44203_E_tif
  70
9
  66
1
  0
VERTEX
  8
PNOA-H_AMS_1956-57_33k_ES_PAN_21mic_H50_0378_fot_39D-44203_E_tif
  70
32
  10
539051.428
  20
4603428.871
  30
1084.942
  0
VERTEX
  8
PNOA-H_AMS_1956-57_33k_ES_PAN_21mic_H50_0378_fot_39D-44203_E_tif
  70
32
  10
537521.500
  20
4603084.000
  30
1093.351
  0
VERTEX
  8
PNOA-H_AMS_1956-57_33k_ES_PAN_21mic_H50_0378_fot_39D-44203_E_tif
  70
32
  10
537519.000
  20
4603084.000
  30
1093.35
  0
VERTEX
  8
PNOA-H_AMS_1956-57_33k_ES_PAN_21mic_H50_0378_fot_39D-44203_E_tif
  70
32
  10
537517.500
  20
4603084.000
  30
1093.35
  0
VERTEX
  8
PNOA-H_AMS_1956-57_33k_ES_PAN_21mic_H50_0378_fot_39D-44203_E_tif
  70
32
  10
536599.000
  20
4603390.500
  30
1088.659
  0
VERTEX
  8
PNOA-H_AMS_1956-57_33k_ES_PAN_21mic_H50_0378_fot_39D-44203_E_tif
  70
32
  10
536598.997
  20
4603390.834
  30
1088.657
  0
VERTEX
  8
PNOA-H_AMS_1956-57_33k_ES_PAN_21mic_H50_0378_fot_39D-44203_E_tif
  70
32
  10
536558.384
  20
4607632.384
  30
1057.835
  0
VERTEX
  8
PNOA-H_AMS_1956-57_33k_ES_PAN_21mic_H50_0378_fot_39D-44203_E_tif
  70
32
  10
536558.000
  20
4607672.500
  30
1057.544
  0
VERTEX
  8
PNOA-H_AMS_1956-57_33k_ES_PAN_21mic_H50_0378_fot_39D-44203_E_tif
  70
32
  10
536558.005
  20
4607672.501
  30
1057.544
  0
VERTEX
  8
PNOA-H_AMS_1956-57_33k_ES_PAN_21mic_H50_0378_fot_39D-44203_E_tif
  70
32
  10
537031.000
  20
4607753.000
  30
1080.384
  0
VERTEX
  8
PNOA-H_AMS_1956-57_33k_ES_PAN_21mic_H50_0378_fot_39D-44203_E_tif
  70
32
  10
537034.000
  20
4607753.500
  30
1080.776
  0
VERTEX
  8
PNOA-H_AMS_1956-57_33k_ES_PAN_21mic_H50_0378_fot_39D-44203_E_tif
  70
32
  10
538206.856
  20
4607951.789
  30
1100.813
  0
VERTEX
  8
PNOA-H_AMS_1956-57_33k_ES_PAN_21mic_H50_0378_fot_39D-44203_E_tif
  70
32
  10
538423.635
  20
4607988.438
  30
1104.516
  0
VERTEX
  8
PNOA-H_AMS_1956-57_33k_ES_PAN_21mic_H50_0378_fot_39D-44203_E_tif
  70
32
  10
538424.000
  20
4607988.500
  30
1104.523
  0
VERTEX
  8
PNOA-H_AMS_1956-57_33k_ES_PAN_21mic_H50_0378_fot_39D-44203_E_tif
  70
32
  10
539092.296
  20
4607684.593
  30
1087.803
  0
VERTEX
  8
PNOA-H_AMS_1956-57_33k_ES_PAN_21mic_H50_0378_fot_39D-44203_E_tif
  70
32
  10
539092.500
  20
4607684.500
  30
1087.798
  0
VERTEX
  8
PNOA-H_AMS_1956-57_33k_ES_PAN_21mic_H50_0378_fot_39D-44203_E_tif
  70
32
  10
539052.000
  20
4603429.000
  30
1084.939
  0
VERTEX
  8
PNOA-H_AMS_1956-57_33k_ES_PAN_21mic_H50_0378_fot_39D-44203_E_tif
  70
32
  10
539051.428
  20
4603428.871
  30
1084.942
  0
SEQEND
  8
PNOA-H_AMS_1956-57_33k_ES_PAN_21mic_H50_0378_fot_39D-44203_E_tif
  0
INSERT
  8
FeatureAttribs
  2
FEATURE
  41
1
  42
1
  43
1
  50
0
  10
539501.255
  20
4605469.137
 66
1
  0
ATTRIB
  8
FeatureAttribs
 70
0
  1
PNOA-H_AMS_1956-57_33k_ES_PAN_21mic_H50_0379_fot_39D-44204_E.tif
  2
NAME
  10
539501.255
  20
4605469.137
 40
33.49417
  0
SEQEND
  0
POLYLINE
  8
PNOA-H_AMS_1956-57_33k_ES_PAN_21mic_H50_0379_fot_39D-44204_E_tif
  70
9
  66
1
  0
VERTEX
  8
PNOA-H_AMS_1956-57_33k_ES_PAN_21mic_H50_0379_fot_39D-44204_E_tif
  70
32
  10
539941.323
  20
4603626.737
  30
0
  0
VERTEX
  8
PNOA-H_AMS_1956-57_33k_ES_PAN_21mic_H50_0379_fot_39D-44204_E_tif
  70
32
  10
539943.927
  20
4603157.544
  30
1089.015
  0
VERTEX
  8
PNOA-H_AMS_1956-57_33k_ES_PAN_21mic_H50_0379_fot_39D-44204_E_tif
  70
32
  10
539052.000
  20
4603429.000
  30
1084.939
  0
VERTEX
  8
PNOA-H_AMS_1956-57_33k_ES_PAN_21mic_H50_0379_fot_39D-44204_E_tif
  70
32
  10
539092.500
  20
4607684.500
  30
1087.798
  0
VERTEX
  8
PNOA-H_AMS_1956-57_33k_ES_PAN_21mic_H50_0379_fot_39D-44204_E_tif
  70
32
  10
539509.595
  20
4607733.106
  30
1077.606
  0
VERTEX
  8
PNOA-H_AMS_1956-57_33k_ES_PAN_21mic_H50_0379_fot_39D-44204_E_tif
  70
32
  10
539918.257
  20
4607780.730
  30
1067.62
  0
VERTEX
  8
PNOA-H_AMS_1956-57_33k_ES_PAN_21mic_H50_0379_fot_39D-44204_E_tif
  70
32
  10
539918.257
  20
4607780.616
  30
0
  0
VERTEX
  8
PNOA-H_AMS_1956-57_33k_ES_PAN_21mic_H50_0379_fot_39D-44204_E_tif
  70
32
  10
539928.482
  20
4605939.684
  30
0
  0
VERTEX
  8
PNOA-H_AMS_1956-57_33k_ES_PAN_21mic_H50_0379_fot_39D-44204_E_tif
  70
32
  10
539941.323
  20
4603626.737
  30
0
  0
SEQEND
  8
PNOA-H_AMS_1956-57_33k_ES_PAN_21mic_H50_0379_fot_39D-44204_E_tif
  0
INSERT
  8
FeatureAttribs
  2
FEATURE
  41
1
  42
1
  43
1
  50
0
  10
538938.204
  20
4596632.691
 66
1
  0
ATTRIB
  8
FeatureAttribs
 70
0
  1
PNOA-H_AMS_1956-57_33k_ES_PAN_21mic_H50_0378_fot_41B-37387_W.tif
  2
NAME
  10
538938.204
  20
4596632.691
 40
33.49417
  0
SEQEND
  0
POLYLINE
  8
PNOA-H_AMS_1956-57_33k_ES_PAN_21mic_H50_0378_fot_41B-37387_W_tif
  70
9
  66
1
  0
VERTEX
  8
PNOA-H_AMS_1956-57_33k_ES_PAN_21mic_H50_0378_fot_41B-37387_W_tif
  70
32
  10
539992.635
  20
4594375.033
  30
0
  0
VERTEX
  8
PNOA-H_AMS_1956-57_33k_ES_PAN_21mic_H50_0378_fot_41B-37387_W_tif
  70
32
  10
537874.451
  20
4594363.806
  30
966.138
  0
VERTEX
  8
PNOA-H_AMS_1956-57_33k_ES_PAN_21mic_H50_0378_fot_41B-37387_W_tif
  70
32
  10
537916.000
  20
4598681.000
  30
1013.758
  0
VERTEX
  8
PNOA-H_AMS_1956-57_33k_ES_PAN_21mic_H50_0378_fot_41B-37387_W_tif
  70
32
  10
539265.263
  20
4598826.069
  30
1028.891
  0
VERTEX
  8
PNOA-H_AMS_1956-57_33k_ES_PAN_21mic_H50_0378_fot_41B-37387_W_tif
  70
32
  10
539967.540
  20
4598901.576
  30
1036.768
  0
VERTEX
  8
PNOA-H_AMS_1956-57_33k_ES_PAN_21mic_H50_0378_fot_41B-37387_W_tif
  70
32
  10
539967.541
  20
4598901.549
  30
0
  0
VERTEX
  8
PNOA-H_AMS_1956-57_33k_ES_PAN_21mic_H50_0378_fot_41B-37387_W_tif
  70
32
  10
539979.815
  20
4596687.947
  30
0
  0
VERTEX
  8
PNOA-H_AMS_1956-57_33k_ES_PAN_21mic_H50_0378_fot_41B-37387_W_tif
  70
32
  10
539992.635
  20
4594375.033
  30
0
  0
SEQEND
  8
PNOA-H_AMS_1956-57_33k_ES_PAN_21mic_H50_0378_fot_41B-37387_W_tif
  0
INSERT
  8
FeatureAttribs
  2
FEATURE
  41
1
  42
1
  43
1
  50
0
  10
536440.861
  20
4596606.478
 66
1
  0
ATTRIB
  8
FeatureAttribs
 70
0
  1
PNOA-H_AMS_1956-57_33k_ES_PAN_21mic_H50_0378_fot_41B-37388_W.tif
  2
NAME
  10
536440.861
  20
4596606.478
 40
33.49417
  0
SEQEND
  0
POLYLINE
  8
PNOA-H_AMS_1956-57_33k_ES_PAN_21mic_H50_0378_fot_41B-37388_W_tif
  70
9
  66
1
  0
VERTEX
  8
PNOA-H_AMS_1956-57_33k_ES_PAN_21mic_H50_0378_fot_41B-37388_W_tif
  70
32
  10
535033.003
  20
4594349.458
  30
960.694
  0
VERTEX
  8
PNOA-H_AMS_1956-57_33k_ES_PAN_21mic_H50_0378_fot_41B-37388_W_tif
  70
32
  10
535032.517
  20
4594349.456
  30
960.708
  0
VERTEX
  8
PNOA-H_AMS_1956-57_33k_ES_PAN_21mic_H50_0378_fot_41B-37388_W_tif
  70
32
  10
534942.000
  20
4598712.000
  30
1074.109
  0
VERTEX
  8
PNOA-H_AMS_1956-57_33k_ES_PAN_21mic_H50_0378_fot_41B-37388_W_tif
  70
32
  10
534942.000
  20
4598724.000
  30
1073.879
  0
VERTEX
  8
PNOA-H_AMS_1956-57_33k_ES_PAN_21mic_H50_0378_fot_41B-37388_W_tif
  70
32
  10
534945.750
  20
4598724.208
  30
1073.969
  0
VERTEX
  8
PNOA-H_AMS_1956-57_33k_ES_PAN_21mic_H50_0378_fot_41B-37388_W_tif
  70
32
  10
534978.000
  20
4598726.000
  30
1074.743
  0
VERTEX
  8
PNOA-H_AMS_1956-57_33k_ES_PAN_21mic_H50_0378_fot_41B-37388_W_tif
  70
32
  10
534987.500
  20
4598726.500
  30
1074.875
  0
VERTEX
  8
PNOA-H_AMS_1956-57_33k_ES_PAN_21mic_H50_0378_fot_41B-37388_W_tif
  70
32
  10
537602.990
  20
4598863.499
  30
1026.503
  0
VERTEX
  8
PNOA-H_AMS_1956-57_33k_ES_PAN_21mic_H50_0378_fot_41B-37388_W_tif
  70
32
  10
537603.000
  20
4598863.500
  30
1026.503
  0
VERTEX
  8
PNOA-H_AMS_1956-57_33k_ES_PAN_21mic_H50_0378_fot_41B-37388_W_tif
  70
32
  10
537915.922
  20
4598681.045
  30
1013.761
  0
VERTEX
  8
PNOA-H_AMS_1956-57_33k_ES_PAN_21mic_H50_0378_fot_41B-37388_W_tif
  70
32
  10
537916.000
  20
4598681.000
  30
1013.758
  0
VERTEX
  8
PNOA-H_AMS_1956-57_33k_ES_PAN_21mic_H50_0378_fot_41B-37388_W_tif
  70
32
  10
537874.451
  20
4594363.806
  30
966.138
  0
VERTEX
  8
PNOA-H_AMS_1956-57_33k_ES_PAN_21mic_H50_0378_fot_41B-37388_W_tif
  70
32
  10
536515.006
  20
4594356.600
  30
0
  0
VERTEX
  8
PNOA-H_AMS_1956-57_33k_ES_PAN_21mic_H50_0378_fot_41B-37388_W_tif
  70
32
  10
535033.003
  20
4594349.458
  30
960.694
  0
SEQEND
  8
PNOA-H_AMS_1956-57_33k_ES_PAN_21mic_H50_0378_fot_41B-37388_W_tif
  0
INSERT
  8
FeatureAttribs
  2
FEATURE
  41
1
  42
1
  43
1
  50
0
  10
538757.487
  20
4601055.000
 66
1
  0
ATTRIB
  8
FeatureAttribs
 70
0
  1
PNOA-H_AMS_1956-57_33k_ES_PAN_21mic_H50_0378_fot_40B-38900_W.tif
  2
NAME
  10
538757.487
  20
4601055.000
 40
33.49417
  0
SEQEND
  0
POLYLINE
  8
PNOA-H_AMS_1956-57_33k_ES_PAN_21mic_H50_0378_fot_40B-38900_W_tif
  70
9
  66
1
  0
VERTEX
  8
PNOA-H_AMS_1956-57_33k_ES_PAN_21mic_H50_0378_fot_40B-38900_W_tif
  70
32
  10
537915.922
  20
4598681.045
  30
1013.595
  0
VERTEX
  8
PNOA-H_AMS_1956-57_33k_ES_PAN_21mic_H50_0378_fot_40B-38900_W_tif
  70
32
  10
537915.500
  20
4598681.000
  30
1013.591
  0
VERTEX
  8
PNOA-H_AMS_1956-57_33k_ES_PAN_21mic_H50_0378_fot_40B-38900_W_tif
  70
32
  10
537603.000
  20
4598863.000
  30
1026.387
  0
VERTEX
  8
PNOA-H_AMS_1956-57_33k_ES_PAN_21mic_H50_0378_fot_40B-38900_W_tif
  70
32
  10
537602.990
  20
4598863.499
  30
1026.395
  0
VERTEX
  8
PNOA-H_AMS_1956-57_33k_ES_PAN_21mic_H50_0378_fot_40B-38900_W_tif
  70
32
  10
537519.000
  20
4603084.000
  30
1093.35
  0
VERTEX
  8
PNOA-H_AMS_1956-57_33k_ES_PAN_21mic_H50_0378_fot_40B-38900_W_tif
  70
32
  10
539051.000
  20
4603429.000
  30
1084.942
  0
VERTEX
  8
PNOA-H_AMS_1956-57_33k_ES_PAN_21mic_H50_0378_fot_40B-38900_W_tif
  70
32
  10
539051.428
  20
4603428.871
  30
1084.937
  0
VERTEX
  8
PNOA-H_AMS_1956-57_33k_ES_PAN_21mic_H50_0378_fot_40B-38900_W_tif
  70
32
  10
539082.500
  20
4603419.500
  30
1084.573
  0
VERTEX
  8
PNOA-H_AMS_1956-57_33k_ES_PAN_21mic_H50_0378_fot_40B-38900_W_tif
  70
32
  10
539084.000
  20
4603419.000
  30
1084.555
  0
VERTEX
  8
PNOA-H_AMS_1956-57_33k_ES_PAN_21mic_H50_0378_fot_40B-38900_W_tif
  70
32
  10
539943.929
  20
4603157.251
  30
1088.882
  0
VERTEX
  8
PNOA-H_AMS_1956-57_33k_ES_PAN_21mic_H50_0378_fot_40B-38900_W_tif
  70
32
  10
539954.159
  20
4601313.799
  30
0
  0
VERTEX
  8
PNOA-H_AMS_1956-57_33k_ES_PAN_21mic_H50_0378_fot_40B-38900_W_tif
  70
32
  10
539966.990
  20
4599000.869
  30
0
  0
VERTEX
  8
PNOA-H_AMS_1956-57_33k_ES_PAN_21mic_H50_0378_fot_40B-38900_W_tif
  70
32
  10
539967.540
  20
4598901.576
  30
0
  0
VERTEX
  8
PNOA-H_AMS_1956-57_33k_ES_PAN_21mic_H50_0378_fot_40B-38900_W_tif
  70
32
  10
539967.541
  20
4598901.549
  30
1036.638
  0
VERTEX
  8
PNOA-H_AMS_1956-57_33k_ES_PAN_21mic_H50_0378_fot_40B-38900_W_tif
  70
32
  10
539265.263
  20
4598826.069
  30
1028.75
  0
VERTEX
  8
PNOA-H_AMS_1956-57_33k_ES_PAN_21mic_H50_0378_fot_40B-38900_W_tif
  70
32
  10
537915.922
  20
4598681.045
  30
1013.595
  0
SEQEND
  8
PNOA-H_AMS_1956-57_33k_ES_PAN_21mic_H50_0378_fot_40B-38900_W_tif
  0
INSERT
  8
FeatureAttribs
  2
FEATURE
  41
1
  42
1
  43
1
  50
0
  10
536203.675
  20
4601057.500
 66
1
  0
ATTRIB
  8
FeatureAttribs
 70
0
  1
PNOA-H_AMS_1956-57_33k_ES_PAN_21mic_H50_0378_fot_40B-38901_W.tif
  2
NAME
  10
536203.675
  20
4601057.500
 40
33.49417
  0
SEQEND
  0
POLYLINE
  8
PNOA-H_AMS_1956-57_33k_ES_PAN_21mic_H50_0378_fot_40B-38901_W_tif
  70
9
  66
1
  0
VERTEX
  8
PNOA-H_AMS_1956-57_33k_ES_PAN_21mic_H50_0378_fot_40B-38901_W_tif
  70
32
  10
537601.000
  20
4598863.000
  30
1025.891
  0
VERTEX
  8
PNOA-H_AMS_1956-57_33k_ES_PAN_21mic_H50_0378_fot_40B-38901_W_tif
  70
32
  10
534949.500
  20
4598724.000
  30
1074.235
  0
VERTEX
  8
PNOA-H_AMS_1956-57_33k_ES_PAN_21mic_H50_0378_fot_40B-38901_W_tif
  70
32
  10
534945.750
  20
4598724.208
  30
1074.021
  0
VERTEX
  8
PNOA-H_AMS_1956-57_33k_ES_PAN_21mic_H50_0378_fot_40B-38901_W_tif
  70
32
  10
534941.300
  20
4598724.456
  30
1073.767
  0
VERTEX
  8
PNOA-H_AMS_1956-57_33k_ES_PAN_21mic_H50_0378_fot_40B-38901_W_tif
  70
32
  10
534940.500
  20
4598724.500
  30
1073.721
  0
VERTEX
  8
PNOA-H_AMS_1956-57_33k_ES_PAN_21mic_H50_0378_fot_40B-38901_W_tif
  70
32
  10
534857.010
  20
4598778.994
  30
1076.115
  0
VERTEX
  8
PNOA-H_AMS_1956-57_33k_ES_PAN_21mic_H50_0378_fot_40B-38901_W_tif
  70
32
  10
534857.000
  20
4598779.000
  30
1076.115
  0
VERTEX
  8
PNOA-H_AMS_1956-57_33k_ES_PAN_21mic_H50_0378_fot_40B-38901_W_tif
  70
32
  10
534840.000
  20
4603054.000
  30
1070.84
  0
VERTEX
  8
PNOA-H_AMS_1956-57_33k_ES_PAN_21mic_H50_0378_fot_40B-38901_W_tif
  70
32
  10
534840.669
  20
4603054.130
  30
1070.848
  0
VERTEX
  8
PNOA-H_AMS_1956-57_33k_ES_PAN_21mic_H50_0378_fot_40B-38901_W_tif
  70
32
  10
534984.500
  20
4603082.000
  30
1072.488
  0
VERTEX
  8
PNOA-H_AMS_1956-57_33k_ES_PAN_21mic_H50_0378_fot_40B-38901_W_tif
  70
32
  10
534987.500
  20
4603082.500
  30
1072.569
  0
VERTEX
  8
PNOA-H_AMS_1956-57_33k_ES_PAN_21mic_H50_0378_fot_40B-38901_W_tif
  70
32
  10
536598.495
  20
4603390.999
  30
1088.678
  0
VERTEX
  8
PNOA-H_AMS_1956-57_33k_ES_PAN_21mic_H50_0378_fot_40B-38901_W_tif
  70
32
  10
536598.500
  20
4603391.000
  30
1088.678
  0
VERTEX
  8
PNOA-H_AMS_1956-57_33k_ES_PAN_21mic_H50_0378_fot_40B-38901_W_tif
  70
32
  10
536598.997
  20
4603390.834
  30
1088.681
  0
VERTEX
  8
PNOA-H_AMS_1956-57_33k_ES_PAN_21mic_H50_0378_fot_40B-38901_W_tif
  70
32
  10
537519.000
  20
4603084.000
  30
1093.35
  0
VERTEX
  8
PNOA-H_AMS_1956-57_33k_ES_PAN_21mic_H50_0378_fot_40B-38901_W_tif
  70
32
  10
537603.000
  20
4598871.500
  30
1028.431
  0
VERTEX
  8
PNOA-H_AMS_1956-57_33k_ES_PAN_21mic_H50_0378_fot_40B-38901_W_tif
  70
32
  10
537603.000
  20
4598863.500
  30
1026.503
  0
VERTEX
  8
PNOA-H_AMS_1956-57_33k_ES_PAN_21mic_H50_0378_fot_40B-38901_W_tif
  70
32
  10
537602.990
  20
4598863.499
  30
1026.5
  0
VERTEX
  8
PNOA-H_AMS_1956-57_33k_ES_PAN_21mic_H50_0378_fot_40B-38901_W_tif
  70
32
  10
537601.000
  20
4598863.000
  30
1025.891
  0
SEQEND
  8
PNOA-H_AMS_1956-57_33k_ES_PAN_21mic_H50_0378_fot_40B-38901_W_tif
  0
ENDSEC
  0
EOF
