  0
SECTION
  2
HEADER
  9
$ACADVER
  1
AC1009
  9
$LUNITS
  70
2
  9
$LIMMIN
  10
484350.727
  20
4594264.432
  9
$LIMMAX
  10
512171.656
  20
4612784.664
  9
$EXTMIN
  10
484350.727
  20
4594264.432
  9
$EXTMAX
  10
512171.656
  20
4612784.664
  999
Created by Global Mapper
  999
Projection: UTM
  999
Datum: ETRS89
  999
Ground Units: meters
  999
ZONE: 30
  0
ENDSEC
  0
SECTION
  2
TABLES
  0
ENDSEC
  0
SECTION
  2
BLOCKS
  0
BLOCK
  8
FeatureAttribs
  70
0
  2
FEATURE
  3
FEATURE
  10
0.00000000
  20
0.00000000
  0
ATTDEF
  8
FeatureAttribs
  70
0
  1
 
  2
NAME
  3
NAME
  10
0.00000000
  20
0.00000000
  40
1.00000000
  0
ENDBLK
  0
ENDSEC
  0
SECTION
  2
ENTITIES
  0
INSERT
  8
FeatureAttribs
  2
FEATURE
  41
1
  42
1
  43
1
  50
0
  10
495593.578
  20
4612160.331
 66
1
  0
ATTRIB
  8
FeatureAttribs
 70
0
  1
PNOA-H_AMS_1956-57_33k_ES_PAN_21mic_H50_0348_fot_38982.tif
  2
NAME
  10
495593.578
  20
4612160.331
 40
33.42160
  0
SEQEND
  0
POLYLINE
  8
PNOA-H_AMS_1956-57_33k_ES_PAN_21mic_H50_0348_fot_38982_tif
  70
9
  66
1
  0
VERTEX
  8
PNOA-H_AMS_1956-57_33k_ES_PAN_21mic_H50_0348_fot_38982_tif
  70
32
  10
496882.218
  20
4611854.837
  30
990.143
  0
VERTEX
  8
PNOA-H_AMS_1956-57_33k_ES_PAN_21mic_H50_0348_fot_38982_tif
  70
32
  10
494715.000
  20
4611550.500
  30
955.609
  0
VERTEX
  8
PNOA-H_AMS_1956-57_33k_ES_PAN_21mic_H50_0348_fot_38982_tif
  70
32
  10
494712.876
  20
4611550.693
  30
955.593
  0
VERTEX
  8
PNOA-H_AMS_1956-57_33k_ES_PAN_21mic_H50_0348_fot_38982_tif
  70
32
  10
494710.766
  20
4611550.885
  30
955.577
  0
VERTEX
  8
PNOA-H_AMS_1956-57_33k_ES_PAN_21mic_H50_0348_fot_38982_tif
  70
32
  10
494709.500
  20
4611551.000
  30
955.567
  0
VERTEX
  8
PNOA-H_AMS_1956-57_33k_ES_PAN_21mic_H50_0348_fot_38982_tif
  70
32
  10
494176.500
  20
4611830.500
  30
981.959
  0
VERTEX
  8
PNOA-H_AMS_1956-57_33k_ES_PAN_21mic_H50_0348_fot_38982_tif
  70
32
  10
494186.807
  20
4612770.161
  30
982.647
  0
VERTEX
  8
PNOA-H_AMS_1956-57_33k_ES_PAN_21mic_H50_0348_fot_38982_tif
  70
32
  10
494796.973
  20
4612769.571
  30
0
  0
VERTEX
  8
PNOA-H_AMS_1956-57_33k_ES_PAN_21mic_H50_0348_fot_38982_tif
  70
32
  10
497004.905
  20
4612768.504
  30
983.914
  0
VERTEX
  8
PNOA-H_AMS_1956-57_33k_ES_PAN_21mic_H50_0348_fot_38982_tif
  70
32
  10
497005.008
  20
4612768.504
  30
976.194
  0
VERTEX
  8
PNOA-H_AMS_1956-57_33k_ES_PAN_21mic_H50_0348_fot_38982_tif
  70
32
  10
497008.000
  20
4611872.500
  30
992.148
  0
VERTEX
  8
PNOA-H_AMS_1956-57_33k_ES_PAN_21mic_H50_0348_fot_38982_tif
  70
32
  10
496882.218
  20
4611854.837
  30
990.143
  0
SEQEND
  8
PNOA-H_AMS_1956-57_33k_ES_PAN_21mic_H50_0348_fot_38982_tif
  0
INSERT
  8
FeatureAttribs
  2
FEATURE
  41
1
  42
1
  43
1
  50
0
  10
489841.940
  20
4612144.848
 66
1
  0
ATTRIB
  8
FeatureAttribs
 70
0
  1
PNOA-H_AMS_1956-57_33k_ES_PAN_21mic_H50_0348_fot_38980.tif
  2
NAME
  10
489841.940
  20
4612144.848
 40
33.42160
  0
SEQEND
  0
POLYLINE
  8
PNOA-H_AMS_1956-57_33k_ES_PAN_21mic_H50_0348_fot_38980_tif
  70
9
  66
1
  0
VERTEX
  8
PNOA-H_AMS_1956-57_33k_ES_PAN_21mic_H50_0348_fot_38980_tif
  70
32
  10
489000.810
  20
4611512.596
  30
991.524
  0
VERTEX
  8
PNOA-H_AMS_1956-57_33k_ES_PAN_21mic_H50_0348_fot_38980_tif
  70
32
  10
489000.000
  20
4611512.500
  30
991.516
  0
VERTEX
  8
PNOA-H_AMS_1956-57_33k_ES_PAN_21mic_H50_0348_fot_38980_tif
  70
32
  10
488368.728
  20
4611830.885
  30
997.082
  0
VERTEX
  8
PNOA-H_AMS_1956-57_33k_ES_PAN_21mic_H50_0348_fot_38980_tif
  70
32
  10
488368.500
  20
4611831.000
  30
997.084
  0
VERTEX
  8
PNOA-H_AMS_1956-57_33k_ES_PAN_21mic_H50_0348_fot_38980_tif
  70
32
  10
488383.563
  20
4612777.196
  30
997.443
  0
VERTEX
  8
PNOA-H_AMS_1956-57_33k_ES_PAN_21mic_H50_0348_fot_38980_tif
  70
32
  10
488383.676
  20
4612777.196
  30
0
  0
VERTEX
  8
PNOA-H_AMS_1956-57_33k_ES_PAN_21mic_H50_0348_fot_38980_tif
  70
32
  10
491322.382
  20
4612772.933
  30
1006.643
  0
VERTEX
  8
PNOA-H_AMS_1956-57_33k_ES_PAN_21mic_H50_0348_fot_38980_tif
  70
32
  10
491303.500
  20
4611784.500
  30
1014.742
  0
VERTEX
  8
PNOA-H_AMS_1956-57_33k_ES_PAN_21mic_H50_0348_fot_38980_tif
  70
32
  10
489507.256
  20
4611572.397
  30
996.631
  0
VERTEX
  8
PNOA-H_AMS_1956-57_33k_ES_PAN_21mic_H50_0348_fot_38980_tif
  70
32
  10
489000.810
  20
4611512.596
  30
991.524
  0
SEQEND
  8
PNOA-H_AMS_1956-57_33k_ES_PAN_21mic_H50_0348_fot_38980_tif
  0
INSERT
  8
FeatureAttribs
  2
FEATURE
  41
1
  42
1
  43
1
  50
0
  10
498360.837
  20
4612208.752
 66
1
  0
ATTRIB
  8
FeatureAttribs
 70
0
  1
PNOA-H_AMS_1956-57_33k_ES_PAN_21mic_H50_0348_fot_38983.tif
  2
NAME
  10
498360.837
  20
4612208.752
 40
33.42160
  0
SEQEND
  0
POLYLINE
  8
PNOA-H_AMS_1956-57_33k_ES_PAN_21mic_H50_0348_fot_38983_tif
  70
9
  66
1
  0
VERTEX
  8
PNOA-H_AMS_1956-57_33k_ES_PAN_21mic_H50_0348_fot_38983_tif
  70
32
  10
497005.008
  20
4612768.504
  30
0
  0
VERTEX
  8
PNOA-H_AMS_1956-57_33k_ES_PAN_21mic_H50_0348_fot_38983_tif
  70
32
  10
498265.658
  20
4612767.894
  30
0
  0
VERTEX
  8
PNOA-H_AMS_1956-57_33k_ES_PAN_21mic_H50_0348_fot_38983_tif
  70
32
  10
499706.286
  20
4612767.894
  30
1016.594
  0
VERTEX
  8
PNOA-H_AMS_1956-57_33k_ES_PAN_21mic_H50_0348_fot_38983_tif
  70
32
  10
499720.000
  20
4611871.000
  30
1011.008
  0
VERTEX
  8
PNOA-H_AMS_1956-57_33k_ES_PAN_21mic_H50_0348_fot_38983_tif
  70
32
  10
499213.390
  20
4611821.984
  30
1007.501
  0
VERTEX
  8
PNOA-H_AMS_1956-57_33k_ES_PAN_21mic_H50_0348_fot_38983_tif
  70
32
  10
497541.524
  20
4611660.226
  30
995.931
  0
VERTEX
  8
PNOA-H_AMS_1956-57_33k_ES_PAN_21mic_H50_0348_fot_38983_tif
  70
32
  10
497425.500
  20
4611649.000
  30
995.128
  0
VERTEX
  8
PNOA-H_AMS_1956-57_33k_ES_PAN_21mic_H50_0348_fot_38983_tif
  70
32
  10
497008.104
  20
4611872.445
  30
992.148
  0
VERTEX
  8
PNOA-H_AMS_1956-57_33k_ES_PAN_21mic_H50_0348_fot_38983_tif
  70
32
  10
497008.000
  20
4611872.500
  30
992.148
  0
VERTEX
  8
PNOA-H_AMS_1956-57_33k_ES_PAN_21mic_H50_0348_fot_38983_tif
  70
32
  10
497004.905
  20
4612768.504
  30
983.914
  0
VERTEX
  8
PNOA-H_AMS_1956-57_33k_ES_PAN_21mic_H50_0348_fot_38983_tif
  70
32
  10
497005.008
  20
4612768.504
  30
0
  0
SEQEND
  8
PNOA-H_AMS_1956-57_33k_ES_PAN_21mic_H50_0348_fot_38983_tif
  0
INSERT
  8
FeatureAttribs
  2
FEATURE
  41
1
  42
1
  43
1
  50
0
  10
492745.239
  20
4612149.967
 66
1
  0
ATTRIB
  8
FeatureAttribs
 70
0
  1
PNOA-H_AMS_1956-57_33k_ES_PAN_21mic_H50_0348_fot_38981.tif
  2
NAME
  10
492745.239
  20
4612149.967
 40
33.42160
  0
SEQEND
  0
POLYLINE
  8
PNOA-H_AMS_1956-57_33k_ES_PAN_21mic_H50_0348_fot_38981_tif
  70
9
  66
1
  0
VERTEX
  8
PNOA-H_AMS_1956-57_33k_ES_PAN_21mic_H50_0348_fot_38981_tif
  70
32
  10
494176.500
  20
4611830.500
  30
981.959
  0
VERTEX
  8
PNOA-H_AMS_1956-57_33k_ES_PAN_21mic_H50_0348_fot_38981_tif
  70
32
  10
491782.000
  20
4611527.000
  30
1012.073
  0
VERTEX
  8
PNOA-H_AMS_1956-57_33k_ES_PAN_21mic_H50_0348_fot_38981_tif
  70
32
  10
491778.500
  20
4611527.000
  30
1012.087
  0
VERTEX
  8
PNOA-H_AMS_1956-57_33k_ES_PAN_21mic_H50_0348_fot_38981_tif
  70
32
  10
491778.200
  20
4611527.000
  30
1012.088
  0
VERTEX
  8
PNOA-H_AMS_1956-57_33k_ES_PAN_21mic_H50_0348_fot_38981_tif
  70
32
  10
491778.000
  20
4611527.000
  30
1012.089
  0
VERTEX
  8
PNOA-H_AMS_1956-57_33k_ES_PAN_21mic_H50_0348_fot_38981_tif
  70
32
  10
491774.000
  20
4611529.000
  30
1012.279
  0
VERTEX
  8
PNOA-H_AMS_1956-57_33k_ES_PAN_21mic_H50_0348_fot_38981_tif
  70
32
  10
491303.500
  20
4611784.000
  30
1014.756
  0
VERTEX
  8
PNOA-H_AMS_1956-57_33k_ES_PAN_21mic_H50_0348_fot_38981_tif
  70
32
  10
491303.509
  20
4611784.495
  30
1014.751
  0
VERTEX
  8
PNOA-H_AMS_1956-57_33k_ES_PAN_21mic_H50_0348_fot_38981_tif
  70
32
  10
491322.456
  20
4612772.933
  30
1004.981
  0
VERTEX
  8
PNOA-H_AMS_1956-57_33k_ES_PAN_21mic_H50_0348_fot_38981_tif
  70
32
  10
491328.288
  20
4612772.925
  30
0
  0
VERTEX
  8
PNOA-H_AMS_1956-57_33k_ES_PAN_21mic_H50_0348_fot_38981_tif
  70
32
  10
494186.687
  20
4612770.161
  30
982.65
  0
VERTEX
  8
PNOA-H_AMS_1956-57_33k_ES_PAN_21mic_H50_0348_fot_38981_tif
  70
32
  10
494176.500
  20
4611830.500
  30
981.959
  0
SEQEND
  8
PNOA-H_AMS_1956-57_33k_ES_PAN_21mic_H50_0348_fot_38981_tif
  0
INSERT
  8
FeatureAttribs
  2
FEATURE
  41
1
  42
1
  43
1
  50
0
  10
503663.655
  20
4612240.980
 66
1
  0
ATTRIB
  8
FeatureAttribs
 70
0
  1
PNOA-H_AMS_1956-57_33k_ES_PAN_21mic_H50_0348_fot_38985.tif
  2
NAME
  10
503663.655
  20
4612240.980
 40
33.42160
  0
SEQEND
  0
POLYLINE
  8
PNOA-H_AMS_1956-57_33k_ES_PAN_21mic_H50_0348_fot_38985_tif
  70
9
  66
1
  0
VERTEX
  8
PNOA-H_AMS_1956-57_33k_ES_PAN_21mic_H50_0348_fot_38985_tif
  70
32
  10
502929.000
  20
4611712.500
  30
1036.404
  0
VERTEX
  8
PNOA-H_AMS_1956-57_33k_ES_PAN_21mic_H50_0348_fot_38985_tif
  70
32
  10
502928.000
  20
4611712.500
  30
1036.379
  0
VERTEX
  8
PNOA-H_AMS_1956-57_33k_ES_PAN_21mic_H50_0348_fot_38985_tif
  70
32
  10
502917.500
  20
4611717.500
  30
1035.131
  0
VERTEX
  8
PNOA-H_AMS_1956-57_33k_ES_PAN_21mic_H50_0348_fot_38985_tif
  70
32
  10
502352.500
  20
4611988.000
  30
1012.844
  0
VERTEX
  8
PNOA-H_AMS_1956-57_33k_ES_PAN_21mic_H50_0348_fot_38985_tif
  70
32
  10
502347.500
  20
4611990.500
  30
1012.015
  0
VERTEX
  8
PNOA-H_AMS_1956-57_33k_ES_PAN_21mic_H50_0348_fot_38985_tif
  70
32
  10
502347.250
  20
4611991.000
  30
1012.002
  0
VERTEX
  8
PNOA-H_AMS_1956-57_33k_ES_PAN_21mic_H50_0348_fot_38985_tif
  70
32
  10
502346.982
  20
4611991.535
  30
1011.987
  0
VERTEX
  8
PNOA-H_AMS_1956-57_33k_ES_PAN_21mic_H50_0348_fot_38985_tif
  70
32
  10
502346.500
  20
4611992.500
  30
1011.962
  0
VERTEX
  8
PNOA-H_AMS_1956-57_33k_ES_PAN_21mic_H50_0348_fot_38985_tif
  70
32
  10
502321.221
  20
4612768.178
  30
1021.776
  0
VERTEX
  8
PNOA-H_AMS_1956-57_33k_ES_PAN_21mic_H50_0348_fot_38985_tif
  70
32
  10
502321.575
  20
4612768.178
  30
1021.779
  0
VERTEX
  8
PNOA-H_AMS_1956-57_33k_ES_PAN_21mic_H50_0348_fot_38985_tif
  70
32
  10
504974.861
  20
4612769.461
  30
1036.855
  0
VERTEX
  8
PNOA-H_AMS_1956-57_33k_ES_PAN_21mic_H50_0348_fot_38985_tif
  70
32
  10
504993.000
  20
4612087.000
  30
1028.626
  0
VERTEX
  8
PNOA-H_AMS_1956-57_33k_ES_PAN_21mic_H50_0348_fot_38985_tif
  70
32
  10
504808.291
  20
4612053.453
  30
1029.327
  0
VERTEX
  8
PNOA-H_AMS_1956-57_33k_ES_PAN_21mic_H50_0348_fot_38985_tif
  70
32
  10
502931.000
  20
4611712.500
  30
1036.455
  0
VERTEX
  8
PNOA-H_AMS_1956-57_33k_ES_PAN_21mic_H50_0348_fot_38985_tif
  70
32
  10
502929.000
  20
4611712.500
  30
1036.404
  0
SEQEND
  8
PNOA-H_AMS_1956-57_33k_ES_PAN_21mic_H50_0348_fot_38985_tif
  0
INSERT
  8
FeatureAttribs
  2
FEATURE
  41
1
  42
1
  43
1
  50
0
  10
506346.311
  20
4612261.236
 66
1
  0
ATTRIB
  8
FeatureAttribs
 70
0
  1
PNOA-H_AMS_1956-57_33k_ES_PAN_21mic_H50_0348_fot_38986.tif
  2
NAME
  10
506346.311
  20
4612261.236
 40
33.42160
  0
SEQEND
  0
POLYLINE
  8
PNOA-H_AMS_1956-57_33k_ES_PAN_21mic_H50_0348_fot_38986_tif
  70
9
  66
1
  0
VERTEX
  8
PNOA-H_AMS_1956-57_33k_ES_PAN_21mic_H50_0348_fot_38986_tif
  70
32
  10
505714.503
  20
4611750.501
  30
1003.951
  0
VERTEX
  8
PNOA-H_AMS_1956-57_33k_ES_PAN_21mic_H50_0348_fot_38986_tif
  70
32
  10
505714.500
  20
4611750.500
  30
1003.95
  0
VERTEX
  8
PNOA-H_AMS_1956-57_33k_ES_PAN_21mic_H50_0348_fot_38986_tif
  70
32
  10
504993.140
  20
4612086.935
  30
1028.621
  0
VERTEX
  8
PNOA-H_AMS_1956-57_33k_ES_PAN_21mic_H50_0348_fot_38986_tif
  70
32
  10
504993.000
  20
4612087.000
  30
1028.626
  0
VERTEX
  8
PNOA-H_AMS_1956-57_33k_ES_PAN_21mic_H50_0348_fot_38986_tif
  70
32
  10
504974.861
  20
4612769.461
  30
1036.855
  0
VERTEX
  8
PNOA-H_AMS_1956-57_33k_ES_PAN_21mic_H50_0348_fot_38986_tif
  70
32
  10
505203.027
  20
4612769.571
  30
0
  0
VERTEX
  8
PNOA-H_AMS_1956-57_33k_ES_PAN_21mic_H50_0348_fot_38986_tif
  70
32
  10
507686.879
  20
4612771.973
  30
0
  0
VERTEX
  8
PNOA-H_AMS_1956-57_33k_ES_PAN_21mic_H50_0348_fot_38986_tif
  70
32
  10
507686.969
  20
4612771.973
  30
1001.917
  0
VERTEX
  8
PNOA-H_AMS_1956-57_33k_ES_PAN_21mic_H50_0348_fot_38986_tif
  70
32
  10
507708.000
  20
4612150.500
  30
997.096
  0
VERTEX
  8
PNOA-H_AMS_1956-57_33k_ES_PAN_21mic_H50_0348_fot_38986_tif
  70
32
  10
507307.353
  20
4612070.084
  30
999.29
  0
VERTEX
  8
PNOA-H_AMS_1956-57_33k_ES_PAN_21mic_H50_0348_fot_38986_tif
  70
32
  10
505750.000
  20
4611757.500
  30
1007.821
  0
VERTEX
  8
PNOA-H_AMS_1956-57_33k_ES_PAN_21mic_H50_0348_fot_38986_tif
  70
32
  10
505714.503
  20
4611750.501
  30
1003.951
  0
SEQEND
  8
PNOA-H_AMS_1956-57_33k_ES_PAN_21mic_H50_0348_fot_38986_tif
  0
INSERT
  8
FeatureAttribs
  2
FEATURE
  41
1
  42
1
  43
1
  50
0
  10
501027.462
  20
4612204.339
 66
1
  0
ATTRIB
  8
FeatureAttribs
 70
0
  1
PNOA-H_AMS_1956-57_33k_ES_PAN_21mic_H50_0348_fot_38984.tif
  2
NAME
  10
501027.462
  20
4612204.339
 40
33.42160
  0
SEQEND
  0
POLYLINE
  8
PNOA-H_AMS_1956-57_33k_ES_PAN_21mic_H50_0348_fot_38984_tif
  70
9
  66
1
  0
VERTEX
  8
PNOA-H_AMS_1956-57_33k_ES_PAN_21mic_H50_0348_fot_38984_tif
  70
32
  10
502347.000
  20
4611991.000
  30
1011.941
  0
VERTEX
  8
PNOA-H_AMS_1956-57_33k_ES_PAN_21mic_H50_0348_fot_38984_tif
  70
32
  10
500165.500
  20
4611640.500
  30
1024.59
  0
VERTEX
  8
PNOA-H_AMS_1956-57_33k_ES_PAN_21mic_H50_0348_fot_38984_tif
  70
32
  10
500165.487
  20
4611640.507
  30
1024.589
  0
VERTEX
  8
PNOA-H_AMS_1956-57_33k_ES_PAN_21mic_H50_0348_fot_38984_tif
  70
32
  10
500017.000
  20
4611717.333
  30
1020.062
  0
VERTEX
  8
PNOA-H_AMS_1956-57_33k_ES_PAN_21mic_H50_0348_fot_38984_tif
  70
32
  10
499720.157
  20
4611870.919
  30
1011.012
  0
VERTEX
  8
PNOA-H_AMS_1956-57_33k_ES_PAN_21mic_H50_0348_fot_38984_tif
  70
32
  10
499720.000
  20
4611871.000
  30
1011.008
  0
VERTEX
  8
PNOA-H_AMS_1956-57_33k_ES_PAN_21mic_H50_0348_fot_38984_tif
  70
32
  10
499706.286
  20
4612767.894
  30
1016.594
  0
VERTEX
  8
PNOA-H_AMS_1956-57_33k_ES_PAN_21mic_H50_0348_fot_38984_tif
  70
32
  10
501734.342
  20
4612767.894
  30
0
  0
VERTEX
  8
PNOA-H_AMS_1956-57_33k_ES_PAN_21mic_H50_0348_fot_38984_tif
  70
32
  10
502321.221
  20
4612768.178
  30
0
  0
VERTEX
  8
PNOA-H_AMS_1956-57_33k_ES_PAN_21mic_H50_0348_fot_38984_tif
  70
32
  10
502321.575
  20
4612768.178
  30
1021.775
  0
VERTEX
  8
PNOA-H_AMS_1956-57_33k_ES_PAN_21mic_H50_0348_fot_38984_tif
  70
32
  10
502346.982
  20
4611991.535
  30
1011.948
  0
VERTEX
  8
PNOA-H_AMS_1956-57_33k_ES_PAN_21mic_H50_0348_fot_38984_tif
  70
32
  10
502347.000
  20
4611991.000
  30
1011.941
  0
SEQEND
  8
PNOA-H_AMS_1956-57_33k_ES_PAN_21mic_H50_0348_fot_38984_tif
  0
INSERT
  8
FeatureAttribs
  2
FEATURE
  41
1
  42
1
  43
1
  50
0
  10
509061.613
  20
4612287.221
 66
1
  0
ATTRIB
  8
FeatureAttribs
 70
0
  1
PNOA-H_AMS_1956-57_33k_ES_PAN_21mic_H50_0348_fot_38987.tif
  2
NAME
  10
509061.613
  20
4612287.221
 40
33.42160
  0
SEQEND
  0
POLYLINE
  8
PNOA-H_AMS_1956-57_33k_ES_PAN_21mic_H50_0348_fot_38987_tif
  70
9
  66
1
  0
VERTEX
  8
PNOA-H_AMS_1956-57_33k_ES_PAN_21mic_H50_0348_fot_38987_tif
  70
32
  10
510421.671
  20
4612188.333
  30
968.684
  0
VERTEX
  8
PNOA-H_AMS_1956-57_33k_ES_PAN_21mic_H50_0348_fot_38987_tif
  70
32
  10
508490.499
  20
4611799.000
  30
1000.909
  0
VERTEX
  8
PNOA-H_AMS_1956-57_33k_ES_PAN_21mic_H50_0348_fot_38987_tif
  70
32
  10
507708.308
  20
4612150.362
  30
997.097
  0
VERTEX
  8
PNOA-H_AMS_1956-57_33k_ES_PAN_21mic_H50_0348_fot_38987_tif
  70
32
  10
507708.000
  20
4612150.500
  30
997.096
  0
VERTEX
  8
PNOA-H_AMS_1956-57_33k_ES_PAN_21mic_H50_0348_fot_38987_tif
  70
32
  10
507686.879
  20
4612771.973
  30
1001.799
  0
VERTEX
  8
PNOA-H_AMS_1956-57_33k_ES_PAN_21mic_H50_0348_fot_38987_tif
  70
32
  10
507686.969
  20
4612771.973
  30
1001.917
  0
VERTEX
  8
PNOA-H_AMS_1956-57_33k_ES_PAN_21mic_H50_0348_fot_38987_tif
  70
32
  10
508671.712
  20
4612772.925
  30
0
  0
VERTEX
  8
PNOA-H_AMS_1956-57_33k_ES_PAN_21mic_H50_0348_fot_38987_tif
  70
32
  10
510407.170
  20
4612775.442
  30
0
  0
VERTEX
  8
PNOA-H_AMS_1956-57_33k_ES_PAN_21mic_H50_0348_fot_38987_tif
  70
32
  10
510407.464
  20
4612775.442
  30
967.416
  0
VERTEX
  8
PNOA-H_AMS_1956-57_33k_ES_PAN_21mic_H50_0348_fot_38987_tif
  70
32
  10
510412.000
  20
4612602.000
  30
966.549
  0
VERTEX
  8
PNOA-H_AMS_1956-57_33k_ES_PAN_21mic_H50_0348_fot_38987_tif
  70
32
  10
510412.000
  20
4612590.524
  30
966.488
  0
VERTEX
  8
PNOA-H_AMS_1956-57_33k_ES_PAN_21mic_H50_0348_fot_38987_tif
  70
32
  10
510412.000
  20
4612583.000
  30
966.448
  0
VERTEX
  8
PNOA-H_AMS_1956-57_33k_ES_PAN_21mic_H50_0348_fot_38987_tif
  70
32
  10
510422.500
  20
4612188.500
  30
968.67
  0
VERTEX
  8
PNOA-H_AMS_1956-57_33k_ES_PAN_21mic_H50_0348_fot_38987_tif
  70
32
  10
510421.671
  20
4612188.333
  30
968.684
  0
SEQEND
  8
PNOA-H_AMS_1956-57_33k_ES_PAN_21mic_H50_0348_fot_38987_tif
  0
INSERT
  8
FeatureAttribs
  2
FEATURE
  41
1
  42
1
  43
1
  50
0
  10
511280.317
  20
4612305.728
 66
1
  0
ATTRIB
  8
FeatureAttribs
 70
0
  1
PNOA-H_AMS_1956-57_33k_ES_PAN_21mic_H50_0348_fot_38988.tif
  2
NAME
  10
511280.317
  20
4612305.728
 40
33.42160
  0
SEQEND
  0
POLYLINE
  8
PNOA-H_AMS_1956-57_33k_ES_PAN_21mic_H50_0348_fot_38988_tif
  70
9
  66
1
  0
VERTEX
  8
PNOA-H_AMS_1956-57_33k_ES_PAN_21mic_H50_0348_fot_38988_tif
  70
32
  10
512141.680
  20
4612019.586
  30
1024.271
  0
VERTEX
  8
PNOA-H_AMS_1956-57_33k_ES_PAN_21mic_H50_0348_fot_38988_tif
  70
32
  10
511239.500
  20
4611833.500
  30
999.287
  0
VERTEX
  8
PNOA-H_AMS_1956-57_33k_ES_PAN_21mic_H50_0348_fot_38988_tif
  70
32
  10
511238.675
  20
4611833.743
  30
999.188
  0
VERTEX
  8
PNOA-H_AMS_1956-57_33k_ES_PAN_21mic_H50_0348_fot_38988_tif
  70
32
  10
511233.363
  20
4611835.305
  30
998.548
  0
VERTEX
  8
PNOA-H_AMS_1956-57_33k_ES_PAN_21mic_H50_0348_fot_38988_tif
  70
32
  10
511231.000
  20
4611836.000
  30
998.264
  0
VERTEX
  8
PNOA-H_AMS_1956-57_33k_ES_PAN_21mic_H50_0348_fot_38988_tif
  70
32
  10
510423.244
  20
4612188.176
  30
968.697
  0
VERTEX
  8
PNOA-H_AMS_1956-57_33k_ES_PAN_21mic_H50_0348_fot_38988_tif
  70
32
  10
510422.500
  20
4612188.500
  30
968.67
  0
VERTEX
  8
PNOA-H_AMS_1956-57_33k_ES_PAN_21mic_H50_0348_fot_38988_tif
  70
32
  10
510412.000
  20
4612590.524
  30
970.197
  0
VERTEX
  8
PNOA-H_AMS_1956-57_33k_ES_PAN_21mic_H50_0348_fot_38988_tif
  70
32
  10
510407.170
  20
4612775.442
  30
970.899
  0
VERTEX
  8
PNOA-H_AMS_1956-57_33k_ES_PAN_21mic_H50_0348_fot_38988_tif
  70
32
  10
510407.464
  20
4612775.442
  30
0
  0
VERTEX
  8
PNOA-H_AMS_1956-57_33k_ES_PAN_21mic_H50_0348_fot_38988_tif
  70
32
  10
512140.397
  20
4612777.956
  30
0
  0
VERTEX
  8
PNOA-H_AMS_1956-57_33k_ES_PAN_21mic_H50_0348_fot_38988_tif
  70
32
  10
512141.679
  20
4612020.047
  30
0
  0
VERTEX
  8
PNOA-H_AMS_1956-57_33k_ES_PAN_21mic_H50_0348_fot_38988_tif
  70
32
  10
512141.680
  20
4612019.586
  30
1024.271
  0
SEQEND
  8
PNOA-H_AMS_1956-57_33k_ES_PAN_21mic_H50_0348_fot_38988_tif
  0
INSERT
  8
FeatureAttribs
  2
FEATURE
  41
1
  42
1
  43
1
  50
0
  10
496131.557
  20
4609539.000
 66
1
  0
ATTRIB
  8
FeatureAttribs
 70
0
  1
PNOA-H_AMS_1956-57_33k_ES_PAN_21mic_H50_0377_fot_38C-40569_E.tif
  2
NAME
  10
496131.557
  20
4609539.000
 40
33.42160
  0
SEQEND
  0
POLYLINE
  8
PNOA-H_AMS_1956-57_33k_ES_PAN_21mic_H50_0377_fot_38C-40569_E_tif
  70
9
  66
1
  0
VERTEX
  8
PNOA-H_AMS_1956-57_33k_ES_PAN_21mic_H50_0377_fot_38C-40569_E_tif
  70
32
  10
497563.584
  20
4607616.355
  30
993.542
  0
VERTEX
  8
PNOA-H_AMS_1956-57_33k_ES_PAN_21mic_H50_0377_fot_38C-40569_E_tif
  70
32
  10
496380.500
  20
4607205.500
  30
974.335
  0
VERTEX
  8
PNOA-H_AMS_1956-57_33k_ES_PAN_21mic_H50_0377_fot_38C-40569_E_tif
  70
32
  10
496380.221
  20
4607205.577
  30
974.323
  0
VERTEX
  8
PNOA-H_AMS_1956-57_33k_ES_PAN_21mic_H50_0377_fot_38C-40569_E_tif
  70
32
  10
495354.784
  20
4607486.771
  30
931.804
  0
VERTEX
  8
PNOA-H_AMS_1956-57_33k_ES_PAN_21mic_H50_0377_fot_38C-40569_E_tif
  70
32
  10
494827.000
  20
4607631.500
  30
909.92
  0
VERTEX
  8
PNOA-H_AMS_1956-57_33k_ES_PAN_21mic_H50_0377_fot_38C-40569_E_tif
  70
32
  10
494820.787
  20
4607633.275
  30
910.003
  0
VERTEX
  8
PNOA-H_AMS_1956-57_33k_ES_PAN_21mic_H50_0377_fot_38C-40569_E_tif
  70
32
  10
494816.500
  20
4607634.500
  30
910.06
  0
VERTEX
  8
PNOA-H_AMS_1956-57_33k_ES_PAN_21mic_H50_0377_fot_38C-40569_E_tif
  70
32
  10
494815.486
  20
4607635.514
  30
910.078
  0
VERTEX
  8
PNOA-H_AMS_1956-57_33k_ES_PAN_21mic_H50_0377_fot_38C-40569_E_tif
  70
32
  10
494815.000
  20
4607636.000
  30
910.087
  0
VERTEX
  8
PNOA-H_AMS_1956-57_33k_ES_PAN_21mic_H50_0377_fot_38C-40569_E_tif
  70
32
  10
494711.500
  20
4611550.500
  30
955.528
  0
VERTEX
  8
PNOA-H_AMS_1956-57_33k_ES_PAN_21mic_H50_0377_fot_38C-40569_E_tif
  70
32
  10
494712.876
  20
4611550.693
  30
955.537
  0
VERTEX
  8
PNOA-H_AMS_1956-57_33k_ES_PAN_21mic_H50_0377_fot_38C-40569_E_tif
  70
32
  10
496072.000
  20
4611741.500
  30
964.37
  0
VERTEX
  8
PNOA-H_AMS_1956-57_33k_ES_PAN_21mic_H50_0377_fot_38C-40569_E_tif
  70
32
  10
496075.500
  20
4611742.000
  30
964.721
  0
VERTEX
  8
PNOA-H_AMS_1956-57_33k_ES_PAN_21mic_H50_0377_fot_38C-40569_E_tif
  70
32
  10
496882.218
  20
4611854.837
  30
988.508
  0
VERTEX
  8
PNOA-H_AMS_1956-57_33k_ES_PAN_21mic_H50_0377_fot_38C-40569_E_tif
  70
32
  10
497008.104
  20
4611872.445
  30
992.22
  0
VERTEX
  8
PNOA-H_AMS_1956-57_33k_ES_PAN_21mic_H50_0377_fot_38C-40569_E_tif
  70
32
  10
497008.500
  20
4611872.500
  30
992.232
  0
VERTEX
  8
PNOA-H_AMS_1956-57_33k_ES_PAN_21mic_H50_0377_fot_38C-40569_E_tif
  70
32
  10
497424.000
  20
4611650.500
  30
995.268
  0
VERTEX
  8
PNOA-H_AMS_1956-57_33k_ES_PAN_21mic_H50_0377_fot_38C-40569_E_tif
  70
32
  10
497425.500
  20
4611649.000
  30
995.127
  0
VERTEX
  8
PNOA-H_AMS_1956-57_33k_ES_PAN_21mic_H50_0377_fot_38C-40569_E_tif
  70
32
  10
497426.018
  20
4611648.482
  30
995.078
  0
VERTEX
  8
PNOA-H_AMS_1956-57_33k_ES_PAN_21mic_H50_0377_fot_38C-40569_E_tif
  70
32
  10
497426.500
  20
4611648.000
  30
995.032
  0
VERTEX
  8
PNOA-H_AMS_1956-57_33k_ES_PAN_21mic_H50_0377_fot_38C-40569_E_tif
  70
32
  10
497564.000
  20
4607616.500
  30
993.549
  0
VERTEX
  8
PNOA-H_AMS_1956-57_33k_ES_PAN_21mic_H50_0377_fot_38C-40569_E_tif
  70
32
  10
497563.584
  20
4607616.355
  30
993.542
  0
SEQEND
  8
PNOA-H_AMS_1956-57_33k_ES_PAN_21mic_H50_0377_fot_38C-40569_E_tif
  0
INSERT
  8
FeatureAttribs
  2
FEATURE
  41
1
  42
1
  43
1
  50
0
  10
493322.247
  20
4609506.000
 66
1
  0
ATTRIB
  8
FeatureAttribs
 70
0
  1
PNOA-H_AMS_1956-57_33k_ES_PAN_21mic_H50_0377_fot_38C-40568_E.tif
  2
NAME
  10
493322.247
  20
4609506.000
 40
33.42160
  0
SEQEND
  0
POLYLINE
  8
PNOA-H_AMS_1956-57_33k_ES_PAN_21mic_H50_0377_fot_38C-40568_E_tif
  70
9
  66
1
  0
VERTEX
  8
PNOA-H_AMS_1956-57_33k_ES_PAN_21mic_H50_0377_fot_38C-40568_E_tif
  70
32
  10
493603.500
  20
4607181.500
  30
960.656
  0
VERTEX
  8
PNOA-H_AMS_1956-57_33k_ES_PAN_21mic_H50_0377_fot_38C-40568_E_tif
  70
32
  10
493602.000
  20
4607181.500
  30
960.677
  0
VERTEX
  8
PNOA-H_AMS_1956-57_33k_ES_PAN_21mic_H50_0377_fot_38C-40568_E_tif
  70
32
  10
491973.651
  20
4607616.193
  30
1005.306
  0
VERTEX
  8
PNOA-H_AMS_1956-57_33k_ES_PAN_21mic_H50_0377_fot_38C-40568_E_tif
  70
32
  10
491972.500
  20
4607616.500
  30
1005.337
  0
VERTEX
  8
PNOA-H_AMS_1956-57_33k_ES_PAN_21mic_H50_0377_fot_38C-40568_E_tif
  70
32
  10
491778.500
  20
4611525.000
  30
1012.027
  0
VERTEX
  8
PNOA-H_AMS_1956-57_33k_ES_PAN_21mic_H50_0377_fot_38C-40568_E_tif
  70
32
  10
491778.500
  20
4611526.250
  30
1012.065
  0
VERTEX
  8
PNOA-H_AMS_1956-57_33k_ES_PAN_21mic_H50_0377_fot_38C-40568_E_tif
  70
32
  10
491778.500
  20
4611527.000
  30
1012.087
  0
VERTEX
  8
PNOA-H_AMS_1956-57_33k_ES_PAN_21mic_H50_0377_fot_38C-40568_E_tif
  70
32
  10
491789.500
  20
4611528.500
  30
1012.137
  0
VERTEX
  8
PNOA-H_AMS_1956-57_33k_ES_PAN_21mic_H50_0377_fot_38C-40568_E_tif
  70
32
  10
494173.000
  20
4611830.500
  30
981.015
  0
VERTEX
  8
PNOA-H_AMS_1956-57_33k_ES_PAN_21mic_H50_0377_fot_38C-40568_E_tif
  70
32
  10
494176.500
  20
4611830.500
  30
981.959
  0
VERTEX
  8
PNOA-H_AMS_1956-57_33k_ES_PAN_21mic_H50_0377_fot_38C-40568_E_tif
  70
32
  10
494177.500
  20
4611830.500
  30
982.229
  0
VERTEX
  8
PNOA-H_AMS_1956-57_33k_ES_PAN_21mic_H50_0377_fot_38C-40568_E_tif
  70
32
  10
494710.766
  20
4611550.885
  30
955.564
  0
VERTEX
  8
PNOA-H_AMS_1956-57_33k_ES_PAN_21mic_H50_0377_fot_38C-40568_E_tif
  70
32
  10
494711.500
  20
4611550.500
  30
955.528
  0
VERTEX
  8
PNOA-H_AMS_1956-57_33k_ES_PAN_21mic_H50_0377_fot_38C-40568_E_tif
  70
32
  10
494764.000
  20
4609581.000
  30
924.178
  0
VERTEX
  8
PNOA-H_AMS_1956-57_33k_ES_PAN_21mic_H50_0377_fot_38C-40568_E_tif
  70
32
  10
494764.000
  20
4609573.000
  30
924.296
  0
VERTEX
  8
PNOA-H_AMS_1956-57_33k_ES_PAN_21mic_H50_0377_fot_38C-40568_E_tif
  70
32
  10
494815.486
  20
4607635.514
  30
910.078
  0
VERTEX
  8
PNOA-H_AMS_1956-57_33k_ES_PAN_21mic_H50_0377_fot_38C-40568_E_tif
  70
32
  10
494815.500
  20
4607635.000
  30
910.075
  0
VERTEX
  8
PNOA-H_AMS_1956-57_33k_ES_PAN_21mic_H50_0377_fot_38C-40568_E_tif
  70
32
  10
494815.077
  20
4607634.842
  30
910.092
  0
VERTEX
  8
PNOA-H_AMS_1956-57_33k_ES_PAN_21mic_H50_0377_fot_38C-40568_E_tif
  70
32
  10
493605.000
  20
4607181.500
  30
960.634
  0
VERTEX
  8
PNOA-H_AMS_1956-57_33k_ES_PAN_21mic_H50_0377_fot_38C-40568_E_tif
  70
32
  10
493603.500
  20
4607181.500
  30
960.656
  0
SEQEND
  8
PNOA-H_AMS_1956-57_33k_ES_PAN_21mic_H50_0377_fot_38C-40568_E_tif
  0
INSERT
  8
FeatureAttribs
  2
FEATURE
  41
1
  42
1
  43
1
  50
0
  10
490444.375
  20
4609453.500
 66
1
  0
ATTRIB
  8
FeatureAttribs
 70
0
  1
PNOA-H_AMS_1956-57_33k_ES_PAN_21mic_H50_0377_fot_38C-40567_E.tif
  2
NAME
  10
490444.375
  20
4609453.500
 40
33.42160
  0
SEQEND
  0
POLYLINE
  8
PNOA-H_AMS_1956-57_33k_ES_PAN_21mic_H50_0377_fot_38C-40567_E_tif
  70
9
  66
1
  0
VERTEX
  8
PNOA-H_AMS_1956-57_33k_ES_PAN_21mic_H50_0377_fot_38C-40567_E_tif
  70
32
  10
491972.253
  20
4607616.392
  30
1005.334
  0
VERTEX
  8
PNOA-H_AMS_1956-57_33k_ES_PAN_21mic_H50_0377_fot_38C-40567_E_tif
  70
32
  10
490835.500
  20
4607122.500
  30
992.157
  0
VERTEX
  8
PNOA-H_AMS_1956-57_33k_ES_PAN_21mic_H50_0377_fot_38C-40567_E_tif
  70
32
  10
490834.836
  20
4607122.646
  30
992.158
  0
VERTEX
  8
PNOA-H_AMS_1956-57_33k_ES_PAN_21mic_H50_0377_fot_38C-40567_E_tif
  70
32
  10
489561.014
  20
4607403.272
  30
993.409
  0
VERTEX
  8
PNOA-H_AMS_1956-57_33k_ES_PAN_21mic_H50_0377_fot_38C-40567_E_tif
  70
32
  10
489013.000
  20
4607524.000
  30
993.947
  0
VERTEX
  8
PNOA-H_AMS_1956-57_33k_ES_PAN_21mic_H50_0377_fot_38C-40567_E_tif
  70
32
  10
489012.999
  20
4607524.390
  30
993.947
  0
VERTEX
  8
PNOA-H_AMS_1956-57_33k_ES_PAN_21mic_H50_0377_fot_38C-40567_E_tif
  70
32
  10
489012.999
  20
4607524.499
  30
993.947
  0
VERTEX
  8
PNOA-H_AMS_1956-57_33k_ES_PAN_21mic_H50_0377_fot_38C-40567_E_tif
  70
32
  10
489001.000
  20
4611512.500
  30
991.522
  0
VERTEX
  8
PNOA-H_AMS_1956-57_33k_ES_PAN_21mic_H50_0377_fot_38C-40567_E_tif
  70
32
  10
489507.256
  20
4611572.397
  30
1005.721
  0
VERTEX
  8
PNOA-H_AMS_1956-57_33k_ES_PAN_21mic_H50_0377_fot_38C-40567_E_tif
  70
32
  10
489926.500
  20
4611622.000
  30
1017.479
  0
VERTEX
  8
PNOA-H_AMS_1956-57_33k_ES_PAN_21mic_H50_0377_fot_38C-40567_E_tif
  70
32
  10
489930.500
  20
4611622.500
  30
1017.408
  0
VERTEX
  8
PNOA-H_AMS_1956-57_33k_ES_PAN_21mic_H50_0377_fot_38C-40567_E_tif
  70
32
  10
491303.500
  20
4611784.500
  30
1014.742
  0
VERTEX
  8
PNOA-H_AMS_1956-57_33k_ES_PAN_21mic_H50_0377_fot_38C-40567_E_tif
  70
32
  10
491303.509
  20
4611784.495
  30
1014.742
  0
VERTEX
  8
PNOA-H_AMS_1956-57_33k_ES_PAN_21mic_H50_0377_fot_38C-40567_E_tif
  70
32
  10
491773.500
  20
4611530.000
  30
1012.321
  0
VERTEX
  8
PNOA-H_AMS_1956-57_33k_ES_PAN_21mic_H50_0377_fot_38C-40567_E_tif
  70
32
  10
491778.000
  20
4611527.500
  30
1012.103
  0
VERTEX
  8
PNOA-H_AMS_1956-57_33k_ES_PAN_21mic_H50_0377_fot_38C-40567_E_tif
  70
32
  10
491778.200
  20
4611527.000
  30
1012.087
  0
VERTEX
  8
PNOA-H_AMS_1956-57_33k_ES_PAN_21mic_H50_0377_fot_38C-40567_E_tif
  70
32
  10
491778.500
  20
4611526.250
  30
1012.063
  0
VERTEX
  8
PNOA-H_AMS_1956-57_33k_ES_PAN_21mic_H50_0377_fot_38C-40567_E_tif
  70
32
  10
491779.000
  20
4611525.000
  30
1012.023
  0
VERTEX
  8
PNOA-H_AMS_1956-57_33k_ES_PAN_21mic_H50_0377_fot_38C-40567_E_tif
  70
32
  10
491972.500
  20
4607616.500
  30
1005.337
  0
VERTEX
  8
PNOA-H_AMS_1956-57_33k_ES_PAN_21mic_H50_0377_fot_38C-40567_E_tif
  70
32
  10
491972.253
  20
4607616.392
  30
1005.334
  0
SEQEND
  8
PNOA-H_AMS_1956-57_33k_ES_PAN_21mic_H50_0377_fot_38C-40567_E_tif
  0
INSERT
  8
FeatureAttribs
  2
FEATURE
  41
1
  42
1
  43
1
  50
0
  10
498859.131
  20
4609560.750
 66
1
  0
ATTRIB
  8
FeatureAttribs
 70
0
  1
PNOA-H_AMS_1956-57_33k_ES_PAN_21mic_H50_0377_fot_38C-40570_E.tif
  2
NAME
  10
498859.131
  20
4609560.750
 40
33.42160
  0
SEQEND
  0
POLYLINE
  8
PNOA-H_AMS_1956-57_33k_ES_PAN_21mic_H50_0377_fot_38C-40570_E_tif
  70
9
  66
1
  0
VERTEX
  8
PNOA-H_AMS_1956-57_33k_ES_PAN_21mic_H50_0377_fot_38C-40570_E_tif
  70
32
  10
500229.992
  20
4607656.443
  30
981.17
  0
VERTEX
  8
PNOA-H_AMS_1956-57_33k_ES_PAN_21mic_H50_0377_fot_38C-40570_E_tif
  70
32
  10
499072.500
  20
4607250.500
  30
1023
  0
VERTEX
  8
PNOA-H_AMS_1956-57_33k_ES_PAN_21mic_H50_0377_fot_38C-40570_E_tif
  70
32
  10
499072.497
  20
4607250.501
  30
1023
  0
VERTEX
  8
PNOA-H_AMS_1956-57_33k_ES_PAN_21mic_H50_0377_fot_38C-40570_E_tif
  70
32
  10
497565.830
  20
4607616.056
  30
993.585
  0
VERTEX
  8
PNOA-H_AMS_1956-57_33k_ES_PAN_21mic_H50_0377_fot_38C-40570_E_tif
  70
32
  10
497564.000
  20
4607616.500
  30
993.549
  0
VERTEX
  8
PNOA-H_AMS_1956-57_33k_ES_PAN_21mic_H50_0377_fot_38C-40570_E_tif
  70
32
  10
497426.018
  20
4611648.482
  30
995.129
  0
VERTEX
  8
PNOA-H_AMS_1956-57_33k_ES_PAN_21mic_H50_0377_fot_38C-40570_E_tif
  70
32
  10
497426.000
  20
4611649.000
  30
995.129
  0
VERTEX
  8
PNOA-H_AMS_1956-57_33k_ES_PAN_21mic_H50_0377_fot_38C-40570_E_tif
  70
32
  10
497541.524
  20
4611660.226
  30
998.97
  0
VERTEX
  8
PNOA-H_AMS_1956-57_33k_ES_PAN_21mic_H50_0377_fot_38C-40570_E_tif
  70
32
  10
498115.500
  20
4611716.000
  30
1018.052
  0
VERTEX
  8
PNOA-H_AMS_1956-57_33k_ES_PAN_21mic_H50_0377_fot_38C-40570_E_tif
  70
32
  10
498121.000
  20
4611716.500
  30
1018.498
  0
VERTEX
  8
PNOA-H_AMS_1956-57_33k_ES_PAN_21mic_H50_0377_fot_38C-40570_E_tif
  70
32
  10
499213.390
  20
4611821.984
  30
1013.488
  0
VERTEX
  8
PNOA-H_AMS_1956-57_33k_ES_PAN_21mic_H50_0377_fot_38C-40570_E_tif
  70
32
  10
499720.157
  20
4611870.919
  30
1011.164
  0
VERTEX
  8
PNOA-H_AMS_1956-57_33k_ES_PAN_21mic_H50_0377_fot_38C-40570_E_tif
  70
32
  10
499721.000
  20
4611871.000
  30
1011.16
  0
VERTEX
  8
PNOA-H_AMS_1956-57_33k_ES_PAN_21mic_H50_0377_fot_38C-40570_E_tif
  70
32
  10
500017.000
  20
4611717.333
  30
1020.158
  0
VERTEX
  8
PNOA-H_AMS_1956-57_33k_ES_PAN_21mic_H50_0377_fot_38C-40570_E_tif
  70
32
  10
500165.000
  20
4611640.500
  30
1024.658
  0
VERTEX
  8
PNOA-H_AMS_1956-57_33k_ES_PAN_21mic_H50_0377_fot_38C-40570_E_tif
  70
32
  10
500165.246
  20
4611631.339
  30
1024.554
  0
VERTEX
  8
PNOA-H_AMS_1956-57_33k_ES_PAN_21mic_H50_0377_fot_38C-40570_E_tif
  70
32
  10
500271.500
  20
4607671.000
  30
979.67
  0
VERTEX
  8
PNOA-H_AMS_1956-57_33k_ES_PAN_21mic_H50_0377_fot_38C-40570_E_tif
  70
32
  10
500229.992
  20
4607656.443
  30
981.17
  0
SEQEND
  8
PNOA-H_AMS_1956-57_33k_ES_PAN_21mic_H50_0377_fot_38C-40570_E_tif
  0
INSERT
  8
FeatureAttribs
  2
FEATURE
  41
1
  42
1
  43
1
  50
0
  10
492218.270
  20
4605306.500
 66
1
  0
ATTRIB
  8
FeatureAttribs
 70
0
  1
PNOA-H_AMS_1956-57_33k_ES_PAN_21mic_H50_0377_fot_39D-44186_E.tif
  2
NAME
  10
492218.270
  20
4605306.500
 40
33.42160
  0
SEQEND
  0
POLYLINE
  8
PNOA-H_AMS_1956-57_33k_ES_PAN_21mic_H50_0377_fot_39D-44186_E_tif
  70
9
  66
1
  0
VERTEX
  8
PNOA-H_AMS_1956-57_33k_ES_PAN_21mic_H50_0377_fot_39D-44186_E_tif
  70
32
  10
493107.006
  20
4602996.503
  30
890.86
  0
VERTEX
  8
PNOA-H_AMS_1956-57_33k_ES_PAN_21mic_H50_0377_fot_39D-44186_E_tif
  70
32
  10
493107.000
  20
4602996.500
  30
890.86
  0
VERTEX
  8
PNOA-H_AMS_1956-57_33k_ES_PAN_21mic_H50_0377_fot_39D-44186_E_tif
  70
32
  10
491977.721
  20
4603117.000
  30
908.146
  0
VERTEX
  8
PNOA-H_AMS_1956-57_33k_ES_PAN_21mic_H50_0377_fot_39D-44186_E_tif
  70
32
  10
490862.500
  20
4603236.000
  30
925.216
  0
VERTEX
  8
PNOA-H_AMS_1956-57_33k_ES_PAN_21mic_H50_0377_fot_39D-44186_E_tif
  70
32
  10
490834.500
  20
4607122.500
  30
992.199
  0
VERTEX
  8
PNOA-H_AMS_1956-57_33k_ES_PAN_21mic_H50_0377_fot_39D-44186_E_tif
  70
32
  10
490834.836
  20
4607122.646
  30
992.203
  0
VERTEX
  8
PNOA-H_AMS_1956-57_33k_ES_PAN_21mic_H50_0377_fot_39D-44186_E_tif
  70
32
  10
491970.000
  20
4607616.000
  30
1005.404
  0
VERTEX
  8
PNOA-H_AMS_1956-57_33k_ES_PAN_21mic_H50_0377_fot_39D-44186_E_tif
  70
32
  10
491971.500
  20
4607616.500
  30
1005.375
  0
VERTEX
  8
PNOA-H_AMS_1956-57_33k_ES_PAN_21mic_H50_0377_fot_39D-44186_E_tif
  70
32
  10
491972.253
  20
4607616.392
  30
1005.339
  0
VERTEX
  8
PNOA-H_AMS_1956-57_33k_ES_PAN_21mic_H50_0377_fot_39D-44186_E_tif
  70
32
  10
491973.651
  20
4607616.193
  30
1005.273
  0
VERTEX
  8
PNOA-H_AMS_1956-57_33k_ES_PAN_21mic_H50_0377_fot_39D-44186_E_tif
  70
32
  10
491978.500
  20
4607615.500
  30
1005.044
  0
VERTEX
  8
PNOA-H_AMS_1956-57_33k_ES_PAN_21mic_H50_0377_fot_39D-44186_E_tif
  70
32
  10
493603.500
  20
4607181.500
  30
960.661
  0
VERTEX
  8
PNOA-H_AMS_1956-57_33k_ES_PAN_21mic_H50_0377_fot_39D-44186_E_tif
  70
32
  10
493573.000
  20
4603249.000
  30
891.881
  0
VERTEX
  8
PNOA-H_AMS_1956-57_33k_ES_PAN_21mic_H50_0377_fot_39D-44186_E_tif
  70
32
  10
493572.916
  20
4603248.954
  30
891.88
  0
VERTEX
  8
PNOA-H_AMS_1956-57_33k_ES_PAN_21mic_H50_0377_fot_39D-44186_E_tif
  70
32
  10
493107.006
  20
4602996.503
  30
890.86
  0
SEQEND
  8
PNOA-H_AMS_1956-57_33k_ES_PAN_21mic_H50_0377_fot_39D-44186_E_tif
  0
INSERT
  8
FeatureAttribs
  2
FEATURE
  41
1
  42
1
  43
1
  50
0
  10
497702.963
  20
4605304.250
 66
1
  0
ATTRIB
  8
FeatureAttribs
 70
0
  1
PNOA-H_AMS_1956-57_33k_ES_PAN_21mic_H50_0377_fot_39D-44188_E.tif
  2
NAME
  10
497702.963
  20
4605304.250
 40
33.42160
  0
SEQEND
  0
POLYLINE
  8
PNOA-H_AMS_1956-57_33k_ES_PAN_21mic_H50_0377_fot_39D-44188_E_tif
  70
9
  66
1
  0
VERTEX
  8
PNOA-H_AMS_1956-57_33k_ES_PAN_21mic_H50_0377_fot_39D-44188_E_tif
  70
32
  10
499050.449
  20
4603181.470
  30
957.51
  0
VERTEX
  8
PNOA-H_AMS_1956-57_33k_ES_PAN_21mic_H50_0377_fot_39D-44188_E_tif
  70
32
  10
498726.500
  20
4602992.000
  30
954.593
  0
VERTEX
  8
PNOA-H_AMS_1956-57_33k_ES_PAN_21mic_H50_0377_fot_39D-44188_E_tif
  70
32
  10
498726.073
  20
4602992.042
  30
954.589
  0
VERTEX
  8
PNOA-H_AMS_1956-57_33k_ES_PAN_21mic_H50_0377_fot_39D-44188_E_tif
  70
32
  10
498457.444
  20
4603018.722
  30
952.085
  0
VERTEX
  8
PNOA-H_AMS_1956-57_33k_ES_PAN_21mic_H50_0377_fot_39D-44188_E_tif
  70
32
  10
496307.360
  20
4603232.266
  30
932.043
  0
VERTEX
  8
PNOA-H_AMS_1956-57_33k_ES_PAN_21mic_H50_0377_fot_39D-44188_E_tif
  70
32
  10
496305.000
  20
4603232.500
  30
932.021
  0
VERTEX
  8
PNOA-H_AMS_1956-57_33k_ES_PAN_21mic_H50_0377_fot_39D-44188_E_tif
  70
32
  10
496380.000
  20
4607205.500
  30
974.25
  0
VERTEX
  8
PNOA-H_AMS_1956-57_33k_ES_PAN_21mic_H50_0377_fot_39D-44188_E_tif
  70
32
  10
496380.221
  20
4607205.577
  30
974.253
  0
VERTEX
  8
PNOA-H_AMS_1956-57_33k_ES_PAN_21mic_H50_0377_fot_39D-44188_E_tif
  70
32
  10
497562.500
  20
4607616.500
  30
993.307
  0
VERTEX
  8
PNOA-H_AMS_1956-57_33k_ES_PAN_21mic_H50_0377_fot_39D-44188_E_tif
  70
32
  10
497563.584
  20
4607616.355
  30
993.488
  0
VERTEX
  8
PNOA-H_AMS_1956-57_33k_ES_PAN_21mic_H50_0377_fot_39D-44188_E_tif
  70
32
  10
497565.830
  20
4607616.056
  30
993.863
  0
VERTEX
  8
PNOA-H_AMS_1956-57_33k_ES_PAN_21mic_H50_0377_fot_39D-44188_E_tif
  70
32
  10
497570.000
  20
4607615.500
  30
994.559
  0
VERTEX
  8
PNOA-H_AMS_1956-57_33k_ES_PAN_21mic_H50_0377_fot_39D-44188_E_tif
  70
32
  10
499072.497
  20
4607250.501
  30
1023
  0
VERTEX
  8
PNOA-H_AMS_1956-57_33k_ES_PAN_21mic_H50_0377_fot_39D-44188_E_tif
  70
32
  10
499072.500
  20
4607250.500
  30
1023
  0
VERTEX
  8
PNOA-H_AMS_1956-57_33k_ES_PAN_21mic_H50_0377_fot_39D-44188_E_tif
  70
32
  10
499072.322
  20
4607218.045
  30
1022.195
  0
VERTEX
  8
PNOA-H_AMS_1956-57_33k_ES_PAN_21mic_H50_0377_fot_39D-44188_E_tif
  70
32
  10
499052.000
  20
4603516.000
  30
930.367
  0
VERTEX
  8
PNOA-H_AMS_1956-57_33k_ES_PAN_21mic_H50_0377_fot_39D-44188_E_tif
  70
32
  10
499052.000
  20
4603458.966
  30
935.199
  0
VERTEX
  8
PNOA-H_AMS_1956-57_33k_ES_PAN_21mic_H50_0377_fot_39D-44188_E_tif
  70
32
  10
499052.000
  20
4603429.000
  30
937.738
  0
VERTEX
  8
PNOA-H_AMS_1956-57_33k_ES_PAN_21mic_H50_0377_fot_39D-44188_E_tif
  70
32
  10
499050.500
  20
4603181.500
  30
957.51
  0
VERTEX
  8
PNOA-H_AMS_1956-57_33k_ES_PAN_21mic_H50_0377_fot_39D-44188_E_tif
  70
32
  10
499050.449
  20
4603181.470
  30
957.51
  0
SEQEND
  8
PNOA-H_AMS_1956-57_33k_ES_PAN_21mic_H50_0377_fot_39D-44188_E_tif
  0
INSERT
  8
FeatureAttribs
  2
FEATURE
  41
1
  42
1
  43
1
  50
0
  10
494966.564
  20
4605315.750
 66
1
  0
ATTRIB
  8
FeatureAttribs
 70
0
  1
PNOA-H_AMS_1956-57_33k_ES_PAN_21mic_H50_0377_fot_39D-44187_E.tif
  2
NAME
  10
494966.564
  20
4605315.750
 40
33.42160
  0
SEQEND
  0
POLYLINE
  8
PNOA-H_AMS_1956-57_33k_ES_PAN_21mic_H50_0377_fot_39D-44187_E_tif
  70
9
  66
1
  0
VERTEX
  8
PNOA-H_AMS_1956-57_33k_ES_PAN_21mic_H50_0377_fot_39D-44187_E_tif
  70
32
  10
496044.385
  20
4603087.269
  30
928.751
  0
VERTEX
  8
PNOA-H_AMS_1956-57_33k_ES_PAN_21mic_H50_0377_fot_39D-44187_E_tif
  70
32
  10
495881.500
  20
4602996.500
  30
926.707
  0
VERTEX
  8
PNOA-H_AMS_1956-57_33k_ES_PAN_21mic_H50_0377_fot_39D-44187_E_tif
  70
32
  10
495881.057
  20
4602996.532
  30
927.052
  0
VERTEX
  8
PNOA-H_AMS_1956-57_33k_ES_PAN_21mic_H50_0377_fot_39D-44187_E_tif
  70
32
  10
495874.500
  20
4602997.000
  30
932.157
  0
VERTEX
  8
PNOA-H_AMS_1956-57_33k_ES_PAN_21mic_H50_0377_fot_39D-44187_E_tif
  70
32
  10
495874.500
  20
4603000.000
  30
936.988
  0
VERTEX
  8
PNOA-H_AMS_1956-57_33k_ES_PAN_21mic_H50_0377_fot_39D-44187_E_tif
  70
32
  10
495870.000
  20
4603004.500
  30
944.524
  0
VERTEX
  8
PNOA-H_AMS_1956-57_33k_ES_PAN_21mic_H50_0377_fot_39D-44187_E_tif
  70
32
  10
495855.000
  20
4603004.500
  30
945.598
  0
VERTEX
  8
PNOA-H_AMS_1956-57_33k_ES_PAN_21mic_H50_0377_fot_39D-44187_E_tif
  70
32
  10
495851.000
  20
4603000.000
  30
939.08
  0
VERTEX
  8
PNOA-H_AMS_1956-57_33k_ES_PAN_21mic_H50_0377_fot_39D-44187_E_tif
  70
32
  10
495847.000
  20
4603000.000
  30
939.22
  0
VERTEX
  8
PNOA-H_AMS_1956-57_33k_ES_PAN_21mic_H50_0377_fot_39D-44187_E_tif
  70
32
  10
494025.060
  20
4603199.500
  30
901.291
  0
VERTEX
  8
PNOA-H_AMS_1956-57_33k_ES_PAN_21mic_H50_0377_fot_39D-44187_E_tif
  70
32
  10
493573.000
  20
4603249.000
  30
891.881
  0
VERTEX
  8
PNOA-H_AMS_1956-57_33k_ES_PAN_21mic_H50_0377_fot_39D-44187_E_tif
  70
32
  10
493603.500
  20
4607181.500
  30
960.661
  0
VERTEX
  8
PNOA-H_AMS_1956-57_33k_ES_PAN_21mic_H50_0377_fot_39D-44187_E_tif
  70
32
  10
494814.500
  20
4607635.000
  30
910.086
  0
VERTEX
  8
PNOA-H_AMS_1956-57_33k_ES_PAN_21mic_H50_0377_fot_39D-44187_E_tif
  70
32
  10
494815.077
  20
4607634.842
  30
910.11
  0
VERTEX
  8
PNOA-H_AMS_1956-57_33k_ES_PAN_21mic_H50_0377_fot_39D-44187_E_tif
  70
32
  10
494820.787
  20
4607633.275
  30
910.344
  0
VERTEX
  8
PNOA-H_AMS_1956-57_33k_ES_PAN_21mic_H50_0377_fot_39D-44187_E_tif
  70
32
  10
495354.784
  20
4607486.771
  30
932.231
  0
VERTEX
  8
PNOA-H_AMS_1956-57_33k_ES_PAN_21mic_H50_0377_fot_39D-44187_E_tif
  70
32
  10
496380.000
  20
4607205.500
  30
974.25
  0
VERTEX
  8
PNOA-H_AMS_1956-57_33k_ES_PAN_21mic_H50_0377_fot_39D-44187_E_tif
  70
32
  10
496308.500
  20
4603442.000
  30
939.616
  0
VERTEX
  8
PNOA-H_AMS_1956-57_33k_ES_PAN_21mic_H50_0377_fot_39D-44187_E_tif
  70
32
  10
496308.500
  20
4603429.000
  30
938.01
  0
VERTEX
  8
PNOA-H_AMS_1956-57_33k_ES_PAN_21mic_H50_0377_fot_39D-44187_E_tif
  70
32
  10
496305.000
  20
4603232.500
  30
932.021
  0
VERTEX
  8
PNOA-H_AMS_1956-57_33k_ES_PAN_21mic_H50_0377_fot_39D-44187_E_tif
  70
32
  10
496303.621
  20
4603231.732
  30
932.003
  0
VERTEX
  8
PNOA-H_AMS_1956-57_33k_ES_PAN_21mic_H50_0377_fot_39D-44187_E_tif
  70
32
  10
496074.536
  20
4603104.071
  30
929.129
  0
VERTEX
  8
PNOA-H_AMS_1956-57_33k_ES_PAN_21mic_H50_0377_fot_39D-44187_E_tif
  70
32
  10
496044.385
  20
4603087.269
  30
928.751
  0
SEQEND
  8
PNOA-H_AMS_1956-57_33k_ES_PAN_21mic_H50_0377_fot_39D-44187_E_tif
  0
INSERT
  8
FeatureAttribs
  2
FEATURE
  41
1
  42
1
  43
1
  50
0
  10
494016.596
  20
4596531.642
 66
1
  0
ATTRIB
  8
FeatureAttribs
 70
0
  1
PNOA-H_AMS_1956-57_33k_ES_PAN_21mic_H50_0377_fot_41B-37403_W.tif
  2
NAME
  10
494016.596
  20
4596531.642
 40
33.42160
  0
SEQEND
  0
POLYLINE
  8
PNOA-H_AMS_1956-57_33k_ES_PAN_21mic_H50_0377_fot_41B-37403_W_tif
  70
9
  66
1
  0
VERTEX
  8
PNOA-H_AMS_1956-57_33k_ES_PAN_21mic_H50_0377_fot_41B-37403_W_tif
  70
32
  10
493153.919
  20
4598797.459
  30
879.042
  0
VERTEX
  8
PNOA-H_AMS_1956-57_33k_ES_PAN_21mic_H50_0377_fot_41B-37403_W_tif
  70
32
  10
494025.000
  20
4598713.000
  30
880.434
  0
VERTEX
  8
PNOA-H_AMS_1956-57_33k_ES_PAN_21mic_H50_0377_fot_41B-37403_W_tif
  70
32
  10
494026.467
  20
4598713.000
  30
880.473
  0
VERTEX
  8
PNOA-H_AMS_1956-57_33k_ES_PAN_21mic_H50_0377_fot_41B-37403_W_tif
  70
32
  10
494028.000
  20
4598713.000
  30
880.513
  0
VERTEX
  8
PNOA-H_AMS_1956-57_33k_ES_PAN_21mic_H50_0377_fot_41B-37403_W_tif
  70
32
  10
495439.500
  20
4598576.500
  30
946.927
  0
VERTEX
  8
PNOA-H_AMS_1956-57_33k_ES_PAN_21mic_H50_0377_fot_41B-37403_W_tif
  70
32
  10
495439.787
  20
4598576.117
  30
946.928
  0
VERTEX
  8
PNOA-H_AMS_1956-57_33k_ES_PAN_21mic_H50_0377_fot_41B-37403_W_tif
  70
32
  10
495440.503
  20
4598575.163
  30
946.93
  0
VERTEX
  8
PNOA-H_AMS_1956-57_33k_ES_PAN_21mic_H50_0377_fot_41B-37403_W_tif
  70
32
  10
495441.000
  20
4598574.500
  30
946.932
  0
VERTEX
  8
PNOA-H_AMS_1956-57_33k_ES_PAN_21mic_H50_0377_fot_41B-37403_W_tif
  70
32
  10
495454.292
  20
4594265.784
  30
887.525
  0
VERTEX
  8
PNOA-H_AMS_1956-57_33k_ES_PAN_21mic_H50_0377_fot_41B-37403_W_tif
  70
32
  10
495454.285
  20
4594265.784
  30
0
  0
VERTEX
  8
PNOA-H_AMS_1956-57_33k_ES_PAN_21mic_H50_0377_fot_41B-37403_W_tif
  70
32
  10
494783.577
  20
4594266.107
  30
0
  0
VERTEX
  8
PNOA-H_AMS_1956-57_33k_ES_PAN_21mic_H50_0377_fot_41B-37403_W_tif
  70
32
  10
492640.665
  20
4594268.173
  30
963.174
  0
VERTEX
  8
PNOA-H_AMS_1956-57_33k_ES_PAN_21mic_H50_0377_fot_41B-37403_W_tif
  70
32
  10
492538.500
  20
4598490.000
  30
902.86
  0
VERTEX
  8
PNOA-H_AMS_1956-57_33k_ES_PAN_21mic_H50_0377_fot_41B-37403_W_tif
  70
32
  10
492538.606
  20
4598490.053
  30
902.856
  0
VERTEX
  8
PNOA-H_AMS_1956-57_33k_ES_PAN_21mic_H50_0377_fot_41B-37403_W_tif
  70
32
  10
493153.500
  20
4598797.500
  30
879.041
  0
VERTEX
  8
PNOA-H_AMS_1956-57_33k_ES_PAN_21mic_H50_0377_fot_41B-37403_W_tif
  70
32
  10
493153.919
  20
4598797.459
  30
879.042
  0
SEQEND
  8
PNOA-H_AMS_1956-57_33k_ES_PAN_21mic_H50_0377_fot_41B-37403_W_tif
  0
INSERT
  8
FeatureAttribs
  2
FEATURE
  41
1
  42
1
  43
1
  50
0
  10
496862.251
  20
4596543.966
 66
1
  0
ATTRIB
  8
FeatureAttribs
 70
0
  1
PNOA-H_AMS_1956-57_33k_ES_PAN_21mic_H50_0377_fot_41B-37402_W.tif
  2
NAME
  10
496862.251
  20
4596543.966
 40
33.42160
  0
SEQEND
  0
POLYLINE
  8
PNOA-H_AMS_1956-57_33k_ES_PAN_21mic_H50_0377_fot_41B-37402_W_tif
  70
9
  66
1
  0
VERTEX
  8
PNOA-H_AMS_1956-57_33k_ES_PAN_21mic_H50_0377_fot_41B-37402_W_tif
  70
32
  10
498267.000
  20
4598590.500
  30
910.604
  0
VERTEX
  8
PNOA-H_AMS_1956-57_33k_ES_PAN_21mic_H50_0377_fot_41B-37402_W_tif
  70
32
  10
498289.200
  20
4594264.432
  30
886.437
  0
VERTEX
  8
PNOA-H_AMS_1956-57_33k_ES_PAN_21mic_H50_0377_fot_41B-37402_W_tif
  70
32
  10
498261.192
  20
4594264.432
  30
0
  0
VERTEX
  8
PNOA-H_AMS_1956-57_33k_ES_PAN_21mic_H50_0377_fot_41B-37402_W_tif
  70
32
  10
495454.292
  20
4594265.784
  30
0
  0
VERTEX
  8
PNOA-H_AMS_1956-57_33k_ES_PAN_21mic_H50_0377_fot_41B-37402_W_tif
  70
32
  10
495454.285
  20
4594265.784
  30
887.524
  0
VERTEX
  8
PNOA-H_AMS_1956-57_33k_ES_PAN_21mic_H50_0377_fot_41B-37402_W_tif
  70
32
  10
495440.503
  20
4598575.163
  30
946.871
  0
VERTEX
  8
PNOA-H_AMS_1956-57_33k_ES_PAN_21mic_H50_0377_fot_41B-37402_W_tif
  70
32
  10
495440.500
  20
4598576.000
  30
946.882
  0
VERTEX
  8
PNOA-H_AMS_1956-57_33k_ES_PAN_21mic_H50_0377_fot_41B-37402_W_tif
  70
32
  10
495440.581
  20
4598576.041
  30
946.879
  0
VERTEX
  8
PNOA-H_AMS_1956-57_33k_ES_PAN_21mic_H50_0377_fot_41B-37402_W_tif
  70
32
  10
495931.000
  20
4598823.000
  30
926.237
  0
VERTEX
  8
PNOA-H_AMS_1956-57_33k_ES_PAN_21mic_H50_0377_fot_41B-37402_W_tif
  70
32
  10
495932.000
  20
4598823.500
  30
926.202
  0
VERTEX
  8
PNOA-H_AMS_1956-57_33k_ES_PAN_21mic_H50_0377_fot_41B-37402_W_tif
  70
32
  10
495932.417
  20
4598823.458
  30
926.199
  0
VERTEX
  8
PNOA-H_AMS_1956-57_33k_ES_PAN_21mic_H50_0377_fot_41B-37402_W_tif
  70
32
  10
496515.750
  20
4598765.250
  30
922.302
  0
VERTEX
  8
PNOA-H_AMS_1956-57_33k_ES_PAN_21mic_H50_0377_fot_41B-37402_W_tif
  70
32
  10
498265.787
  20
4598590.621
  30
910.612
  0
VERTEX
  8
PNOA-H_AMS_1956-57_33k_ES_PAN_21mic_H50_0377_fot_41B-37402_W_tif
  70
32
  10
498267.000
  20
4598590.500
  30
910.604
  0
SEQEND
  8
PNOA-H_AMS_1956-57_33k_ES_PAN_21mic_H50_0377_fot_41B-37402_W_tif
  0
INSERT
  8
FeatureAttribs
  2
FEATURE
  41
1
  42
1
  43
1
  50
0
  10
491739.155
  20
4600863.000
 66
1
  0
ATTRIB
  8
FeatureAttribs
 70
0
  1
PNOA-H_AMS_1956-57_33k_ES_PAN_21mic_H50_0377_fot_40B-38917_W.tif
  2
NAME
  10
491739.155
  20
4600863.000
 40
33.42160
  0
SEQEND
  0
POLYLINE
  8
PNOA-H_AMS_1956-57_33k_ES_PAN_21mic_H50_0377_fot_40B-38917_W_tif
  70
9
  66
1
  0
VERTEX
  8
PNOA-H_AMS_1956-57_33k_ES_PAN_21mic_H50_0377_fot_40B-38917_W_tif
  70
32
  10
490862.416
  20
4603235.956
  30
925.246
  0
VERTEX
  8
PNOA-H_AMS_1956-57_33k_ES_PAN_21mic_H50_0377_fot_40B-38917_W_tif
  70
32
  10
491976.000
  20
4603117.000
  30
954.589
  0
VERTEX
  8
PNOA-H_AMS_1956-57_33k_ES_PAN_21mic_H50_0377_fot_40B-38917_W_tif
  70
32
  10
491977.721
  20
4603117.000
  30
954.476
  0
VERTEX
  8
PNOA-H_AMS_1956-57_33k_ES_PAN_21mic_H50_0377_fot_40B-38917_W_tif
  70
32
  10
491980.000
  20
4603117.000
  30
954.326
  0
VERTEX
  8
PNOA-H_AMS_1956-57_33k_ES_PAN_21mic_H50_0377_fot_40B-38917_W_tif
  70
32
  10
493107.000
  20
4602996.500
  30
890.86
  0
VERTEX
  8
PNOA-H_AMS_1956-57_33k_ES_PAN_21mic_H50_0377_fot_40B-38917_W_tif
  70
32
  10
493154.000
  20
4598797.500
  30
879.037
  0
VERTEX
  8
PNOA-H_AMS_1956-57_33k_ES_PAN_21mic_H50_0377_fot_40B-38917_W_tif
  70
32
  10
493153.919
  20
4598797.459
  30
879.04
  0
VERTEX
  8
PNOA-H_AMS_1956-57_33k_ES_PAN_21mic_H50_0377_fot_40B-38917_W_tif
  70
32
  10
492539.000
  20
4598490.000
  30
902.857
  0
VERTEX
  8
PNOA-H_AMS_1956-57_33k_ES_PAN_21mic_H50_0377_fot_40B-38917_W_tif
  70
32
  10
492538.606
  20
4598490.053
  30
902.851
  0
VERTEX
  8
PNOA-H_AMS_1956-57_33k_ES_PAN_21mic_H50_0377_fot_40B-38917_W_tif
  70
32
  10
492284.990
  20
4598523.990
  30
898.715
  0
VERTEX
  8
PNOA-H_AMS_1956-57_33k_ES_PAN_21mic_H50_0377_fot_40B-38917_W_tif
  70
32
  10
490390.500
  20
4598777.500
  30
867.825
  0
VERTEX
  8
PNOA-H_AMS_1956-57_33k_ES_PAN_21mic_H50_0377_fot_40B-38917_W_tif
  70
32
  10
490390.356
  20
4598777.932
  30
867.828
  0
VERTEX
  8
PNOA-H_AMS_1956-57_33k_ES_PAN_21mic_H50_0377_fot_40B-38917_W_tif
  70
32
  10
490390.000
  20
4598779.000
  30
867.835
  0
VERTEX
  8
PNOA-H_AMS_1956-57_33k_ES_PAN_21mic_H50_0377_fot_40B-38917_W_tif
  70
32
  10
490305.010
  20
4602939.505
  30
925.799
  0
VERTEX
  8
PNOA-H_AMS_1956-57_33k_ES_PAN_21mic_H50_0377_fot_40B-38917_W_tif
  70
32
  10
490305.000
  20
4602940.000
  30
925.806
  0
VERTEX
  8
PNOA-H_AMS_1956-57_33k_ES_PAN_21mic_H50_0377_fot_40B-38917_W_tif
  70
32
  10
490862.000
  20
4603236.000
  30
925.235
  0
VERTEX
  8
PNOA-H_AMS_1956-57_33k_ES_PAN_21mic_H50_0377_fot_40B-38917_W_tif
  70
32
  10
490862.416
  20
4603235.956
  30
925.246
  0
SEQEND
  8
PNOA-H_AMS_1956-57_33k_ES_PAN_21mic_H50_0377_fot_40B-38917_W_tif
  0
INSERT
  8
FeatureAttribs
  2
FEATURE
  41
1
  42
1
  43
1
  50
0
  10
494518.524
  20
4600912.500
 66
1
  0
ATTRIB
  8
FeatureAttribs
 70
0
  1
PNOA-H_AMS_1956-57_33k_ES_PAN_21mic_H50_0377_fot_40B-38916_W.tif
  2
NAME
  10
494518.524
  20
4600912.500
 40
33.42160
  0
SEQEND
  0
POLYLINE
  8
PNOA-H_AMS_1956-57_33k_ES_PAN_21mic_H50_0377_fot_40B-38916_W_tif
  70
9
  66
1
  0
VERTEX
  8
PNOA-H_AMS_1956-57_33k_ES_PAN_21mic_H50_0377_fot_40B-38916_W_tif
  70
32
  10
493572.916
  20
4603248.954
  30
891.918
  0
VERTEX
  8
PNOA-H_AMS_1956-57_33k_ES_PAN_21mic_H50_0377_fot_40B-38916_W_tif
  70
32
  10
494024.500
  20
4603199.500
  30
947.384
  0
VERTEX
  8
PNOA-H_AMS_1956-57_33k_ES_PAN_21mic_H50_0377_fot_40B-38916_W_tif
  70
32
  10
494025.060
  20
4603199.500
  30
947.524
  0
VERTEX
  8
PNOA-H_AMS_1956-57_33k_ES_PAN_21mic_H50_0377_fot_40B-38916_W_tif
  70
32
  10
494028.000
  20
4603199.500
  30
948.261
  0
VERTEX
  8
PNOA-H_AMS_1956-57_33k_ES_PAN_21mic_H50_0377_fot_40B-38916_W_tif
  70
32
  10
495847.000
  20
4603000.000
  30
939.22
  0
VERTEX
  8
PNOA-H_AMS_1956-57_33k_ES_PAN_21mic_H50_0377_fot_40B-38916_W_tif
  70
32
  10
495851.000
  20
4603000.000
  30
939.08
  0
VERTEX
  8
PNOA-H_AMS_1956-57_33k_ES_PAN_21mic_H50_0377_fot_40B-38916_W_tif
  70
32
  10
495855.000
  20
4603004.500
  30
945.598
  0
VERTEX
  8
PNOA-H_AMS_1956-57_33k_ES_PAN_21mic_H50_0377_fot_40B-38916_W_tif
  70
32
  10
495870.000
  20
4603004.500
  30
944.524
  0
VERTEX
  8
PNOA-H_AMS_1956-57_33k_ES_PAN_21mic_H50_0377_fot_40B-38916_W_tif
  70
32
  10
495874.500
  20
4603000.000
  30
936.988
  0
VERTEX
  8
PNOA-H_AMS_1956-57_33k_ES_PAN_21mic_H50_0377_fot_40B-38916_W_tif
  70
32
  10
495874.500
  20
4602997.000
  30
932.157
  0
VERTEX
  8
PNOA-H_AMS_1956-57_33k_ES_PAN_21mic_H50_0377_fot_40B-38916_W_tif
  70
32
  10
495881.000
  20
4602996.500
  30
927.086
  0
VERTEX
  8
PNOA-H_AMS_1956-57_33k_ES_PAN_21mic_H50_0377_fot_40B-38916_W_tif
  70
32
  10
495932.500
  20
4598823.500
  30
926.18
  0
VERTEX
  8
PNOA-H_AMS_1956-57_33k_ES_PAN_21mic_H50_0377_fot_40B-38916_W_tif
  70
32
  10
495932.417
  20
4598823.458
  30
926.183
  0
VERTEX
  8
PNOA-H_AMS_1956-57_33k_ES_PAN_21mic_H50_0377_fot_40B-38916_W_tif
  70
32
  10
495441.000
  20
4598576.000
  30
946.844
  0
VERTEX
  8
PNOA-H_AMS_1956-57_33k_ES_PAN_21mic_H50_0377_fot_40B-38916_W_tif
  70
32
  10
495440.581
  20
4598576.041
  30
946.832
  0
VERTEX
  8
PNOA-H_AMS_1956-57_33k_ES_PAN_21mic_H50_0377_fot_40B-38916_W_tif
  70
32
  10
495439.787
  20
4598576.117
  30
946.809
  0
VERTEX
  8
PNOA-H_AMS_1956-57_33k_ES_PAN_21mic_H50_0377_fot_40B-38916_W_tif
  70
32
  10
494026.467
  20
4598713.000
  30
904.905
  0
VERTEX
  8
PNOA-H_AMS_1956-57_33k_ES_PAN_21mic_H50_0377_fot_40B-38916_W_tif
  70
32
  10
493154.000
  20
4598797.500
  30
879.037
  0
VERTEX
  8
PNOA-H_AMS_1956-57_33k_ES_PAN_21mic_H50_0377_fot_40B-38916_W_tif
  70
32
  10
493107.006
  20
4602996.503
  30
890.838
  0
VERTEX
  8
PNOA-H_AMS_1956-57_33k_ES_PAN_21mic_H50_0377_fot_40B-38916_W_tif
  70
32
  10
493107.000
  20
4602997.000
  30
890.839
  0
VERTEX
  8
PNOA-H_AMS_1956-57_33k_ES_PAN_21mic_H50_0377_fot_40B-38916_W_tif
  70
32
  10
493572.500
  20
4603249.000
  30
891.867
  0
VERTEX
  8
PNOA-H_AMS_1956-57_33k_ES_PAN_21mic_H50_0377_fot_40B-38916_W_tif
  70
32
  10
493572.916
  20
4603248.954
  30
891.918
  0
SEQEND
  8
PNOA-H_AMS_1956-57_33k_ES_PAN_21mic_H50_0377_fot_40B-38916_W_tif
  0
INSERT
  8
FeatureAttribs
  2
FEATURE
  41
1
  42
1
  43
1
  50
0
  10
497313.247
  20
4600911.500
 66
1
  0
ATTRIB
  8
FeatureAttribs
 70
0
  1
PNOA-H_AMS_1956-57_33k_ES_PAN_21mic_H50_0377_fot_40B-38915_W.tif
  2
NAME
  10
497313.247
  20
4600911.500
 40
33.42160
  0
SEQEND
  0
POLYLINE
  8
PNOA-H_AMS_1956-57_33k_ES_PAN_21mic_H50_0377_fot_40B-38915_W_tif
  70
9
  66
1
  0
VERTEX
  8
PNOA-H_AMS_1956-57_33k_ES_PAN_21mic_H50_0377_fot_40B-38915_W_tif
  70
32
  10
498265.787
  20
4598590.621
  30
910.672
  0
VERTEX
  8
PNOA-H_AMS_1956-57_33k_ES_PAN_21mic_H50_0377_fot_40B-38915_W_tif
  70
32
  10
498265.500
  20
4598590.500
  30
910.675
  0
VERTEX
  8
PNOA-H_AMS_1956-57_33k_ES_PAN_21mic_H50_0377_fot_40B-38915_W_tif
  70
32
  10
496515.750
  20
4598765.250
  30
922.303
  0
VERTEX
  8
PNOA-H_AMS_1956-57_33k_ES_PAN_21mic_H50_0377_fot_40B-38915_W_tif
  70
32
  10
495932.500
  20
4598823.500
  30
926.18
  0
VERTEX
  8
PNOA-H_AMS_1956-57_33k_ES_PAN_21mic_H50_0377_fot_40B-38915_W_tif
  70
32
  10
495881.000
  20
4602996.500
  30
927.086
  0
VERTEX
  8
PNOA-H_AMS_1956-57_33k_ES_PAN_21mic_H50_0377_fot_40B-38915_W_tif
  70
32
  10
495881.057
  20
4602996.532
  30
927.102
  0
VERTEX
  8
PNOA-H_AMS_1956-57_33k_ES_PAN_21mic_H50_0377_fot_40B-38915_W_tif
  70
32
  10
496044.385
  20
4603087.269
  30
971.73
  0
VERTEX
  8
PNOA-H_AMS_1956-57_33k_ES_PAN_21mic_H50_0377_fot_40B-38915_W_tif
  70
32
  10
496074.500
  20
4603104.000
  30
979.958
  0
VERTEX
  8
PNOA-H_AMS_1956-57_33k_ES_PAN_21mic_H50_0377_fot_40B-38915_W_tif
  70
32
  10
496074.536
  20
4603104.071
  30
979.958
  0
VERTEX
  8
PNOA-H_AMS_1956-57_33k_ES_PAN_21mic_H50_0377_fot_40B-38915_W_tif
  70
32
  10
496075.000
  20
4603105.000
  30
979.954
  0
VERTEX
  8
PNOA-H_AMS_1956-57_33k_ES_PAN_21mic_H50_0377_fot_40B-38915_W_tif
  70
32
  10
496302.000
  20
4603231.500
  30
932.789
  0
VERTEX
  8
PNOA-H_AMS_1956-57_33k_ES_PAN_21mic_H50_0377_fot_40B-38915_W_tif
  70
32
  10
496303.621
  20
4603231.732
  30
932.434
  0
VERTEX
  8
PNOA-H_AMS_1956-57_33k_ES_PAN_21mic_H50_0377_fot_40B-38915_W_tif
  70
32
  10
496307.360
  20
4603232.266
  30
931.616
  0
VERTEX
  8
PNOA-H_AMS_1956-57_33k_ES_PAN_21mic_H50_0377_fot_40B-38915_W_tif
  70
32
  10
496309.000
  20
4603232.500
  30
931.257
  0
VERTEX
  8
PNOA-H_AMS_1956-57_33k_ES_PAN_21mic_H50_0377_fot_40B-38915_W_tif
  70
32
  10
498457.444
  20
4603018.722
  30
952.006
  0
VERTEX
  8
PNOA-H_AMS_1956-57_33k_ES_PAN_21mic_H50_0377_fot_40B-38915_W_tif
  70
32
  10
498726.000
  20
4602992.000
  30
954.599
  0
VERTEX
  8
PNOA-H_AMS_1956-57_33k_ES_PAN_21mic_H50_0377_fot_40B-38915_W_tif
  70
32
  10
498713.501
  20
4598822.500
  30
937.181
  0
VERTEX
  8
PNOA-H_AMS_1956-57_33k_ES_PAN_21mic_H50_0377_fot_40B-38915_W_tif
  70
32
  10
498713.500
  20
4598822.000
  30
937.179
  0
VERTEX
  8
PNOA-H_AMS_1956-57_33k_ES_PAN_21mic_H50_0377_fot_40B-38915_W_tif
  70
32
  10
498275.000
  20
4598594.500
  30
910.578
  0
VERTEX
  8
PNOA-H_AMS_1956-57_33k_ES_PAN_21mic_H50_0377_fot_40B-38915_W_tif
  70
32
  10
498268.351
  20
4598591.700
  30
910.646
  0
VERTEX
  8
PNOA-H_AMS_1956-57_33k_ES_PAN_21mic_H50_0377_fot_40B-38915_W_tif
  70
32
  10
498265.787
  20
4598590.621
  30
910.672
  0
SEQEND
  8
PNOA-H_AMS_1956-57_33k_ES_PAN_21mic_H50_0377_fot_40B-38915_W_tif
  0
INSERT
  8
FeatureAttribs
  2
FEATURE
  41
1
  42
1
  43
1
  50
0
  10
499715.781
  20
4596543.466
 66
1
  0
ATTRIB
  8
FeatureAttribs
 70
0
  1
PNOA-H_AMS_1956-57_33k_ES_PAN_21mic_H50_0377_fot_41B-37401_W.tif
  2
NAME
  10
499715.781
  20
4596543.466
 40
33.42160
  0
SEQEND
  0
POLYLINE
  8
PNOA-H_AMS_1956-57_33k_ES_PAN_21mic_H50_0377_fot_41B-37401_W_tif
  70
9
  66
1
  0
VERTEX
  8
PNOA-H_AMS_1956-57_33k_ES_PAN_21mic_H50_0377_fot_41B-37401_W_tif
  70
32
  10
498713.501
  20
4598822.500
  30
937.296
  0
VERTEX
  8
PNOA-H_AMS_1956-57_33k_ES_PAN_21mic_H50_0377_fot_41B-37401_W_tif
  70
32
  10
500170.500
  20
4598691.000
  30
997.606
  0
VERTEX
  8
PNOA-H_AMS_1956-57_33k_ES_PAN_21mic_H50_0377_fot_41B-37401_W_tif
  70
32
  10
500172.000
  20
4598691.000
  30
997.753
  0
VERTEX
  8
PNOA-H_AMS_1956-57_33k_ES_PAN_21mic_H50_0377_fot_41B-37401_W_tif
  70
32
  10
501129.000
  20
4598605.000
  30
965.251
  0
VERTEX
  8
PNOA-H_AMS_1956-57_33k_ES_PAN_21mic_H50_0377_fot_41B-37401_W_tif
  70
32
  10
501181.753
  20
4594264.432
  30
898.512
  0
VERTEX
  8
PNOA-H_AMS_1956-57_33k_ES_PAN_21mic_H50_0377_fot_41B-37401_W_tif
  70
32
  10
498289.200
  20
4594264.432
  30
886.437
  0
VERTEX
  8
PNOA-H_AMS_1956-57_33k_ES_PAN_21mic_H50_0377_fot_41B-37401_W_tif
  70
32
  10
498267.000
  20
4598591.000
  30
910.655
  0
VERTEX
  8
PNOA-H_AMS_1956-57_33k_ES_PAN_21mic_H50_0377_fot_41B-37401_W_tif
  70
32
  10
498268.351
  20
4598591.700
  30
910.736
  0
VERTEX
  8
PNOA-H_AMS_1956-57_33k_ES_PAN_21mic_H50_0377_fot_41B-37401_W_tif
  70
32
  10
498713.501
  20
4598822.500
  30
937.296
  0
SEQEND
  8
PNOA-H_AMS_1956-57_33k_ES_PAN_21mic_H50_0377_fot_41B-37401_W_tif
  0
INSERT
  8
FeatureAttribs
  2
FEATURE
  41
1
  42
1
  43
1
  50
0
  10
491136.866
  20
4596523.087
 66
1
  0
ATTRIB
  8
FeatureAttribs
 70
0
  1
PNOA-H_AMS_1956-57_33k_ES_PAN_21mic_H50_0377_fot_41B-37404_W.tif
  2
NAME
  10
491136.866
  20
4596523.087
 40
33.42160
  0
SEQEND
  0
POLYLINE
  8
PNOA-H_AMS_1956-57_33k_ES_PAN_21mic_H50_0377_fot_41B-37404_W_tif
  70
9
  66
1
  0
VERTEX
  8
PNOA-H_AMS_1956-57_33k_ES_PAN_21mic_H50_0377_fot_41B-37404_W_tif
  70
32
  10
492538.500
  20
4598490.000
  30
902.86
  0
VERTEX
  8
PNOA-H_AMS_1956-57_33k_ES_PAN_21mic_H50_0377_fot_41B-37404_W_tif
  70
32
  10
492640.159
  20
4594268.173
  30
963.057
  0
VERTEX
  8
PNOA-H_AMS_1956-57_33k_ES_PAN_21mic_H50_0377_fot_41B-37404_W_tif
  70
32
  10
491305.961
  20
4594269.459
  30
0
  0
VERTEX
  8
PNOA-H_AMS_1956-57_33k_ES_PAN_21mic_H50_0377_fot_41B-37404_W_tif
  70
32
  10
489733.822
  20
4594271.732
  30
974.055
  0
VERTEX
  8
PNOA-H_AMS_1956-57_33k_ES_PAN_21mic_H50_0377_fot_41B-37404_W_tif
  70
32
  10
489649.000
  20
4598427.500
  30
864.933
  0
VERTEX
  8
PNOA-H_AMS_1956-57_33k_ES_PAN_21mic_H50_0377_fot_41B-37404_W_tif
  70
32
  10
489649.117
  20
4598427.555
  30
864.933
  0
VERTEX
  8
PNOA-H_AMS_1956-57_33k_ES_PAN_21mic_H50_0377_fot_41B-37404_W_tif
  70
32
  10
489929.500
  20
4598560.500
  30
865.298
  0
VERTEX
  8
PNOA-H_AMS_1956-57_33k_ES_PAN_21mic_H50_0377_fot_41B-37404_W_tif
  70
32
  10
489931.000
  20
4598561.000
  30
865.311
  0
VERTEX
  8
PNOA-H_AMS_1956-57_33k_ES_PAN_21mic_H50_0377_fot_41B-37404_W_tif
  70
32
  10
490389.995
  20
4598777.761
  30
867.827
  0
VERTEX
  8
PNOA-H_AMS_1956-57_33k_ES_PAN_21mic_H50_0377_fot_41B-37404_W_tif
  70
32
  10
490390.356
  20
4598777.932
  30
867.829
  0
VERTEX
  8
PNOA-H_AMS_1956-57_33k_ES_PAN_21mic_H50_0377_fot_41B-37404_W_tif
  70
32
  10
490390.500
  20
4598778.000
  30
867.83
  0
VERTEX
  8
PNOA-H_AMS_1956-57_33k_ES_PAN_21mic_H50_0377_fot_41B-37404_W_tif
  70
32
  10
492284.990
  20
4598523.990
  30
898.726
  0
VERTEX
  8
PNOA-H_AMS_1956-57_33k_ES_PAN_21mic_H50_0377_fot_41B-37404_W_tif
  70
32
  10
492538.500
  20
4598490.000
  30
902.86
  0
SEQEND
  8
PNOA-H_AMS_1956-57_33k_ES_PAN_21mic_H50_0377_fot_41B-37404_W_tif
  0
INSERT
  8
FeatureAttribs
  2
FEATURE
  41
1
  42
1
  43
1
  50
0
  10
504356.488
  20
4609702.500
 66
1
  0
ATTRIB
  8
FeatureAttribs
 70
0
  1
PNOA-H_AMS_1956-57_33k_ES_PAN_21mic_H50_0377_fot_38C-40572_E.tif
  2
NAME
  10
504356.488
  20
4609702.500
 40
33.42160
  0
SEQEND
  0
POLYLINE
  8
PNOA-H_AMS_1956-57_33k_ES_PAN_21mic_H50_0377_fot_38C-40572_E_tif
  70
9
  66
1
  0
VERTEX
  8
PNOA-H_AMS_1956-57_33k_ES_PAN_21mic_H50_0377_fot_38C-40572_E_tif
  70
32
  10
505741.781
  20
4607699.928
  30
1004.839
  0
VERTEX
  8
PNOA-H_AMS_1956-57_33k_ES_PAN_21mic_H50_0377_fot_38C-40572_E_tif
  70
32
  10
504578.000
  20
4607318.000
  30
969.503
  0
VERTEX
  8
PNOA-H_AMS_1956-57_33k_ES_PAN_21mic_H50_0377_fot_38C-40572_E_tif
  70
32
  10
504577.361
  20
4607318.118
  30
969.555
  0
VERTEX
  8
PNOA-H_AMS_1956-57_33k_ES_PAN_21mic_H50_0377_fot_38C-40572_E_tif
  70
32
  10
504573.996
  20
4607318.742
  30
969.826
  0
VERTEX
  8
PNOA-H_AMS_1956-57_33k_ES_PAN_21mic_H50_0377_fot_38C-40572_E_tif
  70
32
  10
504564.500
  20
4607320.500
  30
970.593
  0
VERTEX
  8
PNOA-H_AMS_1956-57_33k_ES_PAN_21mic_H50_0377_fot_38C-40572_E_tif
  70
32
  10
503305.450
  20
4607631.856
  30
939.868
  0
VERTEX
  8
PNOA-H_AMS_1956-57_33k_ES_PAN_21mic_H50_0377_fot_38C-40572_E_tif
  70
32
  10
503040.000
  20
4607697.500
  30
933.39
  0
VERTEX
  8
PNOA-H_AMS_1956-57_33k_ES_PAN_21mic_H50_0377_fot_38C-40572_E_tif
  70
32
  10
503039.754
  20
4607706.398
  30
933.619
  0
VERTEX
  8
PNOA-H_AMS_1956-57_33k_ES_PAN_21mic_H50_0377_fot_38C-40572_E_tif
  70
32
  10
502929.000
  20
4611712.500
  30
1036.404
  0
VERTEX
  8
PNOA-H_AMS_1956-57_33k_ES_PAN_21mic_H50_0377_fot_38C-40572_E_tif
  70
32
  10
504265.000
  20
4611955.000
  30
1021.792
  0
VERTEX
  8
PNOA-H_AMS_1956-57_33k_ES_PAN_21mic_H50_0377_fot_38C-40572_E_tif
  70
32
  10
504267.500
  20
4611955.500
  30
1022.532
  0
VERTEX
  8
PNOA-H_AMS_1956-57_33k_ES_PAN_21mic_H50_0377_fot_38C-40572_E_tif
  70
32
  10
504808.291
  20
4612053.453
  30
1027.058
  0
VERTEX
  8
PNOA-H_AMS_1956-57_33k_ES_PAN_21mic_H50_0377_fot_38C-40572_E_tif
  70
32
  10
504993.140
  20
4612086.935
  30
1028.606
  0
VERTEX
  8
PNOA-H_AMS_1956-57_33k_ES_PAN_21mic_H50_0377_fot_38C-40572_E_tif
  70
32
  10
504993.500
  20
4612087.000
  30
1028.609
  0
VERTEX
  8
PNOA-H_AMS_1956-57_33k_ES_PAN_21mic_H50_0377_fot_38C-40572_E_tif
  70
32
  10
505714.500
  20
4611751.000
  30
1004.014
  0
VERTEX
  8
PNOA-H_AMS_1956-57_33k_ES_PAN_21mic_H50_0377_fot_38C-40572_E_tif
  70
32
  10
505714.503
  20
4611750.501
  30
1004.014
  0
VERTEX
  8
PNOA-H_AMS_1956-57_33k_ES_PAN_21mic_H50_0377_fot_38C-40572_E_tif
  70
32
  10
505742.000
  20
4607700.000
  30
1004.845
  0
VERTEX
  8
PNOA-H_AMS_1956-57_33k_ES_PAN_21mic_H50_0377_fot_38C-40572_E_tif
  70
32
  10
505741.781
  20
4607699.928
  30
1004.839
  0
SEQEND
  8
PNOA-H_AMS_1956-57_33k_ES_PAN_21mic_H50_0377_fot_38C-40572_E_tif
  0
INSERT
  8
FeatureAttribs
  2
FEATURE
  41
1
  42
1
  43
1
  50
0
  10
501602.652
  20
4609631.750
 66
1
  0
ATTRIB
  8
FeatureAttribs
 70
0
  1
PNOA-H_AMS_1956-57_33k_ES_PAN_21mic_H50_0377_fot_38C-40571_E.tif
  2
NAME
  10
501602.652
  20
4609631.750
 40
33.42160
  0
SEQEND
  0
POLYLINE
  8
PNOA-H_AMS_1956-57_33k_ES_PAN_21mic_H50_0377_fot_38C-40571_E_tif
  70
9
  66
1
  0
VERTEX
  8
PNOA-H_AMS_1956-57_33k_ES_PAN_21mic_H50_0377_fot_38C-40571_E_tif
  70
32
  10
502344.500
  20
4611991.000
  30
1011.344
  0
VERTEX
  8
PNOA-H_AMS_1956-57_33k_ES_PAN_21mic_H50_0377_fot_38C-40571_E_tif
  70
32
  10
502347.000
  20
4611991.000
  30
1011.941
  0
VERTEX
  8
PNOA-H_AMS_1956-57_33k_ES_PAN_21mic_H50_0377_fot_38C-40571_E_tif
  70
32
  10
502347.250
  20
4611991.000
  30
1012.001
  0
VERTEX
  8
PNOA-H_AMS_1956-57_33k_ES_PAN_21mic_H50_0377_fot_38C-40571_E_tif
  70
32
  10
502347.500
  20
4611991.000
  30
1012.06
  0
VERTEX
  8
PNOA-H_AMS_1956-57_33k_ES_PAN_21mic_H50_0377_fot_38C-40571_E_tif
  70
32
  10
502354.000
  20
4611988.000
  30
1013.209
  0
VERTEX
  8
PNOA-H_AMS_1956-57_33k_ES_PAN_21mic_H50_0377_fot_38C-40571_E_tif
  70
32
  10
502929.000
  20
4611712.500
  30
1036.404
  0
VERTEX
  8
PNOA-H_AMS_1956-57_33k_ES_PAN_21mic_H50_0377_fot_38C-40571_E_tif
  70
32
  10
502988.000
  20
4609591.500
  30
1031.703
  0
VERTEX
  8
PNOA-H_AMS_1956-57_33k_ES_PAN_21mic_H50_0377_fot_38C-40571_E_tif
  70
32
  10
502988.500
  20
4609573.000
  30
1028.968
  0
VERTEX
  8
PNOA-H_AMS_1956-57_33k_ES_PAN_21mic_H50_0377_fot_38C-40571_E_tif
  70
32
  10
503040.000
  20
4607715.500
  30
935.529
  0
VERTEX
  8
PNOA-H_AMS_1956-57_33k_ES_PAN_21mic_H50_0377_fot_38C-40571_E_tif
  70
32
  10
503039.754
  20
4607706.398
  30
934.487
  0
VERTEX
  8
PNOA-H_AMS_1956-57_33k_ES_PAN_21mic_H50_0377_fot_38C-40571_E_tif
  70
32
  10
503039.513
  20
4607697.497
  30
933.468
  0
VERTEX
  8
PNOA-H_AMS_1956-57_33k_ES_PAN_21mic_H50_0377_fot_38C-40571_E_tif
  70
32
  10
503039.500
  20
4607697.000
  30
933.411
  0
VERTEX
  8
PNOA-H_AMS_1956-57_33k_ES_PAN_21mic_H50_0377_fot_38C-40571_E_tif
  70
32
  10
501792.500
  20
4607272.500
  30
975.172
  0
VERTEX
  8
PNOA-H_AMS_1956-57_33k_ES_PAN_21mic_H50_0377_fot_38C-40571_E_tif
  70
32
  10
501792.185
  20
4607272.582
  30
975.173
  0
VERTEX
  8
PNOA-H_AMS_1956-57_33k_ES_PAN_21mic_H50_0377_fot_38C-40571_E_tif
  70
32
  10
501792.001
  20
4607272.631
  30
975.174
  0
VERTEX
  8
PNOA-H_AMS_1956-57_33k_ES_PAN_21mic_H50_0377_fot_38C-40571_E_tif
  70
32
  10
500273.500
  20
4607670.000
  30
979.713
  0
VERTEX
  8
PNOA-H_AMS_1956-57_33k_ES_PAN_21mic_H50_0377_fot_38C-40571_E_tif
  70
32
  10
500271.705
  20
4607670.898
  30
979.675
  0
VERTEX
  8
PNOA-H_AMS_1956-57_33k_ES_PAN_21mic_H50_0377_fot_38C-40571_E_tif
  70
32
  10
500271.500
  20
4607671.000
  30
979.67
  0
VERTEX
  8
PNOA-H_AMS_1956-57_33k_ES_PAN_21mic_H50_0377_fot_38C-40571_E_tif
  70
32
  10
500271.000
  20
4607673.000
  30
979.704
  0
VERTEX
  8
PNOA-H_AMS_1956-57_33k_ES_PAN_21mic_H50_0377_fot_38C-40571_E_tif
  70
32
  10
500165.000
  20
4611622.000
  30
1022.54
  0
VERTEX
  8
PNOA-H_AMS_1956-57_33k_ES_PAN_21mic_H50_0377_fot_38C-40571_E_tif
  70
32
  10
500165.246
  20
4611631.339
  30
1023.565
  0
VERTEX
  8
PNOA-H_AMS_1956-57_33k_ES_PAN_21mic_H50_0377_fot_38C-40571_E_tif
  70
32
  10
500165.487
  20
4611640.507
  30
1024.571
  0
VERTEX
  8
PNOA-H_AMS_1956-57_33k_ES_PAN_21mic_H50_0377_fot_38C-40571_E_tif
  70
32
  10
500165.500
  20
4611641.000
  30
1024.625
  0
VERTEX
  8
PNOA-H_AMS_1956-57_33k_ES_PAN_21mic_H50_0377_fot_38C-40571_E_tif
  70
32
  10
502344.500
  20
4611991.000
  30
1011.344
  0
SEQEND
  8
PNOA-H_AMS_1956-57_33k_ES_PAN_21mic_H50_0377_fot_38C-40571_E_tif
  0
INSERT
  8
FeatureAttribs
  2
FEATURE
  41
1
  42
1
  43
1
  50
0
  10
500429.324
  20
4605344.000
 66
1
  0
ATTRIB
  8
FeatureAttribs
 70
0
  1
PNOA-H_AMS_1956-57_33k_ES_PAN_21mic_H50_0377_fot_39D-44189_E.tif
  2
NAME
  10
500429.324
  20
4605344.000
 40
33.42160
  0
SEQEND
  0
POLYLINE
  8
PNOA-H_AMS_1956-57_33k_ES_PAN_21mic_H50_0377_fot_39D-44189_E_tif
  70
9
  66
1
  0
VERTEX
  8
PNOA-H_AMS_1956-57_33k_ES_PAN_21mic_H50_0377_fot_39D-44189_E_tif
  70
32
  10
501668.311
  20
4603080.123
  30
996.578
  0
VERTEX
  8
PNOA-H_AMS_1956-57_33k_ES_PAN_21mic_H50_0377_fot_39D-44189_E_tif
  70
32
  10
501565.000
  20
4603017.000
  30
988.361
  0
VERTEX
  8
PNOA-H_AMS_1956-57_33k_ES_PAN_21mic_H50_0377_fot_39D-44189_E_tif
  70
32
  10
501564.549
  20
4603017.030
  30
988.356
  0
VERTEX
  8
PNOA-H_AMS_1956-57_33k_ES_PAN_21mic_H50_0377_fot_39D-44189_E_tif
  70
32
  10
499050.500
  20
4603181.500
  30
957.51
  0
VERTEX
  8
PNOA-H_AMS_1956-57_33k_ES_PAN_21mic_H50_0377_fot_39D-44189_E_tif
  70
32
  10
499052.000
  20
4603458.966
  30
961.975
  0
VERTEX
  8
PNOA-H_AMS_1956-57_33k_ES_PAN_21mic_H50_0377_fot_39D-44189_E_tif
  70
32
  10
499072.322
  20
4607218.045
  30
1022.465
  0
VERTEX
  8
PNOA-H_AMS_1956-57_33k_ES_PAN_21mic_H50_0377_fot_39D-44189_E_tif
  70
32
  10
499072.497
  20
4607250.501
  30
1022.987
  0
VERTEX
  8
PNOA-H_AMS_1956-57_33k_ES_PAN_21mic_H50_0377_fot_39D-44189_E_tif
  70
32
  10
499072.500
  20
4607251.000
  30
1022.995
  0
VERTEX
  8
PNOA-H_AMS_1956-57_33k_ES_PAN_21mic_H50_0377_fot_39D-44189_E_tif
  70
32
  10
500169.500
  20
4607635.500
  30
986.649
  0
VERTEX
  8
PNOA-H_AMS_1956-57_33k_ES_PAN_21mic_H50_0377_fot_39D-44189_E_tif
  70
32
  10
500171.000
  20
4607636.000
  30
986.414
  0
VERTEX
  8
PNOA-H_AMS_1956-57_33k_ES_PAN_21mic_H50_0377_fot_39D-44189_E_tif
  70
32
  10
500229.992
  20
4607656.443
  30
982.487
  0
VERTEX
  8
PNOA-H_AMS_1956-57_33k_ES_PAN_21mic_H50_0377_fot_39D-44189_E_tif
  70
32
  10
500271.705
  20
4607670.898
  30
979.711
  0
VERTEX
  8
PNOA-H_AMS_1956-57_33k_ES_PAN_21mic_H50_0377_fot_39D-44189_E_tif
  70
32
  10
500272.000
  20
4607671.000
  30
979.692
  0
VERTEX
  8
PNOA-H_AMS_1956-57_33k_ES_PAN_21mic_H50_0377_fot_39D-44189_E_tif
  70
32
  10
501792.000
  20
4607273.000
  30
975.059
  0
VERTEX
  8
PNOA-H_AMS_1956-57_33k_ES_PAN_21mic_H50_0377_fot_39D-44189_E_tif
  70
32
  10
501792.001
  20
4607272.631
  30
975.062
  0
VERTEX
  8
PNOA-H_AMS_1956-57_33k_ES_PAN_21mic_H50_0377_fot_39D-44189_E_tif
  70
32
  10
501792.001
  20
4607272.500
  30
975.063
  0
VERTEX
  8
PNOA-H_AMS_1956-57_33k_ES_PAN_21mic_H50_0377_fot_39D-44189_E_tif
  70
32
  10
501801.500
  20
4603161.500
  30
1007.172
  0
VERTEX
  8
PNOA-H_AMS_1956-57_33k_ES_PAN_21mic_H50_0377_fot_39D-44189_E_tif
  70
32
  10
501801.457
  20
4603161.474
  30
1007.168
  0
VERTEX
  8
PNOA-H_AMS_1956-57_33k_ES_PAN_21mic_H50_0377_fot_39D-44189_E_tif
  70
32
  10
501800.780
  20
4603161.060
  30
1007.115
  0
VERTEX
  8
PNOA-H_AMS_1956-57_33k_ES_PAN_21mic_H50_0377_fot_39D-44189_E_tif
  70
32
  10
501668.311
  20
4603080.123
  30
996.578
  0
SEQEND
  8
PNOA-H_AMS_1956-57_33k_ES_PAN_21mic_H50_0377_fot_39D-44189_E_tif
  0
INSERT
  8
FeatureAttribs
  2
FEATURE
  41
1
  42
1
  43
1
  50
0
  10
505892.687
  20
4605352.250
 66
1
  0
ATTRIB
  8
FeatureAttribs
 70
0
  1
PNOA-H_AMS_1956-57_33k_ES_PAN_21mic_H50_0377_fot_39D-44191_E.tif
  2
NAME
  10
505892.687
  20
4605352.250
 40
33.42160
  0
SEQEND
  0
POLYLINE
  8
PNOA-H_AMS_1956-57_33k_ES_PAN_21mic_H50_0377_fot_39D-44191_E_tif
  70
9
  66
1
  0
VERTEX
  8
PNOA-H_AMS_1956-57_33k_ES_PAN_21mic_H50_0377_fot_39D-44191_E_tif
  70
32
  10
507258.979
  20
4603061.487
  30
1014.624
  0
VERTEX
  8
PNOA-H_AMS_1956-57_33k_ES_PAN_21mic_H50_0377_fot_39D-44191_E_tif
  70
32
  10
507168.000
  20
4603004.500
  30
1011.513
  0
VERTEX
  8
PNOA-H_AMS_1956-57_33k_ES_PAN_21mic_H50_0377_fot_39D-44191_E_tif
  70
32
  10
507167.992
  20
4603004.500
  30
1011.513
  0
VERTEX
  8
PNOA-H_AMS_1956-57_33k_ES_PAN_21mic_H50_0377_fot_39D-44191_E_tif
  70
32
  10
506308.059
  20
4603037.500
  30
989.057
  0
VERTEX
  8
PNOA-H_AMS_1956-57_33k_ES_PAN_21mic_H50_0377_fot_39D-44191_E_tif
  70
32
  10
504510.000
  20
4603106.500
  30
942.102
  0
VERTEX
  8
PNOA-H_AMS_1956-57_33k_ES_PAN_21mic_H50_0377_fot_39D-44191_E_tif
  70
32
  10
504515.500
  20
4603452.220
  30
944.358
  0
VERTEX
  8
PNOA-H_AMS_1956-57_33k_ES_PAN_21mic_H50_0377_fot_39D-44191_E_tif
  70
32
  10
504577.000
  20
4607318.000
  30
969.589
  0
VERTEX
  8
PNOA-H_AMS_1956-57_33k_ES_PAN_21mic_H50_0377_fot_39D-44191_E_tif
  70
32
  10
504577.361
  20
4607318.118
  30
969.6
  0
VERTEX
  8
PNOA-H_AMS_1956-57_33k_ES_PAN_21mic_H50_0377_fot_39D-44191_E_tif
  70
32
  10
505740.000
  20
4607699.500
  30
1005.031
  0
VERTEX
  8
PNOA-H_AMS_1956-57_33k_ES_PAN_21mic_H50_0377_fot_39D-44191_E_tif
  70
32
  10
505741.500
  20
4607700.000
  30
1004.89
  0
VERTEX
  8
PNOA-H_AMS_1956-57_33k_ES_PAN_21mic_H50_0377_fot_39D-44191_E_tif
  70
32
  10
505741.781
  20
4607699.928
  30
1004.895
  0
VERTEX
  8
PNOA-H_AMS_1956-57_33k_ES_PAN_21mic_H50_0377_fot_39D-44191_E_tif
  70
32
  10
507223.000
  20
4607322.500
  30
1029.013
  0
VERTEX
  8
PNOA-H_AMS_1956-57_33k_ES_PAN_21mic_H50_0377_fot_39D-44191_E_tif
  70
32
  10
507259.000
  20
4603061.500
  30
1014.625
  0
VERTEX
  8
PNOA-H_AMS_1956-57_33k_ES_PAN_21mic_H50_0377_fot_39D-44191_E_tif
  70
32
  10
507258.979
  20
4603061.487
  30
1014.624
  0
SEQEND
  8
PNOA-H_AMS_1956-57_33k_ES_PAN_21mic_H50_0377_fot_39D-44191_E_tif
  0
INSERT
  8
FeatureAttribs
  2
FEATURE
  41
1
  42
1
  43
1
  50
0
  10
503171.077
  20
4605355.750
 66
1
  0
ATTRIB
  8
FeatureAttribs
 70
0
  1
PNOA-H_AMS_1956-57_33k_ES_PAN_21mic_H50_0377_fot_39D-44190_E.tif
  2
NAME
  10
503171.077
  20
4605355.750
 40
33.42160
  0
SEQEND
  0
POLYLINE
  8
PNOA-H_AMS_1956-57_33k_ES_PAN_21mic_H50_0377_fot_39D-44190_E_tif
  70
9
  66
1
  0
VERTEX
  8
PNOA-H_AMS_1956-57_33k_ES_PAN_21mic_H50_0377_fot_39D-44190_E_tif
  70
32
  10
504509.970
  20
4603106.482
  30
942.102
  0
VERTEX
  8
PNOA-H_AMS_1956-57_33k_ES_PAN_21mic_H50_0377_fot_39D-44190_E_tif
  70
32
  10
504358.500
  20
4603014.000
  30
940.958
  0
VERTEX
  8
PNOA-H_AMS_1956-57_33k_ES_PAN_21mic_H50_0377_fot_39D-44190_E_tif
  70
32
  10
504358.496
  20
4603014.000
  30
940.958
  0
VERTEX
  8
PNOA-H_AMS_1956-57_33k_ES_PAN_21mic_H50_0377_fot_39D-44190_E_tif
  70
32
  10
501801.500
  20
4603161.500
  30
1007.172
  0
VERTEX
  8
PNOA-H_AMS_1956-57_33k_ES_PAN_21mic_H50_0377_fot_39D-44190_E_tif
  70
32
  10
501792.000
  20
4607266.000
  30
976.352
  0
VERTEX
  8
PNOA-H_AMS_1956-57_33k_ES_PAN_21mic_H50_0377_fot_39D-44190_E_tif
  70
32
  10
501792.001
  20
4607272.500
  30
975.154
  0
VERTEX
  8
PNOA-H_AMS_1956-57_33k_ES_PAN_21mic_H50_0377_fot_39D-44190_E_tif
  70
32
  10
501792.185
  20
4607272.582
  30
975.133
  0
VERTEX
  8
PNOA-H_AMS_1956-57_33k_ES_PAN_21mic_H50_0377_fot_39D-44190_E_tif
  70
32
  10
501796.500
  20
4607274.500
  30
974.642
  0
VERTEX
  8
PNOA-H_AMS_1956-57_33k_ES_PAN_21mic_H50_0377_fot_39D-44190_E_tif
  70
32
  10
503039.500
  20
4607697.500
  30
933.435
  0
VERTEX
  8
PNOA-H_AMS_1956-57_33k_ES_PAN_21mic_H50_0377_fot_39D-44190_E_tif
  70
32
  10
503039.513
  20
4607697.497
  30
933.435
  0
VERTEX
  8
PNOA-H_AMS_1956-57_33k_ES_PAN_21mic_H50_0377_fot_39D-44190_E_tif
  70
32
  10
503305.450
  20
4607631.856
  30
939.688
  0
VERTEX
  8
PNOA-H_AMS_1956-57_33k_ES_PAN_21mic_H50_0377_fot_39D-44190_E_tif
  70
32
  10
504573.996
  20
4607318.742
  30
969.518
  0
VERTEX
  8
PNOA-H_AMS_1956-57_33k_ES_PAN_21mic_H50_0377_fot_39D-44190_E_tif
  70
32
  10
504577.000
  20
4607318.000
  30
969.589
  0
VERTEX
  8
PNOA-H_AMS_1956-57_33k_ES_PAN_21mic_H50_0377_fot_39D-44190_E_tif
  70
32
  10
504515.500
  20
4603458.500
  30
960.811
  0
VERTEX
  8
PNOA-H_AMS_1956-57_33k_ES_PAN_21mic_H50_0377_fot_39D-44190_E_tif
  70
32
  10
504515.500
  20
4603452.220
  30
944.358
  0
VERTEX
  8
PNOA-H_AMS_1956-57_33k_ES_PAN_21mic_H50_0377_fot_39D-44190_E_tif
  70
32
  10
504515.500
  20
4603429.000
  30
958.726
  0
VERTEX
  8
PNOA-H_AMS_1956-57_33k_ES_PAN_21mic_H50_0377_fot_39D-44190_E_tif
  70
32
  10
504510.000
  20
4603106.500
  30
942.102
  0
VERTEX
  8
PNOA-H_AMS_1956-57_33k_ES_PAN_21mic_H50_0377_fot_39D-44190_E_tif
  70
32
  10
504509.970
  20
4603106.482
  30
942.102
  0
SEQEND
  8
PNOA-H_AMS_1956-57_33k_ES_PAN_21mic_H50_0377_fot_39D-44190_E_tif
  0
INSERT
  8
FeatureAttribs
  2
FEATURE
  41
1
  42
1
  43
1
  50
0
  10
502551.731
  20
4596537.716
 66
1
  0
ATTRIB
  8
FeatureAttribs
 70
0
  1
PNOA-H_AMS_1956-57_33k_ES_PAN_21mic_H50_0377_fot_41B-37400_W.tif
  2
NAME
  10
502551.731
  20
4596537.716
 40
33.42160
  0
SEQEND
  0
POLYLINE
  8
PNOA-H_AMS_1956-57_33k_ES_PAN_21mic_H50_0377_fot_41B-37400_W_tif
  70
9
  66
1
  0
VERTEX
  8
PNOA-H_AMS_1956-57_33k_ES_PAN_21mic_H50_0377_fot_41B-37400_W_tif
  70
32
  10
501516.374
  20
4598810.933
  30
988.653
  0
VERTEX
  8
PNOA-H_AMS_1956-57_33k_ES_PAN_21mic_H50_0377_fot_41B-37400_W_tif
  70
32
  10
502216.000
  20
4598757.000
  30
1000.286
  0
VERTEX
  8
PNOA-H_AMS_1956-57_33k_ES_PAN_21mic_H50_0377_fot_41B-37400_W_tif
  70
32
  10
502217.484
  20
4598757.000
  30
1000.432
  0
VERTEX
  8
PNOA-H_AMS_1956-57_33k_ES_PAN_21mic_H50_0377_fot_41B-37400_W_tif
  70
32
  10
502220.000
  20
4598757.000
  30
1000.678
  0
VERTEX
  8
PNOA-H_AMS_1956-57_33k_ES_PAN_21mic_H50_0377_fot_41B-37400_W_tif
  70
32
  10
503646.941
  20
4598646.882
  30
996.151
  0
VERTEX
  8
PNOA-H_AMS_1956-57_33k_ES_PAN_21mic_H50_0377_fot_41B-37400_W_tif
  70
32
  10
503930.500
  20
4598625.000
  30
995.252
  0
VERTEX
  8
PNOA-H_AMS_1956-57_33k_ES_PAN_21mic_H50_0377_fot_41B-37400_W_tif
  70
32
  10
503969.841
  20
4594265.507
  30
901.148
  0
VERTEX
  8
PNOA-H_AMS_1956-57_33k_ES_PAN_21mic_H50_0377_fot_41B-37400_W_tif
  70
32
  10
501738.808
  20
4594264.432
  30
0
  0
VERTEX
  8
PNOA-H_AMS_1956-57_33k_ES_PAN_21mic_H50_0377_fot_41B-37400_W_tif
  70
32
  10
501181.753
  20
4594264.432
  30
898.512
  0
VERTEX
  8
PNOA-H_AMS_1956-57_33k_ES_PAN_21mic_H50_0377_fot_41B-37400_W_tif
  70
32
  10
501129.000
  20
4598605.000
  30
965.251
  0
VERTEX
  8
PNOA-H_AMS_1956-57_33k_ES_PAN_21mic_H50_0377_fot_41B-37400_W_tif
  70
32
  10
501129.144
  20
4598605.077
  30
965.26
  0
VERTEX
  8
PNOA-H_AMS_1956-57_33k_ES_PAN_21mic_H50_0377_fot_41B-37400_W_tif
  70
32
  10
501515.500
  20
4598811.000
  30
988.638
  0
VERTEX
  8
PNOA-H_AMS_1956-57_33k_ES_PAN_21mic_H50_0377_fot_41B-37400_W_tif
  70
32
  10
501516.374
  20
4598810.933
  30
988.653
  0
SEQEND
  8
PNOA-H_AMS_1956-57_33k_ES_PAN_21mic_H50_0377_fot_41B-37400_W_tif
  0
INSERT
  8
FeatureAttribs
  2
FEATURE
  41
1
  42
1
  43
1
  50
0
  10
505331.026
  20
4596547.753
 66
1
  0
ATTRIB
  8
FeatureAttribs
 70
0
  1
PNOA-H_AMS_1956-57_33k_ES_PAN_21mic_H50_0377_fot_41B-37399_W.tif
  2
NAME
  10
505331.026
  20
4596547.753
 40
33.42160
  0
SEQEND
  0
POLYLINE
  8
PNOA-H_AMS_1956-57_33k_ES_PAN_21mic_H50_0377_fot_41B-37399_W_tif
  70
9
  66
1
  0
VERTEX
  8
PNOA-H_AMS_1956-57_33k_ES_PAN_21mic_H50_0377_fot_41B-37399_W_tif
  70
32
  10
505216.423
  20
4594266.107
  30
0
  0
VERTEX
  8
PNOA-H_AMS_1956-57_33k_ES_PAN_21mic_H50_0377_fot_41B-37399_W_tif
  70
32
  10
503969.841
  20
4594265.507
  30
901.148
  0
VERTEX
  8
PNOA-H_AMS_1956-57_33k_ES_PAN_21mic_H50_0377_fot_41B-37399_W_tif
  70
32
  10
503930.500
  20
4598625.000
  30
995.252
  0
VERTEX
  8
PNOA-H_AMS_1956-57_33k_ES_PAN_21mic_H50_0377_fot_41B-37399_W_tif
  70
32
  10
503930.565
  20
4598625.034
  30
995.251
  0
VERTEX
  8
PNOA-H_AMS_1956-57_33k_ES_PAN_21mic_H50_0377_fot_41B-37399_W_tif
  70
32
  10
504266.500
  20
4598799.500
  30
991.495
  0
VERTEX
  8
PNOA-H_AMS_1956-57_33k_ES_PAN_21mic_H50_0377_fot_41B-37399_W_tif
  70
32
  10
504267.500
  20
4598800.000
  30
991.516
  0
VERTEX
  8
PNOA-H_AMS_1956-57_33k_ES_PAN_21mic_H50_0377_fot_41B-37399_W_tif
  70
32
  10
504325.500
  20
4598830.000
  30
993.778
  0
VERTEX
  8
PNOA-H_AMS_1956-57_33k_ES_PAN_21mic_H50_0377_fot_41B-37399_W_tif
  70
32
  10
504326.000
  20
4598830.000
  30
993.759
  0
VERTEX
  8
PNOA-H_AMS_1956-57_33k_ES_PAN_21mic_H50_0377_fot_41B-37399_W_tif
  70
32
  10
504328.500
  20
4598830.000
  30
993.664
  0
VERTEX
  8
PNOA-H_AMS_1956-57_33k_ES_PAN_21mic_H50_0377_fot_41B-37399_W_tif
  70
32
  10
506676.500
  20
4598606.000
  30
972.77
  0
VERTEX
  8
PNOA-H_AMS_1956-57_33k_ES_PAN_21mic_H50_0377_fot_41B-37399_W_tif
  70
32
  10
506753.028
  20
4594267.588
  30
891.189
  0
VERTEX
  8
PNOA-H_AMS_1956-57_33k_ES_PAN_21mic_H50_0377_fot_41B-37399_W_tif
  70
32
  10
505216.423
  20
4594266.107
  30
0
  0
SEQEND
  8
PNOA-H_AMS_1956-57_33k_ES_PAN_21mic_H50_0377_fot_41B-37399_W_tif
  0
INSERT
  8
FeatureAttribs
  2
FEATURE
  41
1
  42
1
  43
1
  50
0
  10
505736.602
  20
4600856.250
 66
1
  0
ATTRIB
  8
FeatureAttribs
 70
0
  1
PNOA-H_AMS_1956-57_33k_ES_PAN_21mic_H50_0377_fot_40B-38912_W.tif
  2
NAME
  10
505736.602
  20
4600856.250
 40
33.42160
  0
SEQEND
  0
POLYLINE
  8
PNOA-H_AMS_1956-57_33k_ES_PAN_21mic_H50_0377_fot_40B-38912_W_tif
  70
9
  66
1
  0
VERTEX
  8
PNOA-H_AMS_1956-57_33k_ES_PAN_21mic_H50_0377_fot_40B-38912_W_tif
  70
32
  10
504509.970
  20
4603106.482
  30
942.111
  0
VERTEX
  8
PNOA-H_AMS_1956-57_33k_ES_PAN_21mic_H50_0377_fot_40B-38912_W_tif
  70
32
  10
506304.000
  20
4603037.500
  30
981.176
  0
VERTEX
  8
PNOA-H_AMS_1956-57_33k_ES_PAN_21mic_H50_0377_fot_40B-38912_W_tif
  70
32
  10
506308.059
  20
4603037.500
  30
981.227
  0
VERTEX
  8
PNOA-H_AMS_1956-57_33k_ES_PAN_21mic_H50_0377_fot_40B-38912_W_tif
  70
32
  10
506316.000
  20
4603037.500
  30
981.328
  0
VERTEX
  8
PNOA-H_AMS_1956-57_33k_ES_PAN_21mic_H50_0377_fot_40B-38912_W_tif
  70
32
  10
507167.992
  20
4603004.500
  30
1011.513
  0
VERTEX
  8
PNOA-H_AMS_1956-57_33k_ES_PAN_21mic_H50_0377_fot_40B-38912_W_tif
  70
32
  10
507168.000
  20
4603004.500
  30
1011.513
  0
VERTEX
  8
PNOA-H_AMS_1956-57_33k_ES_PAN_21mic_H50_0377_fot_40B-38912_W_tif
  70
32
  10
507097.000
  20
4598829.500
  30
963.616
  0
VERTEX
  8
PNOA-H_AMS_1956-57_33k_ES_PAN_21mic_H50_0377_fot_40B-38912_W_tif
  70
32
  10
507096.853
  20
4598829.422
  30
963.62
  0
VERTEX
  8
PNOA-H_AMS_1956-57_33k_ES_PAN_21mic_H50_0377_fot_40B-38912_W_tif
  70
32
  10
506676.509
  20
4598606.005
  30
972.77
  0
VERTEX
  8
PNOA-H_AMS_1956-57_33k_ES_PAN_21mic_H50_0377_fot_40B-38912_W_tif
  70
32
  10
506676.500
  20
4598606.000
  30
972.77
  0
VERTEX
  8
PNOA-H_AMS_1956-57_33k_ES_PAN_21mic_H50_0377_fot_40B-38912_W_tif
  70
32
  10
504326.000
  20
4598830.000
  30
993.756
  0
VERTEX
  8
PNOA-H_AMS_1956-57_33k_ES_PAN_21mic_H50_0377_fot_40B-38912_W_tif
  70
32
  10
504358.496
  20
4603014.000
  30
940.972
  0
VERTEX
  8
PNOA-H_AMS_1956-57_33k_ES_PAN_21mic_H50_0377_fot_40B-38912_W_tif
  70
32
  10
504358.500
  20
4603014.500
  30
940.966
  0
VERTEX
  8
PNOA-H_AMS_1956-57_33k_ES_PAN_21mic_H50_0377_fot_40B-38912_W_tif
  70
32
  10
504509.500
  20
4603106.500
  30
942.101
  0
VERTEX
  8
PNOA-H_AMS_1956-57_33k_ES_PAN_21mic_H50_0377_fot_40B-38912_W_tif
  70
32
  10
504509.970
  20
4603106.482
  30
942.111
  0
SEQEND
  8
PNOA-H_AMS_1956-57_33k_ES_PAN_21mic_H50_0377_fot_40B-38912_W_tif
  0
INSERT
  8
FeatureAttribs
  2
FEATURE
  41
1
  42
1
  43
1
  50
0
  10
500129.986
  20
4600893.250
 66
1
  0
ATTRIB
  8
FeatureAttribs
 70
0
  1
PNOA-H_AMS_1956-57_33k_ES_PAN_21mic_H50_0377_fot_40B-38914_W.tif
  2
NAME
  10
500129.986
  20
4600893.250
 40
33.42160
  0
SEQEND
  0
POLYLINE
  8
PNOA-H_AMS_1956-57_33k_ES_PAN_21mic_H50_0377_fot_40B-38914_W_tif
  70
9
  66
1
  0
VERTEX
  8
PNOA-H_AMS_1956-57_33k_ES_PAN_21mic_H50_0377_fot_40B-38914_W_tif
  70
32
  10
499050.449
  20
4603181.470
  30
957.524
  0
VERTEX
  8
PNOA-H_AMS_1956-57_33k_ES_PAN_21mic_H50_0377_fot_40B-38914_W_tif
  70
32
  10
500168.500
  20
4603108.000
  30
968.37
  0
VERTEX
  8
PNOA-H_AMS_1956-57_33k_ES_PAN_21mic_H50_0377_fot_40B-38914_W_tif
  70
32
  10
500172.000
  20
4603108.000
  30
968.227
  0
VERTEX
  8
PNOA-H_AMS_1956-57_33k_ES_PAN_21mic_H50_0377_fot_40B-38914_W_tif
  70
32
  10
501564.500
  20
4603017.000
  30
988.333
  0
VERTEX
  8
PNOA-H_AMS_1956-57_33k_ES_PAN_21mic_H50_0377_fot_40B-38914_W_tif
  70
32
  10
501516.500
  20
4598811.000
  30
988.465
  0
VERTEX
  8
PNOA-H_AMS_1956-57_33k_ES_PAN_21mic_H50_0377_fot_40B-38914_W_tif
  70
32
  10
501516.374
  20
4598810.933
  30
988.457
  0
VERTEX
  8
PNOA-H_AMS_1956-57_33k_ES_PAN_21mic_H50_0377_fot_40B-38914_W_tif
  70
32
  10
501130.000
  20
4598605.000
  30
965.274
  0
VERTEX
  8
PNOA-H_AMS_1956-57_33k_ES_PAN_21mic_H50_0377_fot_40B-38914_W_tif
  70
32
  10
501129.144
  20
4598605.077
  30
965.264
  0
VERTEX
  8
PNOA-H_AMS_1956-57_33k_ES_PAN_21mic_H50_0377_fot_40B-38914_W_tif
  70
32
  10
498713.501
  20
4598822.500
  30
937.296
  0
VERTEX
  8
PNOA-H_AMS_1956-57_33k_ES_PAN_21mic_H50_0377_fot_40B-38914_W_tif
  70
32
  10
498726.000
  20
4602992.000
  30
954.599
  0
VERTEX
  8
PNOA-H_AMS_1956-57_33k_ES_PAN_21mic_H50_0377_fot_40B-38914_W_tif
  70
32
  10
498726.073
  20
4602992.042
  30
954.6
  0
VERTEX
  8
PNOA-H_AMS_1956-57_33k_ES_PAN_21mic_H50_0377_fot_40B-38914_W_tif
  70
32
  10
499050.000
  20
4603181.500
  30
957.519
  0
VERTEX
  8
PNOA-H_AMS_1956-57_33k_ES_PAN_21mic_H50_0377_fot_40B-38914_W_tif
  70
32
  10
499050.449
  20
4603181.470
  30
957.524
  0
SEQEND
  8
PNOA-H_AMS_1956-57_33k_ES_PAN_21mic_H50_0377_fot_40B-38914_W_tif
  0
INSERT
  8
FeatureAttribs
  2
FEATURE
  41
1
  42
1
  43
1
  50
0
  10
502941.145
  20
4600893.250
 66
1
  0
ATTRIB
  8
FeatureAttribs
 70
0
  1
PNOA-H_AMS_1956-57_33k_ES_PAN_21mic_H50_0377_fot_40B-38913_W.tif
  2
NAME
  10
502941.145
  20
4600893.250
 40
33.42160
  0
SEQEND
  0
POLYLINE
  8
PNOA-H_AMS_1956-57_33k_ES_PAN_21mic_H50_0377_fot_40B-38913_W_tif
  70
9
  66
1
  0
VERTEX
  8
PNOA-H_AMS_1956-57_33k_ES_PAN_21mic_H50_0377_fot_40B-38913_W_tif
  70
32
  10
504326.000
  20
4598830.000
  30
993.756
  0
VERTEX
  8
PNOA-H_AMS_1956-57_33k_ES_PAN_21mic_H50_0377_fot_40B-38913_W_tif
  70
32
  10
503931.000
  20
4598625.000
  30
995.237
  0
VERTEX
  8
PNOA-H_AMS_1956-57_33k_ES_PAN_21mic_H50_0377_fot_40B-38913_W_tif
  70
32
  10
503930.565
  20
4598625.034
  30
995.236
  0
VERTEX
  8
PNOA-H_AMS_1956-57_33k_ES_PAN_21mic_H50_0377_fot_40B-38913_W_tif
  70
32
  10
503646.941
  20
4598646.882
  30
994.44
  0
VERTEX
  8
PNOA-H_AMS_1956-57_33k_ES_PAN_21mic_H50_0377_fot_40B-38913_W_tif
  70
32
  10
502217.484
  20
4598757.000
  30
990.431
  0
VERTEX
  8
PNOA-H_AMS_1956-57_33k_ES_PAN_21mic_H50_0377_fot_40B-38913_W_tif
  70
32
  10
501516.500
  20
4598811.000
  30
988.465
  0
VERTEX
  8
PNOA-H_AMS_1956-57_33k_ES_PAN_21mic_H50_0377_fot_40B-38913_W_tif
  70
32
  10
501564.500
  20
4603017.000
  30
988.333
  0
VERTEX
  8
PNOA-H_AMS_1956-57_33k_ES_PAN_21mic_H50_0377_fot_40B-38913_W_tif
  70
32
  10
501564.549
  20
4603017.030
  30
988.337
  0
VERTEX
  8
PNOA-H_AMS_1956-57_33k_ES_PAN_21mic_H50_0377_fot_40B-38913_W_tif
  70
32
  10
501668.311
  20
4603080.123
  30
996.48
  0
VERTEX
  8
PNOA-H_AMS_1956-57_33k_ES_PAN_21mic_H50_0377_fot_40B-38913_W_tif
  70
32
  10
501800.500
  20
4603160.500
  30
1006.854
  0
VERTEX
  8
PNOA-H_AMS_1956-57_33k_ES_PAN_21mic_H50_0377_fot_40B-38913_W_tif
  70
32
  10
501800.780
  20
4603161.060
  30
1007.01
  0
VERTEX
  8
PNOA-H_AMS_1956-57_33k_ES_PAN_21mic_H50_0377_fot_40B-38913_W_tif
  70
32
  10
501801.000
  20
4603161.500
  30
1007.076
  0
VERTEX
  8
PNOA-H_AMS_1956-57_33k_ES_PAN_21mic_H50_0377_fot_40B-38913_W_tif
  70
32
  10
501801.457
  20
4603161.474
  30
1007.064
  0
VERTEX
  8
PNOA-H_AMS_1956-57_33k_ES_PAN_21mic_H50_0377_fot_40B-38913_W_tif
  70
32
  10
504358.496
  20
4603014.000
  30
940.958
  0
VERTEX
  8
PNOA-H_AMS_1956-57_33k_ES_PAN_21mic_H50_0377_fot_40B-38913_W_tif
  70
32
  10
504358.500
  20
4603014.000
  30
940.958
  0
VERTEX
  8
PNOA-H_AMS_1956-57_33k_ES_PAN_21mic_H50_0377_fot_40B-38913_W_tif
  70
32
  10
504326.000
  20
4598830.000
  30
993.756
  0
SEQEND
  8
PNOA-H_AMS_1956-57_33k_ES_PAN_21mic_H50_0377_fot_40B-38913_W_tif
  0
INSERT
  8
FeatureAttribs
  2
FEATURE
  41
1
  42
1
  43
1
  50
0
  10
509863.018
  20
4609747.750
 66
1
  0
ATTRIB
  8
FeatureAttribs
 70
0
  1
PNOA-H_AMS_1956-57_33k_ES_PAN_21mic_H50_0377_fot_38C-40574_E.tif
  2
NAME
  10
509863.018
  20
4609747.750
 40
33.42160
  0
SEQEND
  0
POLYLINE
  8
PNOA-H_AMS_1956-57_33k_ES_PAN_21mic_H50_0377_fot_38C-40574_E_tif
  70
9
  66
1
  0
VERTEX
  8
PNOA-H_AMS_1956-57_33k_ES_PAN_21mic_H50_0377_fot_38C-40574_E_tif
  70
32
  10
511245.564
  20
4607723.356
  30
984.864
  0
VERTEX
  8
PNOA-H_AMS_1956-57_33k_ES_PAN_21mic_H50_0377_fot_38C-40574_E_tif
  70
32
  10
509987.500
  20
4607307.000
  30
1004.578
  0
VERTEX
  8
PNOA-H_AMS_1956-57_33k_ES_PAN_21mic_H50_0377_fot_38C-40574_E_tif
  70
32
  10
509986.577
  20
4607307.191
  30
1004.511
  0
VERTEX
  8
PNOA-H_AMS_1956-57_33k_ES_PAN_21mic_H50_0377_fot_38C-40574_E_tif
  70
32
  10
509981.106
  20
4607308.323
  30
1004.115
  0
VERTEX
  8
PNOA-H_AMS_1956-57_33k_ES_PAN_21mic_H50_0377_fot_38C-40574_E_tif
  70
32
  10
509973.000
  20
4607310.000
  30
1003.529
  0
VERTEX
  8
PNOA-H_AMS_1956-57_33k_ES_PAN_21mic_H50_0377_fot_38C-40574_E_tif
  70
32
  10
508478.267
  20
4607714.428
  30
1029.276
  0
VERTEX
  8
PNOA-H_AMS_1956-57_33k_ES_PAN_21mic_H50_0377_fot_38C-40574_E_tif
  70
32
  10
508478.000
  20
4607714.500
  30
1029.281
  0
VERTEX
  8
PNOA-H_AMS_1956-57_33k_ES_PAN_21mic_H50_0377_fot_38C-40574_E_tif
  70
32
  10
508490.499
  20
4611799.000
  30
1000.758
  0
VERTEX
  8
PNOA-H_AMS_1956-57_33k_ES_PAN_21mic_H50_0377_fot_38C-40574_E_tif
  70
32
  10
508490.500
  20
4611799.500
  30
1000.755
  0
VERTEX
  8
PNOA-H_AMS_1956-57_33k_ES_PAN_21mic_H50_0377_fot_38C-40574_E_tif
  70
32
  10
510407.500
  20
4612186.000
  30
968.491
  0
VERTEX
  8
PNOA-H_AMS_1956-57_33k_ES_PAN_21mic_H50_0377_fot_38C-40574_E_tif
  70
32
  10
510410.000
  20
4612186.500
  30
968.529
  0
VERTEX
  8
PNOA-H_AMS_1956-57_33k_ES_PAN_21mic_H50_0377_fot_38C-40574_E_tif
  70
32
  10
510420.000
  20
4612188.500
  30
968.627
  0
VERTEX
  8
PNOA-H_AMS_1956-57_33k_ES_PAN_21mic_H50_0377_fot_38C-40574_E_tif
  70
32
  10
510421.671
  20
4612188.333
  30
968.663
  0
VERTEX
  8
PNOA-H_AMS_1956-57_33k_ES_PAN_21mic_H50_0377_fot_38C-40574_E_tif
  70
32
  10
510423.244
  20
4612188.176
  30
968.697
  0
VERTEX
  8
PNOA-H_AMS_1956-57_33k_ES_PAN_21mic_H50_0377_fot_38C-40574_E_tif
  70
32
  10
510425.000
  20
4612188.000
  30
968.735
  0
VERTEX
  8
PNOA-H_AMS_1956-57_33k_ES_PAN_21mic_H50_0377_fot_38C-40574_E_tif
  70
32
  10
511233.363
  20
4611835.305
  30
999.01
  0
VERTEX
  8
PNOA-H_AMS_1956-57_33k_ES_PAN_21mic_H50_0377_fot_38C-40574_E_tif
  70
32
  10
511237.500
  20
4611833.500
  30
999.165
  0
VERTEX
  8
PNOA-H_AMS_1956-57_33k_ES_PAN_21mic_H50_0377_fot_38C-40574_E_tif
  70
32
  10
511246.000
  20
4607723.500
  30
984.857
  0
VERTEX
  8
PNOA-H_AMS_1956-57_33k_ES_PAN_21mic_H50_0377_fot_38C-40574_E_tif
  70
32
  10
511245.564
  20
4607723.356
  30
984.864
  0
SEQEND
  8
PNOA-H_AMS_1956-57_33k_ES_PAN_21mic_H50_0377_fot_38C-40574_E_tif
  0
INSERT
  8
FeatureAttribs
  2
FEATURE
  41
1
  42
1
  43
1
  50
0
  10
507106.181
  20
4609736.500
 66
1
  0
ATTRIB
  8
FeatureAttribs
 70
0
  1
PNOA-H_AMS_1956-57_33k_ES_PAN_21mic_H50_0377_fot_38C-40573_E.tif
  2
NAME
  10
507106.181
  20
4609736.500
 40
33.42160
  0
SEQEND
  0
POLYLINE
  8
PNOA-H_AMS_1956-57_33k_ES_PAN_21mic_H50_0377_fot_38C-40573_E_tif
  70
9
  66
1
  0
VERTEX
  8
PNOA-H_AMS_1956-57_33k_ES_PAN_21mic_H50_0377_fot_38C-40573_E_tif
  70
32
  10
508433.374
  20
4607700.555
  30
1029.271
  0
VERTEX
  8
PNOA-H_AMS_1956-57_33k_ES_PAN_21mic_H50_0377_fot_38C-40573_E_tif
  70
32
  10
507223.500
  20
4607322.500
  30
1029.015
  0
VERTEX
  8
PNOA-H_AMS_1956-57_33k_ES_PAN_21mic_H50_0377_fot_38C-40573_E_tif
  70
32
  10
507223.225
  20
4607322.570
  30
1029.01
  0
VERTEX
  8
PNOA-H_AMS_1956-57_33k_ES_PAN_21mic_H50_0377_fot_38C-40573_E_tif
  70
32
  10
505742.000
  20
4607700.000
  30
1004.845
  0
VERTEX
  8
PNOA-H_AMS_1956-57_33k_ES_PAN_21mic_H50_0377_fot_38C-40573_E_tif
  70
32
  10
505714.500
  20
4611750.500
  30
1003.95
  0
VERTEX
  8
PNOA-H_AMS_1956-57_33k_ES_PAN_21mic_H50_0377_fot_38C-40573_E_tif
  70
32
  10
505714.503
  20
4611750.501
  30
1003.951
  0
VERTEX
  8
PNOA-H_AMS_1956-57_33k_ES_PAN_21mic_H50_0377_fot_38C-40573_E_tif
  70
32
  10
506313.000
  20
4611871.000
  30
1024.711
  0
VERTEX
  8
PNOA-H_AMS_1956-57_33k_ES_PAN_21mic_H50_0377_fot_38C-40573_E_tif
  70
32
  10
506315.500
  20
4611871.500
  30
1025.279
  0
VERTEX
  8
PNOA-H_AMS_1956-57_33k_ES_PAN_21mic_H50_0377_fot_38C-40573_E_tif
  70
32
  10
507307.353
  20
4612070.084
  30
1005.204
  0
VERTEX
  8
PNOA-H_AMS_1956-57_33k_ES_PAN_21mic_H50_0377_fot_38C-40573_E_tif
  70
32
  10
507708.308
  20
4612150.362
  30
997.089
  0
VERTEX
  8
PNOA-H_AMS_1956-57_33k_ES_PAN_21mic_H50_0377_fot_38C-40573_E_tif
  70
32
  10
507709.000
  20
4612150.500
  30
997.075
  0
VERTEX
  8
PNOA-H_AMS_1956-57_33k_ES_PAN_21mic_H50_0377_fot_38C-40573_E_tif
  70
32
  10
508490.499
  20
4611799.000
  30
1000.909
  0
VERTEX
  8
PNOA-H_AMS_1956-57_33k_ES_PAN_21mic_H50_0377_fot_38C-40573_E_tif
  70
32
  10
508478.000
  20
4607714.500
  30
1029.281
  0
VERTEX
  8
PNOA-H_AMS_1956-57_33k_ES_PAN_21mic_H50_0377_fot_38C-40573_E_tif
  70
32
  10
508433.374
  20
4607700.555
  30
1029.271
  0
SEQEND
  8
PNOA-H_AMS_1956-57_33k_ES_PAN_21mic_H50_0377_fot_38C-40573_E_tif
  0
INSERT
  8
FeatureAttribs
  2
FEATURE
  41
1
  42
1
  43
1
  50
0
  10
511693.653
  20
4609755.811
 66
1
  0
ATTRIB
  8
FeatureAttribs
 70
0
  1
PNOA-H_AMS_1956-57_33k_ES_PAN_21mic_H50_0378_fot_38C-40575_E.tif
  2
NAME
  10
511693.653
  20
4609755.811
 40
33.42160
  0
SEQEND
  0
POLYLINE
  8
PNOA-H_AMS_1956-57_33k_ES_PAN_21mic_H50_0378_fot_38C-40575_E_tif
  70
9
  66
1
  0
VERTEX
  8
PNOA-H_AMS_1956-57_33k_ES_PAN_21mic_H50_0378_fot_38C-40575_E_tif
  70
32
  10
512149.338
  20
4607491.830
  30
0
  0
VERTEX
  8
PNOA-H_AMS_1956-57_33k_ES_PAN_21mic_H50_0378_fot_38C-40575_E_tif
  70
32
  10
512149.338
  20
4607491.574
  30
1000.205
  0
VERTEX
  8
PNOA-H_AMS_1956-57_33k_ES_PAN_21mic_H50_0378_fot_38C-40575_E_tif
  70
32
  10
511697.855
  20
4607607.489
  30
992.534
  0
VERTEX
  8
PNOA-H_AMS_1956-57_33k_ES_PAN_21mic_H50_0378_fot_38C-40575_E_tif
  70
32
  10
511246.000
  20
4607723.500
  30
984.857
  0
VERTEX
  8
PNOA-H_AMS_1956-57_33k_ES_PAN_21mic_H50_0378_fot_38C-40575_E_tif
  70
32
  10
511237.500
  20
4611833.500
  30
999.165
  0
VERTEX
  8
PNOA-H_AMS_1956-57_33k_ES_PAN_21mic_H50_0378_fot_38C-40575_E_tif
  70
32
  10
511238.675
  20
4611833.743
  30
999.214
  0
VERTEX
  8
PNOA-H_AMS_1956-57_33k_ES_PAN_21mic_H50_0378_fot_38C-40575_E_tif
  70
32
  10
512141.679
  20
4612020.047
  30
1037.437
  0
VERTEX
  8
PNOA-H_AMS_1956-57_33k_ES_PAN_21mic_H50_0378_fot_38C-40575_E_tif
  70
32
  10
512141.680
  20
4612019.586
  30
0
  0
VERTEX
  8
PNOA-H_AMS_1956-57_33k_ES_PAN_21mic_H50_0378_fot_38C-40575_E_tif
  70
32
  10
512144.310
  20
4610464.993
  30
0
  0
VERTEX
  8
PNOA-H_AMS_1956-57_33k_ES_PAN_21mic_H50_0378_fot_38C-40575_E_tif
  70
32
  10
512148.222
  20
4608152.038
  30
0
  0
VERTEX
  8
PNOA-H_AMS_1956-57_33k_ES_PAN_21mic_H50_0378_fot_38C-40575_E_tif
  70
32
  10
512149.338
  20
4607491.830
  30
0
  0
SEQEND
  8
PNOA-H_AMS_1956-57_33k_ES_PAN_21mic_H50_0378_fot_38C-40575_E_tif
  0
INSERT
  8
FeatureAttribs
  2
FEATURE
  41
1
  42
1
  43
1
  50
0
  10
508619.034
  20
4605370.000
 66
1
  0
ATTRIB
  8
FeatureAttribs
 70
0
  1
PNOA-H_AMS_1956-57_33k_ES_PAN_21mic_H50_0377_fot_39D-44192_E.tif
  2
NAME
  10
508619.034
  20
4605370.000
 40
33.42160
  0
SEQEND
  0
POLYLINE
  8
PNOA-H_AMS_1956-57_33k_ES_PAN_21mic_H50_0377_fot_39D-44192_E_tif
  70
9
  66
1
  0
VERTEX
  8
PNOA-H_AMS_1956-57_33k_ES_PAN_21mic_H50_0377_fot_39D-44192_E_tif
  70
32
  10
509990.000
  20
4603054.392
  30
1005.39
  0
VERTEX
  8
PNOA-H_AMS_1956-57_33k_ES_PAN_21mic_H50_0377_fot_39D-44192_E_tif
  70
32
  10
509946.500
  20
4603025.500
  30
1004.144
  0
VERTEX
  8
PNOA-H_AMS_1956-57_33k_ES_PAN_21mic_H50_0377_fot_39D-44192_E_tif
  70
32
  10
509945.520
  20
4603025.513
  30
1004.148
  0
VERTEX
  8
PNOA-H_AMS_1956-57_33k_ES_PAN_21mic_H50_0377_fot_39D-44192_E_tif
  70
32
  10
509878.301
  20
4603026.414
  30
1004.41
  0
VERTEX
  8
PNOA-H_AMS_1956-57_33k_ES_PAN_21mic_H50_0377_fot_39D-44192_E_tif
  70
32
  10
508341.465
  20
4603047.000
  30
1010.403
  0
VERTEX
  8
PNOA-H_AMS_1956-57_33k_ES_PAN_21mic_H50_0377_fot_39D-44192_E_tif
  70
32
  10
507259.000
  20
4603061.500
  30
1014.625
  0
VERTEX
  8
PNOA-H_AMS_1956-57_33k_ES_PAN_21mic_H50_0377_fot_39D-44192_E_tif
  70
32
  10
507223.000
  20
4607322.500
  30
1029.013
  0
VERTEX
  8
PNOA-H_AMS_1956-57_33k_ES_PAN_21mic_H50_0377_fot_39D-44192_E_tif
  70
32
  10
507223.225
  20
4607322.570
  30
1029.013
  0
VERTEX
  8
PNOA-H_AMS_1956-57_33k_ES_PAN_21mic_H50_0377_fot_39D-44192_E_tif
  70
32
  10
508360.500
  20
4607678.000
  30
1028.432
  0
VERTEX
  8
PNOA-H_AMS_1956-57_33k_ES_PAN_21mic_H50_0377_fot_39D-44192_E_tif
  70
32
  10
508362.000
  20
4607678.500
  30
1028.52
  0
VERTEX
  8
PNOA-H_AMS_1956-57_33k_ES_PAN_21mic_H50_0377_fot_39D-44192_E_tif
  70
32
  10
508433.374
  20
4607700.555
  30
1028.981
  0
VERTEX
  8
PNOA-H_AMS_1956-57_33k_ES_PAN_21mic_H50_0377_fot_39D-44192_E_tif
  70
32
  10
508478.267
  20
4607714.428
  30
1029.272
  0
VERTEX
  8
PNOA-H_AMS_1956-57_33k_ES_PAN_21mic_H50_0377_fot_39D-44192_E_tif
  70
32
  10
508478.500
  20
4607714.500
  30
1029.273
  0
VERTEX
  8
PNOA-H_AMS_1956-57_33k_ES_PAN_21mic_H50_0377_fot_39D-44192_E_tif
  70
32
  10
509981.106
  20
4607308.323
  30
1004.459
  0
VERTEX
  8
PNOA-H_AMS_1956-57_33k_ES_PAN_21mic_H50_0377_fot_39D-44192_E_tif
  70
32
  10
509986.000
  20
4607307.000
  30
1004.378
  0
VERTEX
  8
PNOA-H_AMS_1956-57_33k_ES_PAN_21mic_H50_0377_fot_39D-44192_E_tif
  70
32
  10
510013.500
  20
4603070.000
  30
1006.063
  0
VERTEX
  8
PNOA-H_AMS_1956-57_33k_ES_PAN_21mic_H50_0377_fot_39D-44192_E_tif
  70
32
  10
510013.490
  20
4603069.993
  30
1006.063
  0
VERTEX
  8
PNOA-H_AMS_1956-57_33k_ES_PAN_21mic_H50_0377_fot_39D-44192_E_tif
  70
32
  10
510012.751
  20
4603069.503
  30
1006.042
  0
VERTEX
  8
PNOA-H_AMS_1956-57_33k_ES_PAN_21mic_H50_0377_fot_39D-44192_E_tif
  70
32
  10
509990.000
  20
4603054.392
  30
1005.39
  0
SEQEND
  8
PNOA-H_AMS_1956-57_33k_ES_PAN_21mic_H50_0377_fot_39D-44192_E_tif
  0
INSERT
  8
FeatureAttribs
  2
FEATURE
  41
1
  42
1
  43
1
  50
0
  10
511075.631
  20
4605382.513
 66
1
  0
ATTRIB
  8
FeatureAttribs
 70
0
  1
PNOA-H_AMS_1956-57_33k_ES_PAN_21mic_H50_0377_fot_39D-44193_E.tif
  2
NAME
  10
511075.631
  20
4605382.513
 40
33.42160
  0
SEQEND
  0
POLYLINE
  8
PNOA-H_AMS_1956-57_33k_ES_PAN_21mic_H50_0377_fot_39D-44193_E_tif
  70
9
  66
1
  0
VERTEX
  8
PNOA-H_AMS_1956-57_33k_ES_PAN_21mic_H50_0377_fot_39D-44193_E_tif
  70
32
  10
512156.039
  20
4603526.154
  30
0
  0
VERTEX
  8
PNOA-H_AMS_1956-57_33k_ES_PAN_21mic_H50_0377_fot_39D-44193_E_tif
  70
32
  10
512156.858
  20
4603041.527
  30
998.609
  0
VERTEX
  8
PNOA-H_AMS_1956-57_33k_ES_PAN_21mic_H50_0377_fot_39D-44193_E_tif
  70
32
  10
510013.500
  20
4603070.000
  30
1006.063
  0
VERTEX
  8
PNOA-H_AMS_1956-57_33k_ES_PAN_21mic_H50_0377_fot_39D-44193_E_tif
  70
32
  10
509986.000
  20
4607270.000
  30
999.414
  0
VERTEX
  8
PNOA-H_AMS_1956-57_33k_ES_PAN_21mic_H50_0377_fot_39D-44193_E_tif
  70
32
  10
509986.000
  20
4607307.000
  30
1004.378
  0
VERTEX
  8
PNOA-H_AMS_1956-57_33k_ES_PAN_21mic_H50_0377_fot_39D-44193_E_tif
  70
32
  10
509986.577
  20
4607307.191
  30
1004.369
  0
VERTEX
  8
PNOA-H_AMS_1956-57_33k_ES_PAN_21mic_H50_0377_fot_39D-44193_E_tif
  70
32
  10
511245.000
  20
4607723.500
  30
984.94
  0
VERTEX
  8
PNOA-H_AMS_1956-57_33k_ES_PAN_21mic_H50_0377_fot_39D-44193_E_tif
  70
32
  10
511245.564
  20
4607723.356
  30
984.949
  0
VERTEX
  8
PNOA-H_AMS_1956-57_33k_ES_PAN_21mic_H50_0377_fot_39D-44193_E_tif
  70
32
  10
511697.855
  20
4607607.489
  30
992.426
  0
VERTEX
  8
PNOA-H_AMS_1956-57_33k_ES_PAN_21mic_H50_0377_fot_39D-44193_E_tif
  70
32
  10
512149.338
  20
4607491.830
  30
999.889
  0
VERTEX
  8
PNOA-H_AMS_1956-57_33k_ES_PAN_21mic_H50_0377_fot_39D-44193_E_tif
  70
32
  10
512149.338
  20
4607491.574
  30
0
  0
VERTEX
  8
PNOA-H_AMS_1956-57_33k_ES_PAN_21mic_H50_0377_fot_39D-44193_E_tif
  70
32
  10
512152.131
  20
4605839.092
  30
0
  0
VERTEX
  8
PNOA-H_AMS_1956-57_33k_ES_PAN_21mic_H50_0377_fot_39D-44193_E_tif
  70
32
  10
512156.039
  20
4603526.154
  30
0
  0
SEQEND
  8
PNOA-H_AMS_1956-57_33k_ES_PAN_21mic_H50_0377_fot_39D-44193_E_tif
  0
INSERT
  8
FeatureAttribs
  2
FEATURE
  41
1
  42
1
  43
1
  50
0
  10
508147.090
  20
4596548.544
 66
1
  0
ATTRIB
  8
FeatureAttribs
 70
0
  1
PNOA-H_AMS_1956-57_33k_ES_PAN_21mic_H50_0377_fot_41B-37398_W.tif
  2
NAME
  10
508147.090
  20
4596548.544
 40
33.42160
  0
SEQEND
  0
POLYLINE
  8
PNOA-H_AMS_1956-57_33k_ES_PAN_21mic_H50_0377_fot_41B-37398_W_tif
  70
9
  66
1
  0
VERTEX
  8
PNOA-H_AMS_1956-57_33k_ES_PAN_21mic_H50_0377_fot_41B-37398_W_tif
  70
32
  10
508694.039
  20
4594269.459
  30
0
  0
VERTEX
  8
PNOA-H_AMS_1956-57_33k_ES_PAN_21mic_H50_0377_fot_41B-37398_W_tif
  70
32
  10
506753.522
  20
4594267.589
  30
891.192
  0
VERTEX
  8
PNOA-H_AMS_1956-57_33k_ES_PAN_21mic_H50_0377_fot_41B-37398_W_tif
  70
32
  10
506676.509
  20
4598606.005
  30
972.744
  0
VERTEX
  8
PNOA-H_AMS_1956-57_33k_ES_PAN_21mic_H50_0377_fot_41B-37398_W_tif
  70
32
  10
506676.500
  20
4598606.500
  30
972.753
  0
VERTEX
  8
PNOA-H_AMS_1956-57_33k_ES_PAN_21mic_H50_0377_fot_41B-37398_W_tif
  70
32
  10
507096.000
  20
4598829.500
  30
963.649
  0
VERTEX
  8
PNOA-H_AMS_1956-57_33k_ES_PAN_21mic_H50_0377_fot_41B-37398_W_tif
  70
32
  10
507096.853
  20
4598829.422
  30
963.622
  0
VERTEX
  8
PNOA-H_AMS_1956-57_33k_ES_PAN_21mic_H50_0377_fot_41B-37398_W_tif
  70
32
  10
508358.000
  20
4598714.000
  30
922.855
  0
VERTEX
  8
PNOA-H_AMS_1956-57_33k_ES_PAN_21mic_H50_0377_fot_41B-37398_W_tif
  70
32
  10
508364.000
  20
4598713.500
  30
922.981
  0
VERTEX
  8
PNOA-H_AMS_1956-57_33k_ES_PAN_21mic_H50_0377_fot_41B-37398_W_tif
  70
32
  10
509560.000
  20
4598604.000
  30
947.433
  0
VERTEX
  8
PNOA-H_AMS_1956-57_33k_ES_PAN_21mic_H50_0377_fot_41B-37398_W_tif
  70
32
  10
509604.586
  20
4594270.775
  30
893.129
  0
VERTEX
  8
PNOA-H_AMS_1956-57_33k_ES_PAN_21mic_H50_0377_fot_41B-37398_W_tif
  70
32
  10
508694.039
  20
4594269.459
  30
0
  0
SEQEND
  8
PNOA-H_AMS_1956-57_33k_ES_PAN_21mic_H50_0377_fot_41B-37398_W_tif
  0
INSERT
  8
FeatureAttribs
  2
FEATURE
  41
1
  42
1
  43
1
  50
0
  10
510874.500
  20
4596546.138
 66
1
  0
ATTRIB
  8
FeatureAttribs
 70
0
  1
PNOA-H_AMS_1956-57_33k_ES_PAN_21mic_H50_0377_fot_41B-37397_W.tif
  2
NAME
  10
510874.500
  20
4596546.138
 40
33.42160
  0
SEQEND
  0
POLYLINE
  8
PNOA-H_AMS_1956-57_33k_ES_PAN_21mic_H50_0377_fot_41B-37397_W_tif
  70
9
  66
1
  0
VERTEX
  8
PNOA-H_AMS_1956-57_33k_ES_PAN_21mic_H50_0377_fot_41B-37397_W_tif
  70
32
  10
512171.656
  20
4594274.486
  30
0
  0
VERTEX
  8
PNOA-H_AMS_1956-57_33k_ES_PAN_21mic_H50_0377_fot_41B-37397_W_tif
  70
32
  10
509604.586
  20
4594270.775
  30
893.129
  0
VERTEX
  8
PNOA-H_AMS_1956-57_33k_ES_PAN_21mic_H50_0377_fot_41B-37397_W_tif
  70
32
  10
509560.005
  20
4598604.003
  30
947.384
  0
VERTEX
  8
PNOA-H_AMS_1956-57_33k_ES_PAN_21mic_H50_0377_fot_41B-37397_W_tif
  70
32
  10
509560.000
  20
4598604.500
  30
947.391
  0
VERTEX
  8
PNOA-H_AMS_1956-57_33k_ES_PAN_21mic_H50_0377_fot_41B-37397_W_tif
  70
32
  10
509939.500
  20
4598821.000
  30
959.317
  0
VERTEX
  8
PNOA-H_AMS_1956-57_33k_ES_PAN_21mic_H50_0377_fot_41B-37397_W_tif
  70
32
  10
509940.500
  20
4598821.500
  30
959.37
  0
VERTEX
  8
PNOA-H_AMS_1956-57_33k_ES_PAN_21mic_H50_0377_fot_41B-37397_W_tif
  70
32
  10
509940.944
  20
4598821.468
  30
959.367
  0
VERTEX
  8
PNOA-H_AMS_1956-57_33k_ES_PAN_21mic_H50_0377_fot_41B-37397_W_tif
  70
32
  10
512164.255
  20
4598660.948
  30
941.03
  0
VERTEX
  8
PNOA-H_AMS_1956-57_33k_ES_PAN_21mic_H50_0377_fot_41B-37397_W_tif
  70
32
  10
512167.754
  20
4596587.390
  30
0
  0
VERTEX
  8
PNOA-H_AMS_1956-57_33k_ES_PAN_21mic_H50_0377_fot_41B-37397_W_tif
  70
32
  10
512171.656
  20
4594274.486
  30
0
  0
SEQEND
  8
PNOA-H_AMS_1956-57_33k_ES_PAN_21mic_H50_0377_fot_41B-37397_W_tif
  0
INSERT
  8
FeatureAttribs
  2
FEATURE
  41
1
  42
1
  43
1
  50
0
  10
511051.860
  20
4600865.476
 66
1
  0
ATTRIB
  8
FeatureAttribs
 70
0
  1
PNOA-H_AMS_1956-57_33k_ES_PAN_21mic_H50_0377_fot_40B-38910_W.tif
  2
NAME
  10
511051.860
  20
4600865.476
 40
33.42160
  0
SEQEND
  0
POLYLINE
  8
PNOA-H_AMS_1956-57_33k_ES_PAN_21mic_H50_0377_fot_40B-38910_W_tif
  70
9
  66
1
  0
VERTEX
  8
PNOA-H_AMS_1956-57_33k_ES_PAN_21mic_H50_0377_fot_40B-38910_W_tif
  70
32
  10
512163.851
  20
4598900.303
  30
0
  0
VERTEX
  8
PNOA-H_AMS_1956-57_33k_ES_PAN_21mic_H50_0377_fot_40B-38910_W_tif
  70
32
  10
512164.255
  20
4598660.952
  30
941.032
  0
VERTEX
  8
PNOA-H_AMS_1956-57_33k_ES_PAN_21mic_H50_0377_fot_40B-38910_W_tif
  70
32
  10
509941.000
  20
4598821.500
  30
959.389
  0
VERTEX
  8
PNOA-H_AMS_1956-57_33k_ES_PAN_21mic_H50_0377_fot_40B-38910_W_tif
  70
32
  10
509945.500
  20
4603025.500
  30
1004.202
  0
VERTEX
  8
PNOA-H_AMS_1956-57_33k_ES_PAN_21mic_H50_0377_fot_40B-38910_W_tif
  70
32
  10
509945.520
  20
4603025.513
  30
1004.203
  0
VERTEX
  8
PNOA-H_AMS_1956-57_33k_ES_PAN_21mic_H50_0377_fot_40B-38910_W_tif
  70
32
  10
509990.000
  20
4603054.392
  30
1005.392
  0
VERTEX
  8
PNOA-H_AMS_1956-57_33k_ES_PAN_21mic_H50_0377_fot_40B-38910_W_tif
  70
32
  10
510012.500
  20
4603069.000
  30
1005.994
  0
VERTEX
  8
PNOA-H_AMS_1956-57_33k_ES_PAN_21mic_H50_0377_fot_40B-38910_W_tif
  70
32
  10
510012.751
  20
4603069.503
  30
1006.041
  0
VERTEX
  8
PNOA-H_AMS_1956-57_33k_ES_PAN_21mic_H50_0377_fot_40B-38910_W_tif
  70
32
  10
510013.000
  20
4603070.000
  30
1006.064
  0
VERTEX
  8
PNOA-H_AMS_1956-57_33k_ES_PAN_21mic_H50_0377_fot_40B-38910_W_tif
  70
32
  10
510013.490
  20
4603069.993
  30
1006.062
  0
VERTEX
  8
PNOA-H_AMS_1956-57_33k_ES_PAN_21mic_H50_0377_fot_40B-38910_W_tif
  70
32
  10
512156.858
  20
4603041.527
  30
998.609
  0
VERTEX
  8
PNOA-H_AMS_1956-57_33k_ES_PAN_21mic_H50_0377_fot_40B-38910_W_tif
  70
32
  10
512159.946
  20
4601213.224
  30
0
  0
VERTEX
  8
PNOA-H_AMS_1956-57_33k_ES_PAN_21mic_H50_0377_fot_40B-38910_W_tif
  70
32
  10
512163.851
  20
4598900.303
  30
0
  0
SEQEND
  8
PNOA-H_AMS_1956-57_33k_ES_PAN_21mic_H50_0377_fot_40B-38910_W_tif
  0
INSERT
  8
FeatureAttribs
  2
FEATURE
  41
1
  42
1
  43
1
  50
0
  10
508537.108
  20
4600832.750
 66
1
  0
ATTRIB
  8
FeatureAttribs
 70
0
  1
PNOA-H_AMS_1956-57_33k_ES_PAN_21mic_H50_0377_fot_40B-38911_W.tif
  2
NAME
  10
508537.108
  20
4600832.750
 40
33.42160
  0
SEQEND
  0
POLYLINE
  8
PNOA-H_AMS_1956-57_33k_ES_PAN_21mic_H50_0377_fot_40B-38911_W_tif
  70
9
  66
1
  0
VERTEX
  8
PNOA-H_AMS_1956-57_33k_ES_PAN_21mic_H50_0377_fot_40B-38911_W_tif
  70
32
  10
507258.979
  20
4603061.487
  30
1014.511
  0
VERTEX
  8
PNOA-H_AMS_1956-57_33k_ES_PAN_21mic_H50_0377_fot_40B-38911_W_tif
  70
32
  10
508329.000
  20
4603047.000
  30
1006.286
  0
VERTEX
  8
PNOA-H_AMS_1956-57_33k_ES_PAN_21mic_H50_0377_fot_40B-38911_W_tif
  70
32
  10
508341.465
  20
4603047.000
  30
1006.496
  0
VERTEX
  8
PNOA-H_AMS_1956-57_33k_ES_PAN_21mic_H50_0377_fot_40B-38911_W_tif
  70
32
  10
508364.000
  20
4603047.000
  30
1006.877
  0
VERTEX
  8
PNOA-H_AMS_1956-57_33k_ES_PAN_21mic_H50_0377_fot_40B-38911_W_tif
  70
32
  10
509878.301
  20
4603026.414
  30
1004.316
  0
VERTEX
  8
PNOA-H_AMS_1956-57_33k_ES_PAN_21mic_H50_0377_fot_40B-38911_W_tif
  70
32
  10
509945.500
  20
4603025.500
  30
1004.202
  0
VERTEX
  8
PNOA-H_AMS_1956-57_33k_ES_PAN_21mic_H50_0377_fot_40B-38911_W_tif
  70
32
  10
509941.000
  20
4598821.500
  30
959.389
  0
VERTEX
  8
PNOA-H_AMS_1956-57_33k_ES_PAN_21mic_H50_0377_fot_40B-38911_W_tif
  70
32
  10
509940.944
  20
4598821.468
  30
959.388
  0
VERTEX
  8
PNOA-H_AMS_1956-57_33k_ES_PAN_21mic_H50_0377_fot_40B-38911_W_tif
  70
32
  10
509560.005
  20
4598604.003
  30
947.434
  0
VERTEX
  8
PNOA-H_AMS_1956-57_33k_ES_PAN_21mic_H50_0377_fot_40B-38911_W_tif
  70
32
  10
509560.000
  20
4598604.000
  30
947.433
  0
VERTEX
  8
PNOA-H_AMS_1956-57_33k_ES_PAN_21mic_H50_0377_fot_40B-38911_W_tif
  70
32
  10
508364.000
  20
4598713.500
  30
955.292
  0
VERTEX
  8
PNOA-H_AMS_1956-57_33k_ES_PAN_21mic_H50_0377_fot_40B-38911_W_tif
  70
32
  10
507097.000
  20
4598829.500
  30
963.616
  0
VERTEX
  8
PNOA-H_AMS_1956-57_33k_ES_PAN_21mic_H50_0377_fot_40B-38911_W_tif
  70
32
  10
507167.992
  20
4603004.500
  30
1011.533
  0
VERTEX
  8
PNOA-H_AMS_1956-57_33k_ES_PAN_21mic_H50_0377_fot_40B-38911_W_tif
  70
32
  10
507168.000
  20
4603005.000
  30
1011.538
  0
VERTEX
  8
PNOA-H_AMS_1956-57_33k_ES_PAN_21mic_H50_0377_fot_40B-38911_W_tif
  70
32
  10
507258.000
  20
4603061.500
  30
1014.519
  0
VERTEX
  8
PNOA-H_AMS_1956-57_33k_ES_PAN_21mic_H50_0377_fot_40B-38911_W_tif
  70
32
  10
507258.979
  20
4603061.487
  30
1014.511
  0
SEQEND
  8
PNOA-H_AMS_1956-57_33k_ES_PAN_21mic_H50_0377_fot_40B-38911_W_tif
  0
INSERT
  8
FeatureAttribs
  2
FEATURE
  41
1
  42
1
  43
1
  50
0
  10
484937.400
  20
4612242.058
 66
1
  0
ATTRIB
  8
FeatureAttribs
 70
0
  1
PNOA-H_AMS_1956-57_33k_ES_PAN_21mic_H50_0347_fot_38978.tif
  2
NAME
  10
484937.400
  20
4612242.058
 40
33.42160
  0
SEQEND
  0
POLYLINE
  8
PNOA-H_AMS_1956-57_33k_ES_PAN_21mic_H50_0347_fot_38978_tif
  70
9
  66
1
  0
VERTEX
  8
PNOA-H_AMS_1956-57_33k_ES_PAN_21mic_H50_0347_fot_38978_tif
  70
32
  10
485055.187
  20
4611797.394
  30
935.015
  0
VERTEX
  8
PNOA-H_AMS_1956-57_33k_ES_PAN_21mic_H50_0347_fot_38978_tif
  70
32
  10
484388.556
  20
4611699.453
  30
923.615
  0
VERTEX
  8
PNOA-H_AMS_1956-57_33k_ES_PAN_21mic_H50_0347_fot_38978_tif
  70
32
  10
484388.556
  20
4611699.569
  30
0
  0
VERTEX
  8
PNOA-H_AMS_1956-57_33k_ES_PAN_21mic_H50_0347_fot_38978_tif
  70
32
  10
484390.916
  20
4612784.664
  30
0
  0
VERTEX
  8
PNOA-H_AMS_1956-57_33k_ES_PAN_21mic_H50_0347_fot_38978_tif
  70
32
  10
485499.968
  20
4612782.519
  30
955.861
  0
VERTEX
  8
PNOA-H_AMS_1956-57_33k_ES_PAN_21mic_H50_0347_fot_38978_tif
  70
32
  10
485474.500
  20
4611859.000
  30
942.187
  0
VERTEX
  8
PNOA-H_AMS_1956-57_33k_ES_PAN_21mic_H50_0347_fot_38978_tif
  70
32
  10
485055.187
  20
4611797.394
  30
935.015
  0
SEQEND
  8
PNOA-H_AMS_1956-57_33k_ES_PAN_21mic_H50_0347_fot_38978_tif
  0
INSERT
  8
FeatureAttribs
  2
FEATURE
  41
1
  42
1
  43
1
  50
0
  10
486927.995
  20
4612146.509
 66
1
  0
ATTRIB
  8
FeatureAttribs
 70
0
  1
PNOA-H_AMS_1956-57_33k_ES_PAN_21mic_H50_0348_fot_38979.tif
  2
NAME
  10
486927.995
  20
4612146.509
 40
33.42160
  0
SEQEND
  0
POLYLINE
  8
PNOA-H_AMS_1956-57_33k_ES_PAN_21mic_H50_0348_fot_38979_tif
  70
9
  66
1
  0
VERTEX
  8
PNOA-H_AMS_1956-57_33k_ES_PAN_21mic_H50_0348_fot_38979_tif
  70
32
  10
486222.757
  20
4611510.613
  30
958.741
  0
VERTEX
  8
PNOA-H_AMS_1956-57_33k_ES_PAN_21mic_H50_0348_fot_38979_tif
  70
32
  10
486222.000
  20
4611510.500
  30
958.727
  0
VERTEX
  8
PNOA-H_AMS_1956-57_33k_ES_PAN_21mic_H50_0348_fot_38979_tif
  70
32
  10
485474.620
  20
4611858.944
  30
942.189
  0
VERTEX
  8
PNOA-H_AMS_1956-57_33k_ES_PAN_21mic_H50_0348_fot_38979_tif
  70
32
  10
485474.500
  20
4611859.000
  30
942.187
  0
VERTEX
  8
PNOA-H_AMS_1956-57_33k_ES_PAN_21mic_H50_0348_fot_38979_tif
  70
32
  10
485499.968
  20
4612782.519
  30
955.861
  0
VERTEX
  8
PNOA-H_AMS_1956-57_33k_ES_PAN_21mic_H50_0348_fot_38979_tif
  70
32
  10
487859.603
  20
4612777.956
  30
0
  0
VERTEX
  8
PNOA-H_AMS_1956-57_33k_ES_PAN_21mic_H50_0348_fot_38979_tif
  70
32
  10
488383.563
  20
4612777.196
  30
0
  0
VERTEX
  8
PNOA-H_AMS_1956-57_33k_ES_PAN_21mic_H50_0348_fot_38979_tif
  70
32
  10
488383.676
  20
4612777.196
  30
997.432
  0
VERTEX
  8
PNOA-H_AMS_1956-57_33k_ES_PAN_21mic_H50_0348_fot_38979_tif
  70
32
  10
488368.500
  20
4611831.000
  30
997.084
  0
VERTEX
  8
PNOA-H_AMS_1956-57_33k_ES_PAN_21mic_H50_0348_fot_38979_tif
  70
32
  10
488169.687
  20
4611801.315
  30
993.531
  0
VERTEX
  8
PNOA-H_AMS_1956-57_33k_ES_PAN_21mic_H50_0348_fot_38979_tif
  70
32
  10
486861.108
  20
4611605.927
  30
970.148
  0
VERTEX
  8
PNOA-H_AMS_1956-57_33k_ES_PAN_21mic_H50_0348_fot_38979_tif
  70
32
  10
486222.757
  20
4611510.613
  30
958.741
  0
SEQEND
  8
PNOA-H_AMS_1956-57_33k_ES_PAN_21mic_H50_0348_fot_38979_tif
  0
INSERT
  8
FeatureAttribs
  2
FEATURE
  41
1
  42
1
  43
1
  50
0
  10
485298.266
  20
4609573.000
 66
1
  0
ATTRIB
  8
FeatureAttribs
 70
0
  1
PNOA-H_AMS_1956-57_33k_ES_PAN_21mic_H50_0377_fot_38C-40565_E.tif
  2
NAME
  10
485298.266
  20
4609573.000
 40
33.42160
  0
SEQEND
  0
POLYLINE
  8
PNOA-H_AMS_1956-57_33k_ES_PAN_21mic_H50_0377_fot_38C-40565_E_tif
  70
9
  66
1
  0
VERTEX
  8
PNOA-H_AMS_1956-57_33k_ES_PAN_21mic_H50_0377_fot_38C-40565_E_tif
  70
32
  10
486202.924
  20
4607877.303
  30
976.998
  0
VERTEX
  8
PNOA-H_AMS_1956-57_33k_ES_PAN_21mic_H50_0377_fot_38C-40565_E_tif
  70
32
  10
484476.500
  20
4607287.000
  30
984.623
  0
VERTEX
  8
PNOA-H_AMS_1956-57_33k_ES_PAN_21mic_H50_0377_fot_38C-40565_E_tif
  70
32
  10
484475.591
  20
4607287.202
  30
984.634
  0
VERTEX
  8
PNOA-H_AMS_1956-57_33k_ES_PAN_21mic_H50_0377_fot_38C-40565_E_tif
  70
32
  10
484473.890
  20
4607287.580
  30
984.655
  0
VERTEX
  8
PNOA-H_AMS_1956-57_33k_ES_PAN_21mic_H50_0377_fot_38C-40565_E_tif
  70
32
  10
484472.000
  20
4607288.000
  30
984.679
  0
VERTEX
  8
PNOA-H_AMS_1956-57_33k_ES_PAN_21mic_H50_0377_fot_38C-40565_E_tif
  70
32
  10
484379.070
  20
4607336.668
  30
980.413
  0
VERTEX
  8
PNOA-H_AMS_1956-57_33k_ES_PAN_21mic_H50_0377_fot_38C-40565_E_tif
  70
32
  10
484379.071
  20
4607337.129
  30
0
  0
VERTEX
  8
PNOA-H_AMS_1956-57_33k_ES_PAN_21mic_H50_0377_fot_38C-40565_E_tif
  70
32
  10
484380.857
  20
4608158.745
  30
0
  0
VERTEX
  8
PNOA-H_AMS_1956-57_33k_ES_PAN_21mic_H50_0377_fot_38C-40565_E_tif
  70
32
  10
484385.886
  20
4610471.700
  30
0
  0
VERTEX
  8
PNOA-H_AMS_1956-57_33k_ES_PAN_21mic_H50_0377_fot_38C-40565_E_tif
  70
32
  10
484388.556
  20
4611699.453
  30
0
  0
VERTEX
  8
PNOA-H_AMS_1956-57_33k_ES_PAN_21mic_H50_0377_fot_38C-40565_E_tif
  70
32
  10
484388.556
  20
4611699.569
  30
919.035
  0
VERTEX
  8
PNOA-H_AMS_1956-57_33k_ES_PAN_21mic_H50_0377_fot_38C-40565_E_tif
  70
32
  10
485055.187
  20
4611797.394
  30
933.254
  0
VERTEX
  8
PNOA-H_AMS_1956-57_33k_ES_PAN_21mic_H50_0377_fot_38C-40565_E_tif
  70
32
  10
485474.620
  20
4611858.944
  30
942.201
  0
VERTEX
  8
PNOA-H_AMS_1956-57_33k_ES_PAN_21mic_H50_0377_fot_38C-40565_E_tif
  70
32
  10
485475.000
  20
4611859.000
  30
942.209
  0
VERTEX
  8
PNOA-H_AMS_1956-57_33k_ES_PAN_21mic_H50_0377_fot_38C-40565_E_tif
  70
32
  10
486222.757
  20
4611510.613
  30
958.582
  0
VERTEX
  8
PNOA-H_AMS_1956-57_33k_ES_PAN_21mic_H50_0377_fot_38C-40565_E_tif
  70
32
  10
486223.000
  20
4611510.500
  30
958.588
  0
VERTEX
  8
PNOA-H_AMS_1956-57_33k_ES_PAN_21mic_H50_0377_fot_38C-40565_E_tif
  70
32
  10
486203.500
  20
4607877.500
  30
976.996
  0
VERTEX
  8
PNOA-H_AMS_1956-57_33k_ES_PAN_21mic_H50_0377_fot_38C-40565_E_tif
  70
32
  10
486202.924
  20
4607877.303
  30
976.998
  0
SEQEND
  8
PNOA-H_AMS_1956-57_33k_ES_PAN_21mic_H50_0377_fot_38C-40565_E_tif
  0
INSERT
  8
FeatureAttribs
  2
FEATURE
  41
1
  42
1
  43
1
  50
0
  10
484431.318
  20
4605360.415
 66
1
  0
ATTRIB
  8
FeatureAttribs
 70
0
  1
PNOA-H_AMS_1956-57_33k_ES_PAN_21mic_H50_0376_fot_39C-51147_W.tif
  2
NAME
  10
484431.318
  20
4605360.415
 40
33.42160
  0
SEQEND
  0
POLYLINE
  8
PNOA-H_AMS_1956-57_33k_ES_PAN_21mic_H50_0376_fot_39C-51147_W_tif
  70
9
  66
1
  0
VERTEX
  8
PNOA-H_AMS_1956-57_33k_ES_PAN_21mic_H50_0376_fot_39C-51147_W_tif
  70
32
  10
484497.614
  20
4603391.785
  30
899.883
  0
VERTEX
  8
PNOA-H_AMS_1956-57_33k_ES_PAN_21mic_H50_0376_fot_39C-51147_W_tif
  70
32
  10
484370.481
  20
4603383.702
  30
898.105
  0
VERTEX
  8
PNOA-H_AMS_1956-57_33k_ES_PAN_21mic_H50_0376_fot_39C-51147_W_tif
  70
32
  10
484370.482
  20
4603384.037
  30
0
  0
VERTEX
  8
PNOA-H_AMS_1956-57_33k_ES_PAN_21mic_H50_0376_fot_39C-51147_W_tif
  70
32
  10
484370.805
  20
4603532.859
  30
0
  0
VERTEX
  8
PNOA-H_AMS_1956-57_33k_ES_PAN_21mic_H50_0376_fot_39C-51147_W_tif
  70
32
  10
484375.830
  20
4605845.798
  30
0
  0
VERTEX
  8
PNOA-H_AMS_1956-57_33k_ES_PAN_21mic_H50_0376_fot_39C-51147_W_tif
  70
32
  10
484379.070
  20
4607336.668
  30
0
  0
VERTEX
  8
PNOA-H_AMS_1956-57_33k_ES_PAN_21mic_H50_0376_fot_39C-51147_W_tif
  70
32
  10
484379.071
  20
4607337.129
  30
978.895
  0
VERTEX
  8
PNOA-H_AMS_1956-57_33k_ES_PAN_21mic_H50_0376_fot_39C-51147_W_tif
  70
32
  10
484473.890
  20
4607287.580
  30
984.564
  0
VERTEX
  8
PNOA-H_AMS_1956-57_33k_ES_PAN_21mic_H50_0376_fot_39C-51147_W_tif
  70
32
  10
484475.000
  20
4607287.000
  30
984.631
  0
VERTEX
  8
PNOA-H_AMS_1956-57_33k_ES_PAN_21mic_H50_0376_fot_39C-51147_W_tif
  70
32
  10
484500.918
  20
4603404.307
  30
900.198
  0
VERTEX
  8
PNOA-H_AMS_1956-57_33k_ES_PAN_21mic_H50_0376_fot_39C-51147_W_tif
  70
32
  10
484501.000
  20
4603392.000
  30
899.93
  0
VERTEX
  8
PNOA-H_AMS_1956-57_33k_ES_PAN_21mic_H50_0376_fot_39C-51147_W_tif
  70
32
  10
484497.614
  20
4603391.785
  30
899.883
  0
SEQEND
  8
PNOA-H_AMS_1956-57_33k_ES_PAN_21mic_H50_0376_fot_39C-51147_W_tif
  0
INSERT
  8
FeatureAttribs
  2
FEATURE
  41
1
  42
1
  43
1
  50
0
  10
485478.447
  20
4605604.500
 66
1
  0
ATTRIB
  8
FeatureAttribs
 70
0
  1
PNOA-H_AMS_1956-57_33k_ES_PAN_21mic_H50_0377_fot_39C-51146_W.tif
  2
NAME
  10
485478.447
  20
4605604.500
 40
33.42160
  0
SEQEND
  0
POLYLINE
  8
PNOA-H_AMS_1956-57_33k_ES_PAN_21mic_H50_0377_fot_39C-51146_W_tif
  70
9
  66
1
  0
VERTEX
  8
PNOA-H_AMS_1956-57_33k_ES_PAN_21mic_H50_0377_fot_39C-51146_W_tif
  70
32
  10
484609.010
  20
4603331.500
  30
902.986
  0
VERTEX
  8
PNOA-H_AMS_1956-57_33k_ES_PAN_21mic_H50_0377_fot_39C-51146_W_tif
  70
32
  10
484609.000
  20
4603331.500
  30
902.986
  0
VERTEX
  8
PNOA-H_AMS_1956-57_33k_ES_PAN_21mic_H50_0377_fot_39C-51146_W_tif
  70
32
  10
484502.049
  20
4603391.193
  30
899.979
  0
VERTEX
  8
PNOA-H_AMS_1956-57_33k_ES_PAN_21mic_H50_0377_fot_39C-51146_W_tif
  70
32
  10
484501.500
  20
4603391.500
  30
899.964
  0
VERTEX
  8
PNOA-H_AMS_1956-57_33k_ES_PAN_21mic_H50_0377_fot_39C-51146_W_tif
  70
32
  10
484500.918
  20
4603404.307
  30
899.48
  0
VERTEX
  8
PNOA-H_AMS_1956-57_33k_ES_PAN_21mic_H50_0377_fot_39C-51146_W_tif
  70
32
  10
484500.500
  20
4603413.500
  30
899.133
  0
VERTEX
  8
PNOA-H_AMS_1956-57_33k_ES_PAN_21mic_H50_0377_fot_39C-51146_W_tif
  70
32
  10
484475.000
  20
4607287.000
  30
984.631
  0
VERTEX
  8
PNOA-H_AMS_1956-57_33k_ES_PAN_21mic_H50_0377_fot_39C-51146_W_tif
  70
32
  10
484475.591
  20
4607287.202
  30
984.628
  0
VERTEX
  8
PNOA-H_AMS_1956-57_33k_ES_PAN_21mic_H50_0377_fot_39C-51146_W_tif
  70
32
  10
486200.500
  20
4607877.000
  30
977.099
  0
VERTEX
  8
PNOA-H_AMS_1956-57_33k_ES_PAN_21mic_H50_0377_fot_39C-51146_W_tif
  70
32
  10
486202.924
  20
4607877.303
  30
977.012
  0
VERTEX
  8
PNOA-H_AMS_1956-57_33k_ES_PAN_21mic_H50_0377_fot_39C-51146_W_tif
  70
32
  10
486203.722
  20
4607877.403
  30
976.983
  0
VERTEX
  8
PNOA-H_AMS_1956-57_33k_ES_PAN_21mic_H50_0377_fot_39C-51146_W_tif
  70
32
  10
486204.500
  20
4607877.500
  30
976.955
  0
VERTEX
  8
PNOA-H_AMS_1956-57_33k_ES_PAN_21mic_H50_0377_fot_39C-51146_W_tif
  70
32
  10
487749.500
  20
4607201.000
  30
972.911
  0
VERTEX
  8
PNOA-H_AMS_1956-57_33k_ES_PAN_21mic_H50_0377_fot_39C-51146_W_tif
  70
32
  10
487749.361
  20
4607200.827
  30
972.908
  0
VERTEX
  8
PNOA-H_AMS_1956-57_33k_ES_PAN_21mic_H50_0377_fot_39C-51146_W_tif
  70
32
  10
487748.608
  20
4607199.887
  30
972.895
  0
VERTEX
  8
PNOA-H_AMS_1956-57_33k_ES_PAN_21mic_H50_0377_fot_39C-51146_W_tif
  70
32
  10
486514.763
  20
4605659.368
  30
950.402
  0
VERTEX
  8
PNOA-H_AMS_1956-57_33k_ES_PAN_21mic_H50_0377_fot_39C-51146_W_tif
  70
32
  10
486369.500
  20
4605478.000
  30
947.753
  0
VERTEX
  8
PNOA-H_AMS_1956-57_33k_ES_PAN_21mic_H50_0377_fot_39C-51146_W_tif
  70
32
  10
486369.422
  20
4605477.844
  30
947.735
  0
VERTEX
  8
PNOA-H_AMS_1956-57_33k_ES_PAN_21mic_H50_0377_fot_39C-51146_W_tif
  70
32
  10
486369.000
  20
4605477.000
  30
947.638
  0
VERTEX
  8
PNOA-H_AMS_1956-57_33k_ES_PAN_21mic_H50_0377_fot_39C-51146_W_tif
  70
32
  10
484653.000
  20
4603333.500
  30
902.916
  0
VERTEX
  8
PNOA-H_AMS_1956-57_33k_ES_PAN_21mic_H50_0377_fot_39C-51146_W_tif
  70
32
  10
484651.500
  20
4603332.000
  30
902.927
  0
VERTEX
  8
PNOA-H_AMS_1956-57_33k_ES_PAN_21mic_H50_0377_fot_39C-51146_W_tif
  70
32
  10
484609.010
  20
4603331.500
  30
902.986
  0
SEQEND
  8
PNOA-H_AMS_1956-57_33k_ES_PAN_21mic_H50_0377_fot_39C-51146_W_tif
  0
INSERT
  8
FeatureAttribs
  2
FEATURE
  41
1
  42
1
  43
1
  50
0
  10
484509.825
  20
4600956.089
 66
1
  0
ATTRIB
  8
FeatureAttribs
 70
0
  1
PNOA-H_AMS_1956-57_33k_ES_PAN_21mic_H50_0376_fot_40B-38920_W.tif
  2
NAME
  10
484509.825
  20
4600956.089
 40
33.42160
  0
SEQEND
  0
POLYLINE
  8
PNOA-H_AMS_1956-57_33k_ES_PAN_21mic_H50_0376_fot_40B-38920_W_tif
  70
9
  66
1
  0
VERTEX
  8
PNOA-H_AMS_1956-57_33k_ES_PAN_21mic_H50_0376_fot_40B-38920_W_tif
  70
32
  10
484697.882
  20
4598678.445
  30
877.365
  0
VERTEX
  8
PNOA-H_AMS_1956-57_33k_ES_PAN_21mic_H50_0376_fot_40B-38920_W_tif
  70
32
  10
484359.923
  20
4598520.177
  30
897.969
  0
VERTEX
  8
PNOA-H_AMS_1956-57_33k_ES_PAN_21mic_H50_0376_fot_40B-38920_W_tif
  70
32
  10
484359.923
  20
4598520.412
  30
0
  0
VERTEX
  8
PNOA-H_AMS_1956-57_33k_ES_PAN_21mic_H50_0376_fot_40B-38920_W_tif
  70
32
  10
484360.762
  20
4598907.007
  30
0
  0
VERTEX
  8
PNOA-H_AMS_1956-57_33k_ES_PAN_21mic_H50_0376_fot_40B-38920_W_tif
  70
32
  10
484365.783
  20
4601219.929
  30
0
  0
VERTEX
  8
PNOA-H_AMS_1956-57_33k_ES_PAN_21mic_H50_0376_fot_40B-38920_W_tif
  70
32
  10
484370.481
  20
4603383.702
  30
0
  0
VERTEX
  8
PNOA-H_AMS_1956-57_33k_ES_PAN_21mic_H50_0376_fot_40B-38920_W_tif
  70
32
  10
484370.482
  20
4603384.037
  30
898.244
  0
VERTEX
  8
PNOA-H_AMS_1956-57_33k_ES_PAN_21mic_H50_0376_fot_40B-38920_W_tif
  70
32
  10
484488.000
  20
4603391.500
  30
899.898
  0
VERTEX
  8
PNOA-H_AMS_1956-57_33k_ES_PAN_21mic_H50_0376_fot_40B-38920_W_tif
  70
32
  10
484496.000
  20
4603392.000
  30
899.905
  0
VERTEX
  8
PNOA-H_AMS_1956-57_33k_ES_PAN_21mic_H50_0376_fot_40B-38920_W_tif
  70
32
  10
484497.614
  20
4603391.785
  30
899.927
  0
VERTEX
  8
PNOA-H_AMS_1956-57_33k_ES_PAN_21mic_H50_0376_fot_40B-38920_W_tif
  70
32
  10
484502.049
  20
4603391.193
  30
899.988
  0
VERTEX
  8
PNOA-H_AMS_1956-57_33k_ES_PAN_21mic_H50_0376_fot_40B-38920_W_tif
  70
32
  10
484503.500
  20
4603391.000
  30
900.008
  0
VERTEX
  8
PNOA-H_AMS_1956-57_33k_ES_PAN_21mic_H50_0376_fot_40B-38920_W_tif
  70
32
  10
484609.000
  20
4603332.000
  30
902.959
  0
VERTEX
  8
PNOA-H_AMS_1956-57_33k_ES_PAN_21mic_H50_0376_fot_40B-38920_W_tif
  70
32
  10
484609.010
  20
4603331.500
  30
902.957
  0
VERTEX
  8
PNOA-H_AMS_1956-57_33k_ES_PAN_21mic_H50_0376_fot_40B-38920_W_tif
  70
32
  10
484698.000
  20
4598678.500
  30
877.358
  0
VERTEX
  8
PNOA-H_AMS_1956-57_33k_ES_PAN_21mic_H50_0376_fot_40B-38920_W_tif
  70
32
  10
484697.882
  20
4598678.445
  30
877.365
  0
SEQEND
  8
PNOA-H_AMS_1956-57_33k_ES_PAN_21mic_H50_0376_fot_40B-38920_W_tif
  0
INSERT
  8
FeatureAttribs
  2
FEATURE
  41
1
  42
1
  43
1
  50
0
  10
485591.232
  20
4596477.429
 66
1
  0
ATTRIB
  8
FeatureAttribs
 70
0
  1
PNOA-H_AMS_1956-57_33k_ES_PAN_21mic_H50_0377_fot_41B-37406_W.tif
  2
NAME
  10
485591.232
  20
4596477.429
 40
33.42160
  0
SEQEND
  0
POLYLINE
  8
PNOA-H_AMS_1956-57_33k_ES_PAN_21mic_H50_0377_fot_41B-37406_W_tif
  70
9
  66
1
  0
VERTEX
  8
PNOA-H_AMS_1956-57_33k_ES_PAN_21mic_H50_0377_fot_41B-37406_W_tif
  70
32
  10
484697.882
  20
4598678.445
  30
877.363
  0
VERTEX
  8
PNOA-H_AMS_1956-57_33k_ES_PAN_21mic_H50_0377_fot_41B-37406_W_tif
  70
32
  10
485833.000
  20
4598515.000
  30
862.171
  0
VERTEX
  8
PNOA-H_AMS_1956-57_33k_ES_PAN_21mic_H50_0377_fot_41B-37406_W_tif
  70
32
  10
485834.122
  20
4598515.000
  30
862.179
  0
VERTEX
  8
PNOA-H_AMS_1956-57_33k_ES_PAN_21mic_H50_0377_fot_41B-37406_W_tif
  70
32
  10
485836.000
  20
4598515.000
  30
862.192
  0
VERTEX
  8
PNOA-H_AMS_1956-57_33k_ES_PAN_21mic_H50_0377_fot_41B-37406_W_tif
  70
32
  10
486800.233
  20
4598376.110
  30
862.407
  0
VERTEX
  8
PNOA-H_AMS_1956-57_33k_ES_PAN_21mic_H50_0377_fot_41B-37406_W_tif
  70
32
  10
486801.000
  20
4598376.000
  30
862.407
  0
VERTEX
  8
PNOA-H_AMS_1956-57_33k_ES_PAN_21mic_H50_0377_fot_41B-37406_W_tif
  70
32
  10
486857.085
  20
4594276.358
  30
930.806
  0
VERTEX
  8
PNOA-H_AMS_1956-57_33k_ES_PAN_21mic_H50_0377_fot_41B-37406_W_tif
  70
32
  10
484350.727
  20
4594281.189
  30
0
  0
VERTEX
  8
PNOA-H_AMS_1956-57_33k_ES_PAN_21mic_H50_0377_fot_41B-37406_W_tif
  70
32
  10
484355.744
  20
4596594.094
  30
0
  0
VERTEX
  8
PNOA-H_AMS_1956-57_33k_ES_PAN_21mic_H50_0377_fot_41B-37406_W_tif
  70
32
  10
484359.923
  20
4598520.177
  30
0
  0
VERTEX
  8
PNOA-H_AMS_1956-57_33k_ES_PAN_21mic_H50_0377_fot_41B-37406_W_tif
  70
32
  10
484359.923
  20
4598520.412
  30
897.972
  0
VERTEX
  8
PNOA-H_AMS_1956-57_33k_ES_PAN_21mic_H50_0377_fot_41B-37406_W_tif
  70
32
  10
484697.500
  20
4598678.500
  30
877.369
  0
VERTEX
  8
PNOA-H_AMS_1956-57_33k_ES_PAN_21mic_H50_0377_fot_41B-37406_W_tif
  70
32
  10
484697.882
  20
4598678.445
  30
877.363
  0
SEQEND
  8
PNOA-H_AMS_1956-57_33k_ES_PAN_21mic_H50_0377_fot_41B-37406_W_tif
  0
INSERT
  8
FeatureAttribs
  2
FEATURE
  41
1
  42
1
  43
1
  50
0
  10
487609.606
  20
4609477.750
 66
1
  0
ATTRIB
  8
FeatureAttribs
 70
0
  1
PNOA-H_AMS_1956-57_33k_ES_PAN_21mic_H50_0377_fot_38C-40566_E.tif
  2
NAME
  10
487609.606
  20
4609477.750
 40
33.42160
  0
SEQEND
  0
POLYLINE
  8
PNOA-H_AMS_1956-57_33k_ES_PAN_21mic_H50_0377_fot_38C-40566_E_tif
  70
9
  66
1
  0
VERTEX
  8
PNOA-H_AMS_1956-57_33k_ES_PAN_21mic_H50_0377_fot_38C-40566_E_tif
  70
32
  10
489012.836
  20
4607524.426
  30
993.963
  0
VERTEX
  8
PNOA-H_AMS_1956-57_33k_ES_PAN_21mic_H50_0377_fot_38C-40566_E_tif
  70
32
  10
488129.500
  20
4607124.500
  30
970.023
  0
VERTEX
  8
PNOA-H_AMS_1956-57_33k_ES_PAN_21mic_H50_0377_fot_38C-40566_E_tif
  70
32
  10
488129.000
  20
4607124.600
  30
970.026
  0
VERTEX
  8
PNOA-H_AMS_1956-57_33k_ES_PAN_21mic_H50_0377_fot_38C-40566_E_tif
  70
32
  10
487749.699
  20
4607200.759
  30
972.879
  0
VERTEX
  8
PNOA-H_AMS_1956-57_33k_ES_PAN_21mic_H50_0377_fot_38C-40566_E_tif
  70
32
  10
487749.361
  20
4607200.827
  30
972.881
  0
VERTEX
  8
PNOA-H_AMS_1956-57_33k_ES_PAN_21mic_H50_0377_fot_38C-40566_E_tif
  70
32
  10
487748.500
  20
4607201.000
  30
972.888
  0
VERTEX
  8
PNOA-H_AMS_1956-57_33k_ES_PAN_21mic_H50_0377_fot_38C-40566_E_tif
  70
32
  10
486203.722
  20
4607877.403
  30
976.995
  0
VERTEX
  8
PNOA-H_AMS_1956-57_33k_ES_PAN_21mic_H50_0377_fot_38C-40566_E_tif
  70
32
  10
486203.500
  20
4607877.500
  30
976.996
  0
VERTEX
  8
PNOA-H_AMS_1956-57_33k_ES_PAN_21mic_H50_0377_fot_38C-40566_E_tif
  70
32
  10
486223.000
  20
4611510.500
  30
958.588
  0
VERTEX
  8
PNOA-H_AMS_1956-57_33k_ES_PAN_21mic_H50_0377_fot_38C-40566_E_tif
  70
32
  10
486861.108
  20
4611605.927
  30
974.356
  0
VERTEX
  8
PNOA-H_AMS_1956-57_33k_ES_PAN_21mic_H50_0377_fot_38C-40566_E_tif
  70
32
  10
487878.000
  20
4611758.000
  30
999.483
  0
VERTEX
  8
PNOA-H_AMS_1956-57_33k_ES_PAN_21mic_H50_0377_fot_38C-40566_E_tif
  70
32
  10
487881.500
  20
4611758.500
  30
999.446
  0
VERTEX
  8
PNOA-H_AMS_1956-57_33k_ES_PAN_21mic_H50_0377_fot_38C-40566_E_tif
  70
32
  10
488169.687
  20
4611801.315
  30
997.978
  0
VERTEX
  8
PNOA-H_AMS_1956-57_33k_ES_PAN_21mic_H50_0377_fot_38C-40566_E_tif
  70
32
  10
488368.728
  20
4611830.885
  30
996.963
  0
VERTEX
  8
PNOA-H_AMS_1956-57_33k_ES_PAN_21mic_H50_0377_fot_38C-40566_E_tif
  70
32
  10
488369.500
  20
4611831.000
  30
996.959
  0
VERTEX
  8
PNOA-H_AMS_1956-57_33k_ES_PAN_21mic_H50_0377_fot_38C-40566_E_tif
  70
32
  10
489000.810
  20
4611512.596
  30
991.523
  0
VERTEX
  8
PNOA-H_AMS_1956-57_33k_ES_PAN_21mic_H50_0377_fot_38C-40566_E_tif
  70
32
  10
489001.000
  20
4611512.500
  30
991.522
  0
VERTEX
  8
PNOA-H_AMS_1956-57_33k_ES_PAN_21mic_H50_0377_fot_38C-40566_E_tif
  70
32
  10
489012.999
  20
4607524.499
  30
993.967
  0
VERTEX
  8
PNOA-H_AMS_1956-57_33k_ES_PAN_21mic_H50_0377_fot_38C-40566_E_tif
  70
32
  10
489012.836
  20
4607524.426
  30
993.963
  0
SEQEND
  8
PNOA-H_AMS_1956-57_33k_ES_PAN_21mic_H50_0377_fot_38C-40566_E_tif
  0
INSERT
  8
FeatureAttribs
  2
FEATURE
  41
1
  42
1
  43
1
  50
0
  10
487074.960
  20
4605040.250
 66
1
  0
ATTRIB
  8
FeatureAttribs
 70
0
  1
PNOA-H_AMS_1956-57_33k_ES_PAN_21mic_H50_0377_fot_39D-44184_E.tif
  2
NAME
  10
487074.960
  20
4605040.250
 40
33.42160
  0
SEQEND
  0
POLYLINE
  8
PNOA-H_AMS_1956-57_33k_ES_PAN_21mic_H50_0377_fot_39D-44184_E_tif
  70
9
  66
1
  0
VERTEX
  8
PNOA-H_AMS_1956-57_33k_ES_PAN_21mic_H50_0377_fot_39D-44184_E_tif
  70
32
  10
488132.500
  20
4603215.500
  30
971.437
  0
VERTEX
  8
PNOA-H_AMS_1956-57_33k_ES_PAN_21mic_H50_0377_fot_39D-44184_E_tif
  70
32
  10
487463.500
  20
4602879.500
  30
943.757
  0
VERTEX
  8
PNOA-H_AMS_1956-57_33k_ES_PAN_21mic_H50_0377_fot_39D-44184_E_tif
  70
32
  10
487462.500
  20
4602879.500
  30
943.892
  0
VERTEX
  8
PNOA-H_AMS_1956-57_33k_ES_PAN_21mic_H50_0377_fot_39D-44184_E_tif
  70
32
  10
487460.000
  20
4602879.500
  30
944.231
  0
VERTEX
  8
PNOA-H_AMS_1956-57_33k_ES_PAN_21mic_H50_0377_fot_39D-44184_E_tif
  70
32
  10
486289.419
  20
4603068.102
  30
927.015
  0
VERTEX
  8
PNOA-H_AMS_1956-57_33k_ES_PAN_21mic_H50_0377_fot_39D-44184_E_tif
  70
32
  10
485151.869
  20
4603251.382
  30
910.286
  0
VERTEX
  8
PNOA-H_AMS_1956-57_33k_ES_PAN_21mic_H50_0377_fot_39D-44184_E_tif
  70
32
  10
484651.567
  20
4603331.989
  30
902.928
  0
VERTEX
  8
PNOA-H_AMS_1956-57_33k_ES_PAN_21mic_H50_0377_fot_39D-44184_E_tif
  70
32
  10
484651.500
  20
4603332.000
  30
902.927
  0
VERTEX
  8
PNOA-H_AMS_1956-57_33k_ES_PAN_21mic_H50_0377_fot_39D-44184_E_tif
  70
32
  10
485835.000
  20
4604810.000
  30
916.657
  0
VERTEX
  8
PNOA-H_AMS_1956-57_33k_ES_PAN_21mic_H50_0377_fot_39D-44184_E_tif
  70
32
  10
485835.500
  20
4604811.000
  30
916.646
  0
VERTEX
  8
PNOA-H_AMS_1956-57_33k_ES_PAN_21mic_H50_0377_fot_39D-44184_E_tif
  70
32
  10
486369.422
  20
4605477.844
  30
932.282
  0
VERTEX
  8
PNOA-H_AMS_1956-57_33k_ES_PAN_21mic_H50_0377_fot_39D-44184_E_tif
  70
32
  10
486514.763
  20
4605659.368
  30
936.539
  0
VERTEX
  8
PNOA-H_AMS_1956-57_33k_ES_PAN_21mic_H50_0377_fot_39D-44184_E_tif
  70
32
  10
487747.500
  20
4607199.000
  30
972.64
  0
VERTEX
  8
PNOA-H_AMS_1956-57_33k_ES_PAN_21mic_H50_0377_fot_39D-44184_E_tif
  70
32
  10
487748.608
  20
4607199.887
  30
972.765
  0
VERTEX
  8
PNOA-H_AMS_1956-57_33k_ES_PAN_21mic_H50_0377_fot_39D-44184_E_tif
  70
32
  10
487749.699
  20
4607200.759
  30
972.888
  0
VERTEX
  8
PNOA-H_AMS_1956-57_33k_ES_PAN_21mic_H50_0377_fot_39D-44184_E_tif
  70
32
  10
487750.000
  20
4607201.000
  30
972.922
  0
VERTEX
  8
PNOA-H_AMS_1956-57_33k_ES_PAN_21mic_H50_0377_fot_39D-44184_E_tif
  70
32
  10
488129.000
  20
4607125.000
  30
969.983
  0
VERTEX
  8
PNOA-H_AMS_1956-57_33k_ES_PAN_21mic_H50_0377_fot_39D-44184_E_tif
  70
32
  10
488129.000
  20
4607124.600
  30
969.983
  0
VERTEX
  8
PNOA-H_AMS_1956-57_33k_ES_PAN_21mic_H50_0377_fot_39D-44184_E_tif
  70
32
  10
488132.500
  20
4603215.500
  30
971.437
  0
SEQEND
  8
PNOA-H_AMS_1956-57_33k_ES_PAN_21mic_H50_0377_fot_39D-44184_E_tif
  0
INSERT
  8
FeatureAttribs
  2
FEATURE
  41
1
  42
1
  43
1
  50
0
  10
489489.536
  20
4605232.000
 66
1
  0
ATTRIB
  8
FeatureAttribs
 70
0
  1
PNOA-H_AMS_1956-57_33k_ES_PAN_21mic_H50_0377_fot_39D-44185_E.tif
  2
NAME
  10
489489.536
  20
4605232.000
 40
33.42160
  0
SEQEND
  0
POLYLINE
  8
PNOA-H_AMS_1956-57_33k_ES_PAN_21mic_H50_0377_fot_39D-44185_E_tif
  70
9
  66
1
  0
VERTEX
  8
PNOA-H_AMS_1956-57_33k_ES_PAN_21mic_H50_0377_fot_39D-44185_E_tif
  70
32
  10
489561.014
  20
4607403.272
  30
979.832
  0
VERTEX
  8
PNOA-H_AMS_1956-57_33k_ES_PAN_21mic_H50_0377_fot_39D-44185_E_tif
  70
32
  10
489931.000
  20
4607321.500
  30
970.287
  0
VERTEX
  8
PNOA-H_AMS_1956-57_33k_ES_PAN_21mic_H50_0377_fot_39D-44185_E_tif
  70
32
  10
489932.000
  20
4607321.500
  30
970.25
  0
VERTEX
  8
PNOA-H_AMS_1956-57_33k_ES_PAN_21mic_H50_0377_fot_39D-44185_E_tif
  70
32
  10
490834.500
  20
4607122.500
  30
992.199
  0
VERTEX
  8
PNOA-H_AMS_1956-57_33k_ES_PAN_21mic_H50_0377_fot_39D-44185_E_tif
  70
32
  10
490862.500
  20
4603236.000
  30
925.216
  0
VERTEX
  8
PNOA-H_AMS_1956-57_33k_ES_PAN_21mic_H50_0377_fot_39D-44185_E_tif
  70
32
  10
490862.416
  20
4603235.956
  30
925.217
  0
VERTEX
  8
PNOA-H_AMS_1956-57_33k_ES_PAN_21mic_H50_0377_fot_39D-44185_E_tif
  70
32
  10
490305.010
  20
4602939.505
  30
925.787
  0
VERTEX
  8
PNOA-H_AMS_1956-57_33k_ES_PAN_21mic_H50_0377_fot_39D-44185_E_tif
  70
32
  10
490305.000
  20
4602939.500
  30
925.787
  0
VERTEX
  8
PNOA-H_AMS_1956-57_33k_ES_PAN_21mic_H50_0377_fot_39D-44185_E_tif
  70
32
  10
488132.500
  20
4603215.500
  30
971.437
  0
VERTEX
  8
PNOA-H_AMS_1956-57_33k_ES_PAN_21mic_H50_0377_fot_39D-44185_E_tif
  70
32
  10
488129.500
  20
4607124.500
  30
970.004
  0
VERTEX
  8
PNOA-H_AMS_1956-57_33k_ES_PAN_21mic_H50_0377_fot_39D-44185_E_tif
  70
32
  10
488129.500
  20
4607125.000
  30
970.004
  0
VERTEX
  8
PNOA-H_AMS_1956-57_33k_ES_PAN_21mic_H50_0377_fot_39D-44185_E_tif
  70
32
  10
489012.500
  20
4607524.500
  30
993.982
  0
VERTEX
  8
PNOA-H_AMS_1956-57_33k_ES_PAN_21mic_H50_0377_fot_39D-44185_E_tif
  70
32
  10
489012.836
  20
4607524.426
  30
993.974
  0
VERTEX
  8
PNOA-H_AMS_1956-57_33k_ES_PAN_21mic_H50_0377_fot_39D-44185_E_tif
  70
32
  10
489012.999
  20
4607524.390
  30
993.969
  0
VERTEX
  8
PNOA-H_AMS_1956-57_33k_ES_PAN_21mic_H50_0377_fot_39D-44185_E_tif
  70
32
  10
489561.014
  20
4607403.272
  30
979.832
  0
SEQEND
  8
PNOA-H_AMS_1956-57_33k_ES_PAN_21mic_H50_0377_fot_39D-44185_E_tif
  0
INSERT
  8
FeatureAttribs
  2
FEATURE
  41
1
  42
1
  43
1
  50
0
  10
486080.805
  20
4600854.000
 66
1
  0
ATTRIB
  8
FeatureAttribs
 70
0
  1
PNOA-H_AMS_1956-57_33k_ES_PAN_21mic_H50_0377_fot_40B-38919_W.tif
  2
NAME
  10
486080.805
  20
4600854.000
 40
33.42160
  0
SEQEND
  0
POLYLINE
  8
PNOA-H_AMS_1956-57_33k_ES_PAN_21mic_H50_0377_fot_40B-38919_W_tif
  70
9
  66
1
  0
VERTEX
  8
PNOA-H_AMS_1956-57_33k_ES_PAN_21mic_H50_0377_fot_40B-38919_W_tif
  70
32
  10
486800.233
  20
4598376.110
  30
862.404
  0
VERTEX
  8
PNOA-H_AMS_1956-57_33k_ES_PAN_21mic_H50_0377_fot_40B-38919_W_tif
  70
32
  10
486800.000
  20
4598376.000
  30
862.404
  0
VERTEX
  8
PNOA-H_AMS_1956-57_33k_ES_PAN_21mic_H50_0377_fot_40B-38919_W_tif
  70
32
  10
485834.122
  20
4598515.000
  30
869.275
  0
VERTEX
  8
PNOA-H_AMS_1956-57_33k_ES_PAN_21mic_H50_0377_fot_40B-38919_W_tif
  70
32
  10
484698.000
  20
4598678.500
  30
877.358
  0
VERTEX
  8
PNOA-H_AMS_1956-57_33k_ES_PAN_21mic_H50_0377_fot_40B-38919_W_tif
  70
32
  10
484609.000
  20
4603331.500
  30
902.986
  0
VERTEX
  8
PNOA-H_AMS_1956-57_33k_ES_PAN_21mic_H50_0377_fot_40B-38919_W_tif
  70
32
  10
484609.010
  20
4603331.500
  30
902.986
  0
VERTEX
  8
PNOA-H_AMS_1956-57_33k_ES_PAN_21mic_H50_0377_fot_40B-38919_W_tif
  70
32
  10
484651.567
  20
4603331.989
  30
902.936
  0
VERTEX
  8
PNOA-H_AMS_1956-57_33k_ES_PAN_21mic_H50_0377_fot_40B-38919_W_tif
  70
32
  10
484652.500
  20
4603332.000
  30
902.935
  0
VERTEX
  8
PNOA-H_AMS_1956-57_33k_ES_PAN_21mic_H50_0377_fot_40B-38919_W_tif
  70
32
  10
485151.869
  20
4603251.382
  30
922.174
  0
VERTEX
  8
PNOA-H_AMS_1956-57_33k_ES_PAN_21mic_H50_0377_fot_40B-38919_W_tif
  70
32
  10
485832.500
  20
4603141.500
  30
948.398
  0
VERTEX
  8
PNOA-H_AMS_1956-57_33k_ES_PAN_21mic_H50_0377_fot_40B-38919_W_tif
  70
32
  10
485836.000
  20
4603141.000
  30
948.609
  0
VERTEX
  8
PNOA-H_AMS_1956-57_33k_ES_PAN_21mic_H50_0377_fot_40B-38919_W_tif
  70
32
  10
486289.419
  20
4603068.102
  30
947.319
  0
VERTEX
  8
PNOA-H_AMS_1956-57_33k_ES_PAN_21mic_H50_0377_fot_40B-38919_W_tif
  70
32
  10
487462.500
  20
4602879.500
  30
943.98
  0
VERTEX
  8
PNOA-H_AMS_1956-57_33k_ES_PAN_21mic_H50_0377_fot_40B-38919_W_tif
  70
32
  10
487549.990
  20
4598731.495
  30
861.005
  0
VERTEX
  8
PNOA-H_AMS_1956-57_33k_ES_PAN_21mic_H50_0377_fot_40B-38919_W_tif
  70
32
  10
487550.000
  20
4598731.000
  30
860.996
  0
VERTEX
  8
PNOA-H_AMS_1956-57_33k_ES_PAN_21mic_H50_0377_fot_40B-38919_W_tif
  70
32
  10
486801.000
  20
4598376.474
  30
862.402
  0
VERTEX
  8
PNOA-H_AMS_1956-57_33k_ES_PAN_21mic_H50_0377_fot_40B-38919_W_tif
  70
32
  10
486800.233
  20
4598376.110
  30
862.404
  0
SEQEND
  8
PNOA-H_AMS_1956-57_33k_ES_PAN_21mic_H50_0377_fot_40B-38919_W_tif
  0
INSERT
  8
FeatureAttribs
  2
FEATURE
  41
1
  42
1
  43
1
  50
0
  10
488927.084
  20
4600821.500
 66
1
  0
ATTRIB
  8
FeatureAttribs
 70
0
  1
PNOA-H_AMS_1956-57_33k_ES_PAN_21mic_H50_0377_fot_40B-38918_W.tif
  2
NAME
  10
488927.084
  20
4600821.500
 40
33.42160
  0
SEQEND
  0
POLYLINE
  8
PNOA-H_AMS_1956-57_33k_ES_PAN_21mic_H50_0377_fot_40B-38918_W_tif
  70
9
  66
1
  0
VERTEX
  8
PNOA-H_AMS_1956-57_33k_ES_PAN_21mic_H50_0377_fot_40B-38918_W_tif
  70
32
  10
490390.000
  20
4598777.500
  30
867.822
  0
VERTEX
  8
PNOA-H_AMS_1956-57_33k_ES_PAN_21mic_H50_0377_fot_40B-38918_W_tif
  70
32
  10
489649.500
  20
4598427.500
  30
864.914
  0
VERTEX
  8
PNOA-H_AMS_1956-57_33k_ES_PAN_21mic_H50_0377_fot_40B-38918_W_tif
  70
32
  10
489649.117
  20
4598427.555
  30
864.913
  0
VERTEX
  8
PNOA-H_AMS_1956-57_33k_ES_PAN_21mic_H50_0377_fot_40B-38918_W_tif
  70
32
  10
487550.000
  20
4598731.500
  30
860.992
  0
VERTEX
  8
PNOA-H_AMS_1956-57_33k_ES_PAN_21mic_H50_0377_fot_40B-38918_W_tif
  70
32
  10
487462.500
  20
4602879.500
  30
943.98
  0
VERTEX
  8
PNOA-H_AMS_1956-57_33k_ES_PAN_21mic_H50_0377_fot_40B-38918_W_tif
  70
32
  10
487882.500
  20
4603090.500
  30
936.98
  0
VERTEX
  8
PNOA-H_AMS_1956-57_33k_ES_PAN_21mic_H50_0377_fot_40B-38918_W_tif
  70
32
  10
487883.500
  20
4603091.000
  30
936.871
  0
VERTEX
  8
PNOA-H_AMS_1956-57_33k_ES_PAN_21mic_H50_0377_fot_40B-38918_W_tif
  70
32
  10
488131.500
  20
4603215.500
  30
971.498
  0
VERTEX
  8
PNOA-H_AMS_1956-57_33k_ES_PAN_21mic_H50_0377_fot_40B-38918_W_tif
  70
32
  10
488132.500
  20
4603215.500
  30
971.442
  0
VERTEX
  8
PNOA-H_AMS_1956-57_33k_ES_PAN_21mic_H50_0377_fot_40B-38918_W_tif
  70
32
  10
488135.500
  20
4603215.500
  30
971.272
  0
VERTEX
  8
PNOA-H_AMS_1956-57_33k_ES_PAN_21mic_H50_0377_fot_40B-38918_W_tif
  70
32
  10
490305.000
  20
4602939.500
  30
925.787
  0
VERTEX
  8
PNOA-H_AMS_1956-57_33k_ES_PAN_21mic_H50_0377_fot_40B-38918_W_tif
  70
32
  10
490389.995
  20
4598777.761
  30
867.826
  0
VERTEX
  8
PNOA-H_AMS_1956-57_33k_ES_PAN_21mic_H50_0377_fot_40B-38918_W_tif
  70
32
  10
490390.000
  20
4598777.500
  30
867.822
  0
SEQEND
  8
PNOA-H_AMS_1956-57_33k_ES_PAN_21mic_H50_0377_fot_40B-38918_W_tif
  0
INSERT
  8
FeatureAttribs
  2
FEATURE
  41
1
  42
1
  43
1
  50
0
  10
488257.477
  20
4596501.616
 66
1
  0
ATTRIB
  8
FeatureAttribs
 70
0
  1
PNOA-H_AMS_1956-57_33k_ES_PAN_21mic_H50_0377_fot_41B-37405_W.tif
  2
NAME
  10
488257.477
  20
4596501.616
 40
33.42160
  0
SEQEND
  0
POLYLINE
  8
PNOA-H_AMS_1956-57_33k_ES_PAN_21mic_H50_0377_fot_41B-37405_W_tif
  70
9
  66
1
  0
VERTEX
  8
PNOA-H_AMS_1956-57_33k_ES_PAN_21mic_H50_0377_fot_41B-37405_W_tif
  70
32
  10
489649.000
  20
4598427.500
  30
864.933
  0
VERTEX
  8
PNOA-H_AMS_1956-57_33k_ES_PAN_21mic_H50_0377_fot_41B-37405_W_tif
  70
32
  10
489733.822
  20
4594271.732
  30
974.055
  0
VERTEX
  8
PNOA-H_AMS_1956-57_33k_ES_PAN_21mic_H50_0377_fot_41B-37405_W_tif
  70
32
  10
487828.344
  20
4594274.486
  30
0
  0
VERTEX
  8
PNOA-H_AMS_1956-57_33k_ES_PAN_21mic_H50_0377_fot_41B-37405_W_tif
  70
32
  10
486857.085
  20
4594276.358
  30
930.806
  0
VERTEX
  8
PNOA-H_AMS_1956-57_33k_ES_PAN_21mic_H50_0377_fot_41B-37405_W_tif
  70
32
  10
486801.000
  20
4598376.474
  30
862.392
  0
VERTEX
  8
PNOA-H_AMS_1956-57_33k_ES_PAN_21mic_H50_0377_fot_41B-37405_W_tif
  70
32
  10
486801.000
  20
4598376.500
  30
862.391
  0
VERTEX
  8
PNOA-H_AMS_1956-57_33k_ES_PAN_21mic_H50_0377_fot_41B-37405_W_tif
  70
32
  10
487549.990
  20
4598731.495
  30
860.992
  0
VERTEX
  8
PNOA-H_AMS_1956-57_33k_ES_PAN_21mic_H50_0377_fot_41B-37405_W_tif
  70
32
  10
487550.000
  20
4598731.500
  30
860.992
  0
VERTEX
  8
PNOA-H_AMS_1956-57_33k_ES_PAN_21mic_H50_0377_fot_41B-37405_W_tif
  70
32
  10
487883.000
  20
4598683.000
  30
861.723
  0
VERTEX
  8
PNOA-H_AMS_1956-57_33k_ES_PAN_21mic_H50_0377_fot_41B-37405_W_tif
  70
32
  10
487884.000
  20
4598683.000
  30
861.722
  0
VERTEX
  8
PNOA-H_AMS_1956-57_33k_ES_PAN_21mic_H50_0377_fot_41B-37405_W_tif
  70
32
  10
489649.000
  20
4598427.500
  30
864.933
  0
SEQEND
  8
PNOA-H_AMS_1956-57_33k_ES_PAN_21mic_H50_0377_fot_41B-37405_W_tif
  0
ENDSEC
  0
EOF
