  0
SECTION
  2
HEADER
  9
$ACADVER
  1
AC1009
  9
$LUNITS
  70
2
  9
$LIMMIN
  10
456529.733
  20
4594281.189
  9
$LIMMAX
  10
484390.916
  20
4612898.698
  9
$EXTMIN
  10
456529.733
  20
4594281.189
  9
$EXTMAX
  10
484390.916
  20
4612898.698
  999
Created by Global Mapper
  999
Projection: UTM
  999
Datum: ETRS89
  999
Ground Units: meters
  999
ZONE: 30
  0
ENDSEC
  0
SECTION
  2
TABLES
  0
ENDSEC
  0
SECTION
  2
BLOCKS
  0
BLOCK
  8
FeatureAttribs
  70
0
  2
FEATURE
  3
FEATURE
  10
0.00000000
  20
0.00000000
  0
ATTDEF
  8
FeatureAttribs
  70
0
  1
 
  2
NAME
  3
NAME
  10
0.00000000
  20
0.00000000
  40
1.00000000
  0
ENDBLK
  0
ENDSEC
  0
SECTION
  2
ENTITIES
  0
INSERT
  8
FeatureAttribs
  2
FEATURE
  41
1
  42
1
  43
1
  50
0
  10
470261.952
  20
4612398.324
 66
1
  0
ATTRIB
  8
FeatureAttribs
 70
0
  1
PNOA-H_AMS_1956-57_33k_ES_PAN_21mic_H50_0347_fot_37B-38973_E.tif
  2
NAME
  10
470261.952
  20
4612398.324
 40
33.50906
  0
SEQEND
  0
POLYLINE
  8
PNOA-H_AMS_1956-57_33k_ES_PAN_21mic_H50_0347_fot_37B-38973_E_tif
  70
9
  66
1
  0
VERTEX
  8
PNOA-H_AMS_1956-57_33k_ES_PAN_21mic_H50_0347_fot_37B-38973_E_tif
  70
32
  10
469233.961
  20
4611961.021
  30
930.714
  0
VERTEX
  8
PNOA-H_AMS_1956-57_33k_ES_PAN_21mic_H50_0347_fot_37B-38973_E_tif
  70
32
  10
469233.500
  20
4611961.000
  30
930.705
  0
VERTEX
  8
PNOA-H_AMS_1956-57_33k_ES_PAN_21mic_H50_0347_fot_37B-38973_E_tif
  70
32
  10
468799.000
  20
4612192.500
  30
984.511
  0
VERTEX
  8
PNOA-H_AMS_1956-57_33k_ES_PAN_21mic_H50_0347_fot_37B-38973_E_tif
  70
32
  10
468799.016
  20
4612192.992
  30
984.506
  0
VERTEX
  8
PNOA-H_AMS_1956-57_33k_ES_PAN_21mic_H50_0347_fot_37B-38973_E_tif
  70
32
  10
468819.501
  20
4612835.647
  30
977.691
  0
VERTEX
  8
PNOA-H_AMS_1956-57_33k_ES_PAN_21mic_H50_0347_fot_37B-38973_E_tif
  70
32
  10
470516.160
  20
4612828.265
  30
0
  0
VERTEX
  8
PNOA-H_AMS_1956-57_33k_ES_PAN_21mic_H50_0347_fot_37B-38973_E_tif
  70
32
  10
471737.149
  20
4612823.542
  30
972.68
  0
VERTEX
  8
PNOA-H_AMS_1956-57_33k_ES_PAN_21mic_H50_0347_fot_37B-38973_E_tif
  70
32
  10
471704.000
  20
4612074.000
  30
979.022
  0
VERTEX
  8
PNOA-H_AMS_1956-57_33k_ES_PAN_21mic_H50_0347_fot_37B-38973_E_tif
  70
32
  10
471336.547
  20
4612057.193
  30
971.836
  0
VERTEX
  8
PNOA-H_AMS_1956-57_33k_ES_PAN_21mic_H50_0347_fot_37B-38973_E_tif
  70
32
  10
469251.729
  20
4611961.834
  30
931.062
  0
VERTEX
  8
PNOA-H_AMS_1956-57_33k_ES_PAN_21mic_H50_0347_fot_37B-38973_E_tif
  70
32
  10
469233.961
  20
4611961.021
  30
930.714
  0
SEQEND
  8
PNOA-H_AMS_1956-57_33k_ES_PAN_21mic_H50_0347_fot_37B-38973_E_tif
  0
INSERT
  8
FeatureAttribs
  2
FEATURE
  41
1
  42
1
  43
1
  50
0
  10
467308.159
  20
4612401.888
 66
1
  0
ATTRIB
  8
FeatureAttribs
 70
0
  1
PNOA-H_AMS_1956-57_33k_ES_PAN_21mic_H50_0347_fot_37B-38972_E.tif
  2
NAME
  10
467308.159
  20
4612401.888
 40
33.50906
  0
SEQEND
  0
POLYLINE
  8
PNOA-H_AMS_1956-57_33k_ES_PAN_21mic_H50_0347_fot_37B-38972_E_tif
  70
9
  66
1
  0
VERTEX
  8
PNOA-H_AMS_1956-57_33k_ES_PAN_21mic_H50_0347_fot_37B-38972_E_tif
  70
32
  10
466309.500
  20
4611954.500
  30
957.145
  0
VERTEX
  8
PNOA-H_AMS_1956-57_33k_ES_PAN_21mic_H50_0347_fot_37B-38972_E_tif
  70
32
  10
466309.000
  20
4611954.500
  30
957.159
  0
VERTEX
  8
PNOA-H_AMS_1956-57_33k_ES_PAN_21mic_H50_0347_fot_37B-38972_E_tif
  70
32
  10
465805.589
  20
4612191.958
  30
955.925
  0
VERTEX
  8
PNOA-H_AMS_1956-57_33k_ES_PAN_21mic_H50_0347_fot_37B-38972_E_tif
  70
32
  10
465805.500
  20
4612192.000
  30
955.925
  0
VERTEX
  8
PNOA-H_AMS_1956-57_33k_ES_PAN_21mic_H50_0347_fot_37B-38972_E_tif
  70
32
  10
465805.505
  20
4612192.170
  30
955.923
  0
VERTEX
  8
PNOA-H_AMS_1956-57_33k_ES_PAN_21mic_H50_0347_fot_37B-38972_E_tif
  70
32
  10
465823.089
  20
4612849.277
  30
949.63
  0
VERTEX
  8
PNOA-H_AMS_1956-57_33k_ES_PAN_21mic_H50_0347_fot_37B-38972_E_tif
  70
32
  10
465823.505
  20
4612849.275
  30
0
  0
VERTEX
  8
PNOA-H_AMS_1956-57_33k_ES_PAN_21mic_H50_0347_fot_37B-38972_E_tif
  70
32
  10
467047.466
  20
4612843.357
  30
0
  0
VERTEX
  8
PNOA-H_AMS_1956-57_33k_ES_PAN_21mic_H50_0347_fot_37B-38972_E_tif
  70
32
  10
468819.083
  20
4612835.649
  30
977.693
  0
VERTEX
  8
PNOA-H_AMS_1956-57_33k_ES_PAN_21mic_H50_0347_fot_37B-38972_E_tif
  70
32
  10
468798.515
  20
4612192.954
  30
984.51
  0
VERTEX
  8
PNOA-H_AMS_1956-57_33k_ES_PAN_21mic_H50_0347_fot_37B-38972_E_tif
  70
32
  10
468798.500
  20
4612192.500
  30
984.514
  0
VERTEX
  8
PNOA-H_AMS_1956-57_33k_ES_PAN_21mic_H50_0347_fot_37B-38972_E_tif
  70
32
  10
466311.500
  20
4611954.500
  30
957.091
  0
VERTEX
  8
PNOA-H_AMS_1956-57_33k_ES_PAN_21mic_H50_0347_fot_37B-38972_E_tif
  70
32
  10
466309.500
  20
4611954.500
  30
957.145
  0
SEQEND
  8
PNOA-H_AMS_1956-57_33k_ES_PAN_21mic_H50_0347_fot_37B-38972_E_tif
  0
INSERT
  8
FeatureAttribs
  2
FEATURE
  41
1
  42
1
  43
1
  50
0
  10
464380.452
  20
4612406.219
 66
1
  0
ATTRIB
  8
FeatureAttribs
 70
0
  1
PNOA-H_AMS_1956-57_33k_ES_PAN_21mic_H50_0347_fot_37B-38971_E.tif
  2
NAME
  10
464380.452
  20
4612406.219
 40
33.50906
  0
SEQEND
  0
POLYLINE
  8
PNOA-H_AMS_1956-57_33k_ES_PAN_21mic_H50_0347_fot_37B-38971_E_tif
  70
9
  66
1
  0
VERTEX
  8
PNOA-H_AMS_1956-57_33k_ES_PAN_21mic_H50_0347_fot_37B-38971_E_tif
  70
32
  10
463443.331
  20
4611949.085
  30
956.059
  0
VERTEX
  8
PNOA-H_AMS_1956-57_33k_ES_PAN_21mic_H50_0347_fot_37B-38971_E_tif
  70
32
  10
463442.500
  20
4611949.000
  30
956.059
  0
VERTEX
  8
PNOA-H_AMS_1956-57_33k_ES_PAN_21mic_H50_0347_fot_37B-38971_E_tif
  70
32
  10
462946.000
  20
4612200.500
  30
945.432
  0
VERTEX
  8
PNOA-H_AMS_1956-57_33k_ES_PAN_21mic_H50_0347_fot_37B-38971_E_tif
  70
32
  10
462956.303
  20
4612863.438
  30
936.572
  0
VERTEX
  8
PNOA-H_AMS_1956-57_33k_ES_PAN_21mic_H50_0347_fot_37B-38971_E_tif
  70
32
  10
463578.771
  20
4612860.127
  30
0
  0
VERTEX
  8
PNOA-H_AMS_1956-57_33k_ES_PAN_21mic_H50_0347_fot_37B-38971_E_tif
  70
32
  10
465823.089
  20
4612849.277
  30
949.629
  0
VERTEX
  8
PNOA-H_AMS_1956-57_33k_ES_PAN_21mic_H50_0347_fot_37B-38971_E_tif
  70
32
  10
465823.505
  20
4612849.275
  30
948.97
  0
VERTEX
  8
PNOA-H_AMS_1956-57_33k_ES_PAN_21mic_H50_0347_fot_37B-38971_E_tif
  70
32
  10
465807.000
  20
4612229.500
  30
954.777
  0
VERTEX
  8
PNOA-H_AMS_1956-57_33k_ES_PAN_21mic_H50_0347_fot_37B-38971_E_tif
  70
32
  10
465806.000
  20
4612192.500
  30
955.915
  0
VERTEX
  8
PNOA-H_AMS_1956-57_33k_ES_PAN_21mic_H50_0347_fot_37B-38971_E_tif
  70
32
  10
465805.505
  20
4612192.170
  30
955.919
  0
VERTEX
  8
PNOA-H_AMS_1956-57_33k_ES_PAN_21mic_H50_0347_fot_37B-38971_E_tif
  70
32
  10
465805.114
  20
4612191.909
  30
955.923
  0
VERTEX
  8
PNOA-H_AMS_1956-57_33k_ES_PAN_21mic_H50_0347_fot_37B-38971_E_tif
  70
32
  10
465804.500
  20
4612191.500
  30
955.929
  0
VERTEX
  8
PNOA-H_AMS_1956-57_33k_ES_PAN_21mic_H50_0347_fot_37B-38971_E_tif
  70
32
  10
463859.292
  20
4611991.791
  30
956.036
  0
VERTEX
  8
PNOA-H_AMS_1956-57_33k_ES_PAN_21mic_H50_0347_fot_37B-38971_E_tif
  70
32
  10
463443.331
  20
4611949.085
  30
956.059
  0
SEQEND
  8
PNOA-H_AMS_1956-57_33k_ES_PAN_21mic_H50_0347_fot_37B-38971_E_tif
  0
INSERT
  8
FeatureAttribs
  2
FEATURE
  41
1
  42
1
  43
1
  50
0
  10
475864.348
  20
4612304.215
 66
1
  0
ATTRIB
  8
FeatureAttribs
 70
0
  1
PNOA-H_AMS_1956-57_33k_ES_PAN_21mic_H50_0347_fot_37B-38975_E.tif
  2
NAME
  10
475864.348
  20
4612304.215
 40
33.50906
  0
SEQEND
  0
POLYLINE
  8
PNOA-H_AMS_1956-57_33k_ES_PAN_21mic_H50_0347_fot_37B-38975_E_tif
  70
9
  66
1
  0
VERTEX
  8
PNOA-H_AMS_1956-57_33k_ES_PAN_21mic_H50_0347_fot_37B-38975_E_tif
  70
32
  10
474909.000
  20
4611795.500
  30
981.077
  0
VERTEX
  8
PNOA-H_AMS_1956-57_33k_ES_PAN_21mic_H50_0347_fot_37B-38975_E_tif
  70
32
  10
474908.000
  20
4611795.500
  30
981.009
  0
VERTEX
  8
PNOA-H_AMS_1956-57_33k_ES_PAN_21mic_H50_0347_fot_37B-38975_E_tif
  70
32
  10
474906.000
  20
4611796.500
  30
980.765
  0
VERTEX
  8
PNOA-H_AMS_1956-57_33k_ES_PAN_21mic_H50_0347_fot_37B-38975_E_tif
  70
32
  10
474524.600
  20
4611998.947
  30
961.667
  0
VERTEX
  8
PNOA-H_AMS_1956-57_33k_ES_PAN_21mic_H50_0347_fot_37B-38975_E_tif
  70
32
  10
474524.500
  20
4611999.000
  30
961.662
  0
VERTEX
  8
PNOA-H_AMS_1956-57_33k_ES_PAN_21mic_H50_0347_fot_37B-38975_E_tif
  70
32
  10
474552.078
  20
4612812.929
  30
959.38
  0
VERTEX
  8
PNOA-H_AMS_1956-57_33k_ES_PAN_21mic_H50_0347_fot_37B-38975_E_tif
  70
32
  10
477214.162
  20
4612803.920
  30
947.849
  0
VERTEX
  8
PNOA-H_AMS_1956-57_33k_ES_PAN_21mic_H50_0347_fot_37B-38975_E_tif
  70
32
  10
477214.262
  20
4612803.920
  30
947.849
  0
VERTEX
  8
PNOA-H_AMS_1956-57_33k_ES_PAN_21mic_H50_0347_fot_37B-38975_E_tif
  70
32
  10
477179.000
  20
4611940.500
  30
938.925
  0
VERTEX
  8
PNOA-H_AMS_1956-57_33k_ES_PAN_21mic_H50_0347_fot_37B-38975_E_tif
  70
32
  10
474916.500
  20
4611795.500
  30
981.589
  0
VERTEX
  8
PNOA-H_AMS_1956-57_33k_ES_PAN_21mic_H50_0347_fot_37B-38975_E_tif
  70
32
  10
474909.000
  20
4611795.500
  30
981.077
  0
SEQEND
  8
PNOA-H_AMS_1956-57_33k_ES_PAN_21mic_H50_0347_fot_37B-38975_E_tif
  0
INSERT
  8
FeatureAttribs
  2
FEATURE
  41
1
  42
1
  43
1
  50
0
  10
473125.900
  20
4612339.771
 66
1
  0
ATTRIB
  8
FeatureAttribs
 70
0
  1
PNOA-H_AMS_1956-57_33k_ES_PAN_21mic_H50_0347_fot_37B-38974_E.tif
  2
NAME
  10
473125.900
  20
4612339.771
 40
33.50906
  0
SEQEND
  0
POLYLINE
  8
PNOA-H_AMS_1956-57_33k_ES_PAN_21mic_H50_0347_fot_37B-38974_E_tif
  70
9
  66
1
  0
VERTEX
  8
PNOA-H_AMS_1956-57_33k_ES_PAN_21mic_H50_0347_fot_37B-38974_E_tif
  70
32
  10
472112.900
  20
4611856.053
  30
954.937
  0
VERTEX
  8
PNOA-H_AMS_1956-57_33k_ES_PAN_21mic_H50_0347_fot_37B-38974_E_tif
  70
32
  10
472112.000
  20
4611856.000
  30
954.935
  0
VERTEX
  8
PNOA-H_AMS_1956-57_33k_ES_PAN_21mic_H50_0347_fot_37B-38974_E_tif
  70
32
  10
471704.079
  20
4612073.958
  30
979.017
  0
VERTEX
  8
PNOA-H_AMS_1956-57_33k_ES_PAN_21mic_H50_0347_fot_37B-38974_E_tif
  70
32
  10
471704.000
  20
4612074.000
  30
979.022
  0
VERTEX
  8
PNOA-H_AMS_1956-57_33k_ES_PAN_21mic_H50_0347_fot_37B-38974_E_tif
  70
32
  10
471737.149
  20
4612823.542
  30
972.68
  0
VERTEX
  8
PNOA-H_AMS_1956-57_33k_ES_PAN_21mic_H50_0347_fot_37B-38974_E_tif
  70
32
  10
473984.851
  20
4612814.849
  30
0
  0
VERTEX
  8
PNOA-H_AMS_1956-57_33k_ES_PAN_21mic_H50_0347_fot_37B-38974_E_tif
  70
32
  10
474552.078
  20
4612812.929
  30
959.38
  0
VERTEX
  8
PNOA-H_AMS_1956-57_33k_ES_PAN_21mic_H50_0347_fot_37B-38974_E_tif
  70
32
  10
474524.500
  20
4611999.000
  30
961.662
  0
VERTEX
  8
PNOA-H_AMS_1956-57_33k_ES_PAN_21mic_H50_0347_fot_37B-38974_E_tif
  70
32
  10
474374.043
  20
4611990.082
  30
961.242
  0
VERTEX
  8
PNOA-H_AMS_1956-57_33k_ES_PAN_21mic_H50_0347_fot_37B-38974_E_tif
  70
32
  10
472329.042
  20
4611868.865
  30
955.54
  0
VERTEX
  8
PNOA-H_AMS_1956-57_33k_ES_PAN_21mic_H50_0347_fot_37B-38974_E_tif
  70
32
  10
472112.900
  20
4611856.053
  30
954.937
  0
SEQEND
  8
PNOA-H_AMS_1956-57_33k_ES_PAN_21mic_H50_0347_fot_37B-38974_E_tif
  0
INSERT
  8
FeatureAttribs
  2
FEATURE
  41
1
  42
1
  43
1
  50
0
  10
478520.771
  20
4612245.210
 66
1
  0
ATTRIB
  8
FeatureAttribs
 70
0
  1
PNOA-H_AMS_1956-57_33k_ES_PAN_21mic_H50_0347_fot_38976.tif
  2
NAME
  10
478520.771
  20
4612245.210
 40
33.50906
  0
SEQEND
  0
POLYLINE
  8
PNOA-H_AMS_1956-57_33k_ES_PAN_21mic_H50_0347_fot_38976_tif
  70
9
  66
1
  0
VERTEX
  8
PNOA-H_AMS_1956-57_33k_ES_PAN_21mic_H50_0347_fot_38976_tif
  70
32
  10
477711.403
  20
4611686.546
  30
937.368
  0
VERTEX
  8
PNOA-H_AMS_1956-57_33k_ES_PAN_21mic_H50_0347_fot_38976_tif
  70
32
  10
477711.000
  20
4611686.500
  30
937.372
  0
VERTEX
  8
PNOA-H_AMS_1956-57_33k_ES_PAN_21mic_H50_0347_fot_38976_tif
  70
32
  10
477179.000
  20
4611940.500
  30
938.925
  0
VERTEX
  8
PNOA-H_AMS_1956-57_33k_ES_PAN_21mic_H50_0347_fot_38976_tif
  70
32
  10
477214.162
  20
4612803.920
  30
947.838
  0
VERTEX
  8
PNOA-H_AMS_1956-57_33k_ES_PAN_21mic_H50_0347_fot_38976_tif
  70
32
  10
477214.262
  20
4612803.920
  30
0
  0
VERTEX
  8
PNOA-H_AMS_1956-57_33k_ES_PAN_21mic_H50_0347_fot_38976_tif
  70
32
  10
477453.541
  20
4612803.110
  30
0
  0
VERTEX
  8
PNOA-H_AMS_1956-57_33k_ES_PAN_21mic_H50_0347_fot_38976_tif
  70
32
  10
479867.885
  20
4612796.107
  30
0
  0
VERTEX
  8
PNOA-H_AMS_1956-57_33k_ES_PAN_21mic_H50_0347_fot_38976_tif
  70
32
  10
479867.900
  20
4612796.107
  30
927.834
  0
VERTEX
  8
PNOA-H_AMS_1956-57_33k_ES_PAN_21mic_H50_0347_fot_38976_tif
  70
32
  10
479854.575
  20
4612382.922
  30
922.741
  0
VERTEX
  8
PNOA-H_AMS_1956-57_33k_ES_PAN_21mic_H50_0347_fot_38976_tif
  70
32
  10
479840.000
  20
4611931.000
  30
917.17
  0
VERTEX
  8
PNOA-H_AMS_1956-57_33k_ES_PAN_21mic_H50_0347_fot_38976_tif
  70
32
  10
477711.403
  20
4611686.546
  30
937.368
  0
SEQEND
  8
PNOA-H_AMS_1956-57_33k_ES_PAN_21mic_H50_0347_fot_38976_tif
  0
INSERT
  8
FeatureAttribs
  2
FEATURE
  41
1
  42
1
  43
1
  50
0
  10
483535.194
  20
4612167.636
 66
1
  0
ATTRIB
  8
FeatureAttribs
 70
0
  1
PNOA-H_AMS_1956-57_33k_ES_PAN_21mic_H50_0347_fot_38978.tif
  2
NAME
  10
483535.194
  20
4612167.636
 40
33.50906
  0
SEQEND
  0
POLYLINE
  8
PNOA-H_AMS_1956-57_33k_ES_PAN_21mic_H50_0347_fot_38978_tif
  70
9
  66
1
  0
VERTEX
  8
PNOA-H_AMS_1956-57_33k_ES_PAN_21mic_H50_0347_fot_38978_tif
  70
32
  10
483347.885
  20
4611546.557
  30
905.817
  0
VERTEX
  8
PNOA-H_AMS_1956-57_33k_ES_PAN_21mic_H50_0347_fot_38978_tif
  70
32
  10
483347.500
  20
4611546.500
  30
905.81
  0
VERTEX
  8
PNOA-H_AMS_1956-57_33k_ES_PAN_21mic_H50_0347_fot_38978_tif
  70
32
  10
482676.000
  20
4611876.500
  30
923.962
  0
VERTEX
  8
PNOA-H_AMS_1956-57_33k_ES_PAN_21mic_H50_0347_fot_38978_tif
  70
32
  10
482676.008
  20
4611876.996
  30
923.966
  0
VERTEX
  8
PNOA-H_AMS_1956-57_33k_ES_PAN_21mic_H50_0347_fot_38978_tif
  70
32
  10
482676.151
  20
4611885.608
  30
924.031
  0
VERTEX
  8
PNOA-H_AMS_1956-57_33k_ES_PAN_21mic_H50_0347_fot_38978_tif
  70
32
  10
482691.084
  20
4612788.773
  30
930.924
  0
VERTEX
  8
PNOA-H_AMS_1956-57_33k_ES_PAN_21mic_H50_0347_fot_38978_tif
  70
32
  10
482691.147
  20
4612788.772
  30
0
  0
VERTEX
  8
PNOA-H_AMS_1956-57_33k_ES_PAN_21mic_H50_0347_fot_38978_tif
  70
32
  10
484390.916
  20
4612784.664
  30
0
  0
VERTEX
  8
PNOA-H_AMS_1956-57_33k_ES_PAN_21mic_H50_0347_fot_38978_tif
  70
32
  10
484388.556
  20
4611699.569
  30
0
  0
VERTEX
  8
PNOA-H_AMS_1956-57_33k_ES_PAN_21mic_H50_0347_fot_38978_tif
  70
32
  10
484388.556
  20
4611699.453
  30
923.615
  0
VERTEX
  8
PNOA-H_AMS_1956-57_33k_ES_PAN_21mic_H50_0347_fot_38978_tif
  70
32
  10
483450.745
  20
4611561.669
  30
907.576
  0
VERTEX
  8
PNOA-H_AMS_1956-57_33k_ES_PAN_21mic_H50_0347_fot_38978_tif
  70
32
  10
483347.885
  20
4611546.557
  30
905.817
  0
SEQEND
  8
PNOA-H_AMS_1956-57_33k_ES_PAN_21mic_H50_0347_fot_38978_tif
  0
INSERT
  8
FeatureAttribs
  2
FEATURE
  41
1
  42
1
  43
1
  50
0
  10
481265.109
  20
4612199.803
 66
1
  0
ATTRIB
  8
FeatureAttribs
 70
0
  1
PNOA-H_AMS_1956-57_33k_ES_PAN_21mic_H50_0347_fot_38977.tif
  2
NAME
  10
481265.109
  20
4612199.803
 40
33.50906
  0
SEQEND
  0
POLYLINE
  8
PNOA-H_AMS_1956-57_33k_ES_PAN_21mic_H50_0347_fot_38977_tif
  70
9
  66
1
  0
VERTEX
  8
PNOA-H_AMS_1956-57_33k_ES_PAN_21mic_H50_0347_fot_38977_tif
  70
32
  10
480520.306
  20
4611603.602
  30
910.846
  0
VERTEX
  8
PNOA-H_AMS_1956-57_33k_ES_PAN_21mic_H50_0347_fot_38977_tif
  70
32
  10
480519.500
  20
4611603.500
  30
910.841
  0
VERTEX
  8
PNOA-H_AMS_1956-57_33k_ES_PAN_21mic_H50_0347_fot_38977_tif
  70
32
  10
480519.490
  20
4611603.505
  30
910.841
  0
VERTEX
  8
PNOA-H_AMS_1956-57_33k_ES_PAN_21mic_H50_0347_fot_38977_tif
  70
32
  10
479840.000
  20
4611930.500
  30
917.151
  0
VERTEX
  8
PNOA-H_AMS_1956-57_33k_ES_PAN_21mic_H50_0347_fot_38977_tif
  70
32
  10
479840.016
  20
4611930.992
  30
917.158
  0
VERTEX
  8
PNOA-H_AMS_1956-57_33k_ES_PAN_21mic_H50_0347_fot_38977_tif
  70
32
  10
479854.575
  20
4612382.922
  30
923.116
  0
VERTEX
  8
PNOA-H_AMS_1956-57_33k_ES_PAN_21mic_H50_0347_fot_38977_tif
  70
32
  10
479867.885
  20
4612796.107
  30
928.563
  0
VERTEX
  8
PNOA-H_AMS_1956-57_33k_ES_PAN_21mic_H50_0347_fot_38977_tif
  70
32
  10
479867.900
  20
4612796.107
  30
928.167
  0
VERTEX
  8
PNOA-H_AMS_1956-57_33k_ES_PAN_21mic_H50_0347_fot_38977_tif
  70
32
  10
480922.229
  20
4612793.048
  30
0
  0
VERTEX
  8
PNOA-H_AMS_1956-57_33k_ES_PAN_21mic_H50_0347_fot_38977_tif
  70
32
  10
482691.084
  20
4612788.773
  30
940.36
  0
VERTEX
  8
PNOA-H_AMS_1956-57_33k_ES_PAN_21mic_H50_0347_fot_38977_tif
  70
32
  10
482691.147
  20
4612788.772
  30
940.441
  0
VERTEX
  8
PNOA-H_AMS_1956-57_33k_ES_PAN_21mic_H50_0347_fot_38977_tif
  70
32
  10
482676.500
  20
4611890.500
  30
925.167
  0
VERTEX
  8
PNOA-H_AMS_1956-57_33k_ES_PAN_21mic_H50_0347_fot_38977_tif
  70
32
  10
482676.151
  20
4611885.608
  30
924.741
  0
VERTEX
  8
PNOA-H_AMS_1956-57_33k_ES_PAN_21mic_H50_0347_fot_38977_tif
  70
32
  10
482675.531
  20
4611876.941
  30
923.987
  0
VERTEX
  8
PNOA-H_AMS_1956-57_33k_ES_PAN_21mic_H50_0347_fot_38977_tif
  70
32
  10
482675.500
  20
4611876.500
  30
923.949
  0
VERTEX
  8
PNOA-H_AMS_1956-57_33k_ES_PAN_21mic_H50_0347_fot_38977_tif
  70
32
  10
480520.306
  20
4611603.602
  30
910.846
  0
SEQEND
  8
PNOA-H_AMS_1956-57_33k_ES_PAN_21mic_H50_0347_fot_38977_tif
  0
INSERT
  8
FeatureAttribs
  2
FEATURE
  41
1
  42
1
  43
1
  50
0
  10
457058.076
  20
4610125.826
 66
1
  0
ATTRIB
  8
FeatureAttribs
 70
0
  1
PNOA-H_AMS_1956-57_33k_ES_PAN_21mic_H50_0375_fot_38C-40555_E.tif
  2
NAME
  10
457058.076
  20
4610125.826
 40
33.50906
  0
SEQEND
  0
POLYLINE
  8
PNOA-H_AMS_1956-57_33k_ES_PAN_21mic_H50_0375_fot_38C-40555_E_tif
  70
9
  66
1
  0
VERTEX
  8
PNOA-H_AMS_1956-57_33k_ES_PAN_21mic_H50_0375_fot_38C-40555_E_tif
  70
32
  10
457449.000
  20
4607956.500
  30
937.441
  0
VERTEX
  8
PNOA-H_AMS_1956-57_33k_ES_PAN_21mic_H50_0375_fot_38C-40555_E_tif
  70
32
  10
456609.893
  20
4607687.091
  30
909.39
  0
VERTEX
  8
PNOA-H_AMS_1956-57_33k_ES_PAN_21mic_H50_0375_fot_38C-40555_E_tif
  70
32
  10
456609.895
  20
4607687.381
  30
0
  0
VERTEX
  8
PNOA-H_AMS_1956-57_33k_ES_PAN_21mic_H50_0375_fot_38C-40555_E_tif
  70
32
  10
456613.429
  20
4608272.759
  30
0
  0
VERTEX
  8
PNOA-H_AMS_1956-57_33k_ES_PAN_21mic_H50_0375_fot_38C-40555_E_tif
  70
32
  10
456627.398
  20
4610585.725
  30
0
  0
VERTEX
  8
PNOA-H_AMS_1956-57_33k_ES_PAN_21mic_H50_0375_fot_38C-40555_E_tif
  70
32
  10
456639.351
  20
4612564.042
  30
0
  0
VERTEX
  8
PNOA-H_AMS_1956-57_33k_ES_PAN_21mic_H50_0375_fot_38C-40555_E_tif
  70
32
  10
456639.354
  20
4612564.560
  30
874.556
  0
VERTEX
  8
PNOA-H_AMS_1956-57_33k_ES_PAN_21mic_H50_0375_fot_38C-40555_E_tif
  70
32
  10
457529.916
  20
4612088.045
  30
874.278
  0
VERTEX
  8
PNOA-H_AMS_1956-57_33k_ES_PAN_21mic_H50_0375_fot_38C-40555_E_tif
  70
32
  10
457530.000
  20
4612088.000
  30
874.278
  0
VERTEX
  8
PNOA-H_AMS_1956-57_33k_ES_PAN_21mic_H50_0375_fot_38C-40555_E_tif
  70
32
  10
457449.000
  20
4607956.500
  30
937.441
  0
SEQEND
  8
PNOA-H_AMS_1956-57_33k_ES_PAN_21mic_H50_0375_fot_38C-40555_E_tif
  0
INSERT
  8
FeatureAttribs
  2
FEATURE
  41
1
  42
1
  43
1
  50
0
  10
457602.206
  20
4605670.309
 66
1
  0
ATTRIB
  8
FeatureAttribs
 70
0
  1
PNOA-H_AMS_1956-57_33k_ES_PAN_21mic_H50_0376_fot_39C-51157_W.tif
  2
NAME
  10
457602.206
  20
4605670.309
 40
33.50906
  0
SEQEND
  0
POLYLINE
  8
PNOA-H_AMS_1956-57_33k_ES_PAN_21mic_H50_0376_fot_39C-51157_W_tif
  70
9
  66
1
  0
VERTEX
  8
PNOA-H_AMS_1956-57_33k_ES_PAN_21mic_H50_0376_fot_39C-51157_W_tif
  70
32
  10
458612.500
  20
4603444.500
  30
1024.687
  0
VERTEX
  8
PNOA-H_AMS_1956-57_33k_ES_PAN_21mic_H50_0376_fot_39C-51157_W_tif
  70
32
  10
456583.922
  20
4603384.119
  30
987.115
  0
VERTEX
  8
PNOA-H_AMS_1956-57_33k_ES_PAN_21mic_H50_0376_fot_39C-51157_W_tif
  70
32
  10
456583.922
  20
4603384.144
  30
0
  0
VERTEX
  8
PNOA-H_AMS_1956-57_33k_ES_PAN_21mic_H50_0376_fot_39C-51157_W_tif
  70
32
  10
456585.507
  20
4603646.854
  30
0
  0
VERTEX
  8
PNOA-H_AMS_1956-57_33k_ES_PAN_21mic_H50_0376_fot_39C-51157_W_tif
  70
32
  10
456599.465
  20
4605959.802
  30
0
  0
VERTEX
  8
PNOA-H_AMS_1956-57_33k_ES_PAN_21mic_H50_0376_fot_39C-51157_W_tif
  70
32
  10
456609.893
  20
4607687.091
  30
0
  0
VERTEX
  8
PNOA-H_AMS_1956-57_33k_ES_PAN_21mic_H50_0376_fot_39C-51157_W_tif
  70
32
  10
456609.895
  20
4607687.381
  30
904.94
  0
VERTEX
  8
PNOA-H_AMS_1956-57_33k_ES_PAN_21mic_H50_0376_fot_39C-51157_W_tif
  70
32
  10
457162.000
  20
4607864.500
  30
920.152
  0
VERTEX
  8
PNOA-H_AMS_1956-57_33k_ES_PAN_21mic_H50_0376_fot_39C-51157_W_tif
  70
32
  10
457163.500
  20
4607865.000
  30
920.598
  0
VERTEX
  8
PNOA-H_AMS_1956-57_33k_ES_PAN_21mic_H50_0376_fot_39C-51157_W_tif
  70
32
  10
457449.000
  20
4607956.500
  30
937.441
  0
VERTEX
  8
PNOA-H_AMS_1956-57_33k_ES_PAN_21mic_H50_0376_fot_39C-51157_W_tif
  70
32
  10
458601.814
  20
4607470.579
  30
913.249
  0
VERTEX
  8
PNOA-H_AMS_1956-57_33k_ES_PAN_21mic_H50_0376_fot_39C-51157_W_tif
  70
32
  10
458602.000
  20
4607470.500
  30
913.245
  0
VERTEX
  8
PNOA-H_AMS_1956-57_33k_ES_PAN_21mic_H50_0376_fot_39C-51157_W_tif
  70
32
  10
458612.500
  20
4603444.500
  30
1024.687
  0
SEQEND
  8
PNOA-H_AMS_1956-57_33k_ES_PAN_21mic_H50_0376_fot_39C-51157_W_tif
  0
INSERT
  8
FeatureAttribs
  2
FEATURE
  41
1
  42
1
  43
1
  50
0
  10
457690.153
  20
4601067.250
 66
1
  0
ATTRIB
  8
FeatureAttribs
 70
0
  1
PNOA-H_AMS_1956-57_33k_ES_PAN_21mic_H50_0376_fot_40B-38929_W.tif
  2
NAME
  10
457690.153
  20
4601067.250
 40
33.50906
  0
SEQEND
  0
POLYLINE
  8
PNOA-H_AMS_1956-57_33k_ES_PAN_21mic_H50_0376_fot_40B-38929_W_tif
  70
9
  66
1
  0
VERTEX
  8
PNOA-H_AMS_1956-57_33k_ES_PAN_21mic_H50_0376_fot_40B-38929_W_tif
  70
32
  10
458748.000
  20
4598869.500
  30
1025.349
  0
VERTEX
  8
PNOA-H_AMS_1956-57_33k_ES_PAN_21mic_H50_0376_fot_40B-38929_W_tif
  70
32
  10
458362.500
  20
4598690.000
  30
1016.19
  0
VERTEX
  8
PNOA-H_AMS_1956-57_33k_ES_PAN_21mic_H50_0376_fot_40B-38929_W_tif
  70
32
  10
458362.069
  20
4598690.032
  30
1016.192
  0
VERTEX
  8
PNOA-H_AMS_1956-57_33k_ES_PAN_21mic_H50_0376_fot_40B-38929_W_tif
  70
32
  10
457554.950
  20
4598750.293
  30
1020.199
  0
VERTEX
  8
PNOA-H_AMS_1956-57_33k_ES_PAN_21mic_H50_0376_fot_40B-38929_W_tif
  70
32
  10
457163.758
  20
4598779.500
  30
1022.141
  0
VERTEX
  8
PNOA-H_AMS_1956-57_33k_ES_PAN_21mic_H50_0376_fot_40B-38929_W_tif
  70
32
  10
456556.426
  20
4598824.844
  30
1025.156
  0
VERTEX
  8
PNOA-H_AMS_1956-57_33k_ES_PAN_21mic_H50_0376_fot_40B-38929_W_tif
  70
32
  10
456557.608
  20
4599020.982
  30
0
  0
VERTEX
  8
PNOA-H_AMS_1956-57_33k_ES_PAN_21mic_H50_0376_fot_40B-38929_W_tif
  70
32
  10
456571.555
  20
4601333.914
  30
0
  0
VERTEX
  8
PNOA-H_AMS_1956-57_33k_ES_PAN_21mic_H50_0376_fot_40B-38929_W_tif
  70
32
  10
456583.922
  20
4603384.119
  30
0
  0
VERTEX
  8
PNOA-H_AMS_1956-57_33k_ES_PAN_21mic_H50_0376_fot_40B-38929_W_tif
  70
32
  10
456583.922
  20
4603384.144
  30
987.265
  0
VERTEX
  8
PNOA-H_AMS_1956-57_33k_ES_PAN_21mic_H50_0376_fot_40B-38929_W_tif
  70
32
  10
458587.500
  20
4603444.000
  30
1024.642
  0
VERTEX
  8
PNOA-H_AMS_1956-57_33k_ES_PAN_21mic_H50_0376_fot_40B-38929_W_tif
  70
32
  10
458604.500
  20
4603444.500
  30
1024.691
  0
VERTEX
  8
PNOA-H_AMS_1956-57_33k_ES_PAN_21mic_H50_0376_fot_40B-38929_W_tif
  70
32
  10
458612.500
  20
4603444.500
  30
1024.69
  0
VERTEX
  8
PNOA-H_AMS_1956-57_33k_ES_PAN_21mic_H50_0376_fot_40B-38929_W_tif
  70
32
  10
458613.000
  20
4603444.500
  30
1024.69
  0
VERTEX
  8
PNOA-H_AMS_1956-57_33k_ES_PAN_21mic_H50_0376_fot_40B-38929_W_tif
  70
32
  10
458616.000
  20
4603443.000
  30
1024.698
  0
VERTEX
  8
PNOA-H_AMS_1956-57_33k_ES_PAN_21mic_H50_0376_fot_40B-38929_W_tif
  70
32
  10
458871.952
  20
4603305.526
  30
1024.471
  0
VERTEX
  8
PNOA-H_AMS_1956-57_33k_ES_PAN_21mic_H50_0376_fot_40B-38929_W_tif
  70
32
  10
458872.000
  20
4603305.500
  30
1024.471
  0
VERTEX
  8
PNOA-H_AMS_1956-57_33k_ES_PAN_21mic_H50_0376_fot_40B-38929_W_tif
  70
32
  10
458750.000
  20
4598875.500
  30
1025.365
  0
VERTEX
  8
PNOA-H_AMS_1956-57_33k_ES_PAN_21mic_H50_0376_fot_40B-38929_W_tif
  70
32
  10
458749.500
  20
4598870.500
  30
1025.357
  0
VERTEX
  8
PNOA-H_AMS_1956-57_33k_ES_PAN_21mic_H50_0376_fot_40B-38929_W_tif
  70
32
  10
458749.420
  20
4598870.447
  30
1025.356
  0
VERTEX
  8
PNOA-H_AMS_1956-57_33k_ES_PAN_21mic_H50_0376_fot_40B-38929_W_tif
  70
32
  10
458748.000
  20
4598869.500
  30
1025.349
  0
SEQEND
  8
PNOA-H_AMS_1956-57_33k_ES_PAN_21mic_H50_0376_fot_40B-38929_W_tif
  0
INSERT
  8
FeatureAttribs
  2
FEATURE
  41
1
  42
1
  43
1
  50
0
  10
457444.991
  20
4596604.735
 66
1
  0
ATTRIB
  8
FeatureAttribs
 70
0
  1
PNOA-H_AMS_1956-57_33k_ES_PAN_21mic_H50_0376_fot_41B-37416_W.tif
  2
NAME
  10
457444.991
  20
4596604.735
 40
33.50906
  0
SEQEND
  0
POLYLINE
  8
PNOA-H_AMS_1956-57_33k_ES_PAN_21mic_H50_0376_fot_41B-37416_W_tif
  70
9
  66
1
  0
VERTEX
  8
PNOA-H_AMS_1956-57_33k_ES_PAN_21mic_H50_0376_fot_41B-37416_W_tif
  70
32
  10
456556.426
  20
4598824.743
  30
1023.25
  0
VERTEX
  8
PNOA-H_AMS_1956-57_33k_ES_PAN_21mic_H50_0376_fot_41B-37416_W_tif
  70
32
  10
457162.000
  20
4598779.500
  30
1018.183
  0
VERTEX
  8
PNOA-H_AMS_1956-57_33k_ES_PAN_21mic_H50_0376_fot_41B-37416_W_tif
  70
32
  10
457163.758
  20
4598779.500
  30
1018.182
  0
VERTEX
  8
PNOA-H_AMS_1956-57_33k_ES_PAN_21mic_H50_0376_fot_41B-37416_W_tif
  70
32
  10
457164.000
  20
4598779.500
  30
1018.181
  0
VERTEX
  8
PNOA-H_AMS_1956-57_33k_ES_PAN_21mic_H50_0376_fot_41B-37416_W_tif
  70
32
  10
457554.950
  20
4598750.293
  30
1017.529
  0
VERTEX
  8
PNOA-H_AMS_1956-57_33k_ES_PAN_21mic_H50_0376_fot_41B-37416_W_tif
  70
32
  10
458362.000
  20
4598690.000
  30
1016.183
  0
VERTEX
  8
PNOA-H_AMS_1956-57_33k_ES_PAN_21mic_H50_0376_fot_41B-37416_W_tif
  70
32
  10
458330.899
  20
4594384.728
  30
934.558
  0
VERTEX
  8
PNOA-H_AMS_1956-57_33k_ES_PAN_21mic_H50_0376_fot_41B-37416_W_tif
  70
32
  10
456529.733
  20
4594395.143
  30
0
  0
VERTEX
  8
PNOA-H_AMS_1956-57_33k_ES_PAN_21mic_H50_0376_fot_41B-37416_W_tif
  70
32
  10
456543.668
  20
4596708.058
  30
0
  0
VERTEX
  8
PNOA-H_AMS_1956-57_33k_ES_PAN_21mic_H50_0376_fot_41B-37416_W_tif
  70
32
  10
456556.426
  20
4598824.743
  30
1023.25
  0
SEQEND
  8
PNOA-H_AMS_1956-57_33k_ES_PAN_21mic_H50_0376_fot_41B-37416_W_tif
  0
INSERT
  8
FeatureAttribs
  2
FEATURE
  41
1
  42
1
  43
1
  50
0
  10
461545.930
  20
4612470.711
 66
1
  0
ATTRIB
  8
FeatureAttribs
 70
0
  1
PNOA-H_AMS_1956-57_33k_ES_PAN_21mic_H50_0347_fot_37B-38970_E.tif
  2
NAME
  10
461545.930
  20
4612470.711
 40
33.50906
  0
SEQEND
  0
POLYLINE
  8
PNOA-H_AMS_1956-57_33k_ES_PAN_21mic_H50_0347_fot_37B-38970_E_tif
  70
9
  66
1
  0
VERTEX
  8
PNOA-H_AMS_1956-57_33k_ES_PAN_21mic_H50_0347_fot_37B-38970_E_tif
  70
32
  10
462946.000
  20
4612200.500
  30
945.432
  0
VERTEX
  8
PNOA-H_AMS_1956-57_33k_ES_PAN_21mic_H50_0347_fot_37B-38970_E_tif
  70
32
  10
460439.000
  20
4612063.000
  30
874.684
  0
VERTEX
  8
PNOA-H_AMS_1956-57_33k_ES_PAN_21mic_H50_0347_fot_37B-38970_E_tif
  70
32
  10
460438.990
  20
4612063.005
  30
874.685
  0
VERTEX
  8
PNOA-H_AMS_1956-57_33k_ES_PAN_21mic_H50_0347_fot_37B-38970_E_tif
  70
32
  10
460143.586
  20
4612215.455
  30
906.931
  0
VERTEX
  8
PNOA-H_AMS_1956-57_33k_ES_PAN_21mic_H50_0347_fot_37B-38970_E_tif
  70
32
  10
460143.500
  20
4612215.500
  30
906.94
  0
VERTEX
  8
PNOA-H_AMS_1956-57_33k_ES_PAN_21mic_H50_0347_fot_37B-38970_E_tif
  70
32
  10
460138.721
  20
4612878.422
  30
906.54
  0
VERTEX
  8
PNOA-H_AMS_1956-57_33k_ES_PAN_21mic_H50_0347_fot_37B-38970_E_tif
  70
32
  10
462956.303
  20
4612863.438
  30
936.541
  0
VERTEX
  8
PNOA-H_AMS_1956-57_33k_ES_PAN_21mic_H50_0347_fot_37B-38970_E_tif
  70
32
  10
462946.000
  20
4612200.500
  30
945.432
  0
SEQEND
  8
PNOA-H_AMS_1956-57_33k_ES_PAN_21mic_H50_0347_fot_37B-38970_E_tif
  0
INSERT
  8
FeatureAttribs
  2
FEATURE
  41
1
  42
1
  43
1
  50
0
  10
458456.481
  20
4612493.349
 66
1
  0
ATTRIB
  8
FeatureAttribs
 70
0
  1
PNOA-H_AMS_1956-57_33k_ES_PAN_21mic_H50_0347_fot_37B-38969_E.tif
  2
NAME
  10
458456.481
  20
4612493.349
 40
33.50906
  0
SEQEND
  0
POLYLINE
  8
PNOA-H_AMS_1956-57_33k_ES_PAN_21mic_H50_0347_fot_37B-38969_E_tif
  70
9
  66
1
  0
VERTEX
  8
PNOA-H_AMS_1956-57_33k_ES_PAN_21mic_H50_0347_fot_37B-38969_E_tif
  70
32
  10
457529.916
  20
4612088.045
  30
874.388
  0
VERTEX
  8
PNOA-H_AMS_1956-57_33k_ES_PAN_21mic_H50_0347_fot_37B-38969_E_tif
  70
32
  10
457529.000
  20
4612088.000
  30
874.376
  0
VERTEX
  8
PNOA-H_AMS_1956-57_33k_ES_PAN_21mic_H50_0347_fot_37B-38969_E_tif
  70
32
  10
456639.351
  20
4612564.042
  30
874.611
  0
VERTEX
  8
PNOA-H_AMS_1956-57_33k_ES_PAN_21mic_H50_0347_fot_37B-38969_E_tif
  70
32
  10
456639.354
  20
4612564.560
  30
0
  0
VERTEX
  8
PNOA-H_AMS_1956-57_33k_ES_PAN_21mic_H50_0347_fot_37B-38969_E_tif
  70
32
  10
456641.373
  20
4612898.698
  30
0
  0
VERTEX
  8
PNOA-H_AMS_1956-57_33k_ES_PAN_21mic_H50_0347_fot_37B-38969_E_tif
  70
32
  10
460110.073
  20
4612878.574
  30
0
  0
VERTEX
  8
PNOA-H_AMS_1956-57_33k_ES_PAN_21mic_H50_0347_fot_37B-38969_E_tif
  70
32
  10
460138.721
  20
4612878.422
  30
906.54
  0
VERTEX
  8
PNOA-H_AMS_1956-57_33k_ES_PAN_21mic_H50_0347_fot_37B-38969_E_tif
  70
32
  10
460143.500
  20
4612215.500
  30
906.94
  0
VERTEX
  8
PNOA-H_AMS_1956-57_33k_ES_PAN_21mic_H50_0347_fot_37B-38969_E_tif
  70
32
  10
457529.916
  20
4612088.045
  30
874.388
  0
SEQEND
  8
PNOA-H_AMS_1956-57_33k_ES_PAN_21mic_H50_0347_fot_37B-38969_E_tif
  0
INSERT
  8
FeatureAttribs
  2
FEATURE
  41
1
  42
1
  43
1
  50
0
  10
458940.066
  20
4609843.000
 66
1
  0
ATTRIB
  8
FeatureAttribs
 70
0
  1
PNOA-H_AMS_1956-57_33k_ES_PAN_21mic_H50_0376_fot_38C-40556_E.tif
  2
NAME
  10
458940.066
  20
4609843.000
 40
33.50906
  0
SEQEND
  0
POLYLINE
  8
PNOA-H_AMS_1956-57_33k_ES_PAN_21mic_H50_0376_fot_38C-40556_E_tif
  70
9
  66
1
  0
VERTEX
  8
PNOA-H_AMS_1956-57_33k_ES_PAN_21mic_H50_0376_fot_38C-40556_E_tif
  70
32
  10
458601.814
  20
4607470.579
  30
913.297
  0
VERTEX
  8
PNOA-H_AMS_1956-57_33k_ES_PAN_21mic_H50_0376_fot_38C-40556_E_tif
  70
32
  10
458601.500
  20
4607470.500
  30
913.308
  0
VERTEX
  8
PNOA-H_AMS_1956-57_33k_ES_PAN_21mic_H50_0376_fot_38C-40556_E_tif
  70
32
  10
457451.000
  20
4607955.000
  30
937.343
  0
VERTEX
  8
PNOA-H_AMS_1956-57_33k_ES_PAN_21mic_H50_0376_fot_38C-40556_E_tif
  70
32
  10
457449.000
  20
4607956.000
  30
937.441
  0
VERTEX
  8
PNOA-H_AMS_1956-57_33k_ES_PAN_21mic_H50_0376_fot_38C-40556_E_tif
  70
32
  10
457449.000
  20
4607956.500
  30
937.407
  0
VERTEX
  8
PNOA-H_AMS_1956-57_33k_ES_PAN_21mic_H50_0376_fot_38C-40556_E_tif
  70
32
  10
457449.000
  20
4607981.000
  30
935.773
  0
VERTEX
  8
PNOA-H_AMS_1956-57_33k_ES_PAN_21mic_H50_0376_fot_38C-40556_E_tif
  70
32
  10
457530.000
  20
4612088.000
  30
874.278
  0
VERTEX
  8
PNOA-H_AMS_1956-57_33k_ES_PAN_21mic_H50_0376_fot_38C-40556_E_tif
  70
32
  10
460143.586
  20
4612215.455
  30
906.91
  0
VERTEX
  8
PNOA-H_AMS_1956-57_33k_ES_PAN_21mic_H50_0376_fot_38C-40556_E_tif
  70
32
  10
460144.500
  20
4612215.500
  30
906.922
  0
VERTEX
  8
PNOA-H_AMS_1956-57_33k_ES_PAN_21mic_H50_0376_fot_38C-40556_E_tif
  70
32
  10
460439.000
  20
4612063.500
  30
874.705
  0
VERTEX
  8
PNOA-H_AMS_1956-57_33k_ES_PAN_21mic_H50_0376_fot_38C-40556_E_tif
  70
32
  10
460438.990
  20
4612063.005
  30
874.702
  0
VERTEX
  8
PNOA-H_AMS_1956-57_33k_ES_PAN_21mic_H50_0376_fot_38C-40556_E_tif
  70
32
  10
460389.500
  20
4609598.500
  30
857.727
  0
VERTEX
  8
PNOA-H_AMS_1956-57_33k_ES_PAN_21mic_H50_0376_fot_38C-40556_E_tif
  70
32
  10
460389.000
  20
4609573.000
  30
861.163
  0
VERTEX
  8
PNOA-H_AMS_1956-57_33k_ES_PAN_21mic_H50_0376_fot_38C-40556_E_tif
  70
32
  10
460355.508
  20
4607910.377
  30
852.361
  0
VERTEX
  8
PNOA-H_AMS_1956-57_33k_ES_PAN_21mic_H50_0376_fot_38C-40556_E_tif
  70
32
  10
460355.500
  20
4607910.000
  30
852.359
  0
VERTEX
  8
PNOA-H_AMS_1956-57_33k_ES_PAN_21mic_H50_0376_fot_38C-40556_E_tif
  70
32
  10
458875.142
  20
4607539.066
  30
903.799
  0
VERTEX
  8
PNOA-H_AMS_1956-57_33k_ES_PAN_21mic_H50_0376_fot_38C-40556_E_tif
  70
32
  10
458601.814
  20
4607470.579
  30
913.297
  0
SEQEND
  8
PNOA-H_AMS_1956-57_33k_ES_PAN_21mic_H50_0376_fot_38C-40556_E_tif
  0
INSERT
  8
FeatureAttribs
  2
FEATURE
  41
1
  42
1
  43
1
  50
0
  10
464881.916
  20
4609725.750
 66
1
  0
ATTRIB
  8
FeatureAttribs
 70
0
  1
PNOA-H_AMS_1956-57_33k_ES_PAN_21mic_H50_0376_fot_38C-40558_E.tif
  2
NAME
  10
464881.916
  20
4609725.750
 40
33.50906
  0
SEQEND
  0
POLYLINE
  8
PNOA-H_AMS_1956-57_33k_ES_PAN_21mic_H50_0376_fot_38C-40558_E_tif
  70
9
  66
1
  0
VERTEX
  8
PNOA-H_AMS_1956-57_33k_ES_PAN_21mic_H50_0376_fot_38C-40558_E_tif
  70
32
  10
466421.287
  20
4607771.825
  30
914.279
  0
VERTEX
  8
PNOA-H_AMS_1956-57_33k_ES_PAN_21mic_H50_0376_fot_38C-40558_E_tif
  70
32
  10
464333.000
  20
4607259.500
  30
848.874
  0
VERTEX
  8
PNOA-H_AMS_1956-57_33k_ES_PAN_21mic_H50_0376_fot_38C-40558_E_tif
  70
32
  10
464332.416
  20
4607259.725
  30
848.898
  0
VERTEX
  8
PNOA-H_AMS_1956-57_33k_ES_PAN_21mic_H50_0376_fot_38C-40558_E_tif
  70
32
  10
464328.899
  20
4607261.077
  30
849.043
  0
VERTEX
  8
PNOA-H_AMS_1956-57_33k_ES_PAN_21mic_H50_0376_fot_38C-40558_E_tif
  70
32
  10
464326.500
  20
4607262.000
  30
849.141
  0
VERTEX
  8
PNOA-H_AMS_1956-57_33k_ES_PAN_21mic_H50_0376_fot_38C-40558_E_tif
  70
32
  10
463353.568
  20
4607852.155
  30
850.397
  0
VERTEX
  8
PNOA-H_AMS_1956-57_33k_ES_PAN_21mic_H50_0376_fot_38C-40558_E_tif
  70
32
  10
463353.000
  20
4607852.500
  30
850.398
  0
VERTEX
  8
PNOA-H_AMS_1956-57_33k_ES_PAN_21mic_H50_0376_fot_38C-40558_E_tif
  70
32
  10
463443.500
  20
4611949.000
  30
956.086
  0
VERTEX
  8
PNOA-H_AMS_1956-57_33k_ES_PAN_21mic_H50_0376_fot_38C-40558_E_tif
  70
32
  10
463859.292
  20
4611991.791
  30
957.727
  0
VERTEX
  8
PNOA-H_AMS_1956-57_33k_ES_PAN_21mic_H50_0376_fot_38C-40558_E_tif
  70
32
  10
465348.000
  20
4612145.000
  30
963.605
  0
VERTEX
  8
PNOA-H_AMS_1956-57_33k_ES_PAN_21mic_H50_0376_fot_38C-40558_E_tif
  70
32
  10
465352.500
  20
4612145.500
  30
963.089
  0
VERTEX
  8
PNOA-H_AMS_1956-57_33k_ES_PAN_21mic_H50_0376_fot_38C-40558_E_tif
  70
32
  10
465805.114
  20
4612191.909
  30
955.944
  0
VERTEX
  8
PNOA-H_AMS_1956-57_33k_ES_PAN_21mic_H50_0376_fot_38C-40558_E_tif
  70
32
  10
465805.589
  20
4612191.958
  30
955.936
  0
VERTEX
  8
PNOA-H_AMS_1956-57_33k_ES_PAN_21mic_H50_0376_fot_38C-40558_E_tif
  70
32
  10
465806.000
  20
4612192.000
  30
955.93
  0
VERTEX
  8
PNOA-H_AMS_1956-57_33k_ES_PAN_21mic_H50_0376_fot_38C-40558_E_tif
  70
32
  10
466309.500
  20
4611954.500
  30
957.145
  0
VERTEX
  8
PNOA-H_AMS_1956-57_33k_ES_PAN_21mic_H50_0376_fot_38C-40558_E_tif
  70
32
  10
466422.000
  20
4607772.000
  30
914.302
  0
VERTEX
  8
PNOA-H_AMS_1956-57_33k_ES_PAN_21mic_H50_0376_fot_38C-40558_E_tif
  70
32
  10
466421.287
  20
4607771.825
  30
914.279
  0
SEQEND
  8
PNOA-H_AMS_1956-57_33k_ES_PAN_21mic_H50_0376_fot_38C-40558_E_tif
  0
INSERT
  8
FeatureAttribs
  2
FEATURE
  41
1
  42
1
  43
1
  50
0
  10
461895.293
  20
4609818.750
 66
1
  0
ATTRIB
  8
FeatureAttribs
 70
0
  1
PNOA-H_AMS_1956-57_33k_ES_PAN_21mic_H50_0376_fot_38C-40557_E.tif
  2
NAME
  10
461895.293
  20
4609818.750
 40
33.50906
  0
SEQEND
  0
POLYLINE
  8
PNOA-H_AMS_1956-57_33k_ES_PAN_21mic_H50_0376_fot_38C-40557_E_tif
  70
9
  66
1
  0
VERTEX
  8
PNOA-H_AMS_1956-57_33k_ES_PAN_21mic_H50_0376_fot_38C-40557_E_tif
  70
32
  10
462940.500
  20
4612200.500
  30
945.507
  0
VERTEX
  8
PNOA-H_AMS_1956-57_33k_ES_PAN_21mic_H50_0376_fot_38C-40557_E_tif
  70
32
  10
462946.000
  20
4612200.500
  30
945.432
  0
VERTEX
  8
PNOA-H_AMS_1956-57_33k_ES_PAN_21mic_H50_0376_fot_38C-40557_E_tif
  70
32
  10
462946.500
  20
4612200.500
  30
945.425
  0
VERTEX
  8
PNOA-H_AMS_1956-57_33k_ES_PAN_21mic_H50_0376_fot_38C-40557_E_tif
  70
32
  10
463443.331
  20
4611949.085
  30
956.082
  0
VERTEX
  8
PNOA-H_AMS_1956-57_33k_ES_PAN_21mic_H50_0376_fot_38C-40557_E_tif
  70
32
  10
463443.500
  20
4611949.000
  30
956.086
  0
VERTEX
  8
PNOA-H_AMS_1956-57_33k_ES_PAN_21mic_H50_0376_fot_38C-40557_E_tif
  70
32
  10
463353.000
  20
4607852.500
  30
850.398
  0
VERTEX
  8
PNOA-H_AMS_1956-57_33k_ES_PAN_21mic_H50_0376_fot_38C-40557_E_tif
  70
32
  10
463352.323
  20
4607852.363
  30
850.39
  0
VERTEX
  8
PNOA-H_AMS_1956-57_33k_ES_PAN_21mic_H50_0376_fot_38C-40557_E_tif
  70
32
  10
461302.500
  20
4607437.000
  30
827.13
  0
VERTEX
  8
PNOA-H_AMS_1956-57_33k_ES_PAN_21mic_H50_0376_fot_38C-40557_E_tif
  70
32
  10
461302.356
  20
4607437.072
  30
827.134
  0
VERTEX
  8
PNOA-H_AMS_1956-57_33k_ES_PAN_21mic_H50_0376_fot_38C-40557_E_tif
  70
32
  10
460986.778
  20
4607594.778
  30
835.571
  0
VERTEX
  8
PNOA-H_AMS_1956-57_33k_ES_PAN_21mic_H50_0376_fot_38C-40557_E_tif
  70
32
  10
460356.000
  20
4607910.000
  30
852.434
  0
VERTEX
  8
PNOA-H_AMS_1956-57_33k_ES_PAN_21mic_H50_0376_fot_38C-40557_E_tif
  70
32
  10
460356.010
  20
4607910.495
  30
852.436
  0
VERTEX
  8
PNOA-H_AMS_1956-57_33k_ES_PAN_21mic_H50_0376_fot_38C-40557_E_tif
  70
32
  10
460439.000
  20
4612063.000
  30
874.684
  0
VERTEX
  8
PNOA-H_AMS_1956-57_33k_ES_PAN_21mic_H50_0376_fot_38C-40557_E_tif
  70
32
  10
462931.000
  20
4612200.000
  30
945.48
  0
VERTEX
  8
PNOA-H_AMS_1956-57_33k_ES_PAN_21mic_H50_0376_fot_38C-40557_E_tif
  70
32
  10
462940.500
  20
4612200.500
  30
945.507
  0
SEQEND
  8
PNOA-H_AMS_1956-57_33k_ES_PAN_21mic_H50_0376_fot_38C-40557_E_tif
  0
INSERT
  8
FeatureAttribs
  2
FEATURE
  41
1
  42
1
  43
1
  50
0
  10
462766.940
  20
4605536.500
 66
1
  0
ATTRIB
  8
FeatureAttribs
 70
0
  1
PNOA-H_AMS_1956-57_33k_ES_PAN_21mic_H50_0376_fot_39C-51154_W.tif
  2
NAME
  10
462766.940
  20
4605536.500
 40
33.50906
  0
SEQEND
  0
POLYLINE
  8
PNOA-H_AMS_1956-57_33k_ES_PAN_21mic_H50_0376_fot_39C-51154_W_tif
  70
9
  66
1
  0
VERTEX
  8
PNOA-H_AMS_1956-57_33k_ES_PAN_21mic_H50_0376_fot_39C-51154_W_tif
  70
32
  10
464183.500
  20
4603456.500
  30
913.876
  0
VERTEX
  8
PNOA-H_AMS_1956-57_33k_ES_PAN_21mic_H50_0376_fot_39C-51154_W_tif
  70
32
  10
461656.500
  20
4603220.500
  30
1025.945
  0
VERTEX
  8
PNOA-H_AMS_1956-57_33k_ES_PAN_21mic_H50_0376_fot_39C-51154_W_tif
  70
32
  10
461653.000
  20
4603220.500
  30
1025.984
  0
VERTEX
  8
PNOA-H_AMS_1956-57_33k_ES_PAN_21mic_H50_0376_fot_39C-51154_W_tif
  70
32
  10
461652.500
  20
4603220.500
  30
1025.989
  0
VERTEX
  8
PNOA-H_AMS_1956-57_33k_ES_PAN_21mic_H50_0376_fot_39C-51154_W_tif
  70
32
  10
461647.500
  20
4603223.000
  30
1026.111
  0
VERTEX
  8
PNOA-H_AMS_1956-57_33k_ES_PAN_21mic_H50_0376_fot_39C-51154_W_tif
  70
32
  10
461233.500
  20
4603439.500
  30
996.345
  0
VERTEX
  8
PNOA-H_AMS_1956-57_33k_ES_PAN_21mic_H50_0376_fot_39C-51154_W_tif
  70
32
  10
461233.508
  20
4603439.996
  30
996.324
  0
VERTEX
  8
PNOA-H_AMS_1956-57_33k_ES_PAN_21mic_H50_0376_fot_39C-51154_W_tif
  70
32
  10
461302.000
  20
4607437.000
  30
827.137
  0
VERTEX
  8
PNOA-H_AMS_1956-57_33k_ES_PAN_21mic_H50_0376_fot_39C-51154_W_tif
  70
32
  10
461302.356
  20
4607437.072
  30
827.141
  0
VERTEX
  8
PNOA-H_AMS_1956-57_33k_ES_PAN_21mic_H50_0376_fot_39C-51154_W_tif
  70
32
  10
463305.000
  20
4607843.000
  30
850.293
  0
VERTEX
  8
PNOA-H_AMS_1956-57_33k_ES_PAN_21mic_H50_0376_fot_39C-51154_W_tif
  70
32
  10
463307.000
  20
4607843.500
  30
850.322
  0
VERTEX
  8
PNOA-H_AMS_1956-57_33k_ES_PAN_21mic_H50_0376_fot_39C-51154_W_tif
  70
32
  10
463351.500
  20
4607852.500
  30
850.422
  0
VERTEX
  8
PNOA-H_AMS_1956-57_33k_ES_PAN_21mic_H50_0376_fot_39C-51154_W_tif
  70
32
  10
463352.323
  20
4607852.363
  30
850.403
  0
VERTEX
  8
PNOA-H_AMS_1956-57_33k_ES_PAN_21mic_H50_0376_fot_39C-51154_W_tif
  70
32
  10
463353.568
  20
4607852.155
  30
850.374
  0
VERTEX
  8
PNOA-H_AMS_1956-57_33k_ES_PAN_21mic_H50_0376_fot_39C-51154_W_tif
  70
32
  10
463354.500
  20
4607852.000
  30
850.353
  0
VERTEX
  8
PNOA-H_AMS_1956-57_33k_ES_PAN_21mic_H50_0376_fot_39C-51154_W_tif
  70
32
  10
464328.899
  20
4607261.077
  30
848.853
  0
VERTEX
  8
PNOA-H_AMS_1956-57_33k_ES_PAN_21mic_H50_0376_fot_39C-51154_W_tif
  70
32
  10
464331.500
  20
4607259.500
  30
848.849
  0
VERTEX
  8
PNOA-H_AMS_1956-57_33k_ES_PAN_21mic_H50_0376_fot_39C-51154_W_tif
  70
32
  10
464183.500
  20
4603456.500
  30
913.876
  0
SEQEND
  8
PNOA-H_AMS_1956-57_33k_ES_PAN_21mic_H50_0376_fot_39C-51154_W_tif
  0
INSERT
  8
FeatureAttribs
  2
FEATURE
  41
1
  42
1
  43
1
  50
0
  10
459938.756
  20
4605608.000
 66
1
  0
ATTRIB
  8
FeatureAttribs
 70
0
  1
PNOA-H_AMS_1956-57_33k_ES_PAN_21mic_H50_0376_fot_39C-51155_W.tif
  2
NAME
  10
459938.756
  20
4605608.000
 40
33.50906
  0
SEQEND
  0
POLYLINE
  8
PNOA-H_AMS_1956-57_33k_ES_PAN_21mic_H50_0376_fot_39C-51155_W_tif
  70
9
  66
1
  0
VERTEX
  8
PNOA-H_AMS_1956-57_33k_ES_PAN_21mic_H50_0376_fot_39C-51155_W_tif
  70
32
  10
458871.952
  20
4603305.526
  30
1024.471
  0
VERTEX
  8
PNOA-H_AMS_1956-57_33k_ES_PAN_21mic_H50_0376_fot_39C-51155_W_tif
  70
32
  10
458871.500
  20
4603305.500
  30
1024.476
  0
VERTEX
  8
PNOA-H_AMS_1956-57_33k_ES_PAN_21mic_H50_0376_fot_39C-51155_W_tif
  70
32
  10
458612.500
  20
4603444.500
  30
1024.687
  0
VERTEX
  8
PNOA-H_AMS_1956-57_33k_ES_PAN_21mic_H50_0376_fot_39C-51155_W_tif
  70
32
  10
458602.000
  20
4607470.500
  30
913.245
  0
VERTEX
  8
PNOA-H_AMS_1956-57_33k_ES_PAN_21mic_H50_0376_fot_39C-51155_W_tif
  70
32
  10
458875.142
  20
4607539.066
  30
881.044
  0
VERTEX
  8
PNOA-H_AMS_1956-57_33k_ES_PAN_21mic_H50_0376_fot_39C-51155_W_tif
  70
32
  10
459209.500
  20
4607623.000
  30
841.626
  0
VERTEX
  8
PNOA-H_AMS_1956-57_33k_ES_PAN_21mic_H50_0376_fot_39C-51155_W_tif
  70
32
  10
459211.500
  20
4607623.500
  30
841.563
  0
VERTEX
  8
PNOA-H_AMS_1956-57_33k_ES_PAN_21mic_H50_0376_fot_39C-51155_W_tif
  70
32
  10
460355.508
  20
4607910.377
  30
852.362
  0
VERTEX
  8
PNOA-H_AMS_1956-57_33k_ES_PAN_21mic_H50_0376_fot_39C-51155_W_tif
  70
32
  10
460356.000
  20
4607910.500
  30
852.367
  0
VERTEX
  8
PNOA-H_AMS_1956-57_33k_ES_PAN_21mic_H50_0376_fot_39C-51155_W_tif
  70
32
  10
460356.010
  20
4607910.495
  30
852.366
  0
VERTEX
  8
PNOA-H_AMS_1956-57_33k_ES_PAN_21mic_H50_0376_fot_39C-51155_W_tif
  70
32
  10
460986.778
  20
4607594.778
  30
835.544
  0
VERTEX
  8
PNOA-H_AMS_1956-57_33k_ES_PAN_21mic_H50_0376_fot_39C-51155_W_tif
  70
32
  10
461302.000
  20
4607437.000
  30
827.137
  0
VERTEX
  8
PNOA-H_AMS_1956-57_33k_ES_PAN_21mic_H50_0376_fot_39C-51155_W_tif
  70
32
  10
461233.500
  20
4603440.000
  30
996.485
  0
VERTEX
  8
PNOA-H_AMS_1956-57_33k_ES_PAN_21mic_H50_0376_fot_39C-51155_W_tif
  70
32
  10
458871.952
  20
4603305.526
  30
1024.471
  0
SEQEND
  8
PNOA-H_AMS_1956-57_33k_ES_PAN_21mic_H50_0376_fot_39C-51155_W_tif
  0
INSERT
  8
FeatureAttribs
  2
FEATURE
  41
1
  42
1
  43
1
  50
0
  10
463107.896
  20
4600993.250
 66
1
  0
ATTRIB
  8
FeatureAttribs
 70
0
  1
PNOA-H_AMS_1956-57_33k_ES_PAN_21mic_H50_0376_fot_40B-38927_W.tif
  2
NAME
  10
463107.896
  20
4600993.250
 40
33.50906
  0
SEQEND
  0
POLYLINE
  8
PNOA-H_AMS_1956-57_33k_ES_PAN_21mic_H50_0376_fot_40B-38927_W_tif
  70
9
  66
1
  0
VERTEX
  8
PNOA-H_AMS_1956-57_33k_ES_PAN_21mic_H50_0376_fot_40B-38927_W_tif
  70
32
  10
464558.851
  20
4598882.430
  30
1003.875
  0
VERTEX
  8
PNOA-H_AMS_1956-57_33k_ES_PAN_21mic_H50_0376_fot_40B-38927_W_tif
  70
32
  10
463805.500
  20
4598530.000
  30
1034.123
  0
VERTEX
  8
PNOA-H_AMS_1956-57_33k_ES_PAN_21mic_H50_0376_fot_40B-38927_W_tif
  70
32
  10
463804.746
  20
4598530.115
  30
1034.114
  0
VERTEX
  8
PNOA-H_AMS_1956-57_33k_ES_PAN_21mic_H50_0376_fot_40B-38927_W_tif
  70
32
  10
463254.000
  20
4598614.125
  30
1026.88
  0
VERTEX
  8
PNOA-H_AMS_1956-57_33k_ES_PAN_21mic_H50_0376_fot_40B-38927_W_tif
  70
32
  10
461599.500
  20
4598866.500
  30
1005.15
  0
VERTEX
  8
PNOA-H_AMS_1956-57_33k_ES_PAN_21mic_H50_0376_fot_40B-38927_W_tif
  70
32
  10
461605.500
  20
4599354.799
  30
1007.486
  0
VERTEX
  8
PNOA-H_AMS_1956-57_33k_ES_PAN_21mic_H50_0376_fot_40B-38927_W_tif
  70
32
  10
461653.000
  20
4603220.500
  30
1025.984
  0
VERTEX
  8
PNOA-H_AMS_1956-57_33k_ES_PAN_21mic_H50_0376_fot_40B-38927_W_tif
  70
32
  10
464174.000
  20
4603456.000
  30
913.715
  0
VERTEX
  8
PNOA-H_AMS_1956-57_33k_ES_PAN_21mic_H50_0376_fot_40B-38927_W_tif
  70
32
  10
464179.500
  20
4603456.500
  30
913.783
  0
VERTEX
  8
PNOA-H_AMS_1956-57_33k_ES_PAN_21mic_H50_0376_fot_40B-38927_W_tif
  70
32
  10
464183.500
  20
4603456.500
  30
913.886
  0
VERTEX
  8
PNOA-H_AMS_1956-57_33k_ES_PAN_21mic_H50_0376_fot_40B-38927_W_tif
  70
32
  10
464184.500
  20
4603456.500
  30
913.912
  0
VERTEX
  8
PNOA-H_AMS_1956-57_33k_ES_PAN_21mic_H50_0376_fot_40B-38927_W_tif
  70
32
  10
464622.500
  20
4603184.000
  30
911.34
  0
VERTEX
  8
PNOA-H_AMS_1956-57_33k_ES_PAN_21mic_H50_0376_fot_40B-38927_W_tif
  70
32
  10
464622.493
  20
4603183.505
  30
911.35
  0
VERTEX
  8
PNOA-H_AMS_1956-57_33k_ES_PAN_21mic_H50_0376_fot_40B-38927_W_tif
  70
32
  10
464559.000
  20
4598882.500
  30
1003.869
  0
VERTEX
  8
PNOA-H_AMS_1956-57_33k_ES_PAN_21mic_H50_0376_fot_40B-38927_W_tif
  70
32
  10
464558.851
  20
4598882.430
  30
1003.875
  0
SEQEND
  8
PNOA-H_AMS_1956-57_33k_ES_PAN_21mic_H50_0376_fot_40B-38927_W_tif
  0
INSERT
  8
FeatureAttribs
  2
FEATURE
  41
1
  42
1
  43
1
  50
0
  10
460217.231
  20
4601012.250
 66
1
  0
ATTRIB
  8
FeatureAttribs
 70
0
  1
PNOA-H_AMS_1956-57_33k_ES_PAN_21mic_H50_0376_fot_40B-38928_W.tif
  2
NAME
  10
460217.231
  20
4601012.250
 40
33.50906
  0
SEQEND
  0
POLYLINE
  8
PNOA-H_AMS_1956-57_33k_ES_PAN_21mic_H50_0376_fot_40B-38928_W_tif
  70
9
  66
1
  0
VERTEX
  8
PNOA-H_AMS_1956-57_33k_ES_PAN_21mic_H50_0376_fot_40B-38928_W_tif
  70
32
  10
461599.500
  20
4598866.500
  30
1005.15
  0
VERTEX
  8
PNOA-H_AMS_1956-57_33k_ES_PAN_21mic_H50_0376_fot_40B-38928_W_tif
  70
32
  10
461004.000
  20
4598584.500
  30
1031.807
  0
VERTEX
  8
PNOA-H_AMS_1956-57_33k_ES_PAN_21mic_H50_0376_fot_40B-38928_W_tif
  70
32
  10
461003.605
  20
4598584.550
  30
1031.806
  0
VERTEX
  8
PNOA-H_AMS_1956-57_33k_ES_PAN_21mic_H50_0376_fot_40B-38928_W_tif
  70
32
  10
460519.905
  20
4598645.911
  30
1030.422
  0
VERTEX
  8
PNOA-H_AMS_1956-57_33k_ES_PAN_21mic_H50_0376_fot_40B-38928_W_tif
  70
32
  10
459210.648
  20
4598812.000
  30
1026.676
  0
VERTEX
  8
PNOA-H_AMS_1956-57_33k_ES_PAN_21mic_H50_0376_fot_40B-38928_W_tif
  70
32
  10
458749.500
  20
4598870.500
  30
1025.357
  0
VERTEX
  8
PNOA-H_AMS_1956-57_33k_ES_PAN_21mic_H50_0376_fot_40B-38928_W_tif
  70
32
  10
458872.000
  20
4603305.500
  30
1024.471
  0
VERTEX
  8
PNOA-H_AMS_1956-57_33k_ES_PAN_21mic_H50_0376_fot_40B-38928_W_tif
  70
32
  10
461233.500
  20
4603440.000
  30
996.485
  0
VERTEX
  8
PNOA-H_AMS_1956-57_33k_ES_PAN_21mic_H50_0376_fot_40B-38928_W_tif
  70
32
  10
461233.508
  20
4603439.996
  30
996.486
  0
VERTEX
  8
PNOA-H_AMS_1956-57_33k_ES_PAN_21mic_H50_0376_fot_40B-38928_W_tif
  70
32
  10
461653.000
  20
4603220.500
  30
1025.984
  0
VERTEX
  8
PNOA-H_AMS_1956-57_33k_ES_PAN_21mic_H50_0376_fot_40B-38928_W_tif
  70
32
  10
461605.500
  20
4599363.500
  30
1030.737
  0
VERTEX
  8
PNOA-H_AMS_1956-57_33k_ES_PAN_21mic_H50_0376_fot_40B-38928_W_tif
  70
32
  10
461605.500
  20
4599354.799
  30
1007.486
  0
VERTEX
  8
PNOA-H_AMS_1956-57_33k_ES_PAN_21mic_H50_0376_fot_40B-38928_W_tif
  70
32
  10
461605.500
  20
4599333.000
  30
1030.821
  0
VERTEX
  8
PNOA-H_AMS_1956-57_33k_ES_PAN_21mic_H50_0376_fot_40B-38928_W_tif
  70
32
  10
461599.500
  20
4598866.500
  30
1005.15
  0
SEQEND
  8
PNOA-H_AMS_1956-57_33k_ES_PAN_21mic_H50_0376_fot_40B-38928_W_tif
  0
INSERT
  8
FeatureAttribs
  2
FEATURE
  41
1
  42
1
  43
1
  50
0
  10
459667.191
  20
4596620.219
 66
1
  0
ATTRIB
  8
FeatureAttribs
 70
0
  1
PNOA-H_AMS_1956-57_33k_ES_PAN_21mic_H50_0376_fot_41B-37415_W.tif
  2
NAME
  10
459667.191
  20
4596620.219
 40
33.50906
  0
SEQEND
  0
POLYLINE
  8
PNOA-H_AMS_1956-57_33k_ES_PAN_21mic_H50_0376_fot_41B-37415_W_tif
  70
9
  66
1
  0
VERTEX
  8
PNOA-H_AMS_1956-57_33k_ES_PAN_21mic_H50_0376_fot_41B-37415_W_tif
  70
32
  10
458749.420
  20
4598870.447
  30
1025.357
  0
VERTEX
  8
PNOA-H_AMS_1956-57_33k_ES_PAN_21mic_H50_0376_fot_41B-37415_W_tif
  70
32
  10
459209.500
  20
4598812.000
  30
1028.224
  0
VERTEX
  8
PNOA-H_AMS_1956-57_33k_ES_PAN_21mic_H50_0376_fot_41B-37415_W_tif
  70
32
  10
459210.648
  20
4598812.000
  30
1028.23
  0
VERTEX
  8
PNOA-H_AMS_1956-57_33k_ES_PAN_21mic_H50_0376_fot_41B-37415_W_tif
  70
32
  10
459212.000
  20
4598812.000
  30
1028.236
  0
VERTEX
  8
PNOA-H_AMS_1956-57_33k_ES_PAN_21mic_H50_0376_fot_41B-37415_W_tif
  70
32
  10
460519.905
  20
4598645.911
  30
1030.845
  0
VERTEX
  8
PNOA-H_AMS_1956-57_33k_ES_PAN_21mic_H50_0376_fot_41B-37415_W_tif
  70
32
  10
461003.500
  20
4598584.500
  30
1031.81
  0
VERTEX
  8
PNOA-H_AMS_1956-57_33k_ES_PAN_21mic_H50_0376_fot_41B-37415_W_tif
  70
32
  10
460968.812
  20
4594369.937
  30
1041.361
  0
VERTEX
  8
PNOA-H_AMS_1956-57_33k_ES_PAN_21mic_H50_0376_fot_41B-37415_W_tif
  70
32
  10
460007.365
  20
4594375.033
  30
0
  0
VERTEX
  8
PNOA-H_AMS_1956-57_33k_ES_PAN_21mic_H50_0376_fot_41B-37415_W_tif
  70
32
  10
458330.899
  20
4594384.728
  30
934.558
  0
VERTEX
  8
PNOA-H_AMS_1956-57_33k_ES_PAN_21mic_H50_0376_fot_41B-37415_W_tif
  70
32
  10
458362.000
  20
4598690.000
  30
1016.183
  0
VERTEX
  8
PNOA-H_AMS_1956-57_33k_ES_PAN_21mic_H50_0376_fot_41B-37415_W_tif
  70
32
  10
458362.069
  20
4598690.032
  30
1016.184
  0
VERTEX
  8
PNOA-H_AMS_1956-57_33k_ES_PAN_21mic_H50_0376_fot_41B-37415_W_tif
  70
32
  10
458749.000
  20
4598870.500
  30
1025.354
  0
VERTEX
  8
PNOA-H_AMS_1956-57_33k_ES_PAN_21mic_H50_0376_fot_41B-37415_W_tif
  70
32
  10
458749.420
  20
4598870.447
  30
1025.357
  0
SEQEND
  8
PNOA-H_AMS_1956-57_33k_ES_PAN_21mic_H50_0376_fot_41B-37415_W_tif
  0
INSERT
  8
FeatureAttribs
  2
FEATURE
  41
1
  42
1
  43
1
  50
0
  10
462388.837
  20
4596610.854
 66
1
  0
ATTRIB
  8
FeatureAttribs
 70
0
  1
PNOA-H_AMS_1956-57_33k_ES_PAN_21mic_H50_0376_fot_41B-37414_W.tif
  2
NAME
  10
462388.837
  20
4596610.854
 40
33.50906
  0
SEQEND
  0
POLYLINE
  8
PNOA-H_AMS_1956-57_33k_ES_PAN_21mic_H50_0376_fot_41B-37414_W_tif
  70
9
  66
1
  0
VERTEX
  8
PNOA-H_AMS_1956-57_33k_ES_PAN_21mic_H50_0376_fot_41B-37414_W_tif
  70
32
  10
463804.500
  20
4598530.000
  30
1034.126
  0
VERTEX
  8
PNOA-H_AMS_1956-57_33k_ES_PAN_21mic_H50_0376_fot_41B-37414_W_tif
  70
32
  10
463773.865
  20
4594355.208
  30
1051.239
  0
VERTEX
  8
PNOA-H_AMS_1956-57_33k_ES_PAN_21mic_H50_0376_fot_41B-37414_W_tif
  70
32
  10
463484.994
  20
4594356.600
  30
0
  0
VERTEX
  8
PNOA-H_AMS_1956-57_33k_ES_PAN_21mic_H50_0376_fot_41B-37414_W_tif
  70
32
  10
460968.812
  20
4594369.937
  30
1041.361
  0
VERTEX
  8
PNOA-H_AMS_1956-57_33k_ES_PAN_21mic_H50_0376_fot_41B-37414_W_tif
  70
32
  10
461003.500
  20
4598584.500
  30
1031.81
  0
VERTEX
  8
PNOA-H_AMS_1956-57_33k_ES_PAN_21mic_H50_0376_fot_41B-37414_W_tif
  70
32
  10
461003.605
  20
4598584.550
  30
1031.809
  0
VERTEX
  8
PNOA-H_AMS_1956-57_33k_ES_PAN_21mic_H50_0376_fot_41B-37414_W_tif
  70
32
  10
461258.500
  20
4598705.500
  30
1031.481
  0
VERTEX
  8
PNOA-H_AMS_1956-57_33k_ES_PAN_21mic_H50_0376_fot_41B-37414_W_tif
  70
32
  10
461259.500
  20
4598706.000
  30
1031.478
  0
VERTEX
  8
PNOA-H_AMS_1956-57_33k_ES_PAN_21mic_H50_0376_fot_41B-37414_W_tif
  70
32
  10
461598.500
  20
4598866.500
  30
1004.776
  0
VERTEX
  8
PNOA-H_AMS_1956-57_33k_ES_PAN_21mic_H50_0376_fot_41B-37414_W_tif
  70
32
  10
461599.500
  20
4598866.500
  30
1005.15
  0
VERTEX
  8
PNOA-H_AMS_1956-57_33k_ES_PAN_21mic_H50_0376_fot_41B-37414_W_tif
  70
32
  10
461602.500
  20
4598866.500
  30
1006.27
  0
VERTEX
  8
PNOA-H_AMS_1956-57_33k_ES_PAN_21mic_H50_0376_fot_41B-37414_W_tif
  70
32
  10
463254.000
  20
4598614.125
  30
1027.162
  0
VERTEX
  8
PNOA-H_AMS_1956-57_33k_ES_PAN_21mic_H50_0376_fot_41B-37414_W_tif
  70
32
  10
463804.500
  20
4598530.000
  30
1034.126
  0
SEQEND
  8
PNOA-H_AMS_1956-57_33k_ES_PAN_21mic_H50_0376_fot_41B-37414_W_tif
  0
INSERT
  8
FeatureAttribs
  2
FEATURE
  41
1
  42
1
  43
1
  50
0
  10
467797.140
  20
4609741.250
 66
1
  0
ATTRIB
  8
FeatureAttribs
 70
0
  1
PNOA-H_AMS_1956-57_33k_ES_PAN_21mic_H50_0376_fot_38C-40559_E.tif
  2
NAME
  10
467797.140
  20
4609741.250
 40
33.50906
  0
SEQEND
  0
POLYLINE
  8
PNOA-H_AMS_1956-57_33k_ES_PAN_21mic_H50_0376_fot_38C-40559_E_tif
  70
9
  66
1
  0
VERTEX
  8
PNOA-H_AMS_1956-57_33k_ES_PAN_21mic_H50_0376_fot_38C-40559_E_tif
  70
32
  10
469217.043
  20
4607757.379
  30
933.688
  0
VERTEX
  8
PNOA-H_AMS_1956-57_33k_ES_PAN_21mic_H50_0376_fot_38C-40559_E_tif
  70
32
  10
467444.500
  20
4607289.500
  30
871.749
  0
VERTEX
  8
PNOA-H_AMS_1956-57_33k_ES_PAN_21mic_H50_0376_fot_38C-40559_E_tif
  70
32
  10
467444.321
  20
4607289.585
  30
871.756
  0
VERTEX
  8
PNOA-H_AMS_1956-57_33k_ES_PAN_21mic_H50_0376_fot_38C-40559_E_tif
  70
32
  10
467444.000
  20
4607289.736
  30
871.769
  0
VERTEX
  8
PNOA-H_AMS_1956-57_33k_ES_PAN_21mic_H50_0376_fot_38C-40559_E_tif
  70
32
  10
467415.857
  20
4607303.016
  30
872.941
  0
VERTEX
  8
PNOA-H_AMS_1956-57_33k_ES_PAN_21mic_H50_0376_fot_38C-40559_E_tif
  70
32
  10
466977.995
  20
4607509.636
  30
891.163
  0
VERTEX
  8
PNOA-H_AMS_1956-57_33k_ES_PAN_21mic_H50_0376_fot_38C-40559_E_tif
  70
32
  10
466423.335
  20
4607771.370
  30
914.246
  0
VERTEX
  8
PNOA-H_AMS_1956-57_33k_ES_PAN_21mic_H50_0376_fot_38C-40559_E_tif
  70
32
  10
466422.000
  20
4607772.000
  30
914.302
  0
VERTEX
  8
PNOA-H_AMS_1956-57_33k_ES_PAN_21mic_H50_0376_fot_38C-40559_E_tif
  70
32
  10
466309.500
  20
4611951.500
  30
957.225
  0
VERTEX
  8
PNOA-H_AMS_1956-57_33k_ES_PAN_21mic_H50_0376_fot_38C-40559_E_tif
  70
32
  10
466309.500
  20
4611954.500
  30
957.145
  0
VERTEX
  8
PNOA-H_AMS_1956-57_33k_ES_PAN_21mic_H50_0376_fot_38C-40559_E_tif
  70
32
  10
466311.500
  20
4611955.000
  30
957.083
  0
VERTEX
  8
PNOA-H_AMS_1956-57_33k_ES_PAN_21mic_H50_0376_fot_38C-40559_E_tif
  70
32
  10
467398.500
  20
4612059.000
  30
932.618
  0
VERTEX
  8
PNOA-H_AMS_1956-57_33k_ES_PAN_21mic_H50_0376_fot_38C-40559_E_tif
  70
32
  10
467403.500
  20
4612059.500
  30
932.347
  0
VERTEX
  8
PNOA-H_AMS_1956-57_33k_ES_PAN_21mic_H50_0376_fot_38C-40559_E_tif
  70
32
  10
468798.515
  20
4612192.954
  30
984.501
  0
VERTEX
  8
PNOA-H_AMS_1956-57_33k_ES_PAN_21mic_H50_0376_fot_38C-40559_E_tif
  70
32
  10
468799.000
  20
4612193.000
  30
984.519
  0
VERTEX
  8
PNOA-H_AMS_1956-57_33k_ES_PAN_21mic_H50_0376_fot_38C-40559_E_tif
  70
32
  10
468799.016
  20
4612192.992
  30
984.517
  0
VERTEX
  8
PNOA-H_AMS_1956-57_33k_ES_PAN_21mic_H50_0376_fot_38C-40559_E_tif
  70
32
  10
469233.961
  20
4611961.021
  30
930.674
  0
VERTEX
  8
PNOA-H_AMS_1956-57_33k_ES_PAN_21mic_H50_0376_fot_38C-40559_E_tif
  70
32
  10
469234.000
  20
4611961.000
  30
930.669
  0
VERTEX
  8
PNOA-H_AMS_1956-57_33k_ES_PAN_21mic_H50_0376_fot_38C-40559_E_tif
  70
32
  10
469217.500
  20
4607757.500
  30
933.704
  0
VERTEX
  8
PNOA-H_AMS_1956-57_33k_ES_PAN_21mic_H50_0376_fot_38C-40559_E_tif
  70
32
  10
469217.043
  20
4607757.379
  30
933.688
  0
SEQEND
  8
PNOA-H_AMS_1956-57_33k_ES_PAN_21mic_H50_0376_fot_38C-40559_E_tif
  0
INSERT
  8
FeatureAttribs
  2
FEATURE
  41
1
  42
1
  43
1
  50
0
  10
470645.786
  20
4609660.500
 66
1
  0
ATTRIB
  8
FeatureAttribs
 70
0
  1
PNOA-H_AMS_1956-57_33k_ES_PAN_21mic_H50_0376_fot_38C-40560_E.tif
  2
NAME
  10
470645.786
  20
4609660.500
 40
33.50906
  0
SEQEND
  0
POLYLINE
  8
PNOA-H_AMS_1956-57_33k_ES_PAN_21mic_H50_0376_fot_38C-40560_E_tif
  70
9
  66
1
  0
VERTEX
  8
PNOA-H_AMS_1956-57_33k_ES_PAN_21mic_H50_0376_fot_38C-40560_E_tif
  70
32
  10
472022.510
  20
4607714.633
  30
882.496
  0
VERTEX
  8
PNOA-H_AMS_1956-57_33k_ES_PAN_21mic_H50_0376_fot_38C-40560_E_tif
  70
32
  10
470410.500
  20
4607247.000
  30
934.561
  0
VERTEX
  8
PNOA-H_AMS_1956-57_33k_ES_PAN_21mic_H50_0376_fot_38C-40560_E_tif
  70
32
  10
470409.612
  20
4607247.178
  30
934.222
  0
VERTEX
  8
PNOA-H_AMS_1956-57_33k_ES_PAN_21mic_H50_0376_fot_38C-40560_E_tif
  70
32
  10
470407.687
  20
4607247.563
  30
933.488
  0
VERTEX
  8
PNOA-H_AMS_1956-57_33k_ES_PAN_21mic_H50_0376_fot_38C-40560_E_tif
  70
32
  10
470405.500
  20
4607248.000
  30
932.653
  0
VERTEX
  8
PNOA-H_AMS_1956-57_33k_ES_PAN_21mic_H50_0376_fot_38C-40560_E_tif
  70
32
  10
469451.262
  20
4607657.246
  30
933.497
  0
VERTEX
  8
PNOA-H_AMS_1956-57_33k_ES_PAN_21mic_H50_0376_fot_38C-40560_E_tif
  70
32
  10
469421.381
  20
4607670.061
  30
933.523
  0
VERTEX
  8
PNOA-H_AMS_1956-57_33k_ES_PAN_21mic_H50_0376_fot_38C-40560_E_tif
  70
32
  10
469218.575
  20
4607757.039
  30
933.703
  0
VERTEX
  8
PNOA-H_AMS_1956-57_33k_ES_PAN_21mic_H50_0376_fot_38C-40560_E_tif
  70
32
  10
469217.500
  20
4607757.500
  30
933.704
  0
VERTEX
  8
PNOA-H_AMS_1956-57_33k_ES_PAN_21mic_H50_0376_fot_38C-40560_E_tif
  70
32
  10
469234.000
  20
4611961.000
  30
930.669
  0
VERTEX
  8
PNOA-H_AMS_1956-57_33k_ES_PAN_21mic_H50_0376_fot_38C-40560_E_tif
  70
32
  10
469251.729
  20
4611961.834
  30
929.932
  0
VERTEX
  8
PNOA-H_AMS_1956-57_33k_ES_PAN_21mic_H50_0376_fot_38C-40560_E_tif
  70
32
  10
469436.000
  20
4611970.500
  30
922.279
  0
VERTEX
  8
PNOA-H_AMS_1956-57_33k_ES_PAN_21mic_H50_0376_fot_38C-40560_E_tif
  70
32
  10
469447.000
  20
4611971.000
  30
922.031
  0
VERTEX
  8
PNOA-H_AMS_1956-57_33k_ES_PAN_21mic_H50_0376_fot_38C-40560_E_tif
  70
32
  10
471336.547
  20
4612057.193
  30
969.718
  0
VERTEX
  8
PNOA-H_AMS_1956-57_33k_ES_PAN_21mic_H50_0376_fot_38C-40560_E_tif
  70
32
  10
471704.079
  20
4612073.958
  30
978.994
  0
VERTEX
  8
PNOA-H_AMS_1956-57_33k_ES_PAN_21mic_H50_0376_fot_38C-40560_E_tif
  70
32
  10
471705.000
  20
4612074.000
  30
979.017
  0
VERTEX
  8
PNOA-H_AMS_1956-57_33k_ES_PAN_21mic_H50_0376_fot_38C-40560_E_tif
  70
32
  10
472112.900
  20
4611856.053
  30
954.917
  0
VERTEX
  8
PNOA-H_AMS_1956-57_33k_ES_PAN_21mic_H50_0376_fot_38C-40560_E_tif
  70
32
  10
472113.000
  20
4611856.000
  30
954.911
  0
VERTEX
  8
PNOA-H_AMS_1956-57_33k_ES_PAN_21mic_H50_0376_fot_38C-40560_E_tif
  70
32
  10
472025.500
  20
4607715.500
  30
882.399
  0
VERTEX
  8
PNOA-H_AMS_1956-57_33k_ES_PAN_21mic_H50_0376_fot_38C-40560_E_tif
  70
32
  10
472022.510
  20
4607714.633
  30
882.496
  0
SEQEND
  8
PNOA-H_AMS_1956-57_33k_ES_PAN_21mic_H50_0376_fot_38C-40560_E_tif
  0
INSERT
  8
FeatureAttribs
  2
FEATURE
  41
1
  42
1
  43
1
  50
0
  10
471771.439
  20
4605428.750
 66
1
  0
ATTRIB
  8
FeatureAttribs
 70
0
  1
PNOA-H_AMS_1956-57_33k_ES_PAN_21mic_H50_0376_fot_39C-51151_W.tif
  2
NAME
  10
471771.439
  20
4605428.750
 40
33.50906
  0
SEQEND
  0
POLYLINE
  8
PNOA-H_AMS_1956-57_33k_ES_PAN_21mic_H50_0376_fot_39C-51151_W_tif
  70
9
  66
1
  0
VERTEX
  8
PNOA-H_AMS_1956-57_33k_ES_PAN_21mic_H50_0376_fot_39C-51151_W_tif
  70
32
  10
473209.500
  20
4603142.004
  30
842.676
  0
VERTEX
  8
PNOA-H_AMS_1956-57_33k_ES_PAN_21mic_H50_0376_fot_39C-51151_W_tif
  70
32
  10
473209.500
  20
4603142.000
  30
842.675
  0
VERTEX
  8
PNOA-H_AMS_1956-57_33k_ES_PAN_21mic_H50_0376_fot_39C-51151_W_tif
  70
32
  10
473119.222
  20
4603142.690
  30
843.474
  0
VERTEX
  8
PNOA-H_AMS_1956-57_33k_ES_PAN_21mic_H50_0376_fot_39C-51151_W_tif
  70
32
  10
470408.027
  20
4603163.416
  30
867.466
  0
VERTEX
  8
PNOA-H_AMS_1956-57_33k_ES_PAN_21mic_H50_0376_fot_39C-51151_W_tif
  70
32
  10
470397.500
  20
4603163.496
  30
867.559
  0
VERTEX
  8
PNOA-H_AMS_1956-57_33k_ES_PAN_21mic_H50_0376_fot_39C-51151_W_tif
  70
32
  10
470397.000
  20
4603163.500
  30
867.563
  0
VERTEX
  8
PNOA-H_AMS_1956-57_33k_ES_PAN_21mic_H50_0376_fot_39C-51151_W_tif
  70
32
  10
470317.500
  20
4603213.500
  30
880.51
  0
VERTEX
  8
PNOA-H_AMS_1956-57_33k_ES_PAN_21mic_H50_0376_fot_39C-51151_W_tif
  70
32
  10
470409.000
  20
4607247.000
  30
933.938
  0
VERTEX
  8
PNOA-H_AMS_1956-57_33k_ES_PAN_21mic_H50_0376_fot_39C-51151_W_tif
  70
32
  10
470409.612
  20
4607247.178
  30
933.919
  0
VERTEX
  8
PNOA-H_AMS_1956-57_33k_ES_PAN_21mic_H50_0376_fot_39C-51151_W_tif
  70
32
  10
471496.500
  20
4607562.500
  30
899.131
  0
VERTEX
  8
PNOA-H_AMS_1956-57_33k_ES_PAN_21mic_H50_0376_fot_39C-51151_W_tif
  70
32
  10
471498.000
  20
4607563.000
  30
899.108
  0
VERTEX
  8
PNOA-H_AMS_1956-57_33k_ES_PAN_21mic_H50_0376_fot_39C-51151_W_tif
  70
32
  10
472015.000
  20
4607713.000
  30
882.941
  0
VERTEX
  8
PNOA-H_AMS_1956-57_33k_ES_PAN_21mic_H50_0376_fot_39C-51151_W_tif
  70
32
  10
472022.510
  20
4607714.633
  30
882.572
  0
VERTEX
  8
PNOA-H_AMS_1956-57_33k_ES_PAN_21mic_H50_0376_fot_39C-51151_W_tif
  70
32
  10
472025.852
  20
4607715.359
  30
882.408
  0
VERTEX
  8
PNOA-H_AMS_1956-57_33k_ES_PAN_21mic_H50_0376_fot_39C-51151_W_tif
  70
32
  10
472026.500
  20
4607715.500
  30
882.376
  0
VERTEX
  8
PNOA-H_AMS_1956-57_33k_ES_PAN_21mic_H50_0376_fot_39C-51151_W_tif
  70
32
  10
472587.000
  20
4607491.000
  30
911.392
  0
VERTEX
  8
PNOA-H_AMS_1956-57_33k_ES_PAN_21mic_H50_0376_fot_39C-51151_W_tif
  70
32
  10
473147.500
  20
4607266.500
  30
940.409
  0
VERTEX
  8
PNOA-H_AMS_1956-57_33k_ES_PAN_21mic_H50_0376_fot_39C-51151_W_tif
  70
32
  10
473209.500
  20
4603142.004
  30
842.676
  0
SEQEND
  8
PNOA-H_AMS_1956-57_33k_ES_PAN_21mic_H50_0376_fot_39C-51151_W_tif
  0
INSERT
  8
FeatureAttribs
  2
FEATURE
  41
1
  42
1
  43
1
  50
0
  10
465830.218
  20
4605477.750
 66
1
  0
ATTRIB
  8
FeatureAttribs
 70
0
  1
PNOA-H_AMS_1956-57_33k_ES_PAN_21mic_H50_0376_fot_39C-51153_W.tif
  2
NAME
  10
465830.218
  20
4605477.750
 40
33.50906
  0
SEQEND
  0
POLYLINE
  8
PNOA-H_AMS_1956-57_33k_ES_PAN_21mic_H50_0376_fot_39C-51153_W_tif
  70
9
  66
1
  0
VERTEX
  8
PNOA-H_AMS_1956-57_33k_ES_PAN_21mic_H50_0376_fot_39C-51153_W_tif
  70
32
  10
467228.813
  20
4603299.421
  30
893.407
  0
VERTEX
  8
PNOA-H_AMS_1956-57_33k_ES_PAN_21mic_H50_0376_fot_39C-51153_W_tif
  70
32
  10
464622.500
  20
4603183.500
  30
911.352
  0
VERTEX
  8
PNOA-H_AMS_1956-57_33k_ES_PAN_21mic_H50_0376_fot_39C-51153_W_tif
  70
32
  10
464622.493
  20
4603183.505
  30
911.352
  0
VERTEX
  8
PNOA-H_AMS_1956-57_33k_ES_PAN_21mic_H50_0376_fot_39C-51153_W_tif
  70
32
  10
464183.500
  20
4603456.500
  30
913.876
  0
VERTEX
  8
PNOA-H_AMS_1956-57_33k_ES_PAN_21mic_H50_0376_fot_39C-51153_W_tif
  70
32
  10
464331.500
  20
4607259.500
  30
848.849
  0
VERTEX
  8
PNOA-H_AMS_1956-57_33k_ES_PAN_21mic_H50_0376_fot_39C-51153_W_tif
  70
32
  10
464332.416
  20
4607259.725
  30
848.877
  0
VERTEX
  8
PNOA-H_AMS_1956-57_33k_ES_PAN_21mic_H50_0376_fot_39C-51153_W_tif
  70
32
  10
466420.500
  20
4607772.000
  30
913.788
  0
VERTEX
  8
PNOA-H_AMS_1956-57_33k_ES_PAN_21mic_H50_0376_fot_39C-51153_W_tif
  70
32
  10
466421.287
  20
4607771.825
  30
914.122
  0
VERTEX
  8
PNOA-H_AMS_1956-57_33k_ES_PAN_21mic_H50_0376_fot_39C-51153_W_tif
  70
32
  10
466423.335
  20
4607771.370
  30
914.99
  0
VERTEX
  8
PNOA-H_AMS_1956-57_33k_ES_PAN_21mic_H50_0376_fot_39C-51153_W_tif
  70
32
  10
466425.000
  20
4607771.000
  30
915.696
  0
VERTEX
  8
PNOA-H_AMS_1956-57_33k_ES_PAN_21mic_H50_0376_fot_39C-51153_W_tif
  70
32
  10
466977.995
  20
4607509.636
  30
891.091
  0
VERTEX
  8
PNOA-H_AMS_1956-57_33k_ES_PAN_21mic_H50_0376_fot_39C-51153_W_tif
  70
32
  10
467402.500
  20
4607309.000
  30
872.203
  0
VERTEX
  8
PNOA-H_AMS_1956-57_33k_ES_PAN_21mic_H50_0376_fot_39C-51153_W_tif
  70
32
  10
467404.000
  20
4607308.500
  30
872.235
  0
VERTEX
  8
PNOA-H_AMS_1956-57_33k_ES_PAN_21mic_H50_0376_fot_39C-51153_W_tif
  70
32
  10
467415.857
  20
4607303.016
  30
872.096
  0
VERTEX
  8
PNOA-H_AMS_1956-57_33k_ES_PAN_21mic_H50_0376_fot_39C-51153_W_tif
  70
32
  10
467444.000
  20
4607290.000
  30
871.766
  0
VERTEX
  8
PNOA-H_AMS_1956-57_33k_ES_PAN_21mic_H50_0376_fot_39C-51153_W_tif
  70
32
  10
467444.000
  20
4607289.736
  30
871.761
  0
VERTEX
  8
PNOA-H_AMS_1956-57_33k_ES_PAN_21mic_H50_0376_fot_39C-51153_W_tif
  70
32
  10
467444.000
  20
4607289.500
  30
871.758
  0
VERTEX
  8
PNOA-H_AMS_1956-57_33k_ES_PAN_21mic_H50_0376_fot_39C-51153_W_tif
  70
32
  10
467444.000
  20
4607275.500
  30
871.536
  0
VERTEX
  8
PNOA-H_AMS_1956-57_33k_ES_PAN_21mic_H50_0376_fot_39C-51153_W_tif
  70
32
  10
467343.000
  20
4603304.500
  30
892.621
  0
VERTEX
  8
PNOA-H_AMS_1956-57_33k_ES_PAN_21mic_H50_0376_fot_39C-51153_W_tif
  70
32
  10
467228.813
  20
4603299.421
  30
893.407
  0
SEQEND
  8
PNOA-H_AMS_1956-57_33k_ES_PAN_21mic_H50_0376_fot_39C-51153_W_tif
  0
INSERT
  8
FeatureAttribs
  2
FEATURE
  41
1
  42
1
  43
1
  50
0
  10
468882.848
  20
4605451.750
 66
1
  0
ATTRIB
  8
FeatureAttribs
 70
0
  1
PNOA-H_AMS_1956-57_33k_ES_PAN_21mic_H50_0376_fot_39C-51152_W.tif
  2
NAME
  10
468882.848
  20
4605451.750
 40
33.50906
  0
SEQEND
  0
POLYLINE
  8
PNOA-H_AMS_1956-57_33k_ES_PAN_21mic_H50_0376_fot_39C-51152_W_tif
  70
9
  66
1
  0
VERTEX
  8
PNOA-H_AMS_1956-57_33k_ES_PAN_21mic_H50_0376_fot_39C-51152_W_tif
  70
32
  10
467602.480
  20
4603146.012
  30
922.408
  0
VERTEX
  8
PNOA-H_AMS_1956-57_33k_ES_PAN_21mic_H50_0376_fot_39C-51152_W_tif
  70
32
  10
467602.000
  20
4603146.000
  30
922.415
  0
VERTEX
  8
PNOA-H_AMS_1956-57_33k_ES_PAN_21mic_H50_0376_fot_39C-51152_W_tif
  70
32
  10
467343.034
  20
4603304.479
  30
892.625
  0
VERTEX
  8
PNOA-H_AMS_1956-57_33k_ES_PAN_21mic_H50_0376_fot_39C-51152_W_tif
  70
32
  10
467343.000
  20
4603304.500
  30
892.621
  0
VERTEX
  8
PNOA-H_AMS_1956-57_33k_ES_PAN_21mic_H50_0376_fot_39C-51152_W_tif
  70
32
  10
467444.000
  20
4607289.500
  30
871.755
  0
VERTEX
  8
PNOA-H_AMS_1956-57_33k_ES_PAN_21mic_H50_0376_fot_39C-51152_W_tif
  70
32
  10
467444.321
  20
4607289.585
  30
871.766
  0
VERTEX
  8
PNOA-H_AMS_1956-57_33k_ES_PAN_21mic_H50_0376_fot_39C-51152_W_tif
  70
32
  10
469216.500
  20
4607757.500
  30
933.597
  0
VERTEX
  8
PNOA-H_AMS_1956-57_33k_ES_PAN_21mic_H50_0376_fot_39C-51152_W_tif
  70
32
  10
469217.043
  20
4607757.379
  30
933.589
  0
VERTEX
  8
PNOA-H_AMS_1956-57_33k_ES_PAN_21mic_H50_0376_fot_39C-51152_W_tif
  70
32
  10
469218.575
  20
4607757.039
  30
933.567
  0
VERTEX
  8
PNOA-H_AMS_1956-57_33k_ES_PAN_21mic_H50_0376_fot_39C-51152_W_tif
  70
32
  10
469221.000
  20
4607756.500
  30
933.532
  0
VERTEX
  8
PNOA-H_AMS_1956-57_33k_ES_PAN_21mic_H50_0376_fot_39C-51152_W_tif
  70
32
  10
469421.381
  20
4607670.061
  30
922.165
  0
VERTEX
  8
PNOA-H_AMS_1956-57_33k_ES_PAN_21mic_H50_0376_fot_39C-51152_W_tif
  70
32
  10
469450.500
  20
4607657.500
  30
920.513
  0
VERTEX
  8
PNOA-H_AMS_1956-57_33k_ES_PAN_21mic_H50_0376_fot_39C-51152_W_tif
  70
32
  10
469451.262
  20
4607657.246
  30
920.551
  0
VERTEX
  8
PNOA-H_AMS_1956-57_33k_ES_PAN_21mic_H50_0376_fot_39C-51152_W_tif
  70
32
  10
469452.000
  20
4607657.000
  30
920.588
  0
VERTEX
  8
PNOA-H_AMS_1956-57_33k_ES_PAN_21mic_H50_0376_fot_39C-51152_W_tif
  70
32
  10
470407.687
  20
4607247.563
  30
933.92
  0
VERTEX
  8
PNOA-H_AMS_1956-57_33k_ES_PAN_21mic_H50_0376_fot_39C-51152_W_tif
  70
32
  10
470409.000
  20
4607247.000
  30
933.938
  0
VERTEX
  8
PNOA-H_AMS_1956-57_33k_ES_PAN_21mic_H50_0376_fot_39C-51152_W_tif
  70
32
  10
470317.500
  20
4603213.500
  30
880.51
  0
VERTEX
  8
PNOA-H_AMS_1956-57_33k_ES_PAN_21mic_H50_0376_fot_39C-51152_W_tif
  70
32
  10
467706.592
  20
4603148.600
  30
920.801
  0
VERTEX
  8
PNOA-H_AMS_1956-57_33k_ES_PAN_21mic_H50_0376_fot_39C-51152_W_tif
  70
32
  10
467602.480
  20
4603146.012
  30
922.408
  0
SEQEND
  8
PNOA-H_AMS_1956-57_33k_ES_PAN_21mic_H50_0376_fot_39C-51152_W_tif
  0
INSERT
  8
FeatureAttribs
  2
FEATURE
  41
1
  42
1
  43
1
  50
0
  10
465239.602
  20
4596611.832
 66
1
  0
ATTRIB
  8
FeatureAttribs
 70
0
  1
PNOA-H_AMS_1956-57_33k_ES_PAN_21mic_H50_0376_fot_41B-37413_W.tif
  2
NAME
  10
465239.602
  20
4596611.832
 40
33.50906
  0
SEQEND
  0
POLYLINE
  8
PNOA-H_AMS_1956-57_33k_ES_PAN_21mic_H50_0376_fot_41B-37413_W_tif
  70
9
  66
1
  0
VERTEX
  8
PNOA-H_AMS_1956-57_33k_ES_PAN_21mic_H50_0376_fot_41B-37413_W_tif
  70
32
  10
465106.224
  20
4598773.505
  30
1005.24
  0
VERTEX
  8
PNOA-H_AMS_1956-57_33k_ES_PAN_21mic_H50_0376_fot_41B-37413_W_tif
  70
32
  10
465355.000
  20
4598724.000
  30
1005.779
  0
VERTEX
  8
PNOA-H_AMS_1956-57_33k_ES_PAN_21mic_H50_0376_fot_41B-37413_W_tif
  70
32
  10
465355.918
  20
4598724.000
  30
1005.724
  0
VERTEX
  8
PNOA-H_AMS_1956-57_33k_ES_PAN_21mic_H50_0376_fot_41B-37413_W_tif
  70
32
  10
465356.000
  20
4598724.000
  30
1005.719
  0
VERTEX
  8
PNOA-H_AMS_1956-57_33k_ES_PAN_21mic_H50_0376_fot_41B-37413_W_tif
  70
32
  10
465456.631
  20
4598704.032
  30
1004.46
  0
VERTEX
  8
PNOA-H_AMS_1956-57_33k_ES_PAN_21mic_H50_0376_fot_41B-37413_W_tif
  70
32
  10
466689.000
  20
4598459.500
  30
989.046
  0
VERTEX
  8
PNOA-H_AMS_1956-57_33k_ES_PAN_21mic_H50_0376_fot_41B-37413_W_tif
  70
32
  10
466688.009
  20
4594341.165
  30
1041.04
  0
VERTEX
  8
PNOA-H_AMS_1956-57_33k_ES_PAN_21mic_H50_0376_fot_41B-37413_W_tif
  70
32
  10
463774.355
  20
4594355.205
  30
1051.246
  0
VERTEX
  8
PNOA-H_AMS_1956-57_33k_ES_PAN_21mic_H50_0376_fot_41B-37413_W_tif
  70
32
  10
463804.500
  20
4598530.000
  30
1034.126
  0
VERTEX
  8
PNOA-H_AMS_1956-57_33k_ES_PAN_21mic_H50_0376_fot_41B-37413_W_tif
  70
32
  10
463804.746
  20
4598530.115
  30
1034.116
  0
VERTEX
  8
PNOA-H_AMS_1956-57_33k_ES_PAN_21mic_H50_0376_fot_41B-37413_W_tif
  70
32
  10
464558.500
  20
4598882.500
  30
1004.054
  0
VERTEX
  8
PNOA-H_AMS_1956-57_33k_ES_PAN_21mic_H50_0376_fot_41B-37413_W_tif
  70
32
  10
464558.851
  20
4598882.430
  30
1004.055
  0
VERTEX
  8
PNOA-H_AMS_1956-57_33k_ES_PAN_21mic_H50_0376_fot_41B-37413_W_tif
  70
32
  10
464559.006
  20
4598882.399
  30
1004.055
  0
VERTEX
  8
PNOA-H_AMS_1956-57_33k_ES_PAN_21mic_H50_0376_fot_41B-37413_W_tif
  70
32
  10
465106.224
  20
4598773.505
  30
1005.24
  0
SEQEND
  8
PNOA-H_AMS_1956-57_33k_ES_PAN_21mic_H50_0376_fot_41B-37413_W_tif
  0
INSERT
  8
FeatureAttribs
  2
FEATURE
  41
1
  42
1
  43
1
  50
0
  10
471832.601
  20
4600799.750
 66
1
  0
ATTRIB
  8
FeatureAttribs
 70
0
  1
PNOA-H_AMS_1956-57_33k_ES_PAN_21mic_H50_0376_fot_40B-38924_W.tif
  2
NAME
  10
471832.601
  20
4600799.750
 40
33.50906
  0
SEQEND
  0
POLYLINE
  8
PNOA-H_AMS_1956-57_33k_ES_PAN_21mic_H50_0376_fot_40B-38924_W_tif
  70
9
  66
1
  0
VERTEX
  8
PNOA-H_AMS_1956-57_33k_ES_PAN_21mic_H50_0376_fot_40B-38924_W_tif
  70
32
  10
470408.027
  20
4603163.416
  30
867.411
  0
VERTEX
  8
PNOA-H_AMS_1956-57_33k_ES_PAN_21mic_H50_0376_fot_40B-38924_W_tif
  70
32
  10
471459.000
  20
4603155.000
  30
849.203
  0
VERTEX
  8
PNOA-H_AMS_1956-57_33k_ES_PAN_21mic_H50_0376_fot_40B-38924_W_tif
  70
32
  10
471500.000
  20
4603155.000
  30
846.404
  0
VERTEX
  8
PNOA-H_AMS_1956-57_33k_ES_PAN_21mic_H50_0376_fot_40B-38924_W_tif
  70
32
  10
473119.222
  20
4603142.690
  30
842.868
  0
VERTEX
  8
PNOA-H_AMS_1956-57_33k_ES_PAN_21mic_H50_0376_fot_40B-38924_W_tif
  70
32
  10
473209.500
  20
4603142.004
  30
842.671
  0
VERTEX
  8
PNOA-H_AMS_1956-57_33k_ES_PAN_21mic_H50_0376_fot_40B-38924_W_tif
  70
32
  10
473210.000
  20
4603142.000
  30
842.67
  0
VERTEX
  8
PNOA-H_AMS_1956-57_33k_ES_PAN_21mic_H50_0376_fot_40B-38924_W_tif
  70
32
  10
473257.724
  20
4603113.464
  30
844.283
  0
VERTEX
  8
PNOA-H_AMS_1956-57_33k_ES_PAN_21mic_H50_0376_fot_40B-38924_W_tif
  70
32
  10
473258.500
  20
4603113.000
  30
844.309
  0
VERTEX
  8
PNOA-H_AMS_1956-57_33k_ES_PAN_21mic_H50_0376_fot_40B-38924_W_tif
  70
32
  10
473255.000
  20
4598768.500
  30
962.621
  0
VERTEX
  8
PNOA-H_AMS_1956-57_33k_ES_PAN_21mic_H50_0376_fot_40B-38924_W_tif
  70
32
  10
473254.879
  20
4598768.442
  30
962.625
  0
VERTEX
  8
PNOA-H_AMS_1956-57_33k_ES_PAN_21mic_H50_0376_fot_40B-38924_W_tif
  70
32
  10
472560.000
  20
4598436.000
  30
986.986
  0
VERTEX
  8
PNOA-H_AMS_1956-57_33k_ES_PAN_21mic_H50_0376_fot_40B-38924_W_tif
  70
32
  10
472559.627
  20
4598436.061
  30
986.983
  0
VERTEX
  8
PNOA-H_AMS_1956-57_33k_ES_PAN_21mic_H50_0376_fot_40B-38924_W_tif
  70
32
  10
471847.377
  20
4598551.943
  30
982.037
  0
VERTEX
  8
PNOA-H_AMS_1956-57_33k_ES_PAN_21mic_H50_0376_fot_40B-38924_W_tif
  70
32
  10
471499.756
  20
4598608.500
  30
979.624
  0
VERTEX
  8
PNOA-H_AMS_1956-57_33k_ES_PAN_21mic_H50_0376_fot_40B-38924_W_tif
  70
32
  10
470418.000
  20
4598784.500
  30
972.112
  0
VERTEX
  8
PNOA-H_AMS_1956-57_33k_ES_PAN_21mic_H50_0376_fot_40B-38924_W_tif
  70
32
  10
470397.500
  20
4603163.496
  30
867.506
  0
VERTEX
  8
PNOA-H_AMS_1956-57_33k_ES_PAN_21mic_H50_0376_fot_40B-38924_W_tif
  70
32
  10
470397.500
  20
4603163.500
  30
867.506
  0
VERTEX
  8
PNOA-H_AMS_1956-57_33k_ES_PAN_21mic_H50_0376_fot_40B-38924_W_tif
  70
32
  10
470408.027
  20
4603163.416
  30
867.411
  0
SEQEND
  8
PNOA-H_AMS_1956-57_33k_ES_PAN_21mic_H50_0376_fot_40B-38924_W_tif
  0
INSERT
  8
FeatureAttribs
  2
FEATURE
  41
1
  42
1
  43
1
  50
0
  10
468982.866
  20
4600824.500
 66
1
  0
ATTRIB
  8
FeatureAttribs
 70
0
  1
PNOA-H_AMS_1956-57_33k_ES_PAN_21mic_H50_0376_fot_40B-38925_W.tif
  2
NAME
  10
468982.866
  20
4600824.500
 40
33.50906
  0
SEQEND
  0
POLYLINE
  8
PNOA-H_AMS_1956-57_33k_ES_PAN_21mic_H50_0376_fot_40B-38925_W_tif
  70
9
  66
1
  0
VERTEX
  8
PNOA-H_AMS_1956-57_33k_ES_PAN_21mic_H50_0376_fot_40B-38925_W_tif
  70
32
  10
470305.500
  20
4603213.500
  30
881.909
  0
VERTEX
  8
PNOA-H_AMS_1956-57_33k_ES_PAN_21mic_H50_0376_fot_40B-38925_W_tif
  70
32
  10
470317.500
  20
4603213.500
  30
880.512
  0
VERTEX
  8
PNOA-H_AMS_1956-57_33k_ES_PAN_21mic_H50_0376_fot_40B-38925_W_tif
  70
32
  10
470318.000
  20
4603213.500
  30
880.453
  0
VERTEX
  8
PNOA-H_AMS_1956-57_33k_ES_PAN_21mic_H50_0376_fot_40B-38925_W_tif
  70
32
  10
470397.500
  20
4603163.500
  30
867.506
  0
VERTEX
  8
PNOA-H_AMS_1956-57_33k_ES_PAN_21mic_H50_0376_fot_40B-38925_W_tif
  70
32
  10
470397.500
  20
4603163.496
  30
867.506
  0
VERTEX
  8
PNOA-H_AMS_1956-57_33k_ES_PAN_21mic_H50_0376_fot_40B-38925_W_tif
  70
32
  10
470418.000
  20
4598784.500
  30
972.112
  0
VERTEX
  8
PNOA-H_AMS_1956-57_33k_ES_PAN_21mic_H50_0376_fot_40B-38925_W_tif
  70
32
  10
470417.737
  20
4598784.380
  30
972.099
  0
VERTEX
  8
PNOA-H_AMS_1956-57_33k_ES_PAN_21mic_H50_0376_fot_40B-38925_W_tif
  70
32
  10
469652.500
  20
4598435.500
  30
932.808
  0
VERTEX
  8
PNOA-H_AMS_1956-57_33k_ES_PAN_21mic_H50_0376_fot_40B-38925_W_tif
  70
32
  10
469652.123
  20
4598435.570
  30
932.807
  0
VERTEX
  8
PNOA-H_AMS_1956-57_33k_ES_PAN_21mic_H50_0376_fot_40B-38925_W_tif
  70
32
  10
469119.000
  20
4598535.000
  30
931.407
  0
VERTEX
  8
PNOA-H_AMS_1956-57_33k_ES_PAN_21mic_H50_0376_fot_40B-38925_W_tif
  70
32
  10
467519.316
  20
4598833.348
  30
927.206
  0
VERTEX
  8
PNOA-H_AMS_1956-57_33k_ES_PAN_21mic_H50_0376_fot_40B-38925_W_tif
  70
32
  10
467518.500
  20
4598833.500
  30
927.204
  0
VERTEX
  8
PNOA-H_AMS_1956-57_33k_ES_PAN_21mic_H50_0376_fot_40B-38925_W_tif
  70
32
  10
467602.500
  20
4603146.000
  30
922.359
  0
VERTEX
  8
PNOA-H_AMS_1956-57_33k_ES_PAN_21mic_H50_0376_fot_40B-38925_W_tif
  70
32
  10
467706.592
  20
4603148.600
  30
920.927
  0
VERTEX
  8
PNOA-H_AMS_1956-57_33k_ES_PAN_21mic_H50_0376_fot_40B-38925_W_tif
  70
32
  10
470285.000
  20
4603213.000
  30
885.458
  0
VERTEX
  8
PNOA-H_AMS_1956-57_33k_ES_PAN_21mic_H50_0376_fot_40B-38925_W_tif
  70
32
  10
470305.500
  20
4603213.500
  30
881.909
  0
SEQEND
  8
PNOA-H_AMS_1956-57_33k_ES_PAN_21mic_H50_0376_fot_40B-38925_W_tif
  0
INSERT
  8
FeatureAttribs
  2
FEATURE
  41
1
  42
1
  43
1
  50
0
  10
466073.463
  20
4600882.000
 66
1
  0
ATTRIB
  8
FeatureAttribs
 70
0
  1
PNOA-H_AMS_1956-57_33k_ES_PAN_21mic_H50_0376_fot_40B-38926_W.tif
  2
NAME
  10
466073.463
  20
4600882.000
 40
33.50906
  0
SEQEND
  0
POLYLINE
  8
PNOA-H_AMS_1956-57_33k_ES_PAN_21mic_H50_0376_fot_40B-38926_W_tif
  70
9
  66
1
  0
VERTEX
  8
PNOA-H_AMS_1956-57_33k_ES_PAN_21mic_H50_0376_fot_40B-38926_W_tif
  70
32
  10
467517.046
  20
4598832.843
  30
927.313
  0
VERTEX
  8
PNOA-H_AMS_1956-57_33k_ES_PAN_21mic_H50_0376_fot_40B-38926_W_tif
  70
32
  10
466690.000
  20
4598459.500
  30
988.919
  0
VERTEX
  8
PNOA-H_AMS_1956-57_33k_ES_PAN_21mic_H50_0376_fot_40B-38926_W_tif
  70
32
  10
466689.305
  20
4598459.638
  30
988.924
  0
VERTEX
  8
PNOA-H_AMS_1956-57_33k_ES_PAN_21mic_H50_0376_fot_40B-38926_W_tif
  70
32
  10
465456.631
  20
4598704.032
  30
997.598
  0
VERTEX
  8
PNOA-H_AMS_1956-57_33k_ES_PAN_21mic_H50_0376_fot_40B-38926_W_tif
  70
32
  10
465355.918
  20
4598724.000
  30
998.306
  0
VERTEX
  8
PNOA-H_AMS_1956-57_33k_ES_PAN_21mic_H50_0376_fot_40B-38926_W_tif
  70
32
  10
465106.224
  20
4598773.505
  30
1000.063
  0
VERTEX
  8
PNOA-H_AMS_1956-57_33k_ES_PAN_21mic_H50_0376_fot_40B-38926_W_tif
  70
32
  10
464559.000
  20
4598882.000
  30
1003.914
  0
VERTEX
  8
PNOA-H_AMS_1956-57_33k_ES_PAN_21mic_H50_0376_fot_40B-38926_W_tif
  70
32
  10
464559.006
  20
4598882.399
  30
1003.905
  0
VERTEX
  8
PNOA-H_AMS_1956-57_33k_ES_PAN_21mic_H50_0376_fot_40B-38926_W_tif
  70
32
  10
464622.500
  20
4603183.500
  30
911.352
  0
VERTEX
  8
PNOA-H_AMS_1956-57_33k_ES_PAN_21mic_H50_0376_fot_40B-38926_W_tif
  70
32
  10
465334.000
  20
4603215.500
  30
867.988
  0
VERTEX
  8
PNOA-H_AMS_1956-57_33k_ES_PAN_21mic_H50_0376_fot_40B-38926_W_tif
  70
32
  10
465345.000
  20
4603216.000
  30
867.215
  0
VERTEX
  8
PNOA-H_AMS_1956-57_33k_ES_PAN_21mic_H50_0376_fot_40B-38926_W_tif
  70
32
  10
467228.813
  20
4603299.421
  30
891.186
  0
VERTEX
  8
PNOA-H_AMS_1956-57_33k_ES_PAN_21mic_H50_0376_fot_40B-38926_W_tif
  70
32
  10
467343.034
  20
4603304.479
  30
892.639
  0
VERTEX
  8
PNOA-H_AMS_1956-57_33k_ES_PAN_21mic_H50_0376_fot_40B-38926_W_tif
  70
32
  10
467343.500
  20
4603304.500
  30
892.645
  0
VERTEX
  8
PNOA-H_AMS_1956-57_33k_ES_PAN_21mic_H50_0376_fot_40B-38926_W_tif
  70
32
  10
467602.480
  20
4603146.012
  30
922.357
  0
VERTEX
  8
PNOA-H_AMS_1956-57_33k_ES_PAN_21mic_H50_0376_fot_40B-38926_W_tif
  70
32
  10
467602.500
  20
4603146.000
  30
922.359
  0
VERTEX
  8
PNOA-H_AMS_1956-57_33k_ES_PAN_21mic_H50_0376_fot_40B-38926_W_tif
  70
32
  10
467518.500
  20
4598833.500
  30
927.204
  0
VERTEX
  8
PNOA-H_AMS_1956-57_33k_ES_PAN_21mic_H50_0376_fot_40B-38926_W_tif
  70
32
  10
467517.046
  20
4598832.843
  30
927.313
  0
SEQEND
  8
PNOA-H_AMS_1956-57_33k_ES_PAN_21mic_H50_0376_fot_40B-38926_W_tif
  0
INSERT
  8
FeatureAttribs
  2
FEATURE
  41
1
  42
1
  43
1
  50
0
  10
471080.501
  20
4596550.629
 66
1
  0
ATTRIB
  8
FeatureAttribs
 70
0
  1
PNOA-H_AMS_1956-57_33k_ES_PAN_21mic_H50_0376_fot_41B-37411_W.tif
  2
NAME
  10
471080.501
  20
4596550.629
 40
33.50906
  0
SEQEND
  0
POLYLINE
  8
PNOA-H_AMS_1956-57_33k_ES_PAN_21mic_H50_0376_fot_41B-37411_W_tif
  70
9
  66
1
  0
VERTEX
  8
PNOA-H_AMS_1956-57_33k_ES_PAN_21mic_H50_0376_fot_41B-37411_W_tif
  70
32
  10
470417.737
  20
4598784.380
  30
971.822
  0
VERTEX
  8
PNOA-H_AMS_1956-57_33k_ES_PAN_21mic_H50_0376_fot_41B-37411_W_tif
  70
32
  10
471498.500
  20
4598608.500
  30
963.426
  0
VERTEX
  8
PNOA-H_AMS_1956-57_33k_ES_PAN_21mic_H50_0376_fot_41B-37411_W_tif
  70
32
  10
471499.756
  20
4598608.500
  30
963.47
  0
VERTEX
  8
PNOA-H_AMS_1956-57_33k_ES_PAN_21mic_H50_0376_fot_41B-37411_W_tif
  70
32
  10
471500.000
  20
4598608.500
  30
963.479
  0
VERTEX
  8
PNOA-H_AMS_1956-57_33k_ES_PAN_21mic_H50_0376_fot_41B-37411_W_tif
  70
32
  10
471847.377
  20
4598551.943
  30
971.194
  0
VERTEX
  8
PNOA-H_AMS_1956-57_33k_ES_PAN_21mic_H50_0376_fot_41B-37411_W_tif
  70
32
  10
472559.500
  20
4598436.000
  30
987.011
  0
VERTEX
  8
PNOA-H_AMS_1956-57_33k_ES_PAN_21mic_H50_0376_fot_41B-37411_W_tif
  70
32
  10
472515.876
  20
4594316.758
  30
989.362
  0
VERTEX
  8
PNOA-H_AMS_1956-57_33k_ES_PAN_21mic_H50_0376_fot_41B-37411_W_tif
  70
32
  10
470440.246
  20
4594324.760
  30
0
  0
VERTEX
  8
PNOA-H_AMS_1956-57_33k_ES_PAN_21mic_H50_0376_fot_41B-37411_W_tif
  70
32
  10
469586.004
  20
4594328.464
  30
1032.714
  0
VERTEX
  8
PNOA-H_AMS_1956-57_33k_ES_PAN_21mic_H50_0376_fot_41B-37411_W_tif
  70
32
  10
469585.997
  20
4594328.464
  30
1032.721
  0
VERTEX
  8
PNOA-H_AMS_1956-57_33k_ES_PAN_21mic_H50_0376_fot_41B-37411_W_tif
  70
32
  10
469651.500
  20
4598432.000
  30
933.335
  0
VERTEX
  8
PNOA-H_AMS_1956-57_33k_ES_PAN_21mic_H50_0376_fot_41B-37411_W_tif
  70
32
  10
469652.000
  20
4598435.500
  30
932.767
  0
VERTEX
  8
PNOA-H_AMS_1956-57_33k_ES_PAN_21mic_H50_0376_fot_41B-37411_W_tif
  70
32
  10
469652.123
  20
4598435.570
  30
932.757
  0
VERTEX
  8
PNOA-H_AMS_1956-57_33k_ES_PAN_21mic_H50_0376_fot_41B-37411_W_tif
  70
32
  10
469655.500
  20
4598437.500
  30
932.483
  0
VERTEX
  8
PNOA-H_AMS_1956-57_33k_ES_PAN_21mic_H50_0376_fot_41B-37411_W_tif
  70
32
  10
470417.000
  20
4598784.500
  30
971.828
  0
VERTEX
  8
PNOA-H_AMS_1956-57_33k_ES_PAN_21mic_H50_0376_fot_41B-37411_W_tif
  70
32
  10
470417.737
  20
4598784.380
  30
971.822
  0
SEQEND
  8
PNOA-H_AMS_1956-57_33k_ES_PAN_21mic_H50_0376_fot_41B-37411_W_tif
  0
INSERT
  8
FeatureAttribs
  2
FEATURE
  41
1
  42
1
  43
1
  50
0
  10
468155.374
  20
4596580.982
 66
1
  0
ATTRIB
  8
FeatureAttribs
 70
0
  1
PNOA-H_AMS_1956-57_33k_ES_PAN_21mic_H50_0376_fot_41B-37412_W.tif
  2
NAME
  10
468155.374
  20
4596580.982
 40
33.50906
  0
SEQEND
  0
POLYLINE
  8
PNOA-H_AMS_1956-57_33k_ES_PAN_21mic_H50_0376_fot_41B-37412_W_tif
  70
9
  66
1
  0
VERTEX
  8
PNOA-H_AMS_1956-57_33k_ES_PAN_21mic_H50_0376_fot_41B-37412_W_tif
  70
32
  10
469652.000
  20
4598435.500
  30
932.767
  0
VERTEX
  8
PNOA-H_AMS_1956-57_33k_ES_PAN_21mic_H50_0376_fot_41B-37412_W_tif
  70
32
  10
469586.004
  20
4594328.464
  30
1032.714
  0
VERTEX
  8
PNOA-H_AMS_1956-57_33k_ES_PAN_21mic_H50_0376_fot_41B-37412_W_tif
  70
32
  10
469585.997
  20
4594328.464
  30
0
  0
VERTEX
  8
PNOA-H_AMS_1956-57_33k_ES_PAN_21mic_H50_0376_fot_41B-37412_W_tif
  70
32
  10
466962.621
  20
4594339.842
  30
0
  0
VERTEX
  8
PNOA-H_AMS_1956-57_33k_ES_PAN_21mic_H50_0376_fot_41B-37412_W_tif
  70
32
  10
466688.009
  20
4594341.165
  30
1041.04
  0
VERTEX
  8
PNOA-H_AMS_1956-57_33k_ES_PAN_21mic_H50_0376_fot_41B-37412_W_tif
  70
32
  10
466689.000
  20
4598459.500
  30
989.046
  0
VERTEX
  8
PNOA-H_AMS_1956-57_33k_ES_PAN_21mic_H50_0376_fot_41B-37412_W_tif
  70
32
  10
466689.305
  20
4598459.638
  30
989.022
  0
VERTEX
  8
PNOA-H_AMS_1956-57_33k_ES_PAN_21mic_H50_0376_fot_41B-37412_W_tif
  70
32
  10
467401.500
  20
4598781.000
  30
932.87
  0
VERTEX
  8
PNOA-H_AMS_1956-57_33k_ES_PAN_21mic_H50_0376_fot_41B-37412_W_tif
  70
32
  10
467402.500
  20
4598781.500
  30
932.75
  0
VERTEX
  8
PNOA-H_AMS_1956-57_33k_ES_PAN_21mic_H50_0376_fot_41B-37412_W_tif
  70
32
  10
467515.500
  20
4598832.500
  30
927.014
  0
VERTEX
  8
PNOA-H_AMS_1956-57_33k_ES_PAN_21mic_H50_0376_fot_41B-37412_W_tif
  70
32
  10
467517.046
  20
4598832.843
  30
927.114
  0
VERTEX
  8
PNOA-H_AMS_1956-57_33k_ES_PAN_21mic_H50_0376_fot_41B-37412_W_tif
  70
32
  10
467519.316
  20
4598833.348
  30
927.262
  0
VERTEX
  8
PNOA-H_AMS_1956-57_33k_ES_PAN_21mic_H50_0376_fot_41B-37412_W_tif
  70
32
  10
467520.000
  20
4598833.500
  30
927.307
  0
VERTEX
  8
PNOA-H_AMS_1956-57_33k_ES_PAN_21mic_H50_0376_fot_41B-37412_W_tif
  70
32
  10
469119.000
  20
4598535.000
  30
931.402
  0
VERTEX
  8
PNOA-H_AMS_1956-57_33k_ES_PAN_21mic_H50_0376_fot_41B-37412_W_tif
  70
32
  10
469652.000
  20
4598435.500
  30
932.767
  0
SEQEND
  8
PNOA-H_AMS_1956-57_33k_ES_PAN_21mic_H50_0376_fot_41B-37412_W_tif
  0
INSERT
  8
FeatureAttribs
  2
FEATURE
  41
1
  42
1
  43
1
  50
0
  10
473482.883
  20
4609632.750
 66
1
  0
ATTRIB
  8
FeatureAttribs
 70
0
  1
PNOA-H_AMS_1956-57_33k_ES_PAN_21mic_H50_0376_fot_38C-40561_E.tif
  2
NAME
  10
473482.883
  20
4609632.750
 40
33.50906
  0
SEQEND
  0
POLYLINE
  8
PNOA-H_AMS_1956-57_33k_ES_PAN_21mic_H50_0376_fot_38C-40561_E_tif
  70
9
  66
1
  0
VERTEX
  8
PNOA-H_AMS_1956-57_33k_ES_PAN_21mic_H50_0376_fot_38C-40561_E_tif
  70
32
  10
474890.860
  20
4607703.839
  30
946.549
  0
VERTEX
  8
PNOA-H_AMS_1956-57_33k_ES_PAN_21mic_H50_0376_fot_38C-40561_E_tif
  70
32
  10
473148.500
  20
4607266.500
  30
940.7
  0
VERTEX
  8
PNOA-H_AMS_1956-57_33k_ES_PAN_21mic_H50_0376_fot_38C-40561_E_tif
  70
32
  10
473147.944
  20
4607266.722
  30
940.671
  0
VERTEX
  8
PNOA-H_AMS_1956-57_33k_ES_PAN_21mic_H50_0376_fot_38C-40561_E_tif
  70
32
  10
472587.000
  20
4607491.000
  30
911.549
  0
VERTEX
  8
PNOA-H_AMS_1956-57_33k_ES_PAN_21mic_H50_0376_fot_38C-40561_E_tif
  70
32
  10
472025.852
  20
4607715.359
  30
882.417
  0
VERTEX
  8
PNOA-H_AMS_1956-57_33k_ES_PAN_21mic_H50_0376_fot_38C-40561_E_tif
  70
32
  10
472025.500
  20
4607715.500
  30
882.399
  0
VERTEX
  8
PNOA-H_AMS_1956-57_33k_ES_PAN_21mic_H50_0376_fot_38C-40561_E_tif
  70
32
  10
472113.000
  20
4611856.000
  30
954.911
  0
VERTEX
  8
PNOA-H_AMS_1956-57_33k_ES_PAN_21mic_H50_0376_fot_38C-40561_E_tif
  70
32
  10
472329.042
  20
4611868.865
  30
953.852
  0
VERTEX
  8
PNOA-H_AMS_1956-57_33k_ES_PAN_21mic_H50_0376_fot_38C-40561_E_tif
  70
32
  10
473532.000
  20
4611940.500
  30
947.953
  0
VERTEX
  8
PNOA-H_AMS_1956-57_33k_ES_PAN_21mic_H50_0376_fot_38C-40561_E_tif
  70
32
  10
473540.500
  20
4611941.000
  30
947.087
  0
VERTEX
  8
PNOA-H_AMS_1956-57_33k_ES_PAN_21mic_H50_0376_fot_38C-40561_E_tif
  70
32
  10
474374.043
  20
4611990.082
  30
959.388
  0
VERTEX
  8
PNOA-H_AMS_1956-57_33k_ES_PAN_21mic_H50_0376_fot_38C-40561_E_tif
  70
32
  10
474524.600
  20
4611998.947
  30
961.61
  0
VERTEX
  8
PNOA-H_AMS_1956-57_33k_ES_PAN_21mic_H50_0376_fot_38C-40561_E_tif
  70
32
  10
474525.500
  20
4611999.000
  30
961.623
  0
VERTEX
  8
PNOA-H_AMS_1956-57_33k_ES_PAN_21mic_H50_0376_fot_38C-40561_E_tif
  70
32
  10
474909.000
  20
4611795.500
  30
981.076
  0
VERTEX
  8
PNOA-H_AMS_1956-57_33k_ES_PAN_21mic_H50_0376_fot_38C-40561_E_tif
  70
32
  10
474891.500
  20
4607704.000
  30
946.551
  0
VERTEX
  8
PNOA-H_AMS_1956-57_33k_ES_PAN_21mic_H50_0376_fot_38C-40561_E_tif
  70
32
  10
474890.860
  20
4607703.839
  30
946.549
  0
SEQEND
  8
PNOA-H_AMS_1956-57_33k_ES_PAN_21mic_H50_0376_fot_38C-40561_E_tif
  0
INSERT
  8
FeatureAttribs
  2
FEATURE
  41
1
  42
1
  43
1
  50
0
  10
476296.774
  20
4609613.000
 66
1
  0
ATTRIB
  8
FeatureAttribs
 70
0
  1
PNOA-H_AMS_1956-57_33k_ES_PAN_21mic_H50_0376_fot_38C-40562_E.tif
  2
NAME
  10
476296.774
  20
4609613.000
 40
33.50906
  0
SEQEND
  0
POLYLINE
  8
PNOA-H_AMS_1956-57_33k_ES_PAN_21mic_H50_0376_fot_38C-40562_E_tif
  70
9
  66
1
  0
VERTEX
  8
PNOA-H_AMS_1956-57_33k_ES_PAN_21mic_H50_0376_fot_38C-40562_E_tif
  70
32
  10
477172.500
  20
4611940.500
  30
938.976
  0
VERTEX
  8
PNOA-H_AMS_1956-57_33k_ES_PAN_21mic_H50_0376_fot_38C-40562_E_tif
  70
32
  10
477179.000
  20
4611940.500
  30
938.92
  0
VERTEX
  8
PNOA-H_AMS_1956-57_33k_ES_PAN_21mic_H50_0376_fot_38C-40562_E_tif
  70
32
  10
477180.000
  20
4611940.500
  30
938.911
  0
VERTEX
  8
PNOA-H_AMS_1956-57_33k_ES_PAN_21mic_H50_0376_fot_38C-40562_E_tif
  70
32
  10
477186.500
  20
4611937.500
  30
939.055
  0
VERTEX
  8
PNOA-H_AMS_1956-57_33k_ES_PAN_21mic_H50_0376_fot_38C-40562_E_tif
  70
32
  10
477711.403
  20
4611686.546
  30
937.399
  0
VERTEX
  8
PNOA-H_AMS_1956-57_33k_ES_PAN_21mic_H50_0376_fot_38C-40562_E_tif
  70
32
  10
477711.500
  20
4611686.500
  30
937.398
  0
VERTEX
  8
PNOA-H_AMS_1956-57_33k_ES_PAN_21mic_H50_0376_fot_38C-40562_E_tif
  70
32
  10
477678.000
  20
4607743.500
  30
886.99
  0
VERTEX
  8
PNOA-H_AMS_1956-57_33k_ES_PAN_21mic_H50_0376_fot_38C-40562_E_tif
  70
32
  10
477677.713
  20
4607743.429
  30
886.995
  0
VERTEX
  8
PNOA-H_AMS_1956-57_33k_ES_PAN_21mic_H50_0376_fot_38C-40562_E_tif
  70
32
  10
475827.500
  20
4607285.500
  30
917.304
  0
VERTEX
  8
PNOA-H_AMS_1956-57_33k_ES_PAN_21mic_H50_0376_fot_38C-40562_E_tif
  70
32
  10
475827.144
  20
4607285.659
  30
917.315
  0
VERTEX
  8
PNOA-H_AMS_1956-57_33k_ES_PAN_21mic_H50_0376_fot_38C-40562_E_tif
  70
32
  10
474891.500
  20
4607704.000
  30
946.551
  0
VERTEX
  8
PNOA-H_AMS_1956-57_33k_ES_PAN_21mic_H50_0376_fot_38C-40562_E_tif
  70
32
  10
474909.000
  20
4611795.500
  30
981.076
  0
VERTEX
  8
PNOA-H_AMS_1956-57_33k_ES_PAN_21mic_H50_0376_fot_38C-40562_E_tif
  70
32
  10
477164.500
  20
4611940.000
  30
938.883
  0
VERTEX
  8
PNOA-H_AMS_1956-57_33k_ES_PAN_21mic_H50_0376_fot_38C-40562_E_tif
  70
32
  10
477172.500
  20
4611940.500
  30
938.976
  0
SEQEND
  8
PNOA-H_AMS_1956-57_33k_ES_PAN_21mic_H50_0376_fot_38C-40562_E_tif
  0
INSERT
  8
FeatureAttribs
  2
FEATURE
  41
1
  42
1
  43
1
  50
0
  10
474536.815
  20
4605408.500
 66
1
  0
ATTRIB
  8
FeatureAttribs
 70
0
  1
PNOA-H_AMS_1956-57_33k_ES_PAN_21mic_H50_0376_fot_39C-51150_W.tif
  2
NAME
  10
474536.815
  20
4605408.500
 40
33.50906
  0
SEQEND
  0
POLYLINE
  8
PNOA-H_AMS_1956-57_33k_ES_PAN_21mic_H50_0376_fot_39C-51150_W_tif
  70
9
  66
1
  0
VERTEX
  8
PNOA-H_AMS_1956-57_33k_ES_PAN_21mic_H50_0376_fot_39C-51150_W_tif
  70
32
  10
475980.000
  20
4603230.500
  30
846.511
  0
VERTEX
  8
PNOA-H_AMS_1956-57_33k_ES_PAN_21mic_H50_0376_fot_39C-51150_W_tif
  70
32
  10
473267.000
  20
4603113.000
  30
844.339
  0
VERTEX
  8
PNOA-H_AMS_1956-57_33k_ES_PAN_21mic_H50_0376_fot_39C-51150_W_tif
  70
32
  10
473263.031
  20
4603113.198
  30
844.326
  0
VERTEX
  8
PNOA-H_AMS_1956-57_33k_ES_PAN_21mic_H50_0376_fot_39C-51150_W_tif
  70
32
  10
473257.724
  20
4603113.464
  30
844.308
  0
VERTEX
  8
PNOA-H_AMS_1956-57_33k_ES_PAN_21mic_H50_0376_fot_39C-51150_W_tif
  70
32
  10
473257.000
  20
4603113.500
  30
844.306
  0
VERTEX
  8
PNOA-H_AMS_1956-57_33k_ES_PAN_21mic_H50_0376_fot_39C-51150_W_tif
  70
32
  10
473209.500
  20
4603142.000
  30
842.675
  0
VERTEX
  8
PNOA-H_AMS_1956-57_33k_ES_PAN_21mic_H50_0376_fot_39C-51150_W_tif
  70
32
  10
473209.500
  20
4603142.004
  30
842.676
  0
VERTEX
  8
PNOA-H_AMS_1956-57_33k_ES_PAN_21mic_H50_0376_fot_39C-51150_W_tif
  70
32
  10
473147.500
  20
4607261.500
  30
940.326
  0
VERTEX
  8
PNOA-H_AMS_1956-57_33k_ES_PAN_21mic_H50_0376_fot_39C-51150_W_tif
  70
32
  10
473147.500
  20
4607266.500
  30
940.409
  0
VERTEX
  8
PNOA-H_AMS_1956-57_33k_ES_PAN_21mic_H50_0376_fot_39C-51150_W_tif
  70
32
  10
473147.944
  20
4607266.722
  30
940.542
  0
VERTEX
  8
PNOA-H_AMS_1956-57_33k_ES_PAN_21mic_H50_0376_fot_39C-51150_W_tif
  70
32
  10
473148.500
  20
4607267.000
  30
940.708
  0
VERTEX
  8
PNOA-H_AMS_1956-57_33k_ES_PAN_21mic_H50_0376_fot_39C-51150_W_tif
  70
32
  10
474890.500
  20
4607704.000
  30
946.546
  0
VERTEX
  8
PNOA-H_AMS_1956-57_33k_ES_PAN_21mic_H50_0376_fot_39C-51150_W_tif
  70
32
  10
474890.860
  20
4607703.839
  30
946.534
  0
VERTEX
  8
PNOA-H_AMS_1956-57_33k_ES_PAN_21mic_H50_0376_fot_39C-51150_W_tif
  70
32
  10
475826.500
  20
4607285.500
  30
917.334
  0
VERTEX
  8
PNOA-H_AMS_1956-57_33k_ES_PAN_21mic_H50_0376_fot_39C-51150_W_tif
  70
32
  10
475973.500
  20
4603439.500
  30
845.614
  0
VERTEX
  8
PNOA-H_AMS_1956-57_33k_ES_PAN_21mic_H50_0376_fot_39C-51150_W_tif
  70
32
  10
475973.500
  20
4603429.000
  30
845.641
  0
VERTEX
  8
PNOA-H_AMS_1956-57_33k_ES_PAN_21mic_H50_0376_fot_39C-51150_W_tif
  70
32
  10
475981.000
  20
4603243.000
  30
846.441
  0
VERTEX
  8
PNOA-H_AMS_1956-57_33k_ES_PAN_21mic_H50_0376_fot_39C-51150_W_tif
  70
32
  10
475981.000
  20
4603231.000
  30
846.509
  0
VERTEX
  8
PNOA-H_AMS_1956-57_33k_ES_PAN_21mic_H50_0376_fot_39C-51150_W_tif
  70
32
  10
475980.953
  20
4603230.976
  30
846.509
  0
VERTEX
  8
PNOA-H_AMS_1956-57_33k_ES_PAN_21mic_H50_0376_fot_39C-51150_W_tif
  70
32
  10
475980.000
  20
4603230.500
  30
846.511
  0
SEQEND
  8
PNOA-H_AMS_1956-57_33k_ES_PAN_21mic_H50_0376_fot_39C-51150_W_tif
  0
INSERT
  8
FeatureAttribs
  2
FEATURE
  41
1
  42
1
  43
1
  50
0
  10
477296.501
  20
4605428.250
 66
1
  0
ATTRIB
  8
FeatureAttribs
 70
0
  1
PNOA-H_AMS_1956-57_33k_ES_PAN_21mic_H50_0376_fot_39C-51149_W.tif
  2
NAME
  10
477296.501
  20
4605428.250
 40
33.50906
  0
SEQEND
  0
POLYLINE
  8
PNOA-H_AMS_1956-57_33k_ES_PAN_21mic_H50_0376_fot_39C-51149_W_tif
  70
9
  66
1
  0
VERTEX
  8
PNOA-H_AMS_1956-57_33k_ES_PAN_21mic_H50_0376_fot_39C-51149_W_tif
  70
32
  10
478788.000
  20
4603284.500
  30
848.158
  0
VERTEX
  8
PNOA-H_AMS_1956-57_33k_ES_PAN_21mic_H50_0376_fot_39C-51149_W_tif
  70
32
  10
476198.000
  20
4603113.000
  30
848.323
  0
VERTEX
  8
PNOA-H_AMS_1956-57_33k_ES_PAN_21mic_H50_0376_fot_39C-51149_W_tif
  70
32
  10
476196.797
  20
4603113.185
  30
848.323
  0
VERTEX
  8
PNOA-H_AMS_1956-57_33k_ES_PAN_21mic_H50_0376_fot_39C-51149_W_tif
  70
32
  10
476192.467
  20
4603113.851
  30
848.322
  0
VERTEX
  8
PNOA-H_AMS_1956-57_33k_ES_PAN_21mic_H50_0376_fot_39C-51149_W_tif
  70
32
  10
476191.500
  20
4603114.000
  30
848.321
  0
VERTEX
  8
PNOA-H_AMS_1956-57_33k_ES_PAN_21mic_H50_0376_fot_39C-51149_W_tif
  70
32
  10
475981.036
  20
4603230.980
  30
846.51
  0
VERTEX
  8
PNOA-H_AMS_1956-57_33k_ES_PAN_21mic_H50_0376_fot_39C-51149_W_tif
  70
32
  10
475981.000
  20
4603231.000
  30
846.509
  0
VERTEX
  8
PNOA-H_AMS_1956-57_33k_ES_PAN_21mic_H50_0376_fot_39C-51149_W_tif
  70
32
  10
475826.500
  20
4607285.500
  30
917.334
  0
VERTEX
  8
PNOA-H_AMS_1956-57_33k_ES_PAN_21mic_H50_0376_fot_39C-51149_W_tif
  70
32
  10
475827.144
  20
4607285.659
  30
917.322
  0
VERTEX
  8
PNOA-H_AMS_1956-57_33k_ES_PAN_21mic_H50_0376_fot_39C-51149_W_tif
  70
32
  10
477641.000
  20
4607734.500
  30
884.727
  0
VERTEX
  8
PNOA-H_AMS_1956-57_33k_ES_PAN_21mic_H50_0376_fot_39C-51149_W_tif
  70
32
  10
477643.000
  20
4607735.000
  30
884.854
  0
VERTEX
  8
PNOA-H_AMS_1956-57_33k_ES_PAN_21mic_H50_0376_fot_39C-51149_W_tif
  70
32
  10
477677.500
  20
4607743.500
  30
886.951
  0
VERTEX
  8
PNOA-H_AMS_1956-57_33k_ES_PAN_21mic_H50_0376_fot_39C-51149_W_tif
  70
32
  10
477677.713
  20
4607743.429
  30
886.965
  0
VERTEX
  8
PNOA-H_AMS_1956-57_33k_ES_PAN_21mic_H50_0376_fot_39C-51149_W_tif
  70
32
  10
477678.003
  20
4607743.332
  30
886.984
  0
VERTEX
  8
PNOA-H_AMS_1956-57_33k_ES_PAN_21mic_H50_0376_fot_39C-51149_W_tif
  70
32
  10
477680.500
  20
4607742.500
  30
887.15
  0
VERTEX
  8
PNOA-H_AMS_1956-57_33k_ES_PAN_21mic_H50_0376_fot_39C-51149_W_tif
  70
32
  10
478613.818
  20
4607315.812
  30
871.644
  0
VERTEX
  8
PNOA-H_AMS_1956-57_33k_ES_PAN_21mic_H50_0376_fot_39C-51149_W_tif
  70
32
  10
478614.500
  20
4607315.500
  30
871.632
  0
VERTEX
  8
PNOA-H_AMS_1956-57_33k_ES_PAN_21mic_H50_0376_fot_39C-51149_W_tif
  70
32
  10
478788.000
  20
4603284.500
  30
848.158
  0
SEQEND
  8
PNOA-H_AMS_1956-57_33k_ES_PAN_21mic_H50_0376_fot_39C-51149_W_tif
  0
INSERT
  8
FeatureAttribs
  2
FEATURE
  41
1
  42
1
  43
1
  50
0
  10
477589.656
  20
4600839.250
 66
1
  0
ATTRIB
  8
FeatureAttribs
 70
0
  1
PNOA-H_AMS_1956-57_33k_ES_PAN_21mic_H50_0376_fot_40B-38922_W.tif
  2
NAME
  10
477589.656
  20
4600839.250
 40
33.50906
  0
SEQEND
  0
POLYLINE
  8
PNOA-H_AMS_1956-57_33k_ES_PAN_21mic_H50_0376_fot_40B-38922_W_tif
  70
9
  66
1
  0
VERTEX
  8
PNOA-H_AMS_1956-57_33k_ES_PAN_21mic_H50_0376_fot_40B-38922_W_tif
  70
32
  10
479018.359
  20
4598737.436
  30
879.162
  0
VERTEX
  8
PNOA-H_AMS_1956-57_33k_ES_PAN_21mic_H50_0376_fot_40B-38922_W_tif
  70
32
  10
478260.500
  20
4598394.000
  30
873.251
  0
VERTEX
  8
PNOA-H_AMS_1956-57_33k_ES_PAN_21mic_H50_0376_fot_40B-38922_W_tif
  70
32
  10
478260.113
  20
4598394.065
  30
873.259
  0
VERTEX
  8
PNOA-H_AMS_1956-57_33k_ES_PAN_21mic_H50_0376_fot_40B-38922_W_tif
  70
32
  10
477952.388
  20
4598445.388
  30
879.613
  0
VERTEX
  8
PNOA-H_AMS_1956-57_33k_ES_PAN_21mic_H50_0376_fot_40B-38922_W_tif
  70
32
  10
476108.000
  20
4598753.000
  30
917.696
  0
VERTEX
  8
PNOA-H_AMS_1956-57_33k_ES_PAN_21mic_H50_0376_fot_40B-38922_W_tif
  70
32
  10
476108.010
  20
4598753.498
  30
917.688
  0
VERTEX
  8
PNOA-H_AMS_1956-57_33k_ES_PAN_21mic_H50_0376_fot_40B-38922_W_tif
  70
32
  10
476194.000
  20
4603113.000
  30
848.312
  0
VERTEX
  8
PNOA-H_AMS_1956-57_33k_ES_PAN_21mic_H50_0376_fot_40B-38922_W_tif
  70
32
  10
476196.797
  20
4603113.185
  30
848.312
  0
VERTEX
  8
PNOA-H_AMS_1956-57_33k_ES_PAN_21mic_H50_0376_fot_40B-38922_W_tif
  70
32
  10
478777.000
  20
4603284.000
  30
848.066
  0
VERTEX
  8
PNOA-H_AMS_1956-57_33k_ES_PAN_21mic_H50_0376_fot_40B-38922_W_tif
  70
32
  10
478784.500
  20
4603284.500
  30
848.112
  0
VERTEX
  8
PNOA-H_AMS_1956-57_33k_ES_PAN_21mic_H50_0376_fot_40B-38922_W_tif
  70
32
  10
478788.000
  20
4603284.500
  30
848.156
  0
VERTEX
  8
PNOA-H_AMS_1956-57_33k_ES_PAN_21mic_H50_0376_fot_40B-38922_W_tif
  70
32
  10
478788.500
  20
4603284.500
  30
848.162
  0
VERTEX
  8
PNOA-H_AMS_1956-57_33k_ES_PAN_21mic_H50_0376_fot_40B-38922_W_tif
  70
32
  10
478796.500
  20
4603280.500
  30
848.11
  0
VERTEX
  8
PNOA-H_AMS_1956-57_33k_ES_PAN_21mic_H50_0376_fot_40B-38922_W_tif
  70
32
  10
479042.210
  20
4603153.907
  30
848.738
  0
VERTEX
  8
PNOA-H_AMS_1956-57_33k_ES_PAN_21mic_H50_0376_fot_40B-38922_W_tif
  70
32
  10
479043.000
  20
4603153.500
  30
848.74
  0
VERTEX
  8
PNOA-H_AMS_1956-57_33k_ES_PAN_21mic_H50_0376_fot_40B-38922_W_tif
  70
32
  10
479018.500
  20
4598737.500
  30
879.163
  0
VERTEX
  8
PNOA-H_AMS_1956-57_33k_ES_PAN_21mic_H50_0376_fot_40B-38922_W_tif
  70
32
  10
479018.359
  20
4598737.436
  30
879.162
  0
SEQEND
  8
PNOA-H_AMS_1956-57_33k_ES_PAN_21mic_H50_0376_fot_40B-38922_W_tif
  0
INSERT
  8
FeatureAttribs
  2
FEATURE
  41
1
  42
1
  43
1
  50
0
  10
474702.853
  20
4600834.000
 66
1
  0
ATTRIB
  8
FeatureAttribs
 70
0
  1
PNOA-H_AMS_1956-57_33k_ES_PAN_21mic_H50_0376_fot_40B-38923_W.tif
  2
NAME
  10
474702.853
  20
4600834.000
 40
33.50906
  0
SEQEND
  0
POLYLINE
  8
PNOA-H_AMS_1956-57_33k_ES_PAN_21mic_H50_0376_fot_40B-38923_W_tif
  70
9
  66
1
  0
VERTEX
  8
PNOA-H_AMS_1956-57_33k_ES_PAN_21mic_H50_0376_fot_40B-38923_W_tif
  70
32
  10
475429.000
  20
4598437.000
  30
925.602
  0
VERTEX
  8
PNOA-H_AMS_1956-57_33k_ES_PAN_21mic_H50_0376_fot_40B-38923_W_tif
  70
32
  10
475425.500
  20
4598437.000
  30
925.754
  0
VERTEX
  8
PNOA-H_AMS_1956-57_33k_ES_PAN_21mic_H50_0376_fot_40B-38923_W_tif
  70
32
  10
474147.667
  20
4598632.163
  30
947.458
  0
VERTEX
  8
PNOA-H_AMS_1956-57_33k_ES_PAN_21mic_H50_0376_fot_40B-38923_W_tif
  70
32
  10
473255.000
  20
4598768.500
  30
962.621
  0
VERTEX
  8
PNOA-H_AMS_1956-57_33k_ES_PAN_21mic_H50_0376_fot_40B-38923_W_tif
  70
32
  10
473258.500
  20
4603113.000
  30
844.309
  0
VERTEX
  8
PNOA-H_AMS_1956-57_33k_ES_PAN_21mic_H50_0376_fot_40B-38923_W_tif
  70
32
  10
473263.031
  20
4603113.198
  30
844.288
  0
VERTEX
  8
PNOA-H_AMS_1956-57_33k_ES_PAN_21mic_H50_0376_fot_40B-38923_W_tif
  70
32
  10
473532.500
  20
4603125.000
  30
843.039
  0
VERTEX
  8
PNOA-H_AMS_1956-57_33k_ES_PAN_21mic_H50_0376_fot_40B-38923_W_tif
  70
32
  10
473544.000
  20
4603125.500
  30
842.935
  0
VERTEX
  8
PNOA-H_AMS_1956-57_33k_ES_PAN_21mic_H50_0376_fot_40B-38923_W_tif
  70
32
  10
475980.953
  20
4603230.976
  30
846.509
  0
VERTEX
  8
PNOA-H_AMS_1956-57_33k_ES_PAN_21mic_H50_0376_fot_40B-38923_W_tif
  70
32
  10
475981.036
  20
4603230.980
  30
846.509
  0
VERTEX
  8
PNOA-H_AMS_1956-57_33k_ES_PAN_21mic_H50_0376_fot_40B-38923_W_tif
  70
32
  10
475981.500
  20
4603231.000
  30
846.51
  0
VERTEX
  8
PNOA-H_AMS_1956-57_33k_ES_PAN_21mic_H50_0376_fot_40B-38923_W_tif
  70
32
  10
476192.467
  20
4603113.851
  30
848.299
  0
VERTEX
  8
PNOA-H_AMS_1956-57_33k_ES_PAN_21mic_H50_0376_fot_40B-38923_W_tif
  70
32
  10
476194.000
  20
4603113.000
  30
848.312
  0
VERTEX
  8
PNOA-H_AMS_1956-57_33k_ES_PAN_21mic_H50_0376_fot_40B-38923_W_tif
  70
32
  10
476108.000
  20
4598753.500
  30
917.597
  0
VERTEX
  8
PNOA-H_AMS_1956-57_33k_ES_PAN_21mic_H50_0376_fot_40B-38923_W_tif
  70
32
  10
475430.500
  20
4598437.000
  30
925.537
  0
VERTEX
  8
PNOA-H_AMS_1956-57_33k_ES_PAN_21mic_H50_0376_fot_40B-38923_W_tif
  70
32
  10
475429.000
  20
4598437.000
  30
925.602
  0
SEQEND
  8
PNOA-H_AMS_1956-57_33k_ES_PAN_21mic_H50_0376_fot_40B-38923_W_tif
  0
INSERT
  8
FeatureAttribs
  2
FEATURE
  41
1
  42
1
  43
1
  50
0
  10
473981.062
  20
4596537.401
 66
1
  0
ATTRIB
  8
FeatureAttribs
 70
0
  1
PNOA-H_AMS_1956-57_33k_ES_PAN_21mic_H50_0376_fot_41B-37410_W.tif
  2
NAME
  10
473981.062
  20
4596537.401
 40
33.50906
  0
SEQEND
  0
POLYLINE
  8
PNOA-H_AMS_1956-57_33k_ES_PAN_21mic_H50_0376_fot_41B-37410_W_tif
  70
9
  66
1
  0
VERTEX
  8
PNOA-H_AMS_1956-57_33k_ES_PAN_21mic_H50_0376_fot_41B-37410_W_tif
  70
32
  10
475429.000
  20
4598437.000
  30
925.612
  0
VERTEX
  8
PNOA-H_AMS_1956-57_33k_ES_PAN_21mic_H50_0376_fot_41B-37410_W_tif
  70
32
  10
475415.366
  20
4594306.302
  30
997.937
  0
VERTEX
  8
PNOA-H_AMS_1956-57_33k_ES_PAN_21mic_H50_0376_fot_41B-37410_W_tif
  70
32
  10
473917.868
  20
4594311.353
  30
0
  0
VERTEX
  8
PNOA-H_AMS_1956-57_33k_ES_PAN_21mic_H50_0376_fot_41B-37410_W_tif
  70
32
  10
472515.876
  20
4594316.758
  30
989.362
  0
VERTEX
  8
PNOA-H_AMS_1956-57_33k_ES_PAN_21mic_H50_0376_fot_41B-37410_W_tif
  70
32
  10
472559.500
  20
4598436.000
  30
987.011
  0
VERTEX
  8
PNOA-H_AMS_1956-57_33k_ES_PAN_21mic_H50_0376_fot_41B-37410_W_tif
  70
32
  10
472559.627
  20
4598436.061
  30
987.006
  0
VERTEX
  8
PNOA-H_AMS_1956-57_33k_ES_PAN_21mic_H50_0376_fot_41B-37410_W_tif
  70
32
  10
473254.500
  20
4598768.500
  30
962.652
  0
VERTEX
  8
PNOA-H_AMS_1956-57_33k_ES_PAN_21mic_H50_0376_fot_41B-37410_W_tif
  70
32
  10
473254.879
  20
4598768.442
  30
962.649
  0
VERTEX
  8
PNOA-H_AMS_1956-57_33k_ES_PAN_21mic_H50_0376_fot_41B-37410_W_tif
  70
32
  10
473544.500
  20
4598724.000
  30
960.359
  0
VERTEX
  8
PNOA-H_AMS_1956-57_33k_ES_PAN_21mic_H50_0376_fot_41B-37410_W_tif
  70
32
  10
473548.000
  20
4598723.500
  30
960.629
  0
VERTEX
  8
PNOA-H_AMS_1956-57_33k_ES_PAN_21mic_H50_0376_fot_41B-37410_W_tif
  70
32
  10
474147.667
  20
4598632.163
  30
949.465
  0
VERTEX
  8
PNOA-H_AMS_1956-57_33k_ES_PAN_21mic_H50_0376_fot_41B-37410_W_tif
  70
32
  10
475429.000
  20
4598437.000
  30
925.612
  0
SEQEND
  8
PNOA-H_AMS_1956-57_33k_ES_PAN_21mic_H50_0376_fot_41B-37410_W_tif
  0
INSERT
  8
FeatureAttribs
  2
FEATURE
  41
1
  42
1
  43
1
  50
0
  10
476836.340
  20
4596525.343
 66
1
  0
ATTRIB
  8
FeatureAttribs
 70
0
  1
PNOA-H_AMS_1956-57_33k_ES_PAN_21mic_H50_0376_fot_41B-37409_W.tif
  2
NAME
  10
476836.340
  20
4596525.343
 40
33.50906
  0
SEQEND
  0
POLYLINE
  8
PNOA-H_AMS_1956-57_33k_ES_PAN_21mic_H50_0376_fot_41B-37409_W_tif
  70
9
  66
1
  0
VERTEX
  8
PNOA-H_AMS_1956-57_33k_ES_PAN_21mic_H50_0376_fot_41B-37409_W_tif
  70
32
  10
478249.076
  20
4596354.670
  30
914.533
  0
VERTEX
  8
PNOA-H_AMS_1956-57_33k_ES_PAN_21mic_H50_0376_fot_41B-37409_W_tif
  70
32
  10
478238.055
  20
4594297.187
  30
956.139
  0
VERTEX
  8
PNOA-H_AMS_1956-57_33k_ES_PAN_21mic_H50_0376_fot_41B-37409_W_tif
  70
32
  10
477395.489
  20
4594299.623
  30
0
  0
VERTEX
  8
PNOA-H_AMS_1956-57_33k_ES_PAN_21mic_H50_0376_fot_41B-37409_W_tif
  70
32
  10
475415.366
  20
4594306.302
  30
997.937
  0
VERTEX
  8
PNOA-H_AMS_1956-57_33k_ES_PAN_21mic_H50_0376_fot_41B-37409_W_tif
  70
32
  10
475429.000
  20
4598437.000
  30
925.612
  0
VERTEX
  8
PNOA-H_AMS_1956-57_33k_ES_PAN_21mic_H50_0376_fot_41B-37409_W_tif
  70
32
  10
475594.500
  20
4598514.000
  30
923.905
  0
VERTEX
  8
PNOA-H_AMS_1956-57_33k_ES_PAN_21mic_H50_0376_fot_41B-37409_W_tif
  70
32
  10
475595.500
  20
4598514.500
  30
924.119
  0
VERTEX
  8
PNOA-H_AMS_1956-57_33k_ES_PAN_21mic_H50_0376_fot_41B-37409_W_tif
  70
32
  10
476108.000
  20
4598753.500
  30
917.597
  0
VERTEX
  8
PNOA-H_AMS_1956-57_33k_ES_PAN_21mic_H50_0376_fot_41B-37409_W_tif
  70
32
  10
476108.010
  20
4598753.498
  30
917.597
  0
VERTEX
  8
PNOA-H_AMS_1956-57_33k_ES_PAN_21mic_H50_0376_fot_41B-37409_W_tif
  70
32
  10
477952.388
  20
4598445.388
  30
879.627
  0
VERTEX
  8
PNOA-H_AMS_1956-57_33k_ES_PAN_21mic_H50_0376_fot_41B-37409_W_tif
  70
32
  10
478260.000
  20
4598394.000
  30
873.294
  0
VERTEX
  8
PNOA-H_AMS_1956-57_33k_ES_PAN_21mic_H50_0376_fot_41B-37409_W_tif
  70
32
  10
478249.076
  20
4596354.670
  30
914.533
  0
SEQEND
  8
PNOA-H_AMS_1956-57_33k_ES_PAN_21mic_H50_0376_fot_41B-37409_W_tif
  0
INSERT
  8
FeatureAttribs
  2
FEATURE
  41
1
  42
1
  43
1
  50
0
  10
479085.770
  20
4609623.250
 66
1
  0
ATTRIB
  8
FeatureAttribs
 70
0
  1
PNOA-H_AMS_1956-57_33k_ES_PAN_21mic_H50_0376_fot_38C-40563_E.tif
  2
NAME
  10
479085.770
  20
4609623.250
 40
33.50906
  0
SEQEND
  0
POLYLINE
  8
PNOA-H_AMS_1956-57_33k_ES_PAN_21mic_H50_0376_fot_38C-40563_E_tif
  70
9
  66
1
  0
VERTEX
  8
PNOA-H_AMS_1956-57_33k_ES_PAN_21mic_H50_0376_fot_38C-40563_E_tif
  70
32
  10
480438.500
  20
4607804.000
  30
913.09
  0
VERTEX
  8
PNOA-H_AMS_1956-57_33k_ES_PAN_21mic_H50_0376_fot_38C-40563_E_tif
  70
32
  10
478616.000
  20
4607315.500
  30
871.808
  0
VERTEX
  8
PNOA-H_AMS_1956-57_33k_ES_PAN_21mic_H50_0376_fot_38C-40563_E_tif
  70
32
  10
478615.021
  20
4607315.640
  30
871.685
  0
VERTEX
  8
PNOA-H_AMS_1956-57_33k_ES_PAN_21mic_H50_0376_fot_38C-40563_E_tif
  70
32
  10
478613.818
  20
4607315.812
  30
871.535
  0
VERTEX
  8
PNOA-H_AMS_1956-57_33k_ES_PAN_21mic_H50_0376_fot_38C-40563_E_tif
  70
32
  10
478612.500
  20
4607316.000
  30
871.37
  0
VERTEX
  8
PNOA-H_AMS_1956-57_33k_ES_PAN_21mic_H50_0376_fot_38C-40563_E_tif
  70
32
  10
477678.000
  20
4607743.000
  30
886.971
  0
VERTEX
  8
PNOA-H_AMS_1956-57_33k_ES_PAN_21mic_H50_0376_fot_38C-40563_E_tif
  70
32
  10
477678.003
  20
4607743.332
  30
886.976
  0
VERTEX
  8
PNOA-H_AMS_1956-57_33k_ES_PAN_21mic_H50_0376_fot_38C-40563_E_tif
  70
32
  10
477711.500
  20
4611686.500
  30
937.398
  0
VERTEX
  8
PNOA-H_AMS_1956-57_33k_ES_PAN_21mic_H50_0376_fot_38C-40563_E_tif
  70
32
  10
479840.000
  20
4611931.000
  30
917.17
  0
VERTEX
  8
PNOA-H_AMS_1956-57_33k_ES_PAN_21mic_H50_0376_fot_38C-40563_E_tif
  70
32
  10
479840.016
  20
4611930.992
  30
917.17
  0
VERTEX
  8
PNOA-H_AMS_1956-57_33k_ES_PAN_21mic_H50_0376_fot_38C-40563_E_tif
  70
32
  10
480519.500
  20
4611604.000
  30
910.888
  0
VERTEX
  8
PNOA-H_AMS_1956-57_33k_ES_PAN_21mic_H50_0376_fot_38C-40563_E_tif
  70
32
  10
480519.490
  20
4611603.505
  30
910.883
  0
VERTEX
  8
PNOA-H_AMS_1956-57_33k_ES_PAN_21mic_H50_0376_fot_38C-40563_E_tif
  70
32
  10
480477.000
  20
4609596.500
  30
887.25
  0
VERTEX
  8
PNOA-H_AMS_1956-57_33k_ES_PAN_21mic_H50_0376_fot_38C-40563_E_tif
  70
32
  10
480476.500
  20
4609573.000
  30
888.354
  0
VERTEX
  8
PNOA-H_AMS_1956-57_33k_ES_PAN_21mic_H50_0376_fot_38C-40563_E_tif
  70
32
  10
480473.004
  20
4609406.270
  30
890.668
  0
VERTEX
  8
PNOA-H_AMS_1956-57_33k_ES_PAN_21mic_H50_0376_fot_38C-40563_E_tif
  70
32
  10
480439.500
  20
4607808.500
  30
912.851
  0
VERTEX
  8
PNOA-H_AMS_1956-57_33k_ES_PAN_21mic_H50_0376_fot_38C-40563_E_tif
  70
32
  10
480439.041
  20
4607806.435
  30
912.961
  0
VERTEX
  8
PNOA-H_AMS_1956-57_33k_ES_PAN_21mic_H50_0376_fot_38C-40563_E_tif
  70
32
  10
480438.555
  20
4607804.247
  30
913.077
  0
VERTEX
  8
PNOA-H_AMS_1956-57_33k_ES_PAN_21mic_H50_0376_fot_38C-40563_E_tif
  70
32
  10
480438.500
  20
4607804.000
  30
913.09
  0
SEQEND
  8
PNOA-H_AMS_1956-57_33k_ES_PAN_21mic_H50_0376_fot_38C-40563_E_tif
  0
INSERT
  8
FeatureAttribs
  2
FEATURE
  41
1
  42
1
  43
1
  50
0
  10
481911.378
  20
4609601.250
 66
1
  0
ATTRIB
  8
FeatureAttribs
 70
0
  1
PNOA-H_AMS_1956-57_33k_ES_PAN_21mic_H50_0376_fot_38C-40564_E.tif
  2
NAME
  10
481911.378
  20
4609601.250
 40
33.50906
  0
SEQEND
  0
POLYLINE
  8
PNOA-H_AMS_1956-57_33k_ES_PAN_21mic_H50_0376_fot_38C-40564_E_tif
  70
9
  66
1
  0
VERTEX
  8
PNOA-H_AMS_1956-57_33k_ES_PAN_21mic_H50_0376_fot_38C-40564_E_tif
  70
32
  10
481441.500
  20
4607325.500
  30
940.727
  0
VERTEX
  8
PNOA-H_AMS_1956-57_33k_ES_PAN_21mic_H50_0376_fot_38C-40564_E_tif
  70
32
  10
481440.000
  20
4607325.500
  30
940.659
  0
VERTEX
  8
PNOA-H_AMS_1956-57_33k_ES_PAN_21mic_H50_0376_fot_38C-40564_E_tif
  70
32
  10
480439.179
  20
4607804.414
  30
913.024
  0
VERTEX
  8
PNOA-H_AMS_1956-57_33k_ES_PAN_21mic_H50_0376_fot_38C-40564_E_tif
  70
32
  10
480439.000
  20
4607804.500
  30
913.019
  0
VERTEX
  8
PNOA-H_AMS_1956-57_33k_ES_PAN_21mic_H50_0376_fot_38C-40564_E_tif
  70
32
  10
480439.041
  20
4607806.435
  30
913.018
  0
VERTEX
  8
PNOA-H_AMS_1956-57_33k_ES_PAN_21mic_H50_0376_fot_38C-40564_E_tif
  70
32
  10
480473.004
  20
4609406.270
  30
911.856
  0
VERTEX
  8
PNOA-H_AMS_1956-57_33k_ES_PAN_21mic_H50_0376_fot_38C-40564_E_tif
  70
32
  10
480519.500
  20
4611596.500
  30
910.265
  0
VERTEX
  8
PNOA-H_AMS_1956-57_33k_ES_PAN_21mic_H50_0376_fot_38C-40564_E_tif
  70
32
  10
480520.000
  20
4611603.500
  30
910.832
  0
VERTEX
  8
PNOA-H_AMS_1956-57_33k_ES_PAN_21mic_H50_0376_fot_38C-40564_E_tif
  70
32
  10
480520.306
  20
4611603.602
  30
910.836
  0
VERTEX
  8
PNOA-H_AMS_1956-57_33k_ES_PAN_21mic_H50_0376_fot_38C-40564_E_tif
  70
32
  10
480521.500
  20
4611604.000
  30
910.853
  0
VERTEX
  8
PNOA-H_AMS_1956-57_33k_ES_PAN_21mic_H50_0376_fot_38C-40564_E_tif
  70
32
  10
481732.500
  20
4611757.500
  30
906.851
  0
VERTEX
  8
PNOA-H_AMS_1956-57_33k_ES_PAN_21mic_H50_0376_fot_38C-40564_E_tif
  70
32
  10
481736.500
  20
4611758.000
  30
906.745
  0
VERTEX
  8
PNOA-H_AMS_1956-57_33k_ES_PAN_21mic_H50_0376_fot_38C-40564_E_tif
  70
32
  10
482675.531
  20
4611876.941
  30
923.992
  0
VERTEX
  8
PNOA-H_AMS_1956-57_33k_ES_PAN_21mic_H50_0376_fot_38C-40564_E_tif
  70
32
  10
482676.000
  20
4611877.000
  30
924.001
  0
VERTEX
  8
PNOA-H_AMS_1956-57_33k_ES_PAN_21mic_H50_0376_fot_38C-40564_E_tif
  70
32
  10
482676.008
  20
4611876.996
  30
924.001
  0
VERTEX
  8
PNOA-H_AMS_1956-57_33k_ES_PAN_21mic_H50_0376_fot_38C-40564_E_tif
  70
32
  10
483347.885
  20
4611546.557
  30
905.8
  0
VERTEX
  8
PNOA-H_AMS_1956-57_33k_ES_PAN_21mic_H50_0376_fot_38C-40564_E_tif
  70
32
  10
483348.000
  20
4611546.500
  30
905.797
  0
VERTEX
  8
PNOA-H_AMS_1956-57_33k_ES_PAN_21mic_H50_0376_fot_38C-40564_E_tif
  70
32
  10
483343.500
  20
4607879.000
  30
932.877
  0
VERTEX
  8
PNOA-H_AMS_1956-57_33k_ES_PAN_21mic_H50_0376_fot_38C-40564_E_tif
  70
32
  10
483342.807
  20
4607878.798
  30
932.88
  0
VERTEX
  8
PNOA-H_AMS_1956-57_33k_ES_PAN_21mic_H50_0376_fot_38C-40564_E_tif
  70
32
  10
481443.500
  20
4607325.500
  30
940.819
  0
VERTEX
  8
PNOA-H_AMS_1956-57_33k_ES_PAN_21mic_H50_0376_fot_38C-40564_E_tif
  70
32
  10
481441.500
  20
4607325.500
  30
940.727
  0
SEQEND
  8
PNOA-H_AMS_1956-57_33k_ES_PAN_21mic_H50_0376_fot_38C-40564_E_tif
  0
INSERT
  8
FeatureAttribs
  2
FEATURE
  41
1
  42
1
  43
1
  50
0
  10
483864.662
  20
4609518.118
 66
1
  0
ATTRIB
  8
FeatureAttribs
 70
0
  1
PNOA-H_AMS_1956-57_33k_ES_PAN_21mic_H50_0377_fot_38C-40565_E.tif
  2
NAME
  10
483864.662
  20
4609518.118
 40
33.50906
  0
SEQEND
  0
POLYLINE
  8
PNOA-H_AMS_1956-57_33k_ES_PAN_21mic_H50_0377_fot_38C-40565_E_tif
  70
9
  66
1
  0
VERTEX
  8
PNOA-H_AMS_1956-57_33k_ES_PAN_21mic_H50_0377_fot_38C-40565_E_tif
  70
32
  10
484379.071
  20
4607337.129
  30
0
  0
VERTEX
  8
PNOA-H_AMS_1956-57_33k_ES_PAN_21mic_H50_0377_fot_38C-40565_E_tif
  70
32
  10
484379.070
  20
4607336.668
  30
980.413
  0
VERTEX
  8
PNOA-H_AMS_1956-57_33k_ES_PAN_21mic_H50_0377_fot_38C-40565_E_tif
  70
32
  10
483974.976
  20
4607548.294
  30
961.863
  0
VERTEX
  8
PNOA-H_AMS_1956-57_33k_ES_PAN_21mic_H50_0377_fot_38C-40565_E_tif
  70
32
  10
483595.548
  20
4607747.001
  30
944.446
  0
VERTEX
  8
PNOA-H_AMS_1956-57_33k_ES_PAN_21mic_H50_0377_fot_38C-40565_E_tif
  70
32
  10
483344.870
  20
4607878.282
  30
932.94
  0
VERTEX
  8
PNOA-H_AMS_1956-57_33k_ES_PAN_21mic_H50_0377_fot_38C-40565_E_tif
  70
32
  10
483343.500
  20
4607879.000
  30
932.877
  0
VERTEX
  8
PNOA-H_AMS_1956-57_33k_ES_PAN_21mic_H50_0377_fot_38C-40565_E_tif
  70
32
  10
483348.000
  20
4611546.500
  30
905.797
  0
VERTEX
  8
PNOA-H_AMS_1956-57_33k_ES_PAN_21mic_H50_0377_fot_38C-40565_E_tif
  70
32
  10
483450.745
  20
4611561.669
  30
905.876
  0
VERTEX
  8
PNOA-H_AMS_1956-57_33k_ES_PAN_21mic_H50_0377_fot_38C-40565_E_tif
  70
32
  10
483781.500
  20
4611610.500
  30
906.13
  0
VERTEX
  8
PNOA-H_AMS_1956-57_33k_ES_PAN_21mic_H50_0377_fot_38C-40565_E_tif
  70
32
  10
483785.000
  20
4611611.000
  30
906.161
  0
VERTEX
  8
PNOA-H_AMS_1956-57_33k_ES_PAN_21mic_H50_0377_fot_38C-40565_E_tif
  70
32
  10
484388.556
  20
4611699.569
  30
919.035
  0
VERTEX
  8
PNOA-H_AMS_1956-57_33k_ES_PAN_21mic_H50_0377_fot_38C-40565_E_tif
  70
32
  10
484388.556
  20
4611699.453
  30
0
  0
VERTEX
  8
PNOA-H_AMS_1956-57_33k_ES_PAN_21mic_H50_0377_fot_38C-40565_E_tif
  70
32
  10
484385.886
  20
4610471.700
  30
0
  0
VERTEX
  8
PNOA-H_AMS_1956-57_33k_ES_PAN_21mic_H50_0377_fot_38C-40565_E_tif
  70
32
  10
484380.857
  20
4608158.745
  30
0
  0
VERTEX
  8
PNOA-H_AMS_1956-57_33k_ES_PAN_21mic_H50_0377_fot_38C-40565_E_tif
  70
32
  10
484379.071
  20
4607337.129
  30
0
  0
SEQEND
  8
PNOA-H_AMS_1956-57_33k_ES_PAN_21mic_H50_0377_fot_38C-40565_E_tif
  0
INSERT
  8
FeatureAttribs
  2
FEATURE
  41
1
  42
1
  43
1
  50
0
  10
480106.422
  20
4605479.000
 66
1
  0
ATTRIB
  8
FeatureAttribs
 70
0
  1
PNOA-H_AMS_1956-57_33k_ES_PAN_21mic_H50_0376_fot_39C-51148_W.tif
  2
NAME
  10
480106.422
  20
4605479.000
 40
33.50906
  0
SEQEND
  0
POLYLINE
  8
PNOA-H_AMS_1956-57_33k_ES_PAN_21mic_H50_0376_fot_39C-51148_W_tif
  70
9
  66
1
  0
VERTEX
  8
PNOA-H_AMS_1956-57_33k_ES_PAN_21mic_H50_0376_fot_39C-51148_W_tif
  70
32
  10
481609.000
  20
4603350.000
  30
857.904
  0
VERTEX
  8
PNOA-H_AMS_1956-57_33k_ES_PAN_21mic_H50_0376_fot_39C-51148_W_tif
  70
32
  10
479047.500
  20
4603153.500
  30
848.65
  0
VERTEX
  8
PNOA-H_AMS_1956-57_33k_ES_PAN_21mic_H50_0376_fot_39C-51148_W_tif
  70
32
  10
479045.251
  20
4603153.673
  30
848.689
  0
VERTEX
  8
PNOA-H_AMS_1956-57_33k_ES_PAN_21mic_H50_0376_fot_39C-51148_W_tif
  70
32
  10
479042.210
  20
4603153.907
  30
848.742
  0
VERTEX
  8
PNOA-H_AMS_1956-57_33k_ES_PAN_21mic_H50_0376_fot_39C-51148_W_tif
  70
32
  10
479041.000
  20
4603154.000
  30
848.763
  0
VERTEX
  8
PNOA-H_AMS_1956-57_33k_ES_PAN_21mic_H50_0376_fot_39C-51148_W_tif
  70
32
  10
478788.000
  20
4603284.500
  30
848.158
  0
VERTEX
  8
PNOA-H_AMS_1956-57_33k_ES_PAN_21mic_H50_0376_fot_39C-51148_W_tif
  70
32
  10
478614.500
  20
4607315.500
  30
871.632
  0
VERTEX
  8
PNOA-H_AMS_1956-57_33k_ES_PAN_21mic_H50_0376_fot_39C-51148_W_tif
  70
32
  10
478615.021
  20
4607315.640
  30
871.665
  0
VERTEX
  8
PNOA-H_AMS_1956-57_33k_ES_PAN_21mic_H50_0376_fot_39C-51148_W_tif
  70
32
  10
479688.500
  20
4607603.500
  30
938.998
  0
VERTEX
  8
PNOA-H_AMS_1956-57_33k_ES_PAN_21mic_H50_0376_fot_39C-51148_W_tif
  70
32
  10
479690.500
  20
4607604.000
  30
938.885
  0
VERTEX
  8
PNOA-H_AMS_1956-57_33k_ES_PAN_21mic_H50_0376_fot_39C-51148_W_tif
  70
32
  10
480438.555
  20
4607804.247
  30
912.992
  0
VERTEX
  8
PNOA-H_AMS_1956-57_33k_ES_PAN_21mic_H50_0376_fot_39C-51148_W_tif
  70
32
  10
480439.179
  20
4607804.414
  30
912.971
  0
VERTEX
  8
PNOA-H_AMS_1956-57_33k_ES_PAN_21mic_H50_0376_fot_39C-51148_W_tif
  70
32
  10
480439.500
  20
4607804.500
  30
912.959
  0
VERTEX
  8
PNOA-H_AMS_1956-57_33k_ES_PAN_21mic_H50_0376_fot_39C-51148_W_tif
  70
32
  10
481441.500
  20
4607325.500
  30
940.719
  0
VERTEX
  8
PNOA-H_AMS_1956-57_33k_ES_PAN_21mic_H50_0376_fot_39C-51148_W_tif
  70
32
  10
481609.000
  20
4603350.000
  30
857.904
  0
SEQEND
  8
PNOA-H_AMS_1956-57_33k_ES_PAN_21mic_H50_0376_fot_39C-51148_W_tif
  0
INSERT
  8
FeatureAttribs
  2
FEATURE
  41
1
  42
1
  43
1
  50
0
  10
482945.666
  20
4605551.750
 66
1
  0
ATTRIB
  8
FeatureAttribs
 70
0
  1
PNOA-H_AMS_1956-57_33k_ES_PAN_21mic_H50_0376_fot_39C-51147_W.tif
  2
NAME
  10
482945.666
  20
4605551.750
 40
33.50906
  0
SEQEND
  0
POLYLINE
  8
PNOA-H_AMS_1956-57_33k_ES_PAN_21mic_H50_0376_fot_39C-51147_W_tif
  70
9
  66
1
  0
VERTEX
  8
PNOA-H_AMS_1956-57_33k_ES_PAN_21mic_H50_0376_fot_39C-51147_W_tif
  70
32
  10
481863.000
  20
4603224.500
  30
863.148
  0
VERTEX
  8
PNOA-H_AMS_1956-57_33k_ES_PAN_21mic_H50_0376_fot_39C-51147_W_tif
  70
32
  10
481862.500
  20
4603224.500
  30
863.157
  0
VERTEX
  8
PNOA-H_AMS_1956-57_33k_ES_PAN_21mic_H50_0376_fot_39C-51147_W_tif
  70
32
  10
481858.000
  20
4603226.500
  30
863.115
  0
VERTEX
  8
PNOA-H_AMS_1956-57_33k_ES_PAN_21mic_H50_0376_fot_39C-51147_W_tif
  70
32
  10
481615.500
  20
4603346.500
  30
858.006
  0
VERTEX
  8
PNOA-H_AMS_1956-57_33k_ES_PAN_21mic_H50_0376_fot_39C-51147_W_tif
  70
32
  10
481609.000
  20
4603350.000
  30
857.904
  0
VERTEX
  8
PNOA-H_AMS_1956-57_33k_ES_PAN_21mic_H50_0376_fot_39C-51147_W_tif
  70
32
  10
481608.500
  20
4603357.000
  30
857.907
  0
VERTEX
  8
PNOA-H_AMS_1956-57_33k_ES_PAN_21mic_H50_0376_fot_39C-51147_W_tif
  70
32
  10
481441.500
  20
4607325.500
  30
940.719
  0
VERTEX
  8
PNOA-H_AMS_1956-57_33k_ES_PAN_21mic_H50_0376_fot_39C-51147_W_tif
  70
32
  10
483342.000
  20
4607879.000
  30
933.016
  0
VERTEX
  8
PNOA-H_AMS_1956-57_33k_ES_PAN_21mic_H50_0376_fot_39C-51147_W_tif
  70
32
  10
483342.807
  20
4607878.798
  30
932.954
  0
VERTEX
  8
PNOA-H_AMS_1956-57_33k_ES_PAN_21mic_H50_0376_fot_39C-51147_W_tif
  70
32
  10
483344.870
  20
4607878.282
  30
932.797
  0
VERTEX
  8
PNOA-H_AMS_1956-57_33k_ES_PAN_21mic_H50_0376_fot_39C-51147_W_tif
  70
32
  10
483346.000
  20
4607878.000
  30
932.711
  0
VERTEX
  8
PNOA-H_AMS_1956-57_33k_ES_PAN_21mic_H50_0376_fot_39C-51147_W_tif
  70
32
  10
483595.548
  20
4607747.001
  30
938.87
  0
VERTEX
  8
PNOA-H_AMS_1956-57_33k_ES_PAN_21mic_H50_0376_fot_39C-51147_W_tif
  70
32
  10
483787.000
  20
4607646.500
  30
943.596
  0
VERTEX
  8
PNOA-H_AMS_1956-57_33k_ES_PAN_21mic_H50_0376_fot_39C-51147_W_tif
  70
32
  10
483788.000
  20
4607646.000
  30
943.557
  0
VERTEX
  8
PNOA-H_AMS_1956-57_33k_ES_PAN_21mic_H50_0376_fot_39C-51147_W_tif
  70
32
  10
483974.976
  20
4607548.294
  30
954.736
  0
VERTEX
  8
PNOA-H_AMS_1956-57_33k_ES_PAN_21mic_H50_0376_fot_39C-51147_W_tif
  70
32
  10
484379.071
  20
4607337.129
  30
978.895
  0
VERTEX
  8
PNOA-H_AMS_1956-57_33k_ES_PAN_21mic_H50_0376_fot_39C-51147_W_tif
  70
32
  10
484379.070
  20
4607336.668
  30
0
  0
VERTEX
  8
PNOA-H_AMS_1956-57_33k_ES_PAN_21mic_H50_0376_fot_39C-51147_W_tif
  70
32
  10
484375.830
  20
4605845.798
  30
0
  0
VERTEX
  8
PNOA-H_AMS_1956-57_33k_ES_PAN_21mic_H50_0376_fot_39C-51147_W_tif
  70
32
  10
484370.805
  20
4603532.859
  30
0
  0
VERTEX
  8
PNOA-H_AMS_1956-57_33k_ES_PAN_21mic_H50_0376_fot_39C-51147_W_tif
  70
32
  10
484370.482
  20
4603384.037
  30
0
  0
VERTEX
  8
PNOA-H_AMS_1956-57_33k_ES_PAN_21mic_H50_0376_fot_39C-51147_W_tif
  70
32
  10
484370.481
  20
4603383.702
  30
898.105
  0
VERTEX
  8
PNOA-H_AMS_1956-57_33k_ES_PAN_21mic_H50_0376_fot_39C-51147_W_tif
  70
32
  10
481866.500
  20
4603224.500
  30
863.09
  0
VERTEX
  8
PNOA-H_AMS_1956-57_33k_ES_PAN_21mic_H50_0376_fot_39C-51147_W_tif
  70
32
  10
481863.000
  20
4603224.500
  30
863.148
  0
SEQEND
  8
PNOA-H_AMS_1956-57_33k_ES_PAN_21mic_H50_0376_fot_39C-51147_W_tif
  0
INSERT
  8
FeatureAttribs
  2
FEATURE
  41
1
  42
1
  43
1
  50
0
  10
483109.056
  20
4600859.518
 66
1
  0
ATTRIB
  8
FeatureAttribs
 70
0
  1
PNOA-H_AMS_1956-57_33k_ES_PAN_21mic_H50_0376_fot_40B-38920_W.tif
  2
NAME
  10
483109.056
  20
4600859.518
 40
33.50906
  0
SEQEND
  0
POLYLINE
  8
PNOA-H_AMS_1956-57_33k_ES_PAN_21mic_H50_0376_fot_40B-38920_W_tif
  70
9
  66
1
  0
VERTEX
  8
PNOA-H_AMS_1956-57_33k_ES_PAN_21mic_H50_0376_fot_40B-38920_W_tif
  70
32
  10
484359.923
  20
4598520.177
  30
897.969
  0
VERTEX
  8
PNOA-H_AMS_1956-57_33k_ES_PAN_21mic_H50_0376_fot_40B-38920_W_tif
  70
32
  10
483964.500
  20
4598335.000
  30
922.076
  0
VERTEX
  8
PNOA-H_AMS_1956-57_33k_ES_PAN_21mic_H50_0376_fot_40B-38920_W_tif
  70
32
  10
483964.132
  20
4598335.062
  30
922.082
  0
VERTEX
  8
PNOA-H_AMS_1956-57_33k_ES_PAN_21mic_H50_0376_fot_40B-38920_W_tif
  70
32
  10
483257.833
  20
4598454.000
  30
932.753
  0
VERTEX
  8
PNOA-H_AMS_1956-57_33k_ES_PAN_21mic_H50_0376_fot_40B-38920_W_tif
  70
32
  10
481845.220
  20
4598691.879
  30
954.094
  0
VERTEX
  8
PNOA-H_AMS_1956-57_33k_ES_PAN_21mic_H50_0376_fot_40B-38920_W_tif
  70
32
  10
481844.502
  20
4598692.000
  30
954.105
  0
VERTEX
  8
PNOA-H_AMS_1956-57_33k_ES_PAN_21mic_H50_0376_fot_40B-38920_W_tif
  70
32
  10
481844.500
  20
4598692.000
  30
954.105
  0
VERTEX
  8
PNOA-H_AMS_1956-57_33k_ES_PAN_21mic_H50_0376_fot_40B-38920_W_tif
  70
32
  10
481862.500
  20
4603222.500
  30
863.267
  0
VERTEX
  8
PNOA-H_AMS_1956-57_33k_ES_PAN_21mic_H50_0376_fot_40B-38920_W_tif
  70
32
  10
481863.000
  20
4603224.500
  30
863.148
  0
VERTEX
  8
PNOA-H_AMS_1956-57_33k_ES_PAN_21mic_H50_0376_fot_40B-38920_W_tif
  70
32
  10
481882.000
  20
4603226.000
  30
863.203
  0
VERTEX
  8
PNOA-H_AMS_1956-57_33k_ES_PAN_21mic_H50_0376_fot_40B-38920_W_tif
  70
32
  10
484370.482
  20
4603384.037
  30
898.244
  0
VERTEX
  8
PNOA-H_AMS_1956-57_33k_ES_PAN_21mic_H50_0376_fot_40B-38920_W_tif
  70
32
  10
484370.481
  20
4603383.702
  30
0
  0
VERTEX
  8
PNOA-H_AMS_1956-57_33k_ES_PAN_21mic_H50_0376_fot_40B-38920_W_tif
  70
32
  10
484365.783
  20
4601219.929
  30
0
  0
VERTEX
  8
PNOA-H_AMS_1956-57_33k_ES_PAN_21mic_H50_0376_fot_40B-38920_W_tif
  70
32
  10
484360.762
  20
4598907.007
  30
0
  0
VERTEX
  8
PNOA-H_AMS_1956-57_33k_ES_PAN_21mic_H50_0376_fot_40B-38920_W_tif
  70
32
  10
484359.923
  20
4598520.412
  30
0
  0
VERTEX
  8
PNOA-H_AMS_1956-57_33k_ES_PAN_21mic_H50_0376_fot_40B-38920_W_tif
  70
32
  10
484359.923
  20
4598520.177
  30
897.969
  0
SEQEND
  8
PNOA-H_AMS_1956-57_33k_ES_PAN_21mic_H50_0376_fot_40B-38920_W_tif
  0
INSERT
  8
FeatureAttribs
  2
FEATURE
  41
1
  42
1
  43
1
  50
0
  10
480441.804
  20
4600858.250
 66
1
  0
ATTRIB
  8
FeatureAttribs
 70
0
  1
PNOA-H_AMS_1956-57_33k_ES_PAN_21mic_H50_0376_fot_40B-38921_W.tif
  2
NAME
  10
480441.804
  20
4600858.250
 40
33.50906
  0
SEQEND
  0
POLYLINE
  8
PNOA-H_AMS_1956-57_33k_ES_PAN_21mic_H50_0376_fot_40B-38921_W_tif
  70
9
  66
1
  0
VERTEX
  8
PNOA-H_AMS_1956-57_33k_ES_PAN_21mic_H50_0376_fot_40B-38921_W_tif
  70
32
  10
481844.500
  20
4598691.500
  30
953.893
  0
VERTEX
  8
PNOA-H_AMS_1956-57_33k_ES_PAN_21mic_H50_0376_fot_40B-38921_W_tif
  70
32
  10
481104.500
  20
4598366.500
  30
972.753
  0
VERTEX
  8
PNOA-H_AMS_1956-57_33k_ES_PAN_21mic_H50_0376_fot_40B-38921_W_tif
  70
32
  10
481104.270
  20
4598366.541
  30
972.743
  0
VERTEX
  8
PNOA-H_AMS_1956-57_33k_ES_PAN_21mic_H50_0376_fot_40B-38921_W_tif
  70
32
  10
481103.428
  20
4598366.691
  30
972.705
  0
VERTEX
  8
PNOA-H_AMS_1956-57_33k_ES_PAN_21mic_H50_0376_fot_40B-38921_W_tif
  70
32
  10
480441.110
  20
4598484.485
  30
942.99
  0
VERTEX
  8
PNOA-H_AMS_1956-57_33k_ES_PAN_21mic_H50_0376_fot_40B-38921_W_tif
  70
32
  10
479018.500
  20
4598737.500
  30
879.163
  0
VERTEX
  8
PNOA-H_AMS_1956-57_33k_ES_PAN_21mic_H50_0376_fot_40B-38921_W_tif
  70
32
  10
479043.000
  20
4603153.500
  30
848.74
  0
VERTEX
  8
PNOA-H_AMS_1956-57_33k_ES_PAN_21mic_H50_0376_fot_40B-38921_W_tif
  70
32
  10
479045.251
  20
4603153.673
  30
848.738
  0
VERTEX
  8
PNOA-H_AMS_1956-57_33k_ES_PAN_21mic_H50_0376_fot_40B-38921_W_tif
  70
32
  10
479680.500
  20
4603202.500
  30
848.046
  0
VERTEX
  8
PNOA-H_AMS_1956-57_33k_ES_PAN_21mic_H50_0376_fot_40B-38921_W_tif
  70
32
  10
479687.000
  20
4603203.000
  30
848.186
  0
VERTEX
  8
PNOA-H_AMS_1956-57_33k_ES_PAN_21mic_H50_0376_fot_40B-38921_W_tif
  70
32
  10
481605.000
  20
4603350.000
  30
857.904
  0
VERTEX
  8
PNOA-H_AMS_1956-57_33k_ES_PAN_21mic_H50_0376_fot_40B-38921_W_tif
  70
32
  10
481609.000
  20
4603350.000
  30
857.904
  0
VERTEX
  8
PNOA-H_AMS_1956-57_33k_ES_PAN_21mic_H50_0376_fot_40B-38921_W_tif
  70
32
  10
481609.500
  20
4603350.000
  30
857.904
  0
VERTEX
  8
PNOA-H_AMS_1956-57_33k_ES_PAN_21mic_H50_0376_fot_40B-38921_W_tif
  70
32
  10
481617.000
  20
4603346.500
  30
858.04
  0
VERTEX
  8
PNOA-H_AMS_1956-57_33k_ES_PAN_21mic_H50_0376_fot_40B-38921_W_tif
  70
32
  10
481863.000
  20
4603224.500
  30
863.148
  0
VERTEX
  8
PNOA-H_AMS_1956-57_33k_ES_PAN_21mic_H50_0376_fot_40B-38921_W_tif
  70
32
  10
481844.502
  20
4598692.000
  30
953.883
  0
VERTEX
  8
PNOA-H_AMS_1956-57_33k_ES_PAN_21mic_H50_0376_fot_40B-38921_W_tif
  70
32
  10
481844.500
  20
4598691.566
  30
953.892
  0
VERTEX
  8
PNOA-H_AMS_1956-57_33k_ES_PAN_21mic_H50_0376_fot_40B-38921_W_tif
  70
32
  10
481844.500
  20
4598691.500
  30
953.893
  0
SEQEND
  8
PNOA-H_AMS_1956-57_33k_ES_PAN_21mic_H50_0376_fot_40B-38921_W_tif
  0
INSERT
  8
FeatureAttribs
  2
FEATURE
  41
1
  42
1
  43
1
  50
0
  10
479660.053
  20
4596513.346
 66
1
  0
ATTRIB
  8
FeatureAttribs
 70
0
  1
PNOA-H_AMS_1956-57_33k_ES_PAN_21mic_H50_0376_fot_41B-37408_W.tif
  2
NAME
  10
479660.053
  20
4596513.346
 40
33.50906
  0
SEQEND
  0
POLYLINE
  8
PNOA-H_AMS_1956-57_33k_ES_PAN_21mic_H50_0376_fot_41B-37408_W_tif
  70
9
  66
1
  0
VERTEX
  8
PNOA-H_AMS_1956-57_33k_ES_PAN_21mic_H50_0376_fot_41B-37408_W_tif
  70
32
  10
481104.000
  20
4598365.000
  30
972.776
  0
VERTEX
  8
PNOA-H_AMS_1956-57_33k_ES_PAN_21mic_H50_0376_fot_41B-37408_W_tif
  70
32
  10
481029.635
  20
4594289.191
  30
988.6
  0
VERTEX
  8
PNOA-H_AMS_1956-57_33k_ES_PAN_21mic_H50_0376_fot_41B-37408_W_tif
  70
32
  10
480873.109
  20
4594289.568
  30
0
  0
VERTEX
  8
PNOA-H_AMS_1956-57_33k_ES_PAN_21mic_H50_0376_fot_41B-37408_W_tif
  70
32
  10
478238.531
  20
4594297.185
  30
956.088
  0
VERTEX
  8
PNOA-H_AMS_1956-57_33k_ES_PAN_21mic_H50_0376_fot_41B-37408_W_tif
  70
32
  10
478249.076
  20
4596354.670
  30
914.662
  0
VERTEX
  8
PNOA-H_AMS_1956-57_33k_ES_PAN_21mic_H50_0376_fot_41B-37408_W_tif
  70
32
  10
478259.500
  20
4598388.500
  30
873.711
  0
VERTEX
  8
PNOA-H_AMS_1956-57_33k_ES_PAN_21mic_H50_0376_fot_41B-37408_W_tif
  70
32
  10
478260.000
  20
4598394.000
  30
873.294
  0
VERTEX
  8
PNOA-H_AMS_1956-57_33k_ES_PAN_21mic_H50_0376_fot_41B-37408_W_tif
  70
32
  10
478260.113
  20
4598394.065
  30
873.281
  0
VERTEX
  8
PNOA-H_AMS_1956-57_33k_ES_PAN_21mic_H50_0376_fot_41B-37408_W_tif
  70
32
  10
478263.500
  20
4598396.000
  30
872.898
  0
VERTEX
  8
PNOA-H_AMS_1956-57_33k_ES_PAN_21mic_H50_0376_fot_41B-37408_W_tif
  70
32
  10
479018.000
  20
4598737.500
  30
879.158
  0
VERTEX
  8
PNOA-H_AMS_1956-57_33k_ES_PAN_21mic_H50_0376_fot_41B-37408_W_tif
  70
32
  10
479018.359
  20
4598737.436
  30
879.163
  0
VERTEX
  8
PNOA-H_AMS_1956-57_33k_ES_PAN_21mic_H50_0376_fot_41B-37408_W_tif
  70
32
  10
479689.000
  20
4598618.000
  30
887.738
  0
VERTEX
  8
PNOA-H_AMS_1956-57_33k_ES_PAN_21mic_H50_0376_fot_41B-37408_W_tif
  70
32
  10
479692.000
  20
4598617.500
  30
887.837
  0
VERTEX
  8
PNOA-H_AMS_1956-57_33k_ES_PAN_21mic_H50_0376_fot_41B-37408_W_tif
  70
32
  10
480441.110
  20
4598484.485
  30
933.325
  0
VERTEX
  8
PNOA-H_AMS_1956-57_33k_ES_PAN_21mic_H50_0376_fot_41B-37408_W_tif
  70
32
  10
481091.500
  20
4598369.000
  30
972.818
  0
VERTEX
  8
PNOA-H_AMS_1956-57_33k_ES_PAN_21mic_H50_0376_fot_41B-37408_W_tif
  70
32
  10
481102.500
  20
4598367.000
  30
972.755
  0
VERTEX
  8
PNOA-H_AMS_1956-57_33k_ES_PAN_21mic_H50_0376_fot_41B-37408_W_tif
  70
32
  10
481103.428
  20
4598366.691
  30
972.755
  0
VERTEX
  8
PNOA-H_AMS_1956-57_33k_ES_PAN_21mic_H50_0376_fot_41B-37408_W_tif
  70
32
  10
481104.000
  20
4598366.500
  30
972.755
  0
VERTEX
  8
PNOA-H_AMS_1956-57_33k_ES_PAN_21mic_H50_0376_fot_41B-37408_W_tif
  70
32
  10
481104.000
  20
4598366.000
  30
972.762
  0
VERTEX
  8
PNOA-H_AMS_1956-57_33k_ES_PAN_21mic_H50_0376_fot_41B-37408_W_tif
  70
32
  10
481104.000
  20
4598365.000
  30
972.776
  0
SEQEND
  8
PNOA-H_AMS_1956-57_33k_ES_PAN_21mic_H50_0376_fot_41B-37408_W_tif
  0
INSERT
  8
FeatureAttribs
  2
FEATURE
  41
1
  42
1
  43
1
  50
0
  10
482504.953
  20
4596487.123
 66
1
  0
ATTRIB
  8
FeatureAttribs
 70
0
  1
PNOA-H_AMS_1956-57_33k_ES_PAN_21mic_H50_0376_fot_41B-37407_W.tif
  2
NAME
  10
482504.953
  20
4596487.123
 40
33.50906
  0
SEQEND
  0
POLYLINE
  8
PNOA-H_AMS_1956-57_33k_ES_PAN_21mic_H50_0376_fot_41B-37407_W_tif
  70
9
  66
1
  0
VERTEX
  8
PNOA-H_AMS_1956-57_33k_ES_PAN_21mic_H50_0376_fot_41B-37407_W_tif
  70
32
  10
483964.000
  20
4598335.000
  30
922.136
  0
VERTEX
  8
PNOA-H_AMS_1956-57_33k_ES_PAN_21mic_H50_0376_fot_41B-37407_W_tif
  70
32
  10
483912.326
  20
4594282.246
  30
979.65
  0
VERTEX
  8
PNOA-H_AMS_1956-57_33k_ES_PAN_21mic_H50_0376_fot_41B-37407_W_tif
  70
32
  10
481029.635
  20
4594289.191
  30
988.56
  0
VERTEX
  8
PNOA-H_AMS_1956-57_33k_ES_PAN_21mic_H50_0376_fot_41B-37407_W_tif
  70
32
  10
481103.500
  20
4598365.000
  30
972.778
  0
VERTEX
  8
PNOA-H_AMS_1956-57_33k_ES_PAN_21mic_H50_0376_fot_41B-37407_W_tif
  70
32
  10
481104.000
  20
4598366.000
  30
972.762
  0
VERTEX
  8
PNOA-H_AMS_1956-57_33k_ES_PAN_21mic_H50_0376_fot_41B-37407_W_tif
  70
32
  10
481104.270
  20
4598366.541
  30
972.753
  0
VERTEX
  8
PNOA-H_AMS_1956-57_33k_ES_PAN_21mic_H50_0376_fot_41B-37407_W_tif
  70
32
  10
481104.500
  20
4598367.000
  30
972.746
  0
VERTEX
  8
PNOA-H_AMS_1956-57_33k_ES_PAN_21mic_H50_0376_fot_41B-37407_W_tif
  70
32
  10
481107.500
  20
4598368.500
  30
972.714
  0
VERTEX
  8
PNOA-H_AMS_1956-57_33k_ES_PAN_21mic_H50_0376_fot_41B-37407_W_tif
  70
32
  10
481738.500
  20
4598645.500
  30
960.283
  0
VERTEX
  8
PNOA-H_AMS_1956-57_33k_ES_PAN_21mic_H50_0376_fot_41B-37407_W_tif
  70
32
  10
481739.500
  20
4598646.000
  30
960.413
  0
VERTEX
  8
PNOA-H_AMS_1956-57_33k_ES_PAN_21mic_H50_0376_fot_41B-37407_W_tif
  70
32
  10
481844.500
  20
4598691.566
  30
953.865
  0
VERTEX
  8
PNOA-H_AMS_1956-57_33k_ES_PAN_21mic_H50_0376_fot_41B-37407_W_tif
  70
32
  10
481845.220
  20
4598691.879
  30
953.82
  0
VERTEX
  8
PNOA-H_AMS_1956-57_33k_ES_PAN_21mic_H50_0376_fot_41B-37407_W_tif
  70
32
  10
481845.500
  20
4598692.000
  30
953.803
  0
VERTEX
  8
PNOA-H_AMS_1956-57_33k_ES_PAN_21mic_H50_0376_fot_41B-37407_W_tif
  70
32
  10
483257.833
  20
4598454.000
  30
932.691
  0
VERTEX
  8
PNOA-H_AMS_1956-57_33k_ES_PAN_21mic_H50_0376_fot_41B-37407_W_tif
  70
32
  10
483964.000
  20
4598335.000
  30
922.136
  0
SEQEND
  8
PNOA-H_AMS_1956-57_33k_ES_PAN_21mic_H50_0376_fot_41B-37407_W_tif
  0
INSERT
  8
FeatureAttribs
  2
FEATURE
  41
1
  42
1
  43
1
  50
0
  10
484147.331
  20
4596400.801
 66
1
  0
ATTRIB
  8
FeatureAttribs
 70
0
  1
PNOA-H_AMS_1956-57_33k_ES_PAN_21mic_H50_0377_fot_41B-37406_W.tif
  2
NAME
  10
484147.331
  20
4596400.801
 40
33.50906
  0
SEQEND
  0
POLYLINE
  8
PNOA-H_AMS_1956-57_33k_ES_PAN_21mic_H50_0377_fot_41B-37406_W_tif
  70
9
  66
1
  0
VERTEX
  8
PNOA-H_AMS_1956-57_33k_ES_PAN_21mic_H50_0377_fot_41B-37406_W_tif
  70
32
  10
484355.744
  20
4596594.094
  30
0
  0
VERTEX
  8
PNOA-H_AMS_1956-57_33k_ES_PAN_21mic_H50_0377_fot_41B-37406_W_tif
  70
32
  10
484350.727
  20
4594281.189
  30
0
  0
VERTEX
  8
PNOA-H_AMS_1956-57_33k_ES_PAN_21mic_H50_0377_fot_41B-37406_W_tif
  70
32
  10
483912.326
  20
4594282.246
  30
979.65
  0
VERTEX
  8
PNOA-H_AMS_1956-57_33k_ES_PAN_21mic_H50_0377_fot_41B-37406_W_tif
  70
32
  10
483964.000
  20
4598335.000
  30
922.136
  0
VERTEX
  8
PNOA-H_AMS_1956-57_33k_ES_PAN_21mic_H50_0377_fot_41B-37406_W_tif
  70
32
  10
483964.132
  20
4598335.062
  30
922.128
  0
VERTEX
  8
PNOA-H_AMS_1956-57_33k_ES_PAN_21mic_H50_0377_fot_41B-37406_W_tif
  70
32
  10
484359.923
  20
4598520.412
  30
897.972
  0
VERTEX
  8
PNOA-H_AMS_1956-57_33k_ES_PAN_21mic_H50_0377_fot_41B-37406_W_tif
  70
32
  10
484359.923
  20
4598520.177
  30
0
  0
VERTEX
  8
PNOA-H_AMS_1956-57_33k_ES_PAN_21mic_H50_0377_fot_41B-37406_W_tif
  70
32
  10
484355.744
  20
4596594.094
  30
0
  0
SEQEND
  8
PNOA-H_AMS_1956-57_33k_ES_PAN_21mic_H50_0377_fot_41B-37406_W_tif
  0
ENDSEC
  0
EOF
