  0
SECTION
  2
HEADER
  9
$ACADVER
  1
AC1009
  9
$LUNITS
  70
2
  9
$LIMMIN
  10
428708.556
  20
4594395.143
  9
$LIMMAX
  10
456641.373
  20
4612899.524
  9
$EXTMIN
  10
428708.556
  20
4594395.143
  9
$EXTMAX
  10
456641.373
  20
4612899.524
  999
Created by Global Mapper
  999
Projection: UTM
  999
Datum: ETRS89
  999
Ground Units: meters
  999
ZONE: 30
  0
ENDSEC
  0
SECTION
  2
TABLES
  0
ENDSEC
  0
SECTION
  2
BLOCKS
  0
BLOCK
  8
FeatureAttribs
  70
0
  2
FEATURE
  3
FEATURE
  10
0.00000000
  20
0.00000000
  0
ATTDEF
  8
FeatureAttribs
  70
0
  1
 
  2
NAME
  3
NAME
  10
0.00000000
  20
0.00000000
  40
1.00000000
  0
ENDBLK
  0
ENDSEC
  0
SECTION
  2
ENTITIES
  0
INSERT
  8
FeatureAttribs
  2
FEATURE
  41
1
  42
1
  43
1
  50
0
  10
429521.181
  20
4606045.977
 66
1
  0
ATTRIB
  8
FeatureAttribs
 70
0
  1
PNOA-H_AMS_1956-57_33k_ES_PAN_21mic_H50_0375_fot_39B-51172_E.tif
  2
NAME
  10
429521.181
  20
4606045.977
 40
33.50603
  0
SEQEND
  0
POLYLINE
  8
PNOA-H_AMS_1956-57_33k_ES_PAN_21mic_H50_0375_fot_39B-51172_E_tif
  70
9
  66
1
  0
VERTEX
  8
PNOA-H_AMS_1956-57_33k_ES_PAN_21mic_H50_0375_fot_39B-51172_E_tif
  70
32
  10
430573.000
  20
4603941.500
  30
899.008
  0
VERTEX
  8
PNOA-H_AMS_1956-57_33k_ES_PAN_21mic_H50_0375_fot_39B-51172_E_tif
  70
32
  10
428799.685
  20
4603833.234
  30
933.179
  0
VERTEX
  8
PNOA-H_AMS_1956-57_33k_ES_PAN_21mic_H50_0375_fot_39B-51172_E_tif
  70
32
  10
428799.690
  20
4603833.685
  30
0
  0
VERTEX
  8
PNOA-H_AMS_1956-57_33k_ES_PAN_21mic_H50_0375_fot_39B-51172_E_tif
  70
32
  10
428800.031
  20
4603868.147
  30
0
  0
VERTEX
  8
PNOA-H_AMS_1956-57_33k_ES_PAN_21mic_H50_0375_fot_39B-51172_E_tif
  70
32
  10
428822.923
  20
4606181.115
  30
0
  0
VERTEX
  8
PNOA-H_AMS_1956-57_33k_ES_PAN_21mic_H50_0375_fot_39B-51172_E_tif
  70
32
  10
428843.494
  20
4608258.720
  30
815.064
  0
VERTEX
  8
PNOA-H_AMS_1956-57_33k_ES_PAN_21mic_H50_0375_fot_39B-51172_E_tif
  70
32
  10
429179.500
  20
4608201.349
  30
811.188
  0
VERTEX
  8
PNOA-H_AMS_1956-57_33k_ES_PAN_21mic_H50_0375_fot_39B-51172_E_tif
  70
32
  10
429878.500
  20
4608082.000
  30
803.124
  0
VERTEX
  8
PNOA-H_AMS_1956-57_33k_ES_PAN_21mic_H50_0375_fot_39B-51172_E_tif
  70
32
  10
429878.599
  20
4608081.654
  30
803.125
  0
VERTEX
  8
PNOA-H_AMS_1956-57_33k_ES_PAN_21mic_H50_0375_fot_39B-51172_E_tif
  70
32
  10
429879.507
  20
4608078.474
  30
803.125
  0
VERTEX
  8
PNOA-H_AMS_1956-57_33k_ES_PAN_21mic_H50_0375_fot_39B-51172_E_tif
  70
32
  10
429880.500
  20
4608075.000
  30
803.127
  0
VERTEX
  8
PNOA-H_AMS_1956-57_33k_ES_PAN_21mic_H50_0375_fot_39B-51172_E_tif
  70
32
  10
430540.000
  20
4604142.500
  30
892.62
  0
VERTEX
  8
PNOA-H_AMS_1956-57_33k_ES_PAN_21mic_H50_0375_fot_39B-51172_E_tif
  70
32
  10
430540.000
  20
4604139.787
  30
892.682
  0
VERTEX
  8
PNOA-H_AMS_1956-57_33k_ES_PAN_21mic_H50_0375_fot_39B-51172_E_tif
  70
32
  10
430540.000
  20
4604139.500
  30
892.689
  0
VERTEX
  8
PNOA-H_AMS_1956-57_33k_ES_PAN_21mic_H50_0375_fot_39B-51172_E_tif
  70
32
  10
430572.923
  20
4603941.965
  30
898.994
  0
VERTEX
  8
PNOA-H_AMS_1956-57_33k_ES_PAN_21mic_H50_0375_fot_39B-51172_E_tif
  70
32
  10
430573.000
  20
4603941.500
  30
899.008
  0
SEQEND
  8
PNOA-H_AMS_1956-57_33k_ES_PAN_21mic_H50_0375_fot_39B-51172_E_tif
  0
INSERT
  8
FeatureAttribs
  2
FEATURE
  41
1
  42
1
  43
1
  50
0
  10
434559.933
  20
4599194.000
 66
1
  0
ATTRIB
  8
FeatureAttribs
 70
0
  1
PNOA-H_AMS_1956-57_33k_ES_PAN_21mic_H50_0375_fot_40B-38937_W.tif
  2
NAME
  10
434559.933
  20
4599194.000
 40
33.50603
  0
SEQEND
  0
POLYLINE
  8
PNOA-H_AMS_1956-57_33k_ES_PAN_21mic_H50_0375_fot_40B-38937_W_tif
  70
9
  66
1
  0
VERTEX
  8
PNOA-H_AMS_1956-57_33k_ES_PAN_21mic_H50_0375_fot_40B-38937_W_tif
  70
32
  10
435810.000
  20
4599350.000
  30
882.837
  0
VERTEX
  8
PNOA-H_AMS_1956-57_33k_ES_PAN_21mic_H50_0375_fot_40B-38937_W_tif
  70
32
  10
435810.000
  20
4599280.000
  30
882.837
  0
VERTEX
  8
PNOA-H_AMS_1956-57_33k_ES_PAN_21mic_H50_0375_fot_40B-38937_W_tif
  70
32
  10
436192.398
  20
4599280.000
  30
917.391
  0
VERTEX
  8
PNOA-H_AMS_1956-57_33k_ES_PAN_21mic_H50_0375_fot_40B-38937_W_tif
  70
32
  10
436192.000
  20
4599238.000
  30
918.275
  0
VERTEX
  8
PNOA-H_AMS_1956-57_33k_ES_PAN_21mic_H50_0375_fot_40B-38937_W_tif
  70
32
  10
436189.651
  20
4599237.808
  30
918.289
  0
VERTEX
  8
PNOA-H_AMS_1956-57_33k_ES_PAN_21mic_H50_0375_fot_40B-38937_W_tif
  70
32
  10
433742.500
  20
4599038.000
  30
933.513
  0
VERTEX
  8
PNOA-H_AMS_1956-57_33k_ES_PAN_21mic_H50_0375_fot_40B-38937_W_tif
  70
32
  10
433740.273
  20
4599038.186
  30
933.555
  0
VERTEX
  8
PNOA-H_AMS_1956-57_33k_ES_PAN_21mic_H50_0375_fot_40B-38937_W_tif
  70
32
  10
433737.241
  20
4599038.438
  30
933.61
  0
VERTEX
  8
PNOA-H_AMS_1956-57_33k_ES_PAN_21mic_H50_0375_fot_40B-38937_W_tif
  70
32
  10
433736.500
  20
4599038.500
  30
933.624
  0
VERTEX
  8
PNOA-H_AMS_1956-57_33k_ES_PAN_21mic_H50_0375_fot_40B-38937_W_tif
  70
32
  10
433441.048
  20
4599208.819
  30
946.867
  0
VERTEX
  8
PNOA-H_AMS_1956-57_33k_ES_PAN_21mic_H50_0375_fot_40B-38937_W_tif
  70
32
  10
433439.000
  20
4599210.000
  30
946.958
  0
VERTEX
  8
PNOA-H_AMS_1956-57_33k_ES_PAN_21mic_H50_0375_fot_40B-38937_W_tif
  70
32
  10
433438.988
  20
4599210.496
  30
946.953
  0
VERTEX
  8
PNOA-H_AMS_1956-57_33k_ES_PAN_21mic_H50_0375_fot_40B-38937_W_tif
  70
32
  10
433435.652
  20
4599350.000
  30
945.309
  0
VERTEX
  8
PNOA-H_AMS_1956-57_33k_ES_PAN_21mic_H50_0375_fot_40B-38937_W_tif
  70
32
  10
433435.698
  20
4599350.000
  30
945.308
  0
VERTEX
  8
PNOA-H_AMS_1956-57_33k_ES_PAN_21mic_H50_0375_fot_40B-38937_W_tif
  70
32
  10
435810.000
  20
4599350.000
  30
882.837
  0
SEQEND
  8
PNOA-H_AMS_1956-57_33k_ES_PAN_21mic_H50_0375_fot_40B-38937_W_tif
  0
INSERT
  8
FeatureAttribs
  2
FEATURE
  41
1
  42
1
  43
1
  50
0
  10
435150.914
  20
4603806.750
 66
1
  0
ATTRIB
  8
FeatureAttribs
 70
0
  1
PNOA-H_AMS_1956-57_33k_ES_PAN_21mic_H50_0375_fot_40B-38937_W.tif
  2
NAME
  10
435150.914
  20
4603806.750
 40
33.50603
  0
SEQEND
  0
POLYLINE
  8
PNOA-H_AMS_1956-57_33k_ES_PAN_21mic_H50_0375_fot_40B-38937_W_tif
  70
9
  66
1
  0
VERTEX
  8
PNOA-H_AMS_1956-57_33k_ES_PAN_21mic_H50_0375_fot_40B-38937_W_tif
  70
32
  10
434063.056
  20
4603700.000
  30
854.257
  0
VERTEX
  8
PNOA-H_AMS_1956-57_33k_ES_PAN_21mic_H50_0375_fot_40B-38937_W_tif
  70
32
  10
434061.790
  20
4603700.000
  30
854.27
  0
VERTEX
  8
PNOA-H_AMS_1956-57_33k_ES_PAN_21mic_H50_0375_fot_40B-38937_W_tif
  70
32
  10
434631.500
  20
4603794.000
  30
821.992
  0
VERTEX
  8
PNOA-H_AMS_1956-57_33k_ES_PAN_21mic_H50_0375_fot_40B-38937_W_tif
  70
32
  10
434634.500
  20
4603794.500
  30
821.987
  0
VERTEX
  8
PNOA-H_AMS_1956-57_33k_ES_PAN_21mic_H50_0375_fot_40B-38937_W_tif
  70
32
  10
435177.733
  20
4603883.850
  30
839.599
  0
VERTEX
  8
PNOA-H_AMS_1956-57_33k_ES_PAN_21mic_H50_0375_fot_40B-38937_W_tif
  70
32
  10
435357.633
  20
4603913.440
  30
845.432
  0
VERTEX
  8
PNOA-H_AMS_1956-57_33k_ES_PAN_21mic_H50_0375_fot_40B-38937_W_tif
  70
32
  10
435358.000
  20
4603913.500
  30
845.443
  0
VERTEX
  8
PNOA-H_AMS_1956-57_33k_ES_PAN_21mic_H50_0375_fot_40B-38937_W_tif
  70
32
  10
435827.700
  20
4603700.000
  30
836.215
  0
VERTEX
  8
PNOA-H_AMS_1956-57_33k_ES_PAN_21mic_H50_0375_fot_40B-38937_W_tif
  70
32
  10
435827.200
  20
4603700.000
  30
836.22
  0
VERTEX
  8
PNOA-H_AMS_1956-57_33k_ES_PAN_21mic_H50_0375_fot_40B-38937_W_tif
  70
32
  10
434063.056
  20
4603700.000
  30
854.257
  0
SEQEND
  8
PNOA-H_AMS_1956-57_33k_ES_PAN_21mic_H50_0375_fot_40B-38937_W_tif
  0
INSERT
  8
FeatureAttribs
  2
FEATURE
  41
1
  42
1
  43
1
  50
0
  10
432620.936
  20
4608411.750
 66
1
  0
ATTRIB
  8
FeatureAttribs
 70
0
  1
PNOA-H_AMS_1956-57_33k_ES_PAN_21mic_H50_0375_fot_38C-40547_E.tif
  2
NAME
  10
432620.936
  20
4608411.750
 40
33.50603
  0
SEQEND
  0
POLYLINE
  8
PNOA-H_AMS_1956-57_33k_ES_PAN_21mic_H50_0375_fot_38C-40547_E_tif
  70
9
  66
1
  0
VERTEX
  8
PNOA-H_AMS_1956-57_33k_ES_PAN_21mic_H50_0375_fot_38C-40547_E_tif
  70
32
  10
433805.715
  20
4608600.000
  30
890.908
  0
VERTEX
  8
PNOA-H_AMS_1956-57_33k_ES_PAN_21mic_H50_0375_fot_38C-40547_E_tif
  70
32
  10
432595.000
  20
4608223.500
  30
892.315
  0
VERTEX
  8
PNOA-H_AMS_1956-57_33k_ES_PAN_21mic_H50_0375_fot_38C-40547_E_tif
  70
32
  10
432594.936
  20
4608223.522
  30
892.315
  0
VERTEX
  8
PNOA-H_AMS_1956-57_33k_ES_PAN_21mic_H50_0375_fot_38C-40547_E_tif
  70
32
  10
432195.936
  20
4608359.229
  30
888.933
  0
VERTEX
  8
PNOA-H_AMS_1956-57_33k_ES_PAN_21mic_H50_0375_fot_38C-40547_E_tif
  70
32
  10
431662.941
  20
4608540.510
  30
884.414
  0
VERTEX
  8
PNOA-H_AMS_1956-57_33k_ES_PAN_21mic_H50_0375_fot_38C-40547_E_tif
  70
32
  10
431661.500
  20
4608541.000
  30
884.402
  0
VERTEX
  8
PNOA-H_AMS_1956-57_33k_ES_PAN_21mic_H50_0375_fot_38C-40547_E_tif
  70
32
  10
431651.228
  20
4608600.000
  30
883.289
  0
VERTEX
  8
PNOA-H_AMS_1956-57_33k_ES_PAN_21mic_H50_0375_fot_38C-40547_E_tif
  70
32
  10
431651.234
  20
4608600.000
  30
883.289
  0
VERTEX
  8
PNOA-H_AMS_1956-57_33k_ES_PAN_21mic_H50_0375_fot_38C-40547_E_tif
  70
32
  10
433804.643
  20
4608600.000
  30
890.904
  0
VERTEX
  8
PNOA-H_AMS_1956-57_33k_ES_PAN_21mic_H50_0375_fot_38C-40547_E_tif
  70
32
  10
433805.715
  20
4608600.000
  30
890.908
  0
SEQEND
  8
PNOA-H_AMS_1956-57_33k_ES_PAN_21mic_H50_0375_fot_38C-40547_E_tif
  0
INSERT
  8
FeatureAttribs
  2
FEATURE
  41
1
  42
1
  43
1
  50
0
  10
431913.404
  20
4599190.250
 66
1
  0
ATTRIB
  8
FeatureAttribs
 70
0
  1
PNOA-H_AMS_1956-57_33k_ES_PAN_21mic_H50_0375_fot_40B-38938_W.tif
  2
NAME
  10
431913.404
  20
4599190.250
 40
33.50603
  0
SEQEND
  0
POLYLINE
  8
PNOA-H_AMS_1956-57_33k_ES_PAN_21mic_H50_0375_fot_40B-38938_W_tif
  70
9
  66
1
  0
VERTEX
  8
PNOA-H_AMS_1956-57_33k_ES_PAN_21mic_H50_0375_fot_40B-38938_W_tif
  70
32
  10
433437.500
  20
4599210.000
  30
947.076
  0
VERTEX
  8
PNOA-H_AMS_1956-57_33k_ES_PAN_21mic_H50_0375_fot_40B-38938_W_tif
  70
32
  10
430946.999
  20
4599030.501
  30
949.916
  0
VERTEX
  8
PNOA-H_AMS_1956-57_33k_ES_PAN_21mic_H50_0375_fot_40B-38938_W_tif
  70
32
  10
430379.659
  20
4599350.000
  30
950.249
  0
VERTEX
  8
PNOA-H_AMS_1956-57_33k_ES_PAN_21mic_H50_0375_fot_40B-38938_W_tif
  70
32
  10
430380.649
  20
4599350.000
  30
950.247
  0
VERTEX
  8
PNOA-H_AMS_1956-57_33k_ES_PAN_21mic_H50_0375_fot_40B-38938_W_tif
  70
32
  10
433435.652
  20
4599350.000
  30
945.128
  0
VERTEX
  8
PNOA-H_AMS_1956-57_33k_ES_PAN_21mic_H50_0375_fot_40B-38938_W_tif
  70
32
  10
433435.698
  20
4599350.000
  30
945.128
  0
VERTEX
  8
PNOA-H_AMS_1956-57_33k_ES_PAN_21mic_H50_0375_fot_40B-38938_W_tif
  70
32
  10
433439.000
  20
4599212.000
  30
946.747
  0
VERTEX
  8
PNOA-H_AMS_1956-57_33k_ES_PAN_21mic_H50_0375_fot_40B-38938_W_tif
  70
32
  10
433439.000
  20
4599210.500
  30
946.906
  0
VERTEX
  8
PNOA-H_AMS_1956-57_33k_ES_PAN_21mic_H50_0375_fot_40B-38938_W_tif
  70
32
  10
433438.988
  20
4599210.496
  30
946.907
  0
VERTEX
  8
PNOA-H_AMS_1956-57_33k_ES_PAN_21mic_H50_0375_fot_40B-38938_W_tif
  70
32
  10
433438.120
  20
4599210.207
  30
947.006
  0
VERTEX
  8
PNOA-H_AMS_1956-57_33k_ES_PAN_21mic_H50_0375_fot_40B-38938_W_tif
  70
32
  10
433437.500
  20
4599210.000
  30
947.076
  0
SEQEND
  8
PNOA-H_AMS_1956-57_33k_ES_PAN_21mic_H50_0375_fot_40B-38938_W_tif
  0
INSERT
  8
FeatureAttribs
  2
FEATURE
  41
1
  42
1
  43
1
  50
0
  10
432293.856
  20
4603814.750
 66
1
  0
ATTRIB
  8
FeatureAttribs
 70
0
  1
PNOA-H_AMS_1956-57_33k_ES_PAN_21mic_H50_0375_fot_40B-38938_W.tif
  2
NAME
  10
432293.856
  20
4603814.750
 40
33.50603
  0
SEQEND
  0
POLYLINE
  8
PNOA-H_AMS_1956-57_33k_ES_PAN_21mic_H50_0375_fot_40B-38938_W_tif
  70
9
  66
1
  0
VERTEX
  8
PNOA-H_AMS_1956-57_33k_ES_PAN_21mic_H50_0375_fot_40B-38938_W_tif
  70
32
  10
431258.799
  20
4603700.000
  30
914.727
  0
VERTEX
  8
PNOA-H_AMS_1956-57_33k_ES_PAN_21mic_H50_0375_fot_40B-38938_W_tif
  70
32
  10
431258.516
  20
4603700.000
  30
914.732
  0
VERTEX
  8
PNOA-H_AMS_1956-57_33k_ES_PAN_21mic_H50_0375_fot_40B-38938_W_tif
  70
32
  10
431261.000
  20
4603711.500
  30
914.638
  0
VERTEX
  8
PNOA-H_AMS_1956-57_33k_ES_PAN_21mic_H50_0375_fot_40B-38938_W_tif
  70
32
  10
431261.326
  20
4603711.696
  30
914.6
  0
VERTEX
  8
PNOA-H_AMS_1956-57_33k_ES_PAN_21mic_H50_0375_fot_40B-38938_W_tif
  70
32
  10
431263.500
  20
4603713.000
  30
914.348
  0
VERTEX
  8
PNOA-H_AMS_1956-57_33k_ES_PAN_21mic_H50_0375_fot_40B-38938_W_tif
  70
32
  10
431276.454
  20
4603715.355
  30
913.117
  0
VERTEX
  8
PNOA-H_AMS_1956-57_33k_ES_PAN_21mic_H50_0375_fot_40B-38938_W_tif
  70
32
  10
431280.000
  20
4603716.000
  30
912.78
  0
VERTEX
  8
PNOA-H_AMS_1956-57_33k_ES_PAN_21mic_H50_0375_fot_40B-38938_W_tif
  70
32
  10
432468.500
  20
4603929.000
  30
845.639
  0
VERTEX
  8
PNOA-H_AMS_1956-57_33k_ES_PAN_21mic_H50_0375_fot_40B-38938_W_tif
  70
32
  10
432471.500
  20
4603929.500
  30
845.636
  0
VERTEX
  8
PNOA-H_AMS_1956-57_33k_ES_PAN_21mic_H50_0375_fot_40B-38938_W_tif
  70
32
  10
432472.383
  20
4603929.390
  30
845.809
  0
VERTEX
  8
PNOA-H_AMS_1956-57_33k_ES_PAN_21mic_H50_0375_fot_40B-38938_W_tif
  70
32
  10
432473.669
  20
4603929.229
  30
846.06
  0
VERTEX
  8
PNOA-H_AMS_1956-57_33k_ES_PAN_21mic_H50_0375_fot_40B-38938_W_tif
  70
32
  10
432475.500
  20
4603929.000
  30
846.417
  0
VERTEX
  8
PNOA-H_AMS_1956-57_33k_ES_PAN_21mic_H50_0375_fot_40B-38938_W_tif
  70
32
  10
432955.434
  20
4603734.009
  30
873.827
  0
VERTEX
  8
PNOA-H_AMS_1956-57_33k_ES_PAN_21mic_H50_0375_fot_40B-38938_W_tif
  70
32
  10
433039.142
  20
4603700.000
  30
878.608
  0
VERTEX
  8
PNOA-H_AMS_1956-57_33k_ES_PAN_21mic_H50_0375_fot_40B-38938_W_tif
  70
32
  10
431258.799
  20
4603700.000
  30
914.727
  0
SEQEND
  8
PNOA-H_AMS_1956-57_33k_ES_PAN_21mic_H50_0375_fot_40B-38938_W_tif
  0
INSERT
  8
FeatureAttribs
  2
FEATURE
  41
1
  42
1
  43
1
  50
0
  10
435364.230
  20
4608356.250
 66
1
  0
ATTRIB
  8
FeatureAttribs
 70
0
  1
PNOA-H_AMS_1956-57_33k_ES_PAN_21mic_H50_0375_fot_38C-40548_E.tif
  2
NAME
  10
435364.230
  20
4608356.250
 40
33.50603
  0
SEQEND
  0
POLYLINE
  8
PNOA-H_AMS_1956-57_33k_ES_PAN_21mic_H50_0375_fot_38C-40548_E_tif
  70
9
  66
1
  0
VERTEX
  8
PNOA-H_AMS_1956-57_33k_ES_PAN_21mic_H50_0375_fot_38C-40548_E_tif
  70
32
  10
435890.000
  20
4608218.176
  30
884.941
  0
VERTEX
  8
PNOA-H_AMS_1956-57_33k_ES_PAN_21mic_H50_0375_fot_38C-40548_E_tif
  70
32
  10
435562.000
  20
4608112.500
  30
893.7
  0
VERTEX
  8
PNOA-H_AMS_1956-57_33k_ES_PAN_21mic_H50_0375_fot_38C-40548_E_tif
  70
32
  10
435561.755
  20
4608112.582
  30
893.699
  0
VERTEX
  8
PNOA-H_AMS_1956-57_33k_ES_PAN_21mic_H50_0375_fot_38C-40548_E_tif
  70
32
  10
435561.484
  20
4608112.674
  30
893.699
  0
VERTEX
  8
PNOA-H_AMS_1956-57_33k_ES_PAN_21mic_H50_0375_fot_38C-40548_E_tif
  70
32
  10
434114.919
  20
4608600.000
  30
890.998
  0
VERTEX
  8
PNOA-H_AMS_1956-57_33k_ES_PAN_21mic_H50_0375_fot_38C-40548_E_tif
  70
32
  10
434116.360
  20
4608600.000
  30
890.951
  0
VERTEX
  8
PNOA-H_AMS_1956-57_33k_ES_PAN_21mic_H50_0375_fot_38C-40548_E_tif
  70
32
  10
435890.000
  20
4608600.000
  30
833.919
  0
VERTEX
  8
PNOA-H_AMS_1956-57_33k_ES_PAN_21mic_H50_0375_fot_38C-40548_E_tif
  70
32
  10
435890.000
  20
4608218.415
  30
884.909
  0
VERTEX
  8
PNOA-H_AMS_1956-57_33k_ES_PAN_21mic_H50_0375_fot_38C-40548_E_tif
  70
32
  10
435890.000
  20
4608218.176
  30
884.941
  0
SEQEND
  8
PNOA-H_AMS_1956-57_33k_ES_PAN_21mic_H50_0375_fot_38C-40548_E_tif
  0
INSERT
  8
FeatureAttribs
  2
FEATURE
  41
1
  42
1
  43
1
  50
0
  10
435673.443
  20
4605959.207
 66
1
  0
ATTRIB
  8
FeatureAttribs
 70
0
  1
PNOA-H_AMS_1956-57_33k_ES_PAN_21mic_H50_0375_fot_39C-51164_W.tif
  2
NAME
  10
435673.443
  20
4605959.207
 40
33.50603
  0
SEQEND
  0
POLYLINE
  8
PNOA-H_AMS_1956-57_33k_ES_PAN_21mic_H50_0375_fot_39C-51164_W_tif
  70
9
  66
1
  0
VERTEX
  8
PNOA-H_AMS_1956-57_33k_ES_PAN_21mic_H50_0375_fot_39C-51164_W_tif
  70
32
  10
435827.700
  20
4603700.000
  30
836.456
  0
VERTEX
  8
PNOA-H_AMS_1956-57_33k_ES_PAN_21mic_H50_0375_fot_39C-51164_W_tif
  70
32
  10
435827.200
  20
4603700.000
  30
836.309
  0
VERTEX
  8
PNOA-H_AMS_1956-57_33k_ES_PAN_21mic_H50_0375_fot_39C-51164_W_tif
  70
32
  10
435357.633
  20
4603913.440
  30
845.629
  0
VERTEX
  8
PNOA-H_AMS_1956-57_33k_ES_PAN_21mic_H50_0375_fot_39C-51164_W_tif
  70
32
  10
435357.500
  20
4603913.500
  30
845.632
  0
VERTEX
  8
PNOA-H_AMS_1956-57_33k_ES_PAN_21mic_H50_0375_fot_39C-51164_W_tif
  70
32
  10
435561.500
  20
4608112.500
  30
893.694
  0
VERTEX
  8
PNOA-H_AMS_1956-57_33k_ES_PAN_21mic_H50_0375_fot_39C-51164_W_tif
  70
32
  10
435561.755
  20
4608112.582
  30
893.688
  0
VERTEX
  8
PNOA-H_AMS_1956-57_33k_ES_PAN_21mic_H50_0375_fot_39C-51164_W_tif
  70
32
  10
435890.000
  20
4608218.415
  30
884.916
  0
VERTEX
  8
PNOA-H_AMS_1956-57_33k_ES_PAN_21mic_H50_0375_fot_39C-51164_W_tif
  70
32
  10
435890.000
  20
4608218.176
  30
884.914
  0
VERTEX
  8
PNOA-H_AMS_1956-57_33k_ES_PAN_21mic_H50_0375_fot_39C-51164_W_tif
  70
32
  10
435890.000
  20
4603700.000
  30
854.766
  0
VERTEX
  8
PNOA-H_AMS_1956-57_33k_ES_PAN_21mic_H50_0375_fot_39C-51164_W_tif
  70
32
  10
435827.700
  20
4603700.000
  30
836.456
  0
SEQEND
  8
PNOA-H_AMS_1956-57_33k_ES_PAN_21mic_H50_0375_fot_39C-51164_W_tif
  0
INSERT
  8
FeatureAttribs
  2
FEATURE
  41
1
  42
1
  43
1
  50
0
  10
431371.036
  20
4606126.750
 66
1
  0
ATTRIB
  8
FeatureAttribs
 70
0
  1
PNOA-H_AMS_1956-57_33k_ES_PAN_21mic_H50_0375_fot_39C-51166_W.tif
  2
NAME
  10
431371.036
  20
4606126.750
 40
33.50603
  0
SEQEND
  0
POLYLINE
  8
PNOA-H_AMS_1956-57_33k_ES_PAN_21mic_H50_0375_fot_39C-51166_W_tif
  70
9
  66
1
  0
VERTEX
  8
PNOA-H_AMS_1956-57_33k_ES_PAN_21mic_H50_0375_fot_39C-51166_W_tif
  70
32
  10
431261.151
  20
4603712.616
  30
914.627
  0
VERTEX
  8
PNOA-H_AMS_1956-57_33k_ES_PAN_21mic_H50_0375_fot_39C-51166_W_tif
  70
32
  10
431260.500
  20
4603712.500
  30
914.664
  0
VERTEX
  8
PNOA-H_AMS_1956-57_33k_ES_PAN_21mic_H50_0375_fot_39C-51166_W_tif
  70
32
  10
430573.500
  20
4603941.500
  30
899.036
  0
VERTEX
  8
PNOA-H_AMS_1956-57_33k_ES_PAN_21mic_H50_0375_fot_39C-51166_W_tif
  70
32
  10
430573.337
  20
4603941.990
  30
899.016
  0
VERTEX
  8
PNOA-H_AMS_1956-57_33k_ES_PAN_21mic_H50_0375_fot_39C-51166_W_tif
  70
32
  10
430573.000
  20
4603943.000
  30
898.975
  0
VERTEX
  8
PNOA-H_AMS_1956-57_33k_ES_PAN_21mic_H50_0375_fot_39C-51166_W_tif
  70
32
  10
430540.000
  20
4604139.787
  30
894.417
  0
VERTEX
  8
PNOA-H_AMS_1956-57_33k_ES_PAN_21mic_H50_0375_fot_39C-51166_W_tif
  70
32
  10
429879.507
  20
4608078.474
  30
803.19
  0
VERTEX
  8
PNOA-H_AMS_1956-57_33k_ES_PAN_21mic_H50_0375_fot_39C-51166_W_tif
  70
32
  10
429879.000
  20
4608081.500
  30
803.12
  0
VERTEX
  8
PNOA-H_AMS_1956-57_33k_ES_PAN_21mic_H50_0375_fot_39C-51166_W_tif
  70
32
  10
429879.199
  20
4608081.551
  30
803.129
  0
VERTEX
  8
PNOA-H_AMS_1956-57_33k_ES_PAN_21mic_H50_0375_fot_39C-51166_W_tif
  70
32
  10
431660.000
  20
4608541.000
  30
884.278
  0
VERTEX
  8
PNOA-H_AMS_1956-57_33k_ES_PAN_21mic_H50_0375_fot_39C-51166_W_tif
  70
32
  10
431660.911
  20
4608540.848
  30
884.397
  0
VERTEX
  8
PNOA-H_AMS_1956-57_33k_ES_PAN_21mic_H50_0375_fot_39C-51166_W_tif
  70
32
  10
431662.941
  20
4608540.510
  30
884.663
  0
VERTEX
  8
PNOA-H_AMS_1956-57_33k_ES_PAN_21mic_H50_0375_fot_39C-51166_W_tif
  70
32
  10
431666.000
  20
4608540.000
  30
885.063
  0
VERTEX
  8
PNOA-H_AMS_1956-57_33k_ES_PAN_21mic_H50_0375_fot_39C-51166_W_tif
  70
32
  10
432195.936
  20
4608359.229
  30
889.648
  0
VERTEX
  8
PNOA-H_AMS_1956-57_33k_ES_PAN_21mic_H50_0375_fot_39C-51166_W_tif
  70
32
  10
432586.500
  20
4608226.000
  30
893.027
  0
VERTEX
  8
PNOA-H_AMS_1956-57_33k_ES_PAN_21mic_H50_0375_fot_39C-51166_W_tif
  70
32
  10
432588.000
  20
4608225.500
  30
892.913
  0
VERTEX
  8
PNOA-H_AMS_1956-57_33k_ES_PAN_21mic_H50_0375_fot_39C-51166_W_tif
  70
32
  10
432594.500
  20
4608223.500
  30
892.369
  0
VERTEX
  8
PNOA-H_AMS_1956-57_33k_ES_PAN_21mic_H50_0375_fot_39C-51166_W_tif
  70
32
  10
432594.500
  20
4608220.250
  30
892.507
  0
VERTEX
  8
PNOA-H_AMS_1956-57_33k_ES_PAN_21mic_H50_0375_fot_39C-51166_W_tif
  70
32
  10
432594.500
  20
4608216.500
  30
892.666
  0
VERTEX
  8
PNOA-H_AMS_1956-57_33k_ES_PAN_21mic_H50_0375_fot_39C-51166_W_tif
  70
32
  10
432587.500
  20
4607969.512
  30
889.966
  0
VERTEX
  8
PNOA-H_AMS_1956-57_33k_ES_PAN_21mic_H50_0375_fot_39C-51166_W_tif
  70
32
  10
432473.000
  20
4603929.500
  30
845.794
  0
VERTEX
  8
PNOA-H_AMS_1956-57_33k_ES_PAN_21mic_H50_0375_fot_39C-51166_W_tif
  70
32
  10
432472.383
  20
4603929.390
  30
845.829
  0
VERTEX
  8
PNOA-H_AMS_1956-57_33k_ES_PAN_21mic_H50_0375_fot_39C-51166_W_tif
  70
32
  10
431276.454
  20
4603715.355
  30
913.758
  0
VERTEX
  8
PNOA-H_AMS_1956-57_33k_ES_PAN_21mic_H50_0375_fot_39C-51166_W_tif
  70
32
  10
431261.151
  20
4603712.616
  30
914.627
  0
SEQEND
  8
PNOA-H_AMS_1956-57_33k_ES_PAN_21mic_H50_0375_fot_39C-51166_W_tif
  0
INSERT
  8
FeatureAttribs
  2
FEATURE
  41
1
  42
1
  43
1
  50
0
  10
434001.046
  20
4606150.000
 66
1
  0
ATTRIB
  8
FeatureAttribs
 70
0
  1
PNOA-H_AMS_1956-57_33k_ES_PAN_21mic_H50_0375_fot_39C-51165_W.tif
  2
NAME
  10
434001.046
  20
4606150.000
 40
33.50603
  0
SEQEND
  0
POLYLINE
  8
PNOA-H_AMS_1956-57_33k_ES_PAN_21mic_H50_0375_fot_39C-51165_W_tif
  70
9
  66
1
  0
VERTEX
  8
PNOA-H_AMS_1956-57_33k_ES_PAN_21mic_H50_0375_fot_39C-51165_W_tif
  70
32
  10
434061.790
  20
4603700.000
  30
877.508
  0
VERTEX
  8
PNOA-H_AMS_1956-57_33k_ES_PAN_21mic_H50_0375_fot_39C-51165_W_tif
  70
32
  10
433039.363
  20
4603700.000
  30
878.383
  0
VERTEX
  8
PNOA-H_AMS_1956-57_33k_ES_PAN_21mic_H50_0375_fot_39C-51165_W_tif
  70
32
  10
432955.434
  20
4603734.009
  30
873.554
  0
VERTEX
  8
PNOA-H_AMS_1956-57_33k_ES_PAN_21mic_H50_0375_fot_39C-51165_W_tif
  70
32
  10
432473.669
  20
4603929.229
  30
845.833
  0
VERTEX
  8
PNOA-H_AMS_1956-57_33k_ES_PAN_21mic_H50_0375_fot_39C-51165_W_tif
  70
32
  10
432473.000
  20
4603929.500
  30
845.794
  0
VERTEX
  8
PNOA-H_AMS_1956-57_33k_ES_PAN_21mic_H50_0375_fot_39C-51165_W_tif
  70
32
  10
432587.500
  20
4607968.500
  30
899.25
  0
VERTEX
  8
PNOA-H_AMS_1956-57_33k_ES_PAN_21mic_H50_0375_fot_39C-51165_W_tif
  70
32
  10
432587.500
  20
4607969.512
  30
899.182
  0
VERTEX
  8
PNOA-H_AMS_1956-57_33k_ES_PAN_21mic_H50_0375_fot_39C-51165_W_tif
  70
32
  10
432587.500
  20
4607986.500
  30
898.045
  0
VERTEX
  8
PNOA-H_AMS_1956-57_33k_ES_PAN_21mic_H50_0375_fot_39C-51165_W_tif
  70
32
  10
432594.000
  20
4608216.500
  30
892.708
  0
VERTEX
  8
PNOA-H_AMS_1956-57_33k_ES_PAN_21mic_H50_0375_fot_39C-51165_W_tif
  70
32
  10
432594.500
  20
4608220.250
  30
892.498
  0
VERTEX
  8
PNOA-H_AMS_1956-57_33k_ES_PAN_21mic_H50_0375_fot_39C-51165_W_tif
  70
32
  10
432594.936
  20
4608223.522
  30
892.315
  0
VERTEX
  8
PNOA-H_AMS_1956-57_33k_ES_PAN_21mic_H50_0375_fot_39C-51165_W_tif
  70
32
  10
432595.000
  20
4608224.000
  30
892.289
  0
VERTEX
  8
PNOA-H_AMS_1956-57_33k_ES_PAN_21mic_H50_0375_fot_39C-51165_W_tif
  70
32
  10
433804.643
  20
4608600.000
  30
890.895
  0
VERTEX
  8
PNOA-H_AMS_1956-57_33k_ES_PAN_21mic_H50_0375_fot_39C-51165_W_tif
  70
32
  10
433805.715
  20
4608600.000
  30
890.896
  0
VERTEX
  8
PNOA-H_AMS_1956-57_33k_ES_PAN_21mic_H50_0375_fot_39C-51165_W_tif
  70
32
  10
434114.919
  20
4608600.000
  30
891.215
  0
VERTEX
  8
PNOA-H_AMS_1956-57_33k_ES_PAN_21mic_H50_0375_fot_39C-51165_W_tif
  70
32
  10
434116.360
  20
4608600.000
  30
891.216
  0
VERTEX
  8
PNOA-H_AMS_1956-57_33k_ES_PAN_21mic_H50_0375_fot_39C-51165_W_tif
  70
32
  10
435561.500
  20
4608113.000
  30
893.693
  0
VERTEX
  8
PNOA-H_AMS_1956-57_33k_ES_PAN_21mic_H50_0375_fot_39C-51165_W_tif
  70
32
  10
435561.484
  20
4608112.674
  30
893.689
  0
VERTEX
  8
PNOA-H_AMS_1956-57_33k_ES_PAN_21mic_H50_0375_fot_39C-51165_W_tif
  70
32
  10
435357.500
  20
4603913.500
  30
845.632
  0
VERTEX
  8
PNOA-H_AMS_1956-57_33k_ES_PAN_21mic_H50_0375_fot_39C-51165_W_tif
  70
32
  10
435177.733
  20
4603883.850
  30
850.058
  0
VERTEX
  8
PNOA-H_AMS_1956-57_33k_ES_PAN_21mic_H50_0375_fot_39C-51165_W_tif
  70
32
  10
434063.056
  20
4603700.000
  30
877.507
  0
VERTEX
  8
PNOA-H_AMS_1956-57_33k_ES_PAN_21mic_H50_0375_fot_39C-51165_W_tif
  70
32
  10
434061.790
  20
4603700.000
  30
877.508
  0
SEQEND
  8
PNOA-H_AMS_1956-57_33k_ES_PAN_21mic_H50_0375_fot_39C-51165_W_tif
  0
INSERT
  8
FeatureAttribs
  2
FEATURE
  41
1
  42
1
  43
1
  50
0
  10
429864.606
  20
4608340.750
 66
1
  0
ATTRIB
  8
FeatureAttribs
 70
0
  1
PNOA-H_AMS_1956-57_33k_ES_PAN_21mic_H50_0375_fot_38B-30524_E.tif
  2
NAME
  10
429864.606
  20
4608340.750
 40
33.50603
  0
SEQEND
  0
POLYLINE
  8
PNOA-H_AMS_1956-57_33k_ES_PAN_21mic_H50_0375_fot_38B-30524_E_tif
  70
9
  66
1
  0
VERTEX
  8
PNOA-H_AMS_1956-57_33k_ES_PAN_21mic_H50_0375_fot_38B-30524_E_tif
  70
32
  10
431660.911
  20
4608540.848
  30
884.375
  0
VERTEX
  8
PNOA-H_AMS_1956-57_33k_ES_PAN_21mic_H50_0375_fot_38B-30524_E_tif
  70
32
  10
429879.500
  20
4608081.500
  30
803.112
  0
VERTEX
  8
PNOA-H_AMS_1956-57_33k_ES_PAN_21mic_H50_0375_fot_38B-30524_E_tif
  70
32
  10
429879.199
  20
4608081.551
  30
803.116
  0
VERTEX
  8
PNOA-H_AMS_1956-57_33k_ES_PAN_21mic_H50_0375_fot_38B-30524_E_tif
  70
32
  10
429878.599
  20
4608081.654
  30
803.122
  0
VERTEX
  8
PNOA-H_AMS_1956-57_33k_ES_PAN_21mic_H50_0375_fot_38B-30524_E_tif
  70
32
  10
429179.500
  20
4608201.349
  30
811.193
  0
VERTEX
  8
PNOA-H_AMS_1956-57_33k_ES_PAN_21mic_H50_0375_fot_38B-30524_E_tif
  70
32
  10
428843.496
  20
4608258.878
  30
815.072
  0
VERTEX
  8
PNOA-H_AMS_1956-57_33k_ES_PAN_21mic_H50_0375_fot_38B-30524_E_tif
  70
32
  10
428845.825
  20
4608494.091
  30
0
  0
VERTEX
  8
PNOA-H_AMS_1956-57_33k_ES_PAN_21mic_H50_0375_fot_38B-30524_E_tif
  70
32
  10
428846.874
  20
4608600.000
  30
812.305
  0
VERTEX
  8
PNOA-H_AMS_1956-57_33k_ES_PAN_21mic_H50_0375_fot_38B-30524_E_tif
  70
32
  10
431651.228
  20
4608600.000
  30
883.288
  0
VERTEX
  8
PNOA-H_AMS_1956-57_33k_ES_PAN_21mic_H50_0375_fot_38B-30524_E_tif
  70
32
  10
431651.234
  20
4608600.000
  30
883.288
  0
VERTEX
  8
PNOA-H_AMS_1956-57_33k_ES_PAN_21mic_H50_0375_fot_38B-30524_E_tif
  70
32
  10
431661.500
  20
4608541.000
  30
884.402
  0
VERTEX
  8
PNOA-H_AMS_1956-57_33k_ES_PAN_21mic_H50_0375_fot_38B-30524_E_tif
  70
32
  10
431660.911
  20
4608540.848
  30
884.375
  0
SEQEND
  8
PNOA-H_AMS_1956-57_33k_ES_PAN_21mic_H50_0375_fot_38B-30524_E_tif
  0
INSERT
  8
FeatureAttribs
  2
FEATURE
  41
1
  42
1
  43
1
  50
0
  10
429867.900
  20
4603821.000
 66
1
  0
ATTRIB
  8
FeatureAttribs
 70
0
  1
PNOA-H_AMS_1956-57_33k_ES_PAN_21mic_H50_0375_fot_40A-28209_E.tif
  2
NAME
  10
429867.900
  20
4603821.000
 40
33.50603
  0
SEQEND
  0
POLYLINE
  8
PNOA-H_AMS_1956-57_33k_ES_PAN_21mic_H50_0375_fot_40A-28209_E_tif
  70
9
  66
1
  0
VERTEX
  8
PNOA-H_AMS_1956-57_33k_ES_PAN_21mic_H50_0375_fot_40A-28209_E_tif
  70
32
  10
431258.516
  20
4603700.000
  30
914.658
  0
VERTEX
  8
PNOA-H_AMS_1956-57_33k_ES_PAN_21mic_H50_0375_fot_40A-28209_E_tif
  70
32
  10
428798.367
  20
4603700.000
  30
934.969
  0
VERTEX
  8
PNOA-H_AMS_1956-57_33k_ES_PAN_21mic_H50_0375_fot_40A-28209_E_tif
  70
32
  10
428799.685
  20
4603833.234
  30
0
  0
VERTEX
  8
PNOA-H_AMS_1956-57_33k_ES_PAN_21mic_H50_0375_fot_40A-28209_E_tif
  70
32
  10
428799.690
  20
4603833.685
  30
939.298
  0
VERTEX
  8
PNOA-H_AMS_1956-57_33k_ES_PAN_21mic_H50_0375_fot_40A-28209_E_tif
  70
32
  10
430572.923
  20
4603941.965
  30
899.037
  0
VERTEX
  8
PNOA-H_AMS_1956-57_33k_ES_PAN_21mic_H50_0375_fot_40A-28209_E_tif
  70
32
  10
430573.337
  20
4603941.990
  30
899.028
  0
VERTEX
  8
PNOA-H_AMS_1956-57_33k_ES_PAN_21mic_H50_0375_fot_40A-28209_E_tif
  70
32
  10
430573.500
  20
4603942.000
  30
899.024
  0
VERTEX
  8
PNOA-H_AMS_1956-57_33k_ES_PAN_21mic_H50_0375_fot_40A-28209_E_tif
  70
32
  10
431261.151
  20
4603712.616
  30
914.544
  0
VERTEX
  8
PNOA-H_AMS_1956-57_33k_ES_PAN_21mic_H50_0375_fot_40A-28209_E_tif
  70
32
  10
431261.500
  20
4603712.500
  30
914.552
  0
VERTEX
  8
PNOA-H_AMS_1956-57_33k_ES_PAN_21mic_H50_0375_fot_40A-28209_E_tif
  70
32
  10
431261.326
  20
4603711.696
  30
914.559
  0
VERTEX
  8
PNOA-H_AMS_1956-57_33k_ES_PAN_21mic_H50_0375_fot_40A-28209_E_tif
  70
32
  10
431258.799
  20
4603700.000
  30
914.655
  0
VERTEX
  8
PNOA-H_AMS_1956-57_33k_ES_PAN_21mic_H50_0375_fot_40A-28209_E_tif
  70
32
  10
431258.516
  20
4603700.000
  30
914.658
  0
SEQEND
  8
PNOA-H_AMS_1956-57_33k_ES_PAN_21mic_H50_0375_fot_40A-28209_E_tif
  0
INSERT
  8
FeatureAttribs
  2
FEATURE
  41
1
  42
1
  43
1
  50
0
  10
436368.710
  20
4594608.573
 66
1
  0
ATTRIB
  8
FeatureAttribs
 70
0
  1
PNOA-H_AMS_1956-57_33k_ES_PAN_21mic_H50_0403_fot_42B-36294_E.tif
  2
NAME
  10
436368.710
  20
4594608.573
 40
33.50603
  0
SEQEND
  0
POLYLINE
  8
PNOA-H_AMS_1956-57_33k_ES_PAN_21mic_H50_0403_fot_42B-36294_E_tif
  70
9
  66
1
  0
VERTEX
  8
PNOA-H_AMS_1956-57_33k_ES_PAN_21mic_H50_0403_fot_42B-36294_E_tif
  70
32
  10
436684.000
  20
4594587.000
  30
965.758
  0
VERTEX
  8
PNOA-H_AMS_1956-57_33k_ES_PAN_21mic_H50_0403_fot_42B-36294_E_tif
  70
32
  10
436799.574
  20
4594541.146
  30
972.447
  0
VERTEX
  8
PNOA-H_AMS_1956-57_33k_ES_PAN_21mic_H50_0403_fot_42B-36294_E_tif
  70
32
  10
435801.542
  20
4594549.803
  30
0
  0
VERTEX
  8
PNOA-H_AMS_1956-57_33k_ES_PAN_21mic_H50_0403_fot_42B-36294_E_tif
  70
32
  10
435799.719
  20
4594549.819
  30
1017.234
  0
VERTEX
  8
PNOA-H_AMS_1956-57_33k_ES_PAN_21mic_H50_0403_fot_42B-36294_E_tif
  70
32
  10
436460.500
  20
4594676.000
  30
973.474
  0
VERTEX
  8
PNOA-H_AMS_1956-57_33k_ES_PAN_21mic_H50_0403_fot_42B-36294_E_tif
  70
32
  10
436460.662
  20
4594675.935
  30
973.469
  0
VERTEX
  8
PNOA-H_AMS_1956-57_33k_ES_PAN_21mic_H50_0403_fot_42B-36294_E_tif
  70
32
  10
436683.000
  20
4594587.500
  30
965.418
  0
VERTEX
  8
PNOA-H_AMS_1956-57_33k_ES_PAN_21mic_H50_0403_fot_42B-36294_E_tif
  70
32
  10
436684.000
  20
4594587.000
  30
965.758
  0
SEQEND
  8
PNOA-H_AMS_1956-57_33k_ES_PAN_21mic_H50_0403_fot_42B-36294_E_tif
  0
INSERT
  8
FeatureAttribs
  2
FEATURE
  41
1
  42
1
  43
1
  50
0
  10
429835.869
  20
4596975.078
 66
1
  0
ATTRIB
  8
FeatureAttribs
 70
0
  1
PNOA-H_AMS_1956-57_33k_ES_PAN_21mic_H50_0375_fot_41B-37426_W.tif
  2
NAME
  10
429835.869
  20
4596975.078
 40
33.50603
  0
SEQEND
  0
POLYLINE
  8
PNOA-H_AMS_1956-57_33k_ES_PAN_21mic_H50_0375_fot_41B-37426_W_tif
  70
9
  66
1
  0
VERTEX
  8
PNOA-H_AMS_1956-57_33k_ES_PAN_21mic_H50_0375_fot_41B-37426_W_tif
  70
32
  10
430932.500
  20
4594847.000
  30
979.211
  0
VERTEX
  8
PNOA-H_AMS_1956-57_33k_ES_PAN_21mic_H50_0375_fot_41B-37426_W_tif
  70
32
  10
430389.536
  20
4594600.156
  30
976.453
  0
VERTEX
  8
PNOA-H_AMS_1956-57_33k_ES_PAN_21mic_H50_0375_fot_41B-37426_W_tif
  70
32
  10
430388.884
  20
4594600.162
  30
0
  0
VERTEX
  8
PNOA-H_AMS_1956-57_33k_ES_PAN_21mic_H50_0375_fot_41B-37426_W_tif
  70
32
  10
430161.386
  20
4594602.355
  30
0
  0
VERTEX
  8
PNOA-H_AMS_1956-57_33k_ES_PAN_21mic_H50_0375_fot_41B-37426_W_tif
  70
32
  10
430157.364
  20
4594602.393
  30
975.112
  0
VERTEX
  8
PNOA-H_AMS_1956-57_33k_ES_PAN_21mic_H50_0375_fot_41B-37426_W_tif
  70
32
  10
428709.982
  20
4594760.609
  30
966.537
  0
VERTEX
  8
PNOA-H_AMS_1956-57_33k_ES_PAN_21mic_H50_0375_fot_41B-37426_W_tif
  70
32
  10
428709.982
  20
4594760.664
  30
0
  0
VERTEX
  8
PNOA-H_AMS_1956-57_33k_ES_PAN_21mic_H50_0375_fot_41B-37426_W_tif
  70
32
  10
428731.411
  20
4596929.292
  30
0
  0
VERTEX
  8
PNOA-H_AMS_1956-57_33k_ES_PAN_21mic_H50_0375_fot_41B-37426_W_tif
  70
32
  10
428754.275
  20
4599242.236
  30
0
  0
VERTEX
  8
PNOA-H_AMS_1956-57_33k_ES_PAN_21mic_H50_0375_fot_41B-37426_W_tif
  70
32
  10
428755.340
  20
4599350.000
  30
957.153
  0
VERTEX
  8
PNOA-H_AMS_1956-57_33k_ES_PAN_21mic_H50_0375_fot_41B-37426_W_tif
  70
32
  10
430379.659
  20
4599350.000
  30
950.25
  0
VERTEX
  8
PNOA-H_AMS_1956-57_33k_ES_PAN_21mic_H50_0375_fot_41B-37426_W_tif
  70
32
  10
430380.649
  20
4599350.000
  30
950.245
  0
VERTEX
  8
PNOA-H_AMS_1956-57_33k_ES_PAN_21mic_H50_0375_fot_41B-37426_W_tif
  70
32
  10
430947.000
  20
4599031.000
  30
949.916
  0
VERTEX
  8
PNOA-H_AMS_1956-57_33k_ES_PAN_21mic_H50_0375_fot_41B-37426_W_tif
  70
32
  10
430946.999
  20
4599030.501
  30
949.919
  0
VERTEX
  8
PNOA-H_AMS_1956-57_33k_ES_PAN_21mic_H50_0375_fot_41B-37426_W_tif
  70
32
  10
430932.500
  20
4594847.000
  30
979.211
  0
SEQEND
  8
PNOA-H_AMS_1956-57_33k_ES_PAN_21mic_H50_0375_fot_41B-37426_W_tif
  0
INSERT
  8
FeatureAttribs
  2
FEATURE
  41
1
  42
1
  43
1
  50
0
  10
435140.416
  20
4596893.902
 66
1
  0
ATTRIB
  8
FeatureAttribs
 70
0
  1
PNOA-H_AMS_1956-57_33k_ES_PAN_21mic_H50_0375_fot_41B-37424_W.tif
  2
NAME
  10
435140.416
  20
4596893.902
 40
33.50603
  0
SEQEND
  0
POLYLINE
  8
PNOA-H_AMS_1956-57_33k_ES_PAN_21mic_H50_0375_fot_41B-37424_W_tif
  70
9
  66
1
  0
VERTEX
  8
PNOA-H_AMS_1956-57_33k_ES_PAN_21mic_H50_0375_fot_41B-37424_W_tif
  70
32
  10
436460.662
  20
4594675.935
  30
973.204
  0
VERTEX
  8
PNOA-H_AMS_1956-57_33k_ES_PAN_21mic_H50_0375_fot_41B-37424_W_tif
  70
32
  10
435801.542
  20
4594549.803
  30
1017.156
  0
VERTEX
  8
PNOA-H_AMS_1956-57_33k_ES_PAN_21mic_H50_0375_fot_41B-37424_W_tif
  70
32
  10
435799.719
  20
4594549.819
  30
0
  0
VERTEX
  8
PNOA-H_AMS_1956-57_33k_ES_PAN_21mic_H50_0375_fot_41B-37424_W_tif
  70
32
  10
435663.874
  20
4594550.997
  30
0
  0
VERTEX
  8
PNOA-H_AMS_1956-57_33k_ES_PAN_21mic_H50_0375_fot_41B-37424_W_tif
  70
32
  10
435180.999
  20
4594555.418
  30
0
  0
VERTEX
  8
PNOA-H_AMS_1956-57_33k_ES_PAN_21mic_H50_0375_fot_41B-37424_W_tif
  70
32
  10
435178.939
  20
4594555.437
  30
1030.755
  0
VERTEX
  8
PNOA-H_AMS_1956-57_33k_ES_PAN_21mic_H50_0375_fot_41B-37424_W_tif
  70
32
  10
434635.129
  20
4594650.000
  30
1022.778
  0
VERTEX
  8
PNOA-H_AMS_1956-57_33k_ES_PAN_21mic_H50_0375_fot_41B-37424_W_tif
  70
32
  10
433703.500
  20
4594812.000
  30
1009.111
  0
VERTEX
  8
PNOA-H_AMS_1956-57_33k_ES_PAN_21mic_H50_0375_fot_41B-37424_W_tif
  70
32
  10
433738.000
  20
4599038.000
  30
933.603
  0
VERTEX
  8
PNOA-H_AMS_1956-57_33k_ES_PAN_21mic_H50_0375_fot_41B-37424_W_tif
  70
32
  10
433740.273
  20
4599038.186
  30
933.589
  0
VERTEX
  8
PNOA-H_AMS_1956-57_33k_ES_PAN_21mic_H50_0375_fot_41B-37424_W_tif
  70
32
  10
436182.500
  20
4599237.500
  30
918.578
  0
VERTEX
  8
PNOA-H_AMS_1956-57_33k_ES_PAN_21mic_H50_0375_fot_41B-37424_W_tif
  70
32
  10
436188.500
  20
4599238.000
  30
918.407
  0
VERTEX
  8
PNOA-H_AMS_1956-57_33k_ES_PAN_21mic_H50_0375_fot_41B-37424_W_tif
  70
32
  10
436189.651
  20
4599237.808
  30
918.356
  0
VERTEX
  8
PNOA-H_AMS_1956-57_33k_ES_PAN_21mic_H50_0375_fot_41B-37424_W_tif
  70
32
  10
436193.435
  20
4599237.177
  30
918.19
  0
VERTEX
  8
PNOA-H_AMS_1956-57_33k_ES_PAN_21mic_H50_0375_fot_41B-37424_W_tif
  70
32
  10
436194.500
  20
4599237.000
  30
918.143
  0
VERTEX
  8
PNOA-H_AMS_1956-57_33k_ES_PAN_21mic_H50_0375_fot_41B-37424_W_tif
  70
32
  10
436653.500
  20
4598974.000
  30
900.174
  0
VERTEX
  8
PNOA-H_AMS_1956-57_33k_ES_PAN_21mic_H50_0375_fot_41B-37424_W_tif
  70
32
  10
436653.478
  20
4598973.513
  30
900.182
  0
VERTEX
  8
PNOA-H_AMS_1956-57_33k_ES_PAN_21mic_H50_0375_fot_41B-37424_W_tif
  70
32
  10
436653.440
  20
4598972.659
  30
900.196
  0
VERTEX
  8
PNOA-H_AMS_1956-57_33k_ES_PAN_21mic_H50_0375_fot_41B-37424_W_tif
  70
32
  10
436461.000
  20
4594676.000
  30
973.181
  0
VERTEX
  8
PNOA-H_AMS_1956-57_33k_ES_PAN_21mic_H50_0375_fot_41B-37424_W_tif
  70
32
  10
436460.662
  20
4594675.935
  30
973.204
  0
SEQEND
  8
PNOA-H_AMS_1956-57_33k_ES_PAN_21mic_H50_0375_fot_41B-37424_W_tif
  0
INSERT
  8
FeatureAttribs
  2
FEATURE
  41
1
  42
1
  43
1
  50
0
  10
432330.035
  20
4596892.213
 66
1
  0
ATTRIB
  8
FeatureAttribs
 70
0
  1
PNOA-H_AMS_1956-57_33k_ES_PAN_21mic_H50_0375_fot_41B-37425_W.tif
  2
NAME
  10
432330.035
  20
4596892.213
 40
33.50603
  0
SEQEND
  0
POLYLINE
  8
PNOA-H_AMS_1956-57_33k_ES_PAN_21mic_H50_0375_fot_41B-37425_W_tif
  70
9
  66
1
  0
VERTEX
  8
PNOA-H_AMS_1956-57_33k_ES_PAN_21mic_H50_0375_fot_41B-37425_W_tif
  70
32
  10
433703.358
  20
4594811.938
  30
1009.11
  0
VERTEX
  8
PNOA-H_AMS_1956-57_33k_ES_PAN_21mic_H50_0375_fot_41B-37425_W_tif
  70
32
  10
433159.652
  20
4594573.926
  30
1003.467
  0
VERTEX
  8
PNOA-H_AMS_1956-57_33k_ES_PAN_21mic_H50_0375_fot_41B-37425_W_tif
  70
32
  10
433158.597
  20
4594573.936
  30
0
  0
VERTEX
  8
PNOA-H_AMS_1956-57_33k_ES_PAN_21mic_H50_0375_fot_41B-37425_W_tif
  70
32
  10
432881.504
  20
4594576.473
  30
0
  0
VERTEX
  8
PNOA-H_AMS_1956-57_33k_ES_PAN_21mic_H50_0375_fot_41B-37425_W_tif
  70
32
  10
432881.077
  20
4594576.477
  30
1000.462
  0
VERTEX
  8
PNOA-H_AMS_1956-57_33k_ES_PAN_21mic_H50_0375_fot_41B-37425_W_tif
  70
32
  10
430932.500
  20
4594847.000
  30
979.211
  0
VERTEX
  8
PNOA-H_AMS_1956-57_33k_ES_PAN_21mic_H50_0375_fot_41B-37425_W_tif
  70
32
  10
430946.999
  20
4599030.501
  30
949.916
  0
VERTEX
  8
PNOA-H_AMS_1956-57_33k_ES_PAN_21mic_H50_0375_fot_41B-37425_W_tif
  70
32
  10
433430.500
  20
4599210.000
  30
947.272
  0
VERTEX
  8
PNOA-H_AMS_1956-57_33k_ES_PAN_21mic_H50_0375_fot_41B-37425_W_tif
  70
32
  10
433437.500
  20
4599210.500
  30
947.021
  0
VERTEX
  8
PNOA-H_AMS_1956-57_33k_ES_PAN_21mic_H50_0375_fot_41B-37425_W_tif
  70
32
  10
433438.120
  20
4599210.207
  30
946.975
  0
VERTEX
  8
PNOA-H_AMS_1956-57_33k_ES_PAN_21mic_H50_0375_fot_41B-37425_W_tif
  70
32
  10
433441.048
  20
4599208.819
  30
946.759
  0
VERTEX
  8
PNOA-H_AMS_1956-57_33k_ES_PAN_21mic_H50_0375_fot_41B-37425_W_tif
  70
32
  10
433447.000
  20
4599206.000
  30
946.319
  0
VERTEX
  8
PNOA-H_AMS_1956-57_33k_ES_PAN_21mic_H50_0375_fot_41B-37425_W_tif
  70
32
  10
433737.241
  20
4599038.438
  30
933.636
  0
VERTEX
  8
PNOA-H_AMS_1956-57_33k_ES_PAN_21mic_H50_0375_fot_41B-37425_W_tif
  70
32
  10
433738.000
  20
4599038.000
  30
933.603
  0
VERTEX
  8
PNOA-H_AMS_1956-57_33k_ES_PAN_21mic_H50_0375_fot_41B-37425_W_tif
  70
32
  10
433703.500
  20
4594812.000
  30
1009.111
  0
VERTEX
  8
PNOA-H_AMS_1956-57_33k_ES_PAN_21mic_H50_0375_fot_41B-37425_W_tif
  70
32
  10
433703.358
  20
4594811.938
  30
1009.11
  0
SEQEND
  8
PNOA-H_AMS_1956-57_33k_ES_PAN_21mic_H50_0375_fot_41B-37425_W_tif
  0
INSERT
  8
FeatureAttribs
  2
FEATURE
  41
1
  42
1
  43
1
  50
0
  10
433924.951
  20
4594683.709
 66
1
  0
ATTRIB
  8
FeatureAttribs
 70
0
  1
PNOA-H_AMS_1956-57_33k_ES_PAN_21mic_H50_0403_fot_42A-29465_W.tif
  2
NAME
  10
433924.951
  20
4594683.709
 40
33.50603
  0
SEQEND
  0
POLYLINE
  8
PNOA-H_AMS_1956-57_33k_ES_PAN_21mic_H50_0403_fot_42A-29465_W_tif
  70
9
  66
1
  0
VERTEX
  8
PNOA-H_AMS_1956-57_33k_ES_PAN_21mic_H50_0403_fot_42A-29465_W_tif
  70
32
  10
434634.000
  20
4594650.000
  30
987.913
  0
VERTEX
  8
PNOA-H_AMS_1956-57_33k_ES_PAN_21mic_H50_0403_fot_42A-29465_W_tif
  70
32
  10
434635.129
  20
4594650.000
  30
987.819
  0
VERTEX
  8
PNOA-H_AMS_1956-57_33k_ES_PAN_21mic_H50_0403_fot_42A-29465_W_tif
  70
32
  10
434636.000
  20
4594650.000
  30
987.747
  0
VERTEX
  8
PNOA-H_AMS_1956-57_33k_ES_PAN_21mic_H50_0403_fot_42A-29465_W_tif
  70
32
  10
435180.999
  20
4594555.418
  30
1017.31
  0
VERTEX
  8
PNOA-H_AMS_1956-57_33k_ES_PAN_21mic_H50_0403_fot_42A-29465_W_tif
  70
32
  10
435178.939
  20
4594555.437
  30
0
  0
VERTEX
  8
PNOA-H_AMS_1956-57_33k_ES_PAN_21mic_H50_0403_fot_42A-29465_W_tif
  70
32
  10
433159.652
  20
4594573.926
  30
0
  0
VERTEX
  8
PNOA-H_AMS_1956-57_33k_ES_PAN_21mic_H50_0403_fot_42A-29465_W_tif
  70
32
  10
433158.597
  20
4594573.936
  30
1003.481
  0
VERTEX
  8
PNOA-H_AMS_1956-57_33k_ES_PAN_21mic_H50_0403_fot_42A-29465_W_tif
  70
32
  10
433703.000
  20
4594812.000
  30
1009.109
  0
VERTEX
  8
PNOA-H_AMS_1956-57_33k_ES_PAN_21mic_H50_0403_fot_42A-29465_W_tif
  70
32
  10
433703.358
  20
4594811.938
  30
1009.101
  0
VERTEX
  8
PNOA-H_AMS_1956-57_33k_ES_PAN_21mic_H50_0403_fot_42A-29465_W_tif
  70
32
  10
434634.000
  20
4594650.000
  30
987.913
  0
SEQEND
  8
PNOA-H_AMS_1956-57_33k_ES_PAN_21mic_H50_0403_fot_42A-29465_W_tif
  0
INSERT
  8
FeatureAttribs
  2
FEATURE
  41
1
  42
1
  43
1
  50
0
  10
431271.323
  20
4594711.736
 66
1
  0
ATTRIB
  8
FeatureAttribs
 70
0
  1
PNOA-H_AMS_1956-57_33k_ES_PAN_21mic_H50_0403_fot_42A-29466_W.tif
  2
NAME
  10
431271.323
  20
4594711.736
 40
33.50603
  0
SEQEND
  0
POLYLINE
  8
PNOA-H_AMS_1956-57_33k_ES_PAN_21mic_H50_0403_fot_42A-29466_W_tif
  70
9
  66
1
  0
VERTEX
  8
PNOA-H_AMS_1956-57_33k_ES_PAN_21mic_H50_0403_fot_42A-29466_W_tif
  70
32
  10
430936.500
  20
4594847.000
  30
979.252
  0
VERTEX
  8
PNOA-H_AMS_1956-57_33k_ES_PAN_21mic_H50_0403_fot_42A-29466_W_tif
  70
32
  10
432881.504
  20
4594576.473
  30
1000.466
  0
VERTEX
  8
PNOA-H_AMS_1956-57_33k_ES_PAN_21mic_H50_0403_fot_42A-29466_W_tif
  70
32
  10
432881.077
  20
4594576.477
  30
0
  0
VERTEX
  8
PNOA-H_AMS_1956-57_33k_ES_PAN_21mic_H50_0403_fot_42A-29466_W_tif
  70
32
  10
432186.217
  20
4594582.839
  30
0
  0
VERTEX
  8
PNOA-H_AMS_1956-57_33k_ES_PAN_21mic_H50_0403_fot_42A-29466_W_tif
  70
32
  10
430389.536
  20
4594600.156
  30
0
  0
VERTEX
  8
PNOA-H_AMS_1956-57_33k_ES_PAN_21mic_H50_0403_fot_42A-29466_W_tif
  70
32
  10
430388.884
  20
4594600.162
  30
976.231
  0
VERTEX
  8
PNOA-H_AMS_1956-57_33k_ES_PAN_21mic_H50_0403_fot_42A-29466_W_tif
  70
32
  10
430537.500
  20
4594668.000
  30
976.17
  0
VERTEX
  8
PNOA-H_AMS_1956-57_33k_ES_PAN_21mic_H50_0403_fot_42A-29466_W_tif
  70
32
  10
430538.500
  20
4594668.500
  30
976.146
  0
VERTEX
  8
PNOA-H_AMS_1956-57_33k_ES_PAN_21mic_H50_0403_fot_42A-29466_W_tif
  70
32
  10
430928.000
  20
4594845.500
  30
979.156
  0
VERTEX
  8
PNOA-H_AMS_1956-57_33k_ES_PAN_21mic_H50_0403_fot_42A-29466_W_tif
  70
32
  10
430931.500
  20
4594847.000
  30
979.191
  0
VERTEX
  8
PNOA-H_AMS_1956-57_33k_ES_PAN_21mic_H50_0403_fot_42A-29466_W_tif
  70
32
  10
430932.500
  20
4594847.000
  30
979.203
  0
VERTEX
  8
PNOA-H_AMS_1956-57_33k_ES_PAN_21mic_H50_0403_fot_42A-29466_W_tif
  70
32
  10
430936.500
  20
4594847.000
  30
979.252
  0
SEQEND
  8
PNOA-H_AMS_1956-57_33k_ES_PAN_21mic_H50_0403_fot_42A-29466_W_tif
  0
INSERT
  8
FeatureAttribs
  2
FEATURE
  41
1
  42
1
  43
1
  50
0
  10
429072.442
  20
4594681.510
 66
1
  0
ATTRIB
  8
FeatureAttribs
 70
0
  1
PNOA-H_AMS_1956-57_33k_ES_PAN_21mic_H50_0402_fot_42A-29467_W.tif
  2
NAME
  10
429072.442
  20
4594681.510
 40
33.50603
  0
SEQEND
  0
POLYLINE
  8
PNOA-H_AMS_1956-57_33k_ES_PAN_21mic_H50_0402_fot_42A-29467_W_tif
  70
9
  66
1
  0
VERTEX
  8
PNOA-H_AMS_1956-57_33k_ES_PAN_21mic_H50_0402_fot_42A-29467_W_tif
  70
32
  10
428709.982
  20
4594760.664
  30
966.541
  0
VERTEX
  8
PNOA-H_AMS_1956-57_33k_ES_PAN_21mic_H50_0402_fot_42A-29467_W_tif
  70
32
  10
430161.386
  20
4594602.355
  30
975.137
  0
VERTEX
  8
PNOA-H_AMS_1956-57_33k_ES_PAN_21mic_H50_0402_fot_42A-29467_W_tif
  70
32
  10
430157.364
  20
4594602.393
  30
0
  0
VERTEX
  8
PNOA-H_AMS_1956-57_33k_ES_PAN_21mic_H50_0402_fot_42A-29467_W_tif
  70
32
  10
428708.556
  20
4594616.357
  30
0
  0
VERTEX
  8
PNOA-H_AMS_1956-57_33k_ES_PAN_21mic_H50_0402_fot_42A-29467_W_tif
  70
32
  10
428709.982
  20
4594760.609
  30
0
  0
VERTEX
  8
PNOA-H_AMS_1956-57_33k_ES_PAN_21mic_H50_0402_fot_42A-29467_W_tif
  70
32
  10
428709.982
  20
4594760.664
  30
966.541
  0
SEQEND
  8
PNOA-H_AMS_1956-57_33k_ES_PAN_21mic_H50_0402_fot_42A-29467_W_tif
  0
INSERT
  8
FeatureAttribs
  2
FEATURE
  41
1
  42
1
  43
1
  50
0
  10
439156.045
  20
4594564.359
 66
1
  0
ATTRIB
  8
FeatureAttribs
 70
0
  1
PNOA-H_AMS_1956-57_33k_ES_PAN_21mic_H50_0403_fot_42B-36295_E.tif
  2
NAME
  10
439156.045
  20
4594564.359
 40
33.50603
  0
SEQEND
  0
POLYLINE
  8
PNOA-H_AMS_1956-57_33k_ES_PAN_21mic_H50_0403_fot_42B-36295_E_tif
  70
9
  66
1
  0
VERTEX
  8
PNOA-H_AMS_1956-57_33k_ES_PAN_21mic_H50_0403_fot_42B-36295_E_tif
  70
32
  10
439193.587
  20
4594610.297
  30
979.639
  0
VERTEX
  8
PNOA-H_AMS_1956-57_33k_ES_PAN_21mic_H50_0403_fot_42B-36295_E_tif
  70
32
  10
439460.576
  20
4594518.218
  30
993.075
  0
VERTEX
  8
PNOA-H_AMS_1956-57_33k_ES_PAN_21mic_H50_0403_fot_42B-36295_E_tif
  70
32
  10
439141.526
  20
4594520.831
  30
0
  0
VERTEX
  8
PNOA-H_AMS_1956-57_33k_ES_PAN_21mic_H50_0403_fot_42B-36295_E_tif
  70
32
  10
438803.760
  20
4594523.761
  30
0
  0
VERTEX
  8
PNOA-H_AMS_1956-57_33k_ES_PAN_21mic_H50_0403_fot_42B-36295_E_tif
  70
32
  10
438802.389
  20
4594523.773
  30
989.081
  0
VERTEX
  8
PNOA-H_AMS_1956-57_33k_ES_PAN_21mic_H50_0403_fot_42B-36295_E_tif
  70
32
  10
439191.000
  20
4594610.000
  30
980.866
  0
VERTEX
  8
PNOA-H_AMS_1956-57_33k_ES_PAN_21mic_H50_0403_fot_42B-36295_E_tif
  70
32
  10
439193.000
  20
4594610.500
  30
979.609
  0
VERTEX
  8
PNOA-H_AMS_1956-57_33k_ES_PAN_21mic_H50_0403_fot_42B-36295_E_tif
  70
32
  10
439193.587
  20
4594610.297
  30
979.639
  0
SEQEND
  8
PNOA-H_AMS_1956-57_33k_ES_PAN_21mic_H50_0403_fot_42B-36295_E_tif
  0
INSERT
  8
FeatureAttribs
  2
FEATURE
  41
1
  42
1
  43
1
  50
0
  10
441889.279
  20
4594524.665
 66
1
  0
ATTRIB
  8
FeatureAttribs
 70
0
  1
PNOA-H_AMS_1956-57_33k_ES_PAN_21mic_H50_0403_fot_42B-36296_E.tif
  2
NAME
  10
441889.279
  20
4594524.665
 40
33.50603
  0
SEQEND
  0
POLYLINE
  8
PNOA-H_AMS_1956-57_33k_ES_PAN_21mic_H50_0403_fot_42B-36296_E_tif
  70
9
  66
1
  0
VERTEX
  8
PNOA-H_AMS_1956-57_33k_ES_PAN_21mic_H50_0403_fot_42B-36296_E_tif
  70
32
  10
441900.500
  20
4594552.500
  30
1030.832
  0
VERTEX
  8
PNOA-H_AMS_1956-57_33k_ES_PAN_21mic_H50_0403_fot_42B-36296_E_tif
  70
32
  10
442071.374
  20
4594496.829
  30
1038.211
  0
VERTEX
  8
PNOA-H_AMS_1956-57_33k_ES_PAN_21mic_H50_0403_fot_42B-36296_E_tif
  70
32
  10
442070.788
  20
4594496.834
  30
1038.204
  0
VERTEX
  8
PNOA-H_AMS_1956-57_33k_ES_PAN_21mic_H50_0403_fot_42B-36296_E_tif
  70
32
  10
441696.639
  20
4594499.899
  30
1034.182
  0
VERTEX
  8
PNOA-H_AMS_1956-57_33k_ES_PAN_21mic_H50_0403_fot_42B-36296_E_tif
  70
32
  10
441900.221
  20
4594552.428
  30
1030.836
  0
VERTEX
  8
PNOA-H_AMS_1956-57_33k_ES_PAN_21mic_H50_0403_fot_42B-36296_E_tif
  70
32
  10
441900.500
  20
4594552.500
  30
1030.832
  0
SEQEND
  8
PNOA-H_AMS_1956-57_33k_ES_PAN_21mic_H50_0403_fot_42B-36296_E_tif
  0
INSERT
  8
FeatureAttribs
  2
FEATURE
  41
1
  42
1
  43
1
  50
0
  10
443286.300
  20
4596717.534
 66
1
  0
ATTRIB
  8
FeatureAttribs
 70
0
  1
PNOA-H_AMS_1956-57_33k_ES_PAN_21mic_H50_0375_fot_41B-37421_W.tif
  2
NAME
  10
443286.300
  20
4596717.534
 40
33.50603
  0
SEQEND
  0
POLYLINE
  8
PNOA-H_AMS_1956-57_33k_ES_PAN_21mic_H50_0375_fot_41B-37421_W_tif
  70
9
  66
1
  0
VERTEX
  8
PNOA-H_AMS_1956-57_33k_ES_PAN_21mic_H50_0375_fot_41B-37421_W_tif
  70
32
  10
442728.653
  20
4598931.985
  30
953.932
  0
VERTEX
  8
PNOA-H_AMS_1956-57_33k_ES_PAN_21mic_H50_0375_fot_41B-37421_W_tif
  70
32
  10
442822.500
  20
4598928.500
  30
952.778
  0
VERTEX
  8
PNOA-H_AMS_1956-57_33k_ES_PAN_21mic_H50_0375_fot_41B-37421_W_tif
  70
32
  10
442823.192
  20
4598928.500
  30
952.681
  0
VERTEX
  8
PNOA-H_AMS_1956-57_33k_ES_PAN_21mic_H50_0375_fot_41B-37421_W_tif
  70
32
  10
442828.000
  20
4598928.500
  30
952.009
  0
VERTEX
  8
PNOA-H_AMS_1956-57_33k_ES_PAN_21mic_H50_0375_fot_41B-37421_W_tif
  70
32
  10
444667.985
  20
4598860.501
  30
978.698
  0
VERTEX
  8
PNOA-H_AMS_1956-57_33k_ES_PAN_21mic_H50_0375_fot_41B-37421_W_tif
  70
32
  10
444668.000
  20
4598860.500
  30
978.698
  0
VERTEX
  8
PNOA-H_AMS_1956-57_33k_ES_PAN_21mic_H50_0375_fot_41B-37421_W_tif
  70
32
  10
444535.169
  20
4594477.569
  30
1123.629
  0
VERTEX
  8
PNOA-H_AMS_1956-57_33k_ES_PAN_21mic_H50_0375_fot_41B-37421_W_tif
  70
32
  10
442619.175
  20
4594492.342
  30
0
  0
VERTEX
  8
PNOA-H_AMS_1956-57_33k_ES_PAN_21mic_H50_0375_fot_41B-37421_W_tif
  70
32
  10
442071.374
  20
4594496.829
  30
0
  0
VERTEX
  8
PNOA-H_AMS_1956-57_33k_ES_PAN_21mic_H50_0375_fot_41B-37421_W_tif
  70
32
  10
442070.788
  20
4594496.834
  30
1038.102
  0
VERTEX
  8
PNOA-H_AMS_1956-57_33k_ES_PAN_21mic_H50_0375_fot_41B-37421_W_tif
  70
32
  10
441900.221
  20
4594552.428
  30
1030.724
  0
VERTEX
  8
PNOA-H_AMS_1956-57_33k_ES_PAN_21mic_H50_0375_fot_41B-37421_W_tif
  70
32
  10
441900.000
  20
4594552.500
  30
1030.714
  0
VERTEX
  8
PNOA-H_AMS_1956-57_33k_ES_PAN_21mic_H50_0375_fot_41B-37421_W_tif
  70
32
  10
442041.415
  20
4598954.842
  30
962.424
  0
VERTEX
  8
PNOA-H_AMS_1956-57_33k_ES_PAN_21mic_H50_0375_fot_41B-37421_W_tif
  70
32
  10
442041.499
  20
4598957.472
  30
962.384
  0
VERTEX
  8
PNOA-H_AMS_1956-57_33k_ES_PAN_21mic_H50_0375_fot_41B-37421_W_tif
  70
32
  10
442041.500
  20
4598957.500
  30
962.383
  0
VERTEX
  8
PNOA-H_AMS_1956-57_33k_ES_PAN_21mic_H50_0375_fot_41B-37421_W_tif
  70
32
  10
442728.653
  20
4598931.985
  30
953.932
  0
SEQEND
  8
PNOA-H_AMS_1956-57_33k_ES_PAN_21mic_H50_0375_fot_41B-37421_W_tif
  0
INSERT
  8
FeatureAttribs
  2
FEATURE
  41
1
  42
1
  43
1
  50
0
  10
440633.815
  20
4596749.450
 66
1
  0
ATTRIB
  8
FeatureAttribs
 70
0
  1
PNOA-H_AMS_1956-57_33k_ES_PAN_21mic_H50_0375_fot_41B-37422_W.tif
  2
NAME
  10
440633.815
  20
4596749.450
 40
33.50603
  0
SEQEND
  0
POLYLINE
  8
PNOA-H_AMS_1956-57_33k_ES_PAN_21mic_H50_0375_fot_41B-37422_W_tif
  70
9
  66
1
  0
VERTEX
  8
PNOA-H_AMS_1956-57_33k_ES_PAN_21mic_H50_0375_fot_41B-37422_W_tif
  70
32
  10
441952.500
  20
4598999.000
  30
948.788
  0
VERTEX
  8
PNOA-H_AMS_1956-57_33k_ES_PAN_21mic_H50_0375_fot_41B-37422_W_tif
  70
32
  10
441976.000
  20
4598999.000
  30
954.876
  0
VERTEX
  8
PNOA-H_AMS_1956-57_33k_ES_PAN_21mic_H50_0375_fot_41B-37422_W_tif
  70
32
  10
441976.500
  20
4598999.000
  30
955.006
  0
VERTEX
  8
PNOA-H_AMS_1956-57_33k_ES_PAN_21mic_H50_0375_fot_41B-37422_W_tif
  70
32
  10
442040.500
  20
4598958.500
  30
962.394
  0
VERTEX
  8
PNOA-H_AMS_1956-57_33k_ES_PAN_21mic_H50_0375_fot_41B-37422_W_tif
  70
32
  10
442040.703
  20
4598957.690
  30
962.453
  0
VERTEX
  8
PNOA-H_AMS_1956-57_33k_ES_PAN_21mic_H50_0375_fot_41B-37422_W_tif
  70
32
  10
442041.415
  20
4598954.842
  30
962.657
  0
VERTEX
  8
PNOA-H_AMS_1956-57_33k_ES_PAN_21mic_H50_0375_fot_41B-37422_W_tif
  70
32
  10
442041.500
  20
4598954.500
  30
962.682
  0
VERTEX
  8
PNOA-H_AMS_1956-57_33k_ES_PAN_21mic_H50_0375_fot_41B-37422_W_tif
  70
32
  10
441900.000
  20
4594552.500
  30
1030.714
  0
VERTEX
  8
PNOA-H_AMS_1956-57_33k_ES_PAN_21mic_H50_0375_fot_41B-37422_W_tif
  70
32
  10
441696.544
  20
4594499.900
  30
1032.435
  0
VERTEX
  8
PNOA-H_AMS_1956-57_33k_ES_PAN_21mic_H50_0375_fot_41B-37422_W_tif
  70
32
  10
439462.003
  20
4594518.206
  30
992.381
  0
VERTEX
  8
PNOA-H_AMS_1956-57_33k_ES_PAN_21mic_H50_0375_fot_41B-37422_W_tif
  70
32
  10
439194.500
  20
4594610.500
  30
978.674
  0
VERTEX
  8
PNOA-H_AMS_1956-57_33k_ES_PAN_21mic_H50_0375_fot_41B-37422_W_tif
  70
32
  10
439403.000
  20
4598961.000
  30
907.061
  0
VERTEX
  8
PNOA-H_AMS_1956-57_33k_ES_PAN_21mic_H50_0375_fot_41B-37422_W_tif
  70
32
  10
439507.262
  20
4598962.554
  30
908.218
  0
VERTEX
  8
PNOA-H_AMS_1956-57_33k_ES_PAN_21mic_H50_0375_fot_41B-37422_W_tif
  70
32
  10
441919.000
  20
4598998.500
  30
934.995
  0
VERTEX
  8
PNOA-H_AMS_1956-57_33k_ES_PAN_21mic_H50_0375_fot_41B-37422_W_tif
  70
32
  10
441952.500
  20
4598999.000
  30
948.788
  0
SEQEND
  8
PNOA-H_AMS_1956-57_33k_ES_PAN_21mic_H50_0375_fot_41B-37422_W_tif
  0
INSERT
  8
FeatureAttribs
  2
FEATURE
  41
1
  42
1
  43
1
  50
0
  10
437929.647
  20
4596841.131
 66
1
  0
ATTRIB
  8
FeatureAttribs
 70
0
  1
PNOA-H_AMS_1956-57_33k_ES_PAN_21mic_H50_0375_fot_41B-37423_W.tif
  2
NAME
  10
437929.647
  20
4596841.131
 40
33.50603
  0
SEQEND
  0
POLYLINE
  8
PNOA-H_AMS_1956-57_33k_ES_PAN_21mic_H50_0375_fot_41B-37423_W_tif
  70
9
  66
1
  0
VERTEX
  8
PNOA-H_AMS_1956-57_33k_ES_PAN_21mic_H50_0375_fot_41B-37423_W_tif
  70
32
  10
439193.587
  20
4594610.297
  30
978.694
  0
VERTEX
  8
PNOA-H_AMS_1956-57_33k_ES_PAN_21mic_H50_0375_fot_41B-37423_W_tif
  70
32
  10
438803.760
  20
4594523.761
  30
987.36
  0
VERTEX
  8
PNOA-H_AMS_1956-57_33k_ES_PAN_21mic_H50_0375_fot_41B-37423_W_tif
  70
32
  10
438802.389
  20
4594523.773
  30
0
  0
VERTEX
  8
PNOA-H_AMS_1956-57_33k_ES_PAN_21mic_H50_0375_fot_41B-37423_W_tif
  70
32
  10
436799.970
  20
4594541.143
  30
987.878
  0
VERTEX
  8
PNOA-H_AMS_1956-57_33k_ES_PAN_21mic_H50_0375_fot_41B-37423_W_tif
  70
32
  10
436461.000
  20
4594676.000
  30
973.181
  0
VERTEX
  8
PNOA-H_AMS_1956-57_33k_ES_PAN_21mic_H50_0375_fot_41B-37423_W_tif
  70
32
  10
436653.000
  20
4598966.500
  30
900.474
  0
VERTEX
  8
PNOA-H_AMS_1956-57_33k_ES_PAN_21mic_H50_0375_fot_41B-37423_W_tif
  70
32
  10
436653.440
  20
4598972.659
  30
900.223
  0
VERTEX
  8
PNOA-H_AMS_1956-57_33k_ES_PAN_21mic_H50_0375_fot_41B-37423_W_tif
  70
32
  10
436653.500
  20
4598973.500
  30
900.189
  0
VERTEX
  8
PNOA-H_AMS_1956-57_33k_ES_PAN_21mic_H50_0375_fot_41B-37423_W_tif
  70
32
  10
436675.000
  20
4598975.500
  30
900.61
  0
VERTEX
  8
PNOA-H_AMS_1956-57_33k_ES_PAN_21mic_H50_0375_fot_41B-37423_W_tif
  70
32
  10
436681.500
  20
4598976.000
  30
900.748
  0
VERTEX
  8
PNOA-H_AMS_1956-57_33k_ES_PAN_21mic_H50_0375_fot_41B-37423_W_tif
  70
32
  10
439064.500
  20
4599158.500
  30
922.893
  0
VERTEX
  8
PNOA-H_AMS_1956-57_33k_ES_PAN_21mic_H50_0375_fot_41B-37423_W_tif
  70
32
  10
439064.507
  20
4599158.496
  30
922.893
  0
VERTEX
  8
PNOA-H_AMS_1956-57_33k_ES_PAN_21mic_H50_0375_fot_41B-37423_W_tif
  70
32
  10
439402.975
  20
4598961.014
  30
907.062
  0
VERTEX
  8
PNOA-H_AMS_1956-57_33k_ES_PAN_21mic_H50_0375_fot_41B-37423_W_tif
  70
32
  10
439403.000
  20
4598961.000
  30
907.061
  0
VERTEX
  8
PNOA-H_AMS_1956-57_33k_ES_PAN_21mic_H50_0375_fot_41B-37423_W_tif
  70
32
  10
439194.500
  20
4594610.500
  30
978.674
  0
VERTEX
  8
PNOA-H_AMS_1956-57_33k_ES_PAN_21mic_H50_0375_fot_41B-37423_W_tif
  70
32
  10
439193.587
  20
4594610.297
  30
978.694
  0
SEQEND
  8
PNOA-H_AMS_1956-57_33k_ES_PAN_21mic_H50_0375_fot_41B-37423_W_tif
  0
INSERT
  8
FeatureAttribs
  2
FEATURE
  41
1
  42
1
  43
1
  50
0
  10
440553.527
  20
4599120.500
 66
1
  0
ATTRIB
  8
FeatureAttribs
 70
0
  1
PNOA-H_AMS_1956-57_33k_ES_PAN_21mic_H50_0375_fot_40B-38935_W.tif
  2
NAME
  10
440553.527
  20
4599120.500
 40
33.50603
  0
SEQEND
  0
POLYLINE
  8
PNOA-H_AMS_1956-57_33k_ES_PAN_21mic_H50_0375_fot_40B-38935_W_tif
  70
9
  66
1
  0
VERTEX
  8
PNOA-H_AMS_1956-57_33k_ES_PAN_21mic_H50_0375_fot_40B-38935_W_tif
  70
32
  10
439402.975
  20
4598961.014
  30
907.098
  0
VERTEX
  8
PNOA-H_AMS_1956-57_33k_ES_PAN_21mic_H50_0375_fot_40B-38935_W_tif
  70
32
  10
439402.000
  20
4598961.000
  30
907.08
  0
VERTEX
  8
PNOA-H_AMS_1956-57_33k_ES_PAN_21mic_H50_0375_fot_40B-38935_W_tif
  70
32
  10
439064.500
  20
4599158.000
  30
922.876
  0
VERTEX
  8
PNOA-H_AMS_1956-57_33k_ES_PAN_21mic_H50_0375_fot_40B-38935_W_tif
  70
32
  10
439064.507
  20
4599158.496
  30
922.865
  0
VERTEX
  8
PNOA-H_AMS_1956-57_33k_ES_PAN_21mic_H50_0375_fot_40B-38935_W_tif
  70
32
  10
439066.145
  20
4599280.000
  30
920.344
  0
VERTEX
  8
PNOA-H_AMS_1956-57_33k_ES_PAN_21mic_H50_0375_fot_40B-38935_W_tif
  70
32
  10
441981.341
  20
4599280.000
  30
947.804
  0
VERTEX
  8
PNOA-H_AMS_1956-57_33k_ES_PAN_21mic_H50_0375_fot_40B-38935_W_tif
  70
32
  10
441976.000
  20
4598999.000
  30
954.862
  0
VERTEX
  8
PNOA-H_AMS_1956-57_33k_ES_PAN_21mic_H50_0375_fot_40B-38935_W_tif
  70
32
  10
439507.262
  20
4598962.554
  30
909.034
  0
VERTEX
  8
PNOA-H_AMS_1956-57_33k_ES_PAN_21mic_H50_0375_fot_40B-38935_W_tif
  70
32
  10
439402.975
  20
4598961.014
  30
907.098
  0
SEQEND
  8
PNOA-H_AMS_1956-57_33k_ES_PAN_21mic_H50_0375_fot_40B-38935_W_tif
  0
INSERT
  8
FeatureAttribs
  2
FEATURE
  41
1
  42
1
  43
1
  50
0
  10
443730.950
  20
4601270.500
 66
1
  0
ATTRIB
  8
FeatureAttribs
 70
0
  1
PNOA-H_AMS_1956-57_33k_ES_PAN_21mic_H50_0375_fot_40B-38934_W.tif
  2
NAME
  10
443730.950
  20
4601270.500
 40
33.50603
  0
SEQEND
  0
POLYLINE
  8
PNOA-H_AMS_1956-57_33k_ES_PAN_21mic_H50_0375_fot_40B-38934_W_tif
  70
9
  66
1
  0
VERTEX
  8
PNOA-H_AMS_1956-57_33k_ES_PAN_21mic_H50_0375_fot_40B-38934_W_tif
  70
32
  10
444873.340
  20
4598966.417
  30
961.576
  0
VERTEX
  8
PNOA-H_AMS_1956-57_33k_ES_PAN_21mic_H50_0375_fot_40B-38934_W_tif
  70
32
  10
444668.000
  20
4598860.500
  30
978.698
  0
VERTEX
  8
PNOA-H_AMS_1956-57_33k_ES_PAN_21mic_H50_0375_fot_40B-38934_W_tif
  70
32
  10
444667.985
  20
4598860.501
  30
978.698
  0
VERTEX
  8
PNOA-H_AMS_1956-57_33k_ES_PAN_21mic_H50_0375_fot_40B-38934_W_tif
  70
32
  10
442823.192
  20
4598928.500
  30
966.474
  0
VERTEX
  8
PNOA-H_AMS_1956-57_33k_ES_PAN_21mic_H50_0375_fot_40B-38934_W_tif
  70
32
  10
442728.653
  20
4598931.985
  30
965.848
  0
VERTEX
  8
PNOA-H_AMS_1956-57_33k_ES_PAN_21mic_H50_0375_fot_40B-38934_W_tif
  70
32
  10
442050.000
  20
4598957.000
  30
961.351
  0
VERTEX
  8
PNOA-H_AMS_1956-57_33k_ES_PAN_21mic_H50_0375_fot_40B-38934_W_tif
  70
32
  10
442041.499
  20
4598957.472
  30
962.377
  0
VERTEX
  8
PNOA-H_AMS_1956-57_33k_ES_PAN_21mic_H50_0375_fot_40B-38934_W_tif
  70
32
  10
442041.000
  20
4598957.500
  30
962.437
  0
VERTEX
  8
PNOA-H_AMS_1956-57_33k_ES_PAN_21mic_H50_0375_fot_40B-38934_W_tif
  70
32
  10
442040.703
  20
4598957.690
  30
962.403
  0
VERTEX
  8
PNOA-H_AMS_1956-57_33k_ES_PAN_21mic_H50_0375_fot_40B-38934_W_tif
  70
32
  10
441976.000
  20
4598999.000
  30
954.862
  0
VERTEX
  8
PNOA-H_AMS_1956-57_33k_ES_PAN_21mic_H50_0375_fot_40B-38934_W_tif
  70
32
  10
441981.341
  20
4599280.000
  30
947.804
  0
VERTEX
  8
PNOA-H_AMS_1956-57_33k_ES_PAN_21mic_H50_0375_fot_40B-38934_W_tif
  70
32
  10
442550.000
  20
4599280.000
  30
932.754
  0
VERTEX
  8
PNOA-H_AMS_1956-57_33k_ES_PAN_21mic_H50_0375_fot_40B-38934_W_tif
  70
32
  10
442550.000
  20
4603438.467
  30
860.591
  0
VERTEX
  8
PNOA-H_AMS_1956-57_33k_ES_PAN_21mic_H50_0375_fot_40B-38934_W_tif
  70
32
  10
443016.908
  20
4603507.379
  30
875.264
  0
VERTEX
  8
PNOA-H_AMS_1956-57_33k_ES_PAN_21mic_H50_0375_fot_40B-38934_W_tif
  70
32
  10
444186.500
  20
4603680.000
  30
912.02
  0
VERTEX
  8
PNOA-H_AMS_1956-57_33k_ES_PAN_21mic_H50_0375_fot_40B-38934_W_tif
  70
32
  10
444189.500
  20
4603680.500
  30
911.993
  0
VERTEX
  8
PNOA-H_AMS_1956-57_33k_ES_PAN_21mic_H50_0375_fot_40B-38934_W_tif
  70
32
  10
444189.735
  20
4603680.387
  30
911.992
  0
VERTEX
  8
PNOA-H_AMS_1956-57_33k_ES_PAN_21mic_H50_0375_fot_40B-38934_W_tif
  70
32
  10
444190.500
  20
4603680.019
  30
911.986
  0
VERTEX
  8
PNOA-H_AMS_1956-57_33k_ES_PAN_21mic_H50_0375_fot_40B-38934_W_tif
  70
32
  10
444945.887
  20
4603316.554
  30
906.698
  0
VERTEX
  8
PNOA-H_AMS_1956-57_33k_ES_PAN_21mic_H50_0375_fot_40B-38934_W_tif
  70
32
  10
444946.000
  20
4603316.500
  30
906.697
  0
VERTEX
  8
PNOA-H_AMS_1956-57_33k_ES_PAN_21mic_H50_0375_fot_40B-38934_W_tif
  70
32
  10
444873.500
  20
4598966.500
  30
961.562
  0
VERTEX
  8
PNOA-H_AMS_1956-57_33k_ES_PAN_21mic_H50_0375_fot_40B-38934_W_tif
  70
32
  10
444873.340
  20
4598966.417
  30
961.576
  0
SEQEND
  8
PNOA-H_AMS_1956-57_33k_ES_PAN_21mic_H50_0375_fot_40B-38934_W_tif
  0
INSERT
  8
FeatureAttribs
  2
FEATURE
  41
1
  42
1
  43
1
  50
0
  10
437518.415
  20
4599126.750
 66
1
  0
ATTRIB
  8
FeatureAttribs
 70
0
  1
PNOA-H_AMS_1956-57_33k_ES_PAN_21mic_H50_0375_fot_40B-38936_W.tif
  2
NAME
  10
437518.415
  20
4599126.750
 40
33.50603
  0
SEQEND
  0
POLYLINE
  8
PNOA-H_AMS_1956-57_33k_ES_PAN_21mic_H50_0375_fot_40B-38936_W_tif
  70
9
  66
1
  0
VERTEX
  8
PNOA-H_AMS_1956-57_33k_ES_PAN_21mic_H50_0375_fot_40B-38936_W_tif
  70
32
  10
439064.500
  20
4599158.500
  30
922.893
  0
VERTEX
  8
PNOA-H_AMS_1956-57_33k_ES_PAN_21mic_H50_0375_fot_40B-38936_W_tif
  70
32
  10
436653.500
  20
4598973.500
  30
900.189
  0
VERTEX
  8
PNOA-H_AMS_1956-57_33k_ES_PAN_21mic_H50_0375_fot_40B-38936_W_tif
  70
32
  10
436653.478
  20
4598973.513
  30
900.19
  0
VERTEX
  8
PNOA-H_AMS_1956-57_33k_ES_PAN_21mic_H50_0375_fot_40B-38936_W_tif
  70
32
  10
436193.435
  20
4599237.177
  30
918.219
  0
VERTEX
  8
PNOA-H_AMS_1956-57_33k_ES_PAN_21mic_H50_0375_fot_40B-38936_W_tif
  70
32
  10
436192.000
  20
4599238.000
  30
918.275
  0
VERTEX
  8
PNOA-H_AMS_1956-57_33k_ES_PAN_21mic_H50_0375_fot_40B-38936_W_tif
  70
32
  10
436192.398
  20
4599280.000
  30
917.391
  0
VERTEX
  8
PNOA-H_AMS_1956-57_33k_ES_PAN_21mic_H50_0375_fot_40B-38936_W_tif
  70
32
  10
439066.138
  20
4599280.000
  30
920.371
  0
VERTEX
  8
PNOA-H_AMS_1956-57_33k_ES_PAN_21mic_H50_0375_fot_40B-38936_W_tif
  70
32
  10
439064.500
  20
4599158.500
  30
922.893
  0
SEQEND
  8
PNOA-H_AMS_1956-57_33k_ES_PAN_21mic_H50_0375_fot_40B-38936_W_tif
  0
INSERT
  8
FeatureAttribs
  2
FEATURE
  41
1
  42
1
  43
1
  50
0
  10
445909.191
  20
4596712.056
 66
1
  0
ATTRIB
  8
FeatureAttribs
 70
0
  1
PNOA-H_AMS_1956-57_33k_ES_PAN_21mic_H50_0375_fot_41B-37420_W.tif
  2
NAME
  10
445909.191
  20
4596712.056
 40
33.50603
  0
SEQEND
  0
POLYLINE
  8
PNOA-H_AMS_1956-57_33k_ES_PAN_21mic_H50_0375_fot_41B-37420_W_tif
  70
9
  66
1
  0
VERTEX
  8
PNOA-H_AMS_1956-57_33k_ES_PAN_21mic_H50_0375_fot_41B-37420_W_tif
  70
32
  10
447236.500
  20
4598734.000
  30
1028.2
  0
VERTEX
  8
PNOA-H_AMS_1956-57_33k_ES_PAN_21mic_H50_0375_fot_41B-37420_W_tif
  70
32
  10
447192.089
  20
4594457.611
  30
1182.615
  0
VERTEX
  8
PNOA-H_AMS_1956-57_33k_ES_PAN_21mic_H50_0375_fot_41B-37420_W_tif
  70
32
  10
446096.819
  20
4594465.528
  30
0
  0
VERTEX
  8
PNOA-H_AMS_1956-57_33k_ES_PAN_21mic_H50_0375_fot_41B-37420_W_tif
  70
32
  10
444535.169
  20
4594477.569
  30
1123.629
  0
VERTEX
  8
PNOA-H_AMS_1956-57_33k_ES_PAN_21mic_H50_0375_fot_41B-37420_W_tif
  70
32
  10
444667.985
  20
4598860.501
  30
978.721
  0
VERTEX
  8
PNOA-H_AMS_1956-57_33k_ES_PAN_21mic_H50_0375_fot_41B-37420_W_tif
  70
32
  10
444668.000
  20
4598861.000
  30
978.705
  0
VERTEX
  8
PNOA-H_AMS_1956-57_33k_ES_PAN_21mic_H50_0375_fot_41B-37420_W_tif
  70
32
  10
444871.500
  20
4598966.000
  30
961.849
  0
VERTEX
  8
PNOA-H_AMS_1956-57_33k_ES_PAN_21mic_H50_0375_fot_41B-37420_W_tif
  70
32
  10
444872.500
  20
4598966.500
  30
961.622
  0
VERTEX
  8
PNOA-H_AMS_1956-57_33k_ES_PAN_21mic_H50_0375_fot_41B-37420_W_tif
  70
32
  10
444873.340
  20
4598966.417
  30
961.646
  0
VERTEX
  8
PNOA-H_AMS_1956-57_33k_ES_PAN_21mic_H50_0375_fot_41B-37420_W_tif
  70
32
  10
447236.500
  20
4598734.000
  30
1028.2
  0
SEQEND
  8
PNOA-H_AMS_1956-57_33k_ES_PAN_21mic_H50_0375_fot_41B-37420_W_tif
  0
INSERT
  8
FeatureAttribs
  2
FEATURE
  41
1
  42
1
  43
1
  50
0
  10
446319.205
  20
4601171.750
 66
1
  0
ATTRIB
  8
FeatureAttribs
 70
0
  1
PNOA-H_AMS_1956-57_33k_ES_PAN_21mic_H50_0375_fot_40B-38933_W.tif
  2
NAME
  10
446319.205
  20
4601171.750
 40
33.50603
  0
SEQEND
  0
POLYLINE
  8
PNOA-H_AMS_1956-57_33k_ES_PAN_21mic_H50_0375_fot_40B-38933_W_tif
  70
9
  66
1
  0
VERTEX
  8
PNOA-H_AMS_1956-57_33k_ES_PAN_21mic_H50_0375_fot_40B-38933_W_tif
  70
32
  10
447711.292
  20
4598959.401
  30
1046.854
  0
VERTEX
  8
PNOA-H_AMS_1956-57_33k_ES_PAN_21mic_H50_0375_fot_40B-38933_W_tif
  70
32
  10
447237.000
  20
4598734.000
  30
1028.072
  0
VERTEX
  8
PNOA-H_AMS_1956-57_33k_ES_PAN_21mic_H50_0375_fot_40B-38933_W_tif
  70
32
  10
447236.575
  20
4598734.042
  30
1028.06
  0
VERTEX
  8
PNOA-H_AMS_1956-57_33k_ES_PAN_21mic_H50_0375_fot_40B-38933_W_tif
  70
32
  10
444873.500
  20
4598966.500
  30
961.562
  0
VERTEX
  8
PNOA-H_AMS_1956-57_33k_ES_PAN_21mic_H50_0375_fot_40B-38933_W_tif
  70
32
  10
444945.500
  20
4603296.000
  30
904.953
  0
VERTEX
  8
PNOA-H_AMS_1956-57_33k_ES_PAN_21mic_H50_0375_fot_40B-38933_W_tif
  70
32
  10
444946.000
  20
4603316.500
  30
906.697
  0
VERTEX
  8
PNOA-H_AMS_1956-57_33k_ES_PAN_21mic_H50_0375_fot_40B-38933_W_tif
  70
32
  10
444947.164
  20
4603316.733
  30
906.685
  0
VERTEX
  8
PNOA-H_AMS_1956-57_33k_ES_PAN_21mic_H50_0375_fot_40B-38933_W_tif
  70
32
  10
444948.500
  20
4603317.000
  30
906.671
  0
VERTEX
  8
PNOA-H_AMS_1956-57_33k_ES_PAN_21mic_H50_0375_fot_40B-38933_W_tif
  70
32
  10
447036.011
  20
4603609.431
  30
917.977
  0
VERTEX
  8
PNOA-H_AMS_1956-57_33k_ES_PAN_21mic_H50_0375_fot_40B-38933_W_tif
  70
32
  10
447036.500
  20
4603609.500
  30
917.98
  0
VERTEX
  8
PNOA-H_AMS_1956-57_33k_ES_PAN_21mic_H50_0375_fot_40B-38933_W_tif
  70
32
  10
447036.512
  20
4603609.494
  30
917.98
  0
VERTEX
  8
PNOA-H_AMS_1956-57_33k_ES_PAN_21mic_H50_0375_fot_40B-38933_W_tif
  70
32
  10
447744.387
  20
4603276.053
  30
922.763
  0
VERTEX
  8
PNOA-H_AMS_1956-57_33k_ES_PAN_21mic_H50_0375_fot_40B-38933_W_tif
  70
32
  10
447744.500
  20
4603276.000
  30
922.763
  0
VERTEX
  8
PNOA-H_AMS_1956-57_33k_ES_PAN_21mic_H50_0375_fot_40B-38933_W_tif
  70
32
  10
447714.500
  20
4599394.500
  30
1013.008
  0
VERTEX
  8
PNOA-H_AMS_1956-57_33k_ES_PAN_21mic_H50_0375_fot_40B-38933_W_tif
  70
32
  10
447714.500
  20
4599351.909
  30
1035.58
  0
VERTEX
  8
PNOA-H_AMS_1956-57_33k_ES_PAN_21mic_H50_0375_fot_40B-38933_W_tif
  70
32
  10
447714.500
  20
4599333.000
  30
1012.946
  0
VERTEX
  8
PNOA-H_AMS_1956-57_33k_ES_PAN_21mic_H50_0375_fot_40B-38933_W_tif
  70
32
  10
447711.500
  20
4598959.500
  30
1046.862
  0
VERTEX
  8
PNOA-H_AMS_1956-57_33k_ES_PAN_21mic_H50_0375_fot_40B-38933_W_tif
  70
32
  10
447711.292
  20
4598959.401
  30
1046.854
  0
SEQEND
  8
PNOA-H_AMS_1956-57_33k_ES_PAN_21mic_H50_0375_fot_40B-38933_W_tif
  0
INSERT
  8
FeatureAttribs
  2
FEATURE
  41
1
  42
1
  43
1
  50
0
  10
449111.268
  20
4601137.500
 66
1
  0
ATTRIB
  8
FeatureAttribs
 70
0
  1
PNOA-H_AMS_1956-57_33k_ES_PAN_21mic_H50_0375_fot_40B-38932_W.tif
  2
NAME
  10
449111.268
  20
4601137.500
 40
33.50603
  0
SEQEND
  0
POLYLINE
  8
PNOA-H_AMS_1956-57_33k_ES_PAN_21mic_H50_0375_fot_40B-38932_W_tif
  70
9
  66
1
  0
VERTEX
  8
PNOA-H_AMS_1956-57_33k_ES_PAN_21mic_H50_0375_fot_40B-38932_W_tif
  70
32
  10
450515.885
  20
4598967.947
  30
927.054
  0
VERTEX
  8
PNOA-H_AMS_1956-57_33k_ES_PAN_21mic_H50_0375_fot_40B-38932_W_tif
  70
32
  10
449901.500
  20
4598687.000
  30
980.042
  0
VERTEX
  8
PNOA-H_AMS_1956-57_33k_ES_PAN_21mic_H50_0375_fot_40B-38932_W_tif
  70
32
  10
449901.107
  20
4598687.049
  30
980.054
  0
VERTEX
  8
PNOA-H_AMS_1956-57_33k_ES_PAN_21mic_H50_0375_fot_40B-38932_W_tif
  70
32
  10
447711.500
  20
4598959.500
  30
1046.862
  0
VERTEX
  8
PNOA-H_AMS_1956-57_33k_ES_PAN_21mic_H50_0375_fot_40B-38932_W_tif
  70
32
  10
447714.500
  20
4599351.909
  30
1035.58
  0
VERTEX
  8
PNOA-H_AMS_1956-57_33k_ES_PAN_21mic_H50_0375_fot_40B-38932_W_tif
  70
32
  10
447744.500
  20
4603276.000
  30
922.763
  0
VERTEX
  8
PNOA-H_AMS_1956-57_33k_ES_PAN_21mic_H50_0375_fot_40B-38932_W_tif
  70
32
  10
448162.895
  20
4603333.474
  30
924.855
  0
VERTEX
  8
PNOA-H_AMS_1956-57_33k_ES_PAN_21mic_H50_0375_fot_40B-38932_W_tif
  70
32
  10
448967.500
  20
4603444.000
  30
928.878
  0
VERTEX
  8
PNOA-H_AMS_1956-57_33k_ES_PAN_21mic_H50_0375_fot_40B-38932_W_tif
  70
32
  10
448971.000
  20
4603444.500
  30
928.927
  0
VERTEX
  8
PNOA-H_AMS_1956-57_33k_ES_PAN_21mic_H50_0375_fot_40B-38932_W_tif
  70
32
  10
450018.000
  20
4603588.000
  30
932.346
  0
VERTEX
  8
PNOA-H_AMS_1956-57_33k_ES_PAN_21mic_H50_0375_fot_40B-38932_W_tif
  70
32
  10
450018.006
  20
4603587.997
  30
932.346
  0
VERTEX
  8
PNOA-H_AMS_1956-57_33k_ES_PAN_21mic_H50_0375_fot_40B-38932_W_tif
  70
32
  10
450471.950
  20
4603340.527
  30
938.872
  0
VERTEX
  8
PNOA-H_AMS_1956-57_33k_ES_PAN_21mic_H50_0375_fot_40B-38932_W_tif
  70
32
  10
450472.000
  20
4603340.500
  30
938.873
  0
VERTEX
  8
PNOA-H_AMS_1956-57_33k_ES_PAN_21mic_H50_0375_fot_40B-38932_W_tif
  70
32
  10
450512.000
  20
4599404.000
  30
1000.702
  0
VERTEX
  8
PNOA-H_AMS_1956-57_33k_ES_PAN_21mic_H50_0375_fot_40B-38932_W_tif
  70
32
  10
450512.000
  20
4599394.000
  30
995.592
  0
VERTEX
  8
PNOA-H_AMS_1956-57_33k_ES_PAN_21mic_H50_0375_fot_40B-38932_W_tif
  70
32
  10
450512.500
  20
4599369.000
  30
930.807
  0
VERTEX
  8
PNOA-H_AMS_1956-57_33k_ES_PAN_21mic_H50_0375_fot_40B-38932_W_tif
  70
32
  10
450516.000
  20
4598968.000
  30
927.044
  0
VERTEX
  8
PNOA-H_AMS_1956-57_33k_ES_PAN_21mic_H50_0375_fot_40B-38932_W_tif
  70
32
  10
450515.885
  20
4598967.947
  30
927.054
  0
SEQEND
  8
PNOA-H_AMS_1956-57_33k_ES_PAN_21mic_H50_0375_fot_40B-38932_W_tif
  0
INSERT
  8
FeatureAttribs
  2
FEATURE
  41
1
  42
1
  43
1
  50
0
  10
449785.000
  20
4605494.122
 66
1
  0
ATTRIB
  8
FeatureAttribs
 70
0
  1
PNOA-H_AMS_1956-57_33k_ES_PAN_21mic_H50_0375_fot_39C-51160_W.tif
  2
NAME
  10
449785.000
  20
4605494.122
 40
33.50603
  0
SEQEND
  0
POLYLINE
  8
PNOA-H_AMS_1956-57_33k_ES_PAN_21mic_H50_0375_fot_39C-51160_W_tif
  70
9
  66
1
  0
VERTEX
  8
PNOA-H_AMS_1956-57_33k_ES_PAN_21mic_H50_0375_fot_39C-51160_W_tif
  70
32
  10
447744.387
  20
4603276.053
  30
922.77
  0
VERTEX
  8
PNOA-H_AMS_1956-57_33k_ES_PAN_21mic_H50_0375_fot_39C-51160_W_tif
  70
32
  10
447744.000
  20
4603276.000
  30
922.769
  0
VERTEX
  8
PNOA-H_AMS_1956-57_33k_ES_PAN_21mic_H50_0375_fot_39C-51160_W_tif
  70
32
  10
447036.500
  20
4603609.000
  30
917.975
  0
VERTEX
  8
PNOA-H_AMS_1956-57_33k_ES_PAN_21mic_H50_0375_fot_39C-51160_W_tif
  70
32
  10
447036.512
  20
4603609.494
  30
917.97
  0
VERTEX
  8
PNOA-H_AMS_1956-57_33k_ES_PAN_21mic_H50_0375_fot_39C-51160_W_tif
  70
32
  10
447042.410
  20
4603850.000
  30
915.642
  0
VERTEX
  8
PNOA-H_AMS_1956-57_33k_ES_PAN_21mic_H50_0375_fot_39C-51160_W_tif
  70
32
  10
449530.000
  20
4603850.000
  30
900.031
  0
VERTEX
  8
PNOA-H_AMS_1956-57_33k_ES_PAN_21mic_H50_0375_fot_39C-51160_W_tif
  70
32
  10
449530.000
  20
4607711.755
  30
876.26
  0
VERTEX
  8
PNOA-H_AMS_1956-57_33k_ES_PAN_21mic_H50_0375_fot_39C-51160_W_tif
  70
32
  10
449530.000
  20
4607712.243
  30
876.257
  0
VERTEX
  8
PNOA-H_AMS_1956-57_33k_ES_PAN_21mic_H50_0375_fot_39C-51160_W_tif
  70
32
  10
450061.792
  20
4607481.740
  30
888.866
  0
VERTEX
  8
PNOA-H_AMS_1956-57_33k_ES_PAN_21mic_H50_0375_fot_39C-51160_W_tif
  70
32
  10
450063.500
  20
4607481.000
  30
888.906
  0
VERTEX
  8
PNOA-H_AMS_1956-57_33k_ES_PAN_21mic_H50_0375_fot_39C-51160_W_tif
  70
32
  10
450040.000
  20
4605499.000
  30
902.874
  0
VERTEX
  8
PNOA-H_AMS_1956-57_33k_ES_PAN_21mic_H50_0375_fot_39C-51160_W_tif
  70
32
  10
450040.000
  20
4605477.000
  30
899.181
  0
VERTEX
  8
PNOA-H_AMS_1956-57_33k_ES_PAN_21mic_H50_0375_fot_39C-51160_W_tif
  70
32
  10
450018.000
  20
4603588.000
  30
932.346
  0
VERTEX
  8
PNOA-H_AMS_1956-57_33k_ES_PAN_21mic_H50_0375_fot_39C-51160_W_tif
  70
32
  10
448162.895
  20
4603333.474
  30
924.533
  0
VERTEX
  8
PNOA-H_AMS_1956-57_33k_ES_PAN_21mic_H50_0375_fot_39C-51160_W_tif
  70
32
  10
447744.387
  20
4603276.053
  30
922.77
  0
SEQEND
  8
PNOA-H_AMS_1956-57_33k_ES_PAN_21mic_H50_0375_fot_39C-51160_W_tif
  0
INSERT
  8
FeatureAttribs
  2
FEATURE
  41
1
  42
1
  43
1
  50
0
  10
445621.709
  20
4603583.250
 66
1
  0
ATTRIB
  8
FeatureAttribs
 70
0
  1
PNOA-H_AMS_1956-57_33k_ES_PAN_21mic_H50_0375_fot_39C-51161_W.tif
  2
NAME
  10
445621.709
  20
4603583.250
 40
33.50603
  0
SEQEND
  0
POLYLINE
  8
PNOA-H_AMS_1956-57_33k_ES_PAN_21mic_H50_0375_fot_39C-51161_W_tif
  70
9
  66
1
  0
VERTEX
  8
PNOA-H_AMS_1956-57_33k_ES_PAN_21mic_H50_0375_fot_39C-51161_W_tif
  70
32
  10
444945.887
  20
4603316.554
  30
906.721
  0
VERTEX
  8
PNOA-H_AMS_1956-57_33k_ES_PAN_21mic_H50_0375_fot_39C-51161_W_tif
  70
32
  10
444945.500
  20
4603316.500
  30
906.719
  0
VERTEX
  8
PNOA-H_AMS_1956-57_33k_ES_PAN_21mic_H50_0375_fot_39C-51161_W_tif
  70
32
  10
444190.500
  20
4603680.000
  30
911.971
  0
VERTEX
  8
PNOA-H_AMS_1956-57_33k_ES_PAN_21mic_H50_0375_fot_39C-51161_W_tif
  70
32
  10
444190.500
  20
4603680.019
  30
911.971
  0
VERTEX
  8
PNOA-H_AMS_1956-57_33k_ES_PAN_21mic_H50_0375_fot_39C-51161_W_tif
  70
32
  10
444194.629
  20
4603850.000
  30
908.583
  0
VERTEX
  8
PNOA-H_AMS_1956-57_33k_ES_PAN_21mic_H50_0375_fot_39C-51161_W_tif
  70
32
  10
447041.941
  20
4603850.000
  30
915.655
  0
VERTEX
  8
PNOA-H_AMS_1956-57_33k_ES_PAN_21mic_H50_0375_fot_39C-51161_W_tif
  70
32
  10
447036.011
  20
4603609.431
  30
917.985
  0
VERTEX
  8
PNOA-H_AMS_1956-57_33k_ES_PAN_21mic_H50_0375_fot_39C-51161_W_tif
  70
32
  10
447036.000
  20
4603609.000
  30
917.989
  0
VERTEX
  8
PNOA-H_AMS_1956-57_33k_ES_PAN_21mic_H50_0375_fot_39C-51161_W_tif
  70
32
  10
444947.164
  20
4603316.733
  30
906.728
  0
VERTEX
  8
PNOA-H_AMS_1956-57_33k_ES_PAN_21mic_H50_0375_fot_39C-51161_W_tif
  70
32
  10
444945.887
  20
4603316.554
  30
906.721
  0
SEQEND
  8
PNOA-H_AMS_1956-57_33k_ES_PAN_21mic_H50_0375_fot_39C-51161_W_tif
  0
INSERT
  8
FeatureAttribs
  2
FEATURE
  41
1
  42
1
  43
1
  50
0
  10
443247.386
  20
4603644.252
 66
1
  0
ATTRIB
  8
FeatureAttribs
 70
0
  1
PNOA-H_AMS_1956-57_33k_ES_PAN_21mic_H50_0375_fot_39C-51162_W.tif
  2
NAME
  10
443247.386
  20
4603644.252
 40
33.50603
  0
SEQEND
  0
POLYLINE
  8
PNOA-H_AMS_1956-57_33k_ES_PAN_21mic_H50_0375_fot_39C-51162_W_tif
  70
9
  66
1
  0
VERTEX
  8
PNOA-H_AMS_1956-57_33k_ES_PAN_21mic_H50_0375_fot_39C-51162_W_tif
  70
32
  10
443016.908
  20
4603507.379
  30
875.197
  0
VERTEX
  8
PNOA-H_AMS_1956-57_33k_ES_PAN_21mic_H50_0375_fot_39C-51162_W_tif
  70
32
  10
442550.000
  20
4603438.503
  30
860.562
  0
VERTEX
  8
PNOA-H_AMS_1956-57_33k_ES_PAN_21mic_H50_0375_fot_39C-51162_W_tif
  70
32
  10
442550.000
  20
4603850.000
  30
864.186
  0
VERTEX
  8
PNOA-H_AMS_1956-57_33k_ES_PAN_21mic_H50_0375_fot_39C-51162_W_tif
  70
32
  10
444194.604
  20
4603850.000
  30
910.232
  0
VERTEX
  8
PNOA-H_AMS_1956-57_33k_ES_PAN_21mic_H50_0375_fot_39C-51162_W_tif
  70
32
  10
444190.500
  20
4603680.500
  30
911.981
  0
VERTEX
  8
PNOA-H_AMS_1956-57_33k_ES_PAN_21mic_H50_0375_fot_39C-51162_W_tif
  70
32
  10
444189.735
  20
4603680.387
  30
911.957
  0
VERTEX
  8
PNOA-H_AMS_1956-57_33k_ES_PAN_21mic_H50_0375_fot_39C-51162_W_tif
  70
32
  10
443016.908
  20
4603507.379
  30
875.197
  0
SEQEND
  8
PNOA-H_AMS_1956-57_33k_ES_PAN_21mic_H50_0375_fot_39C-51162_W_tif
  0
INSERT
  8
FeatureAttribs
  2
FEATURE
  41
1
  42
1
  43
1
  50
0
  10
448552.223
  20
4596698.928
 66
1
  0
ATTRIB
  8
FeatureAttribs
 70
0
  1
PNOA-H_AMS_1956-57_33k_ES_PAN_21mic_H50_0375_fot_41B-37419_W.tif
  2
NAME
  10
448552.223
  20
4596698.928
 40
33.50603
  0
SEQEND
  0
POLYLINE
  8
PNOA-H_AMS_1956-57_33k_ES_PAN_21mic_H50_0375_fot_41B-37419_W_tif
  70
9
  66
1
  0
VERTEX
  8
PNOA-H_AMS_1956-57_33k_ES_PAN_21mic_H50_0375_fot_41B-37419_W_tif
  70
32
  10
447711.292
  20
4598959.401
  30
1046.827
  0
VERTEX
  8
PNOA-H_AMS_1956-57_33k_ES_PAN_21mic_H50_0375_fot_41B-37419_W_tif
  70
32
  10
448971.000
  20
4598802.500
  30
1040.35
  0
VERTEX
  8
PNOA-H_AMS_1956-57_33k_ES_PAN_21mic_H50_0375_fot_41B-37419_W_tif
  70
32
  10
448972.000
  20
4598802.500
  30
1040.32
  0
VERTEX
  8
PNOA-H_AMS_1956-57_33k_ES_PAN_21mic_H50_0375_fot_41B-37419_W_tif
  70
32
  10
449901.000
  20
4598687.000
  30
980.097
  0
VERTEX
  8
PNOA-H_AMS_1956-57_33k_ES_PAN_21mic_H50_0375_fot_41B-37419_W_tif
  70
32
  10
449876.043
  20
4594438.356
  30
1115.102
  0
VERTEX
  8
PNOA-H_AMS_1956-57_33k_ES_PAN_21mic_H50_0375_fot_41B-37419_W_tif
  70
32
  10
449574.460
  20
4594440.391
  30
0
  0
VERTEX
  8
PNOA-H_AMS_1956-57_33k_ES_PAN_21mic_H50_0375_fot_41B-37419_W_tif
  70
32
  10
447192.089
  20
4594457.611
  30
1182.615
  0
VERTEX
  8
PNOA-H_AMS_1956-57_33k_ES_PAN_21mic_H50_0375_fot_41B-37419_W_tif
  70
32
  10
447236.000
  20
4598730.000
  30
1028.292
  0
VERTEX
  8
PNOA-H_AMS_1956-57_33k_ES_PAN_21mic_H50_0375_fot_41B-37419_W_tif
  70
32
  10
447236.500
  20
4598734.000
  30
1028.2
  0
VERTEX
  8
PNOA-H_AMS_1956-57_33k_ES_PAN_21mic_H50_0375_fot_41B-37419_W_tif
  70
32
  10
447236.575
  20
4598734.042
  30
1028.181
  0
VERTEX
  8
PNOA-H_AMS_1956-57_33k_ES_PAN_21mic_H50_0375_fot_41B-37419_W_tif
  70
32
  10
447241.000
  20
4598736.500
  30
1027.058
  0
VERTEX
  8
PNOA-H_AMS_1956-57_33k_ES_PAN_21mic_H50_0375_fot_41B-37419_W_tif
  70
32
  10
447710.500
  20
4598959.500
  30
1046.831
  0
VERTEX
  8
PNOA-H_AMS_1956-57_33k_ES_PAN_21mic_H50_0375_fot_41B-37419_W_tif
  70
32
  10
447711.292
  20
4598959.401
  30
1046.827
  0
SEQEND
  8
PNOA-H_AMS_1956-57_33k_ES_PAN_21mic_H50_0375_fot_41B-37419_W_tif
  0
INSERT
  8
FeatureAttribs
  2
FEATURE
  41
1
  42
1
  43
1
  50
0
  10
453143.993
  20
4607930.250
 66
1
  0
ATTRIB
  8
FeatureAttribs
 70
0
  1
PNOA-H_AMS_1956-57_33k_ES_PAN_21mic_H50_0375_fot_38C-40554_E.tif
  2
NAME
  10
453143.993
  20
4607930.250
 40
33.50603
  0
SEQEND
  0
POLYLINE
  8
PNOA-H_AMS_1956-57_33k_ES_PAN_21mic_H50_0375_fot_38C-40554_E_tif
  70
9
  66
1
  0
VERTEX
  8
PNOA-H_AMS_1956-57_33k_ES_PAN_21mic_H50_0375_fot_38C-40554_E_tif
  70
32
  10
453051.000
  20
4607440.500
  30
853.618
  0
VERTEX
  8
PNOA-H_AMS_1956-57_33k_ES_PAN_21mic_H50_0375_fot_38C-40554_E_tif
  70
32
  10
453049.500
  20
4607440.500
  30
853.621
  0
VERTEX
  8
PNOA-H_AMS_1956-57_33k_ES_PAN_21mic_H50_0375_fot_38C-40554_E_tif
  70
32
  10
453022.000
  20
4607451.000
  30
853.387
  0
VERTEX
  8
PNOA-H_AMS_1956-57_33k_ES_PAN_21mic_H50_0375_fot_38C-40554_E_tif
  70
32
  10
451640.226
  20
4607981.413
  30
852.25
  0
VERTEX
  8
PNOA-H_AMS_1956-57_33k_ES_PAN_21mic_H50_0375_fot_38C-40554_E_tif
  70
32
  10
451640.000
  20
4607981.500
  30
852.25
  0
VERTEX
  8
PNOA-H_AMS_1956-57_33k_ES_PAN_21mic_H50_0375_fot_38C-40554_E_tif
  70
32
  10
451657.577
  20
4608420.000
  30
853.398
  0
VERTEX
  8
PNOA-H_AMS_1956-57_33k_ES_PAN_21mic_H50_0375_fot_38C-40554_E_tif
  70
32
  10
454569.249
  20
4608420.000
  30
888.298
  0
VERTEX
  8
PNOA-H_AMS_1956-57_33k_ES_PAN_21mic_H50_0375_fot_38C-40554_E_tif
  70
32
  10
454563.000
  20
4607946.500
  30
888.957
  0
VERTEX
  8
PNOA-H_AMS_1956-57_33k_ES_PAN_21mic_H50_0375_fot_38C-40554_E_tif
  70
32
  10
453052.000
  20
4607440.500
  30
853.616
  0
VERTEX
  8
PNOA-H_AMS_1956-57_33k_ES_PAN_21mic_H50_0375_fot_38C-40554_E_tif
  70
32
  10
453051.000
  20
4607440.500
  30
853.618
  0
SEQEND
  8
PNOA-H_AMS_1956-57_33k_ES_PAN_21mic_H50_0375_fot_38C-40554_E_tif
  0
INSERT
  8
FeatureAttribs
  2
FEATURE
  41
1
  42
1
  43
1
  50
0
  10
450536.224
  20
4607950.500
 66
1
  0
ATTRIB
  8
FeatureAttribs
 70
0
  1
PNOA-H_AMS_1956-57_33k_ES_PAN_21mic_H50_0375_fot_38C-40553_E.tif
  2
NAME
  10
450536.224
  20
4607950.500
 40
33.50603
  0
SEQEND
  0
POLYLINE
  8
PNOA-H_AMS_1956-57_33k_ES_PAN_21mic_H50_0375_fot_38C-40553_E_tif
  70
9
  66
1
  0
VERTEX
  8
PNOA-H_AMS_1956-57_33k_ES_PAN_21mic_H50_0375_fot_38C-40553_E_tif
  70
32
  10
451442.561
  20
4607918.758
  30
856.849
  0
VERTEX
  8
PNOA-H_AMS_1956-57_33k_ES_PAN_21mic_H50_0375_fot_38C-40553_E_tif
  70
32
  10
450065.000
  20
4607481.000
  30
888.939
  0
VERTEX
  8
PNOA-H_AMS_1956-57_33k_ES_PAN_21mic_H50_0375_fot_38C-40553_E_tif
  70
32
  10
450064.131
  20
4607481.200
  30
888.904
  0
VERTEX
  8
PNOA-H_AMS_1956-57_33k_ES_PAN_21mic_H50_0375_fot_38C-40553_E_tif
  70
32
  10
450061.792
  20
4607481.740
  30
888.811
  0
VERTEX
  8
PNOA-H_AMS_1956-57_33k_ES_PAN_21mic_H50_0375_fot_38C-40553_E_tif
  70
32
  10
450058.500
  20
4607482.500
  30
888.68
  0
VERTEX
  8
PNOA-H_AMS_1956-57_33k_ES_PAN_21mic_H50_0375_fot_38C-40553_E_tif
  70
32
  10
449530.000
  20
4607711.755
  30
876.193
  0
VERTEX
  8
PNOA-H_AMS_1956-57_33k_ES_PAN_21mic_H50_0375_fot_38C-40553_E_tif
  70
32
  10
449530.000
  20
4607712.243
  30
876.186
  0
VERTEX
  8
PNOA-H_AMS_1956-57_33k_ES_PAN_21mic_H50_0375_fot_38C-40553_E_tif
  70
32
  10
449530.000
  20
4608420.000
  30
865.124
  0
VERTEX
  8
PNOA-H_AMS_1956-57_33k_ES_PAN_21mic_H50_0375_fot_38C-40553_E_tif
  70
32
  10
451657.577
  20
4608420.000
  30
853.398
  0
VERTEX
  8
PNOA-H_AMS_1956-57_33k_ES_PAN_21mic_H50_0375_fot_38C-40553_E_tif
  70
32
  10
451640.000
  20
4607981.500
  30
852.25
  0
VERTEX
  8
PNOA-H_AMS_1956-57_33k_ES_PAN_21mic_H50_0375_fot_38C-40553_E_tif
  70
32
  10
451442.561
  20
4607918.758
  30
856.849
  0
SEQEND
  8
PNOA-H_AMS_1956-57_33k_ES_PAN_21mic_H50_0375_fot_38C-40553_E_tif
  0
INSERT
  8
FeatureAttribs
  2
FEATURE
  41
1
  42
1
  43
1
  50
0
  10
455601.177
  20
4607986.258
 66
1
  0
ATTRIB
  8
FeatureAttribs
 70
0
  1
PNOA-H_AMS_1956-57_33k_ES_PAN_21mic_H50_0375_fot_38C-40555_E.tif
  2
NAME
  10
455601.177
  20
4607986.258
 40
33.50603
  0
SEQEND
  0
POLYLINE
  8
PNOA-H_AMS_1956-57_33k_ES_PAN_21mic_H50_0375_fot_38C-40555_E_tif
  70
9
  66
1
  0
VERTEX
  8
PNOA-H_AMS_1956-57_33k_ES_PAN_21mic_H50_0375_fot_38C-40555_E_tif
  70
32
  10
455871.500
  20
4607450.500
  30
884.601
  0
VERTEX
  8
PNOA-H_AMS_1956-57_33k_ES_PAN_21mic_H50_0375_fot_38C-40555_E_tif
  70
32
  10
455870.000
  20
4607450.500
  30
884.446
  0
VERTEX
  8
PNOA-H_AMS_1956-57_33k_ES_PAN_21mic_H50_0375_fot_38C-40555_E_tif
  70
32
  10
454563.000
  20
4607946.500
  30
888.957
  0
VERTEX
  8
PNOA-H_AMS_1956-57_33k_ES_PAN_21mic_H50_0375_fot_38C-40555_E_tif
  70
32
  10
454569.279
  20
4608420.000
  30
888.377
  0
VERTEX
  8
PNOA-H_AMS_1956-57_33k_ES_PAN_21mic_H50_0375_fot_38C-40555_E_tif
  70
32
  10
456510.000
  20
4608420.000
  30
888.632
  0
VERTEX
  8
PNOA-H_AMS_1956-57_33k_ES_PAN_21mic_H50_0375_fot_38C-40555_E_tif
  70
32
  10
456510.000
  20
4612633.257
  30
874.598
  0
VERTEX
  8
PNOA-H_AMS_1956-57_33k_ES_PAN_21mic_H50_0375_fot_38C-40555_E_tif
  70
32
  10
456510.000
  20
4612633.774
  30
874.596
  0
VERTEX
  8
PNOA-H_AMS_1956-57_33k_ES_PAN_21mic_H50_0375_fot_38C-40555_E_tif
  70
32
  10
456639.354
  20
4612564.560
  30
874.556
  0
VERTEX
  8
PNOA-H_AMS_1956-57_33k_ES_PAN_21mic_H50_0375_fot_38C-40555_E_tif
  70
32
  10
456639.351
  20
4612564.042
  30
0
  0
VERTEX
  8
PNOA-H_AMS_1956-57_33k_ES_PAN_21mic_H50_0375_fot_38C-40555_E_tif
  70
32
  10
456627.398
  20
4610585.725
  30
0
  0
VERTEX
  8
PNOA-H_AMS_1956-57_33k_ES_PAN_21mic_H50_0375_fot_38C-40555_E_tif
  70
32
  10
456613.429
  20
4608272.759
  30
0
  0
VERTEX
  8
PNOA-H_AMS_1956-57_33k_ES_PAN_21mic_H50_0375_fot_38C-40555_E_tif
  70
32
  10
456609.895
  20
4607687.381
  30
0
  0
VERTEX
  8
PNOA-H_AMS_1956-57_33k_ES_PAN_21mic_H50_0375_fot_38C-40555_E_tif
  70
32
  10
456609.893
  20
4607687.091
  30
909.39
  0
VERTEX
  8
PNOA-H_AMS_1956-57_33k_ES_PAN_21mic_H50_0375_fot_38C-40555_E_tif
  70
32
  10
455873.000
  20
4607450.500
  30
884.755
  0
VERTEX
  8
PNOA-H_AMS_1956-57_33k_ES_PAN_21mic_H50_0375_fot_38C-40555_E_tif
  70
32
  10
455871.500
  20
4607450.500
  30
884.601
  0
SEQEND
  8
PNOA-H_AMS_1956-57_33k_ES_PAN_21mic_H50_0375_fot_38C-40555_E_tif
  0
INSERT
  8
FeatureAttribs
  2
FEATURE
  41
1
  42
1
  43
1
  50
0
  10
451546.277
  20
4605661.000
 66
1
  0
ATTRIB
  8
FeatureAttribs
 70
0
  1
PNOA-H_AMS_1956-57_33k_ES_PAN_21mic_H50_0375_fot_39C-51159_W.tif
  2
NAME
  10
451546.277
  20
4605661.000
 40
33.50603
  0
SEQEND
  0
POLYLINE
  8
PNOA-H_AMS_1956-57_33k_ES_PAN_21mic_H50_0375_fot_39C-51159_W_tif
  70
9
  66
1
  0
VERTEX
  8
PNOA-H_AMS_1956-57_33k_ES_PAN_21mic_H50_0375_fot_39C-51159_W_tif
  70
32
  10
450471.950
  20
4603340.527
  30
938.869
  0
VERTEX
  8
PNOA-H_AMS_1956-57_33k_ES_PAN_21mic_H50_0375_fot_39C-51159_W_tif
  70
32
  10
450471.500
  20
4603340.500
  30
938.866
  0
VERTEX
  8
PNOA-H_AMS_1956-57_33k_ES_PAN_21mic_H50_0375_fot_39C-51159_W_tif
  70
32
  10
450018.000
  20
4603587.500
  30
932.35
  0
VERTEX
  8
PNOA-H_AMS_1956-57_33k_ES_PAN_21mic_H50_0375_fot_39C-51159_W_tif
  70
32
  10
450018.006
  20
4603587.997
  30
932.345
  0
VERTEX
  8
PNOA-H_AMS_1956-57_33k_ES_PAN_21mic_H50_0375_fot_39C-51159_W_tif
  70
32
  10
450063.500
  20
4607481.000
  30
888.906
  0
VERTEX
  8
PNOA-H_AMS_1956-57_33k_ES_PAN_21mic_H50_0375_fot_39C-51159_W_tif
  70
32
  10
450064.131
  20
4607481.200
  30
888.893
  0
VERTEX
  8
PNOA-H_AMS_1956-57_33k_ES_PAN_21mic_H50_0375_fot_39C-51159_W_tif
  70
32
  10
451017.500
  20
4607784.000
  30
869.219
  0
VERTEX
  8
PNOA-H_AMS_1956-57_33k_ES_PAN_21mic_H50_0375_fot_39C-51159_W_tif
  70
32
  10
451019.000
  20
4607784.500
  30
869.087
  0
VERTEX
  8
PNOA-H_AMS_1956-57_33k_ES_PAN_21mic_H50_0375_fot_39C-51159_W_tif
  70
32
  10
451442.561
  20
4607918.758
  30
857.609
  0
VERTEX
  8
PNOA-H_AMS_1956-57_33k_ES_PAN_21mic_H50_0375_fot_39C-51159_W_tif
  70
32
  10
451640.226
  20
4607981.413
  30
852.253
  0
VERTEX
  8
PNOA-H_AMS_1956-57_33k_ES_PAN_21mic_H50_0375_fot_39C-51159_W_tif
  70
32
  10
451640.500
  20
4607981.500
  30
852.245
  0
VERTEX
  8
PNOA-H_AMS_1956-57_33k_ES_PAN_21mic_H50_0375_fot_39C-51159_W_tif
  70
32
  10
453051.000
  20
4607440.500
  30
853.618
  0
VERTEX
  8
PNOA-H_AMS_1956-57_33k_ES_PAN_21mic_H50_0375_fot_39C-51159_W_tif
  70
32
  10
453049.500
  20
4603496.500
  30
951.977
  0
VERTEX
  8
PNOA-H_AMS_1956-57_33k_ES_PAN_21mic_H50_0375_fot_39C-51159_W_tif
  70
32
  10
450757.944
  20
4603357.833
  30
940.323
  0
VERTEX
  8
PNOA-H_AMS_1956-57_33k_ES_PAN_21mic_H50_0375_fot_39C-51159_W_tif
  70
32
  10
450471.950
  20
4603340.527
  30
938.869
  0
SEQEND
  8
PNOA-H_AMS_1956-57_33k_ES_PAN_21mic_H50_0375_fot_39C-51159_W_tif
  0
INSERT
  8
FeatureAttribs
  2
FEATURE
  41
1
  42
1
  43
1
  50
0
  10
454475.242
  20
4605658.000
 66
1
  0
ATTRIB
  8
FeatureAttribs
 70
0
  1
PNOA-H_AMS_1956-57_33k_ES_PAN_21mic_H50_0375_fot_39C-51158_W.tif
  2
NAME
  10
454475.242
  20
4605658.000
 40
33.50603
  0
SEQEND
  0
POLYLINE
  8
PNOA-H_AMS_1956-57_33k_ES_PAN_21mic_H50_0375_fot_39C-51158_W_tif
  70
9
  66
1
  0
VERTEX
  8
PNOA-H_AMS_1956-57_33k_ES_PAN_21mic_H50_0375_fot_39C-51158_W_tif
  70
32
  10
453267.950
  20
4603369.529
  30
954.41
  0
VERTEX
  8
PNOA-H_AMS_1956-57_33k_ES_PAN_21mic_H50_0375_fot_39C-51158_W_tif
  70
32
  10
453267.000
  20
4603369.500
  30
954.404
  0
VERTEX
  8
PNOA-H_AMS_1956-57_33k_ES_PAN_21mic_H50_0375_fot_39C-51158_W_tif
  70
32
  10
453118.588
  20
4603456.159
  30
952.748
  0
VERTEX
  8
PNOA-H_AMS_1956-57_33k_ES_PAN_21mic_H50_0375_fot_39C-51158_W_tif
  70
32
  10
453058.653
  20
4603491.155
  30
952.079
  0
VERTEX
  8
PNOA-H_AMS_1956-57_33k_ES_PAN_21mic_H50_0375_fot_39C-51158_W_tif
  70
32
  10
453049.500
  20
4603496.500
  30
951.977
  0
VERTEX
  8
PNOA-H_AMS_1956-57_33k_ES_PAN_21mic_H50_0375_fot_39C-51158_W_tif
  70
32
  10
453051.000
  20
4607440.500
  30
853.618
  0
VERTEX
  8
PNOA-H_AMS_1956-57_33k_ES_PAN_21mic_H50_0375_fot_39C-51158_W_tif
  70
32
  10
454561.500
  20
4607946.500
  30
889.087
  0
VERTEX
  8
PNOA-H_AMS_1956-57_33k_ES_PAN_21mic_H50_0375_fot_39C-51158_W_tif
  70
32
  10
454563.000
  20
4607946.500
  30
888.939
  0
VERTEX
  8
PNOA-H_AMS_1956-57_33k_ES_PAN_21mic_H50_0375_fot_39C-51158_W_tif
  70
32
  10
454564.500
  20
4607946.500
  30
888.79
  0
VERTEX
  8
PNOA-H_AMS_1956-57_33k_ES_PAN_21mic_H50_0375_fot_39C-51158_W_tif
  70
32
  10
454572.500
  20
4607943.500
  30
887.677
  0
VERTEX
  8
PNOA-H_AMS_1956-57_33k_ES_PAN_21mic_H50_0375_fot_39C-51158_W_tif
  70
32
  10
455871.500
  20
4607450.500
  30
884.595
  0
VERTEX
  8
PNOA-H_AMS_1956-57_33k_ES_PAN_21mic_H50_0375_fot_39C-51158_W_tif
  70
32
  10
455903.000
  20
4605480.500
  30
961.197
  0
VERTEX
  8
PNOA-H_AMS_1956-57_33k_ES_PAN_21mic_H50_0375_fot_39C-51158_W_tif
  70
32
  10
455903.000
  20
4605477.000
  30
961.07
  0
VERTEX
  8
PNOA-H_AMS_1956-57_33k_ES_PAN_21mic_H50_0375_fot_39C-51158_W_tif
  70
32
  10
455935.000
  20
4603451.000
  30
972.045
  0
VERTEX
  8
PNOA-H_AMS_1956-57_33k_ES_PAN_21mic_H50_0375_fot_39C-51158_W_tif
  70
32
  10
455931.148
  20
4603450.882
  30
972.019
  0
VERTEX
  8
PNOA-H_AMS_1956-57_33k_ES_PAN_21mic_H50_0375_fot_39C-51158_W_tif
  70
32
  10
453269.570
  20
4603369.579
  30
954.421
  0
VERTEX
  8
PNOA-H_AMS_1956-57_33k_ES_PAN_21mic_H50_0375_fot_39C-51158_W_tif
  70
32
  10
453267.950
  20
4603369.529
  30
954.41
  0
SEQEND
  8
PNOA-H_AMS_1956-57_33k_ES_PAN_21mic_H50_0375_fot_39C-51158_W_tif
  0
INSERT
  8
FeatureAttribs
  2
FEATURE
  41
1
  42
1
  43
1
  50
0
  10
456249.440
  20
4605528.191
 66
1
  0
ATTRIB
  8
FeatureAttribs
 70
0
  1
PNOA-H_AMS_1956-57_33k_ES_PAN_21mic_H50_0376_fot_39C-51157_W.tif
  2
NAME
  10
456249.440
  20
4605528.191
 40
33.50603
  0
SEQEND
  0
POLYLINE
  8
PNOA-H_AMS_1956-57_33k_ES_PAN_21mic_H50_0376_fot_39C-51157_W_tif
  70
9
  66
1
  0
VERTEX
  8
PNOA-H_AMS_1956-57_33k_ES_PAN_21mic_H50_0376_fot_39C-51157_W_tif
  70
32
  10
456076.951
  20
4603369.028
  30
977.725
  0
VERTEX
  8
PNOA-H_AMS_1956-57_33k_ES_PAN_21mic_H50_0376_fot_39C-51157_W_tif
  70
32
  10
456076.000
  20
4603369.000
  30
977.708
  0
VERTEX
  8
PNOA-H_AMS_1956-57_33k_ES_PAN_21mic_H50_0376_fot_39C-51157_W_tif
  70
32
  10
455935.770
  20
4603450.552
  30
972.076
  0
VERTEX
  8
PNOA-H_AMS_1956-57_33k_ES_PAN_21mic_H50_0376_fot_39C-51157_W_tif
  70
32
  10
455935.000
  20
4603451.000
  30
972.045
  0
VERTEX
  8
PNOA-H_AMS_1956-57_33k_ES_PAN_21mic_H50_0376_fot_39C-51157_W_tif
  70
32
  10
455871.500
  20
4607450.500
  30
884.595
  0
VERTEX
  8
PNOA-H_AMS_1956-57_33k_ES_PAN_21mic_H50_0376_fot_39C-51157_W_tif
  70
32
  10
456609.895
  20
4607687.381
  30
904.94
  0
VERTEX
  8
PNOA-H_AMS_1956-57_33k_ES_PAN_21mic_H50_0376_fot_39C-51157_W_tif
  70
32
  10
456609.893
  20
4607687.091
  30
0
  0
VERTEX
  8
PNOA-H_AMS_1956-57_33k_ES_PAN_21mic_H50_0376_fot_39C-51157_W_tif
  70
32
  10
456599.465
  20
4605959.802
  30
0
  0
VERTEX
  8
PNOA-H_AMS_1956-57_33k_ES_PAN_21mic_H50_0376_fot_39C-51157_W_tif
  70
32
  10
456585.507
  20
4603646.854
  30
0
  0
VERTEX
  8
PNOA-H_AMS_1956-57_33k_ES_PAN_21mic_H50_0376_fot_39C-51157_W_tif
  70
32
  10
456583.922
  20
4603384.144
  30
0
  0
VERTEX
  8
PNOA-H_AMS_1956-57_33k_ES_PAN_21mic_H50_0376_fot_39C-51157_W_tif
  70
32
  10
456583.922
  20
4603384.119
  30
987.115
  0
VERTEX
  8
PNOA-H_AMS_1956-57_33k_ES_PAN_21mic_H50_0376_fot_39C-51157_W_tif
  70
32
  10
456349.822
  20
4603377.150
  30
982.779
  0
VERTEX
  8
PNOA-H_AMS_1956-57_33k_ES_PAN_21mic_H50_0376_fot_39C-51157_W_tif
  70
32
  10
456076.951
  20
4603369.028
  30
977.725
  0
SEQEND
  8
PNOA-H_AMS_1956-57_33k_ES_PAN_21mic_H50_0376_fot_39C-51157_W_tif
  0
INSERT
  8
FeatureAttribs
  2
FEATURE
  41
1
  42
1
  43
1
  50
0
  10
454105.111
  20
4596672.722
 66
1
  0
ATTRIB
  8
FeatureAttribs
 70
0
  1
PNOA-H_AMS_1956-57_33k_ES_PAN_21mic_H50_0375_fot_41B-37417_W.tif
  2
NAME
  10
454105.111
  20
4596672.722
 40
33.50603
  0
SEQEND
  0
POLYLINE
  8
PNOA-H_AMS_1956-57_33k_ES_PAN_21mic_H50_0375_fot_41B-37417_W_tif
  70
9
  66
1
  0
VERTEX
  8
PNOA-H_AMS_1956-57_33k_ES_PAN_21mic_H50_0375_fot_41B-37417_W_tif
  70
32
  10
455558.000
  20
4594438.000
  30
920.099
  0
VERTEX
  8
PNOA-H_AMS_1956-57_33k_ES_PAN_21mic_H50_0375_fot_41B-37417_W_tif
  70
32
  10
455444.102
  20
4594401.944
  30
925.893
  0
VERTEX
  8
PNOA-H_AMS_1956-57_33k_ES_PAN_21mic_H50_0375_fot_41B-37417_W_tif
  70
32
  10
455442.697
  20
4594401.953
  30
0
  0
VERTEX
  8
PNOA-H_AMS_1956-57_33k_ES_PAN_21mic_H50_0375_fot_41B-37417_W_tif
  70
32
  10
453052.098
  20
4594416.929
  30
0
  0
VERTEX
  8
PNOA-H_AMS_1956-57_33k_ES_PAN_21mic_H50_0375_fot_41B-37417_W_tif
  70
32
  10
452638.506
  20
4594419.719
  30
1046.86
  0
VERTEX
  8
PNOA-H_AMS_1956-57_33k_ES_PAN_21mic_H50_0375_fot_41B-37417_W_tif
  70
32
  10
452617.000
  20
4594426.000
  30
1047.64
  0
VERTEX
  8
PNOA-H_AMS_1956-57_33k_ES_PAN_21mic_H50_0375_fot_41B-37417_W_tif
  70
32
  10
452664.994
  20
4598674.001
  30
891.284
  0
VERTEX
  8
PNOA-H_AMS_1956-57_33k_ES_PAN_21mic_H50_0375_fot_41B-37417_W_tif
  70
32
  10
452664.999
  20
4598674.375
  30
891.27
  0
VERTEX
  8
PNOA-H_AMS_1956-57_33k_ES_PAN_21mic_H50_0375_fot_41B-37417_W_tif
  70
32
  10
452665.000
  20
4598674.500
  30
891.265
  0
VERTEX
  8
PNOA-H_AMS_1956-57_33k_ES_PAN_21mic_H50_0375_fot_41B-37417_W_tif
  70
32
  10
452951.000
  20
4598806.500
  30
976.08
  0
VERTEX
  8
PNOA-H_AMS_1956-57_33k_ES_PAN_21mic_H50_0375_fot_41B-37417_W_tif
  70
32
  10
452956.000
  20
4598809.000
  30
982.247
  0
VERTEX
  8
PNOA-H_AMS_1956-57_33k_ES_PAN_21mic_H50_0375_fot_41B-37417_W_tif
  70
32
  10
452968.500
  20
4598815.500
  30
999.664
  0
VERTEX
  8
PNOA-H_AMS_1956-57_33k_ES_PAN_21mic_H50_0375_fot_41B-37417_W_tif
  70
32
  10
452971.500
  20
4598816.000
  30
1002.741
  0
VERTEX
  8
PNOA-H_AMS_1956-57_33k_ES_PAN_21mic_H50_0375_fot_41B-37417_W_tif
  70
32
  10
453066.000
  20
4598860.500
  30
1008.927
  0
VERTEX
  8
PNOA-H_AMS_1956-57_33k_ES_PAN_21mic_H50_0375_fot_41B-37417_W_tif
  70
32
  10
453067.000
  20
4598861.000
  30
1008.843
  0
VERTEX
  8
PNOA-H_AMS_1956-57_33k_ES_PAN_21mic_H50_0375_fot_41B-37417_W_tif
  70
32
  10
453245.000
  20
4598943.039
  30
988.287
  0
VERTEX
  8
PNOA-H_AMS_1956-57_33k_ES_PAN_21mic_H50_0375_fot_41B-37417_W_tif
  70
32
  10
453245.783
  20
4598943.400
  30
988.196
  0
VERTEX
  8
PNOA-H_AMS_1956-57_33k_ES_PAN_21mic_H50_0375_fot_41B-37417_W_tif
  70
32
  10
453246.000
  20
4598943.500
  30
988.171
  0
VERTEX
  8
PNOA-H_AMS_1956-57_33k_ES_PAN_21mic_H50_0375_fot_41B-37417_W_tif
  70
32
  10
455576.498
  20
4598646.500
  30
1008.943
  0
VERTEX
  8
PNOA-H_AMS_1956-57_33k_ES_PAN_21mic_H50_0375_fot_41B-37417_W_tif
  70
32
  10
455576.500
  20
4598646.500
  30
1008.943
  0
VERTEX
  8
PNOA-H_AMS_1956-57_33k_ES_PAN_21mic_H50_0375_fot_41B-37417_W_tif
  70
32
  10
455558.500
  20
4594544.500
  30
907.194
  0
VERTEX
  8
PNOA-H_AMS_1956-57_33k_ES_PAN_21mic_H50_0375_fot_41B-37417_W_tif
  70
32
  10
455558.500
  20
4594528.500
  30
891.723
  0
VERTEX
  8
PNOA-H_AMS_1956-57_33k_ES_PAN_21mic_H50_0375_fot_41B-37417_W_tif
  70
32
  10
455558.000
  20
4594438.000
  30
920.099
  0
SEQEND
  8
PNOA-H_AMS_1956-57_33k_ES_PAN_21mic_H50_0375_fot_41B-37417_W_tif
  0
INSERT
  8
FeatureAttribs
  2
FEATURE
  41
1
  42
1
  43
1
  50
0
  10
451265.960
  20
4596693.994
 66
1
  0
ATTRIB
  8
FeatureAttribs
 70
0
  1
PNOA-H_AMS_1956-57_33k_ES_PAN_21mic_H50_0375_fot_41B-37418_W.tif
  2
NAME
  10
451265.960
  20
4596693.994
 40
33.50603
  0
SEQEND
  0
POLYLINE
  8
PNOA-H_AMS_1956-57_33k_ES_PAN_21mic_H50_0375_fot_41B-37418_W_tif
  70
9
  66
1
  0
VERTEX
  8
PNOA-H_AMS_1956-57_33k_ES_PAN_21mic_H50_0375_fot_41B-37418_W_tif
  70
32
  10
450515.885
  20
4598967.947
  30
926.995
  0
VERTEX
  8
PNOA-H_AMS_1956-57_33k_ES_PAN_21mic_H50_0375_fot_41B-37418_W_tif
  70
32
  10
451019.000
  20
4598899.000
  30
892.917
  0
VERTEX
  8
PNOA-H_AMS_1956-57_33k_ES_PAN_21mic_H50_0375_fot_41B-37418_W_tif
  70
32
  10
451019.800
  20
4598899.000
  30
892.789
  0
VERTEX
  8
PNOA-H_AMS_1956-57_33k_ES_PAN_21mic_H50_0375_fot_41B-37418_W_tif
  70
32
  10
451020.000
  20
4598899.000
  30
892.756
  0
VERTEX
  8
PNOA-H_AMS_1956-57_33k_ES_PAN_21mic_H50_0375_fot_41B-37418_W_tif
  70
32
  10
451775.500
  20
4598795.500
  30
946.025
  0
VERTEX
  8
PNOA-H_AMS_1956-57_33k_ES_PAN_21mic_H50_0375_fot_41B-37418_W_tif
  70
32
  10
451925.500
  20
4598775.000
  30
883.856
  0
VERTEX
  8
PNOA-H_AMS_1956-57_33k_ES_PAN_21mic_H50_0375_fot_41B-37418_W_tif
  70
32
  10
452546.500
  20
4598690.000
  30
992.987
  0
VERTEX
  8
PNOA-H_AMS_1956-57_33k_ES_PAN_21mic_H50_0375_fot_41B-37418_W_tif
  70
32
  10
452550.500
  20
4598690.000
  30
986.225
  0
VERTEX
  8
PNOA-H_AMS_1956-57_33k_ES_PAN_21mic_H50_0375_fot_41B-37418_W_tif
  70
32
  10
452576.000
  20
4598686.500
  30
928.861
  0
VERTEX
  8
PNOA-H_AMS_1956-57_33k_ES_PAN_21mic_H50_0375_fot_41B-37418_W_tif
  70
32
  10
452664.040
  20
4598674.135
  30
891.443
  0
VERTEX
  8
PNOA-H_AMS_1956-57_33k_ES_PAN_21mic_H50_0375_fot_41B-37418_W_tif
  70
32
  10
452664.994
  20
4598674.001
  30
891.037
  0
VERTEX
  8
PNOA-H_AMS_1956-57_33k_ES_PAN_21mic_H50_0375_fot_41B-37418_W_tif
  70
32
  10
452665.000
  20
4598674.000
  30
891.035
  0
VERTEX
  8
PNOA-H_AMS_1956-57_33k_ES_PAN_21mic_H50_0375_fot_41B-37418_W_tif
  70
32
  10
452617.000
  20
4594426.000
  30
1047.64
  0
VERTEX
  8
PNOA-H_AMS_1956-57_33k_ES_PAN_21mic_H50_0375_fot_41B-37418_W_tif
  70
32
  10
452616.764
  20
4594425.923
  30
1047.646
  0
VERTEX
  8
PNOA-H_AMS_1956-57_33k_ES_PAN_21mic_H50_0375_fot_41B-37418_W_tif
  70
32
  10
452598.632
  20
4594419.988
  30
1048.1
  0
VERTEX
  8
PNOA-H_AMS_1956-57_33k_ES_PAN_21mic_H50_0375_fot_41B-37418_W_tif
  70
32
  10
452598.142
  20
4594419.991
  30
0
  0
VERTEX
  8
PNOA-H_AMS_1956-57_33k_ES_PAN_21mic_H50_0375_fot_41B-37418_W_tif
  70
32
  10
449876.043
  20
4594438.356
  30
1115.102
  0
VERTEX
  8
PNOA-H_AMS_1956-57_33k_ES_PAN_21mic_H50_0375_fot_41B-37418_W_tif
  70
32
  10
449901.000
  20
4598687.000
  30
980.097
  0
VERTEX
  8
PNOA-H_AMS_1956-57_33k_ES_PAN_21mic_H50_0375_fot_41B-37418_W_tif
  70
32
  10
449901.107
  20
4598687.049
  30
980.087
  0
VERTEX
  8
PNOA-H_AMS_1956-57_33k_ES_PAN_21mic_H50_0375_fot_41B-37418_W_tif
  70
32
  10
450515.500
  20
4598968.000
  30
927.021
  0
VERTEX
  8
PNOA-H_AMS_1956-57_33k_ES_PAN_21mic_H50_0375_fot_41B-37418_W_tif
  70
32
  10
450515.885
  20
4598967.947
  30
926.995
  0
SEQEND
  8
PNOA-H_AMS_1956-57_33k_ES_PAN_21mic_H50_0375_fot_41B-37418_W_tif
  0
INSERT
  8
FeatureAttribs
  2
FEATURE
  41
1
  42
1
  43
1
  50
0
  10
456303.845
  20
4601104.494
 66
1
  0
ATTRIB
  8
FeatureAttribs
 70
0
  1
PNOA-H_AMS_1956-57_33k_ES_PAN_21mic_H50_0376_fot_40B-38929_W.tif
  2
NAME
  10
456303.845
  20
4601104.494
 40
33.50603
  0
SEQEND
  0
POLYLINE
  8
PNOA-H_AMS_1956-57_33k_ES_PAN_21mic_H50_0376_fot_40B-38929_W_tif
  70
9
  66
1
  0
VERTEX
  8
PNOA-H_AMS_1956-57_33k_ES_PAN_21mic_H50_0376_fot_40B-38929_W_tif
  70
32
  10
456557.608
  20
4599020.982
  30
0
  0
VERTEX
  8
PNOA-H_AMS_1956-57_33k_ES_PAN_21mic_H50_0376_fot_40B-38929_W_tif
  70
32
  10
456556.426
  20
4598824.844
  30
1025.156
  0
VERTEX
  8
PNOA-H_AMS_1956-57_33k_ES_PAN_21mic_H50_0376_fot_40B-38929_W_tif
  70
32
  10
455998.500
  20
4598866.500
  30
1027.926
  0
VERTEX
  8
PNOA-H_AMS_1956-57_33k_ES_PAN_21mic_H50_0376_fot_40B-38929_W_tif
  70
32
  10
456077.000
  20
4603369.000
  30
977.809
  0
VERTEX
  8
PNOA-H_AMS_1956-57_33k_ES_PAN_21mic_H50_0376_fot_40B-38929_W_tif
  70
32
  10
456349.822
  20
4603377.150
  30
982.898
  0
VERTEX
  8
PNOA-H_AMS_1956-57_33k_ES_PAN_21mic_H50_0376_fot_40B-38929_W_tif
  70
32
  10
456583.922
  20
4603384.144
  30
987.265
  0
VERTEX
  8
PNOA-H_AMS_1956-57_33k_ES_PAN_21mic_H50_0376_fot_40B-38929_W_tif
  70
32
  10
456583.922
  20
4603384.119
  30
0
  0
VERTEX
  8
PNOA-H_AMS_1956-57_33k_ES_PAN_21mic_H50_0376_fot_40B-38929_W_tif
  70
32
  10
456571.555
  20
4601333.914
  30
0
  0
VERTEX
  8
PNOA-H_AMS_1956-57_33k_ES_PAN_21mic_H50_0376_fot_40B-38929_W_tif
  70
32
  10
456557.608
  20
4599020.982
  30
0
  0
SEQEND
  8
PNOA-H_AMS_1956-57_33k_ES_PAN_21mic_H50_0376_fot_40B-38929_W_tif
  0
INSERT
  8
FeatureAttribs
  2
FEATURE
  41
1
  42
1
  43
1
  50
0
  10
454646.126
  20
4601048.750
 66
1
  0
ATTRIB
  8
FeatureAttribs
 70
0
  1
PNOA-H_AMS_1956-57_33k_ES_PAN_21mic_H50_0375_fot_40B-38930_W.tif
  2
NAME
  10
454646.126
  20
4601048.750
 40
33.50603
  0
SEQEND
  0
POLYLINE
  8
PNOA-H_AMS_1956-57_33k_ES_PAN_21mic_H50_0375_fot_40B-38930_W_tif
  70
9
  66
1
  0
VERTEX
  8
PNOA-H_AMS_1956-57_33k_ES_PAN_21mic_H50_0375_fot_40B-38930_W_tif
  70
32
  10
455998.375
  20
4598866.435
  30
1027.92
  0
VERTEX
  8
PNOA-H_AMS_1956-57_33k_ES_PAN_21mic_H50_0375_fot_40B-38930_W_tif
  70
32
  10
455576.500
  20
4598646.500
  30
1008.943
  0
VERTEX
  8
PNOA-H_AMS_1956-57_33k_ES_PAN_21mic_H50_0375_fot_40B-38930_W_tif
  70
32
  10
455576.498
  20
4598646.500
  30
1008.943
  0
VERTEX
  8
PNOA-H_AMS_1956-57_33k_ES_PAN_21mic_H50_0375_fot_40B-38930_W_tif
  70
32
  10
453245.783
  20
4598943.400
  30
988.323
  0
VERTEX
  8
PNOA-H_AMS_1956-57_33k_ES_PAN_21mic_H50_0375_fot_40B-38930_W_tif
  70
32
  10
453245.003
  20
4598943.500
  30
988.316
  0
VERTEX
  8
PNOA-H_AMS_1956-57_33k_ES_PAN_21mic_H50_0375_fot_40B-38930_W_tif
  70
32
  10
453245.000
  20
4598943.500
  30
988.316
  0
VERTEX
  8
PNOA-H_AMS_1956-57_33k_ES_PAN_21mic_H50_0375_fot_40B-38930_W_tif
  70
32
  10
453267.500
  20
4603368.000
  30
954.435
  0
VERTEX
  8
PNOA-H_AMS_1956-57_33k_ES_PAN_21mic_H50_0375_fot_40B-38930_W_tif
  70
32
  10
453268.000
  20
4603369.500
  30
954.367
  0
VERTEX
  8
PNOA-H_AMS_1956-57_33k_ES_PAN_21mic_H50_0375_fot_40B-38930_W_tif
  70
32
  10
453269.570
  20
4603369.579
  30
954.261
  0
VERTEX
  8
PNOA-H_AMS_1956-57_33k_ES_PAN_21mic_H50_0375_fot_40B-38930_W_tif
  70
32
  10
453278.000
  20
4603370.000
  30
953.692
  0
VERTEX
  8
PNOA-H_AMS_1956-57_33k_ES_PAN_21mic_H50_0375_fot_40B-38930_W_tif
  70
32
  10
455913.000
  20
4603450.500
  30
971.137
  0
VERTEX
  8
PNOA-H_AMS_1956-57_33k_ES_PAN_21mic_H50_0375_fot_40B-38930_W_tif
  70
32
  10
455929.500
  20
4603451.000
  30
971.783
  0
VERTEX
  8
PNOA-H_AMS_1956-57_33k_ES_PAN_21mic_H50_0375_fot_40B-38930_W_tif
  70
32
  10
455931.148
  20
4603450.882
  30
971.854
  0
VERTEX
  8
PNOA-H_AMS_1956-57_33k_ES_PAN_21mic_H50_0375_fot_40B-38930_W_tif
  70
32
  10
455935.770
  20
4603450.552
  30
972.056
  0
VERTEX
  8
PNOA-H_AMS_1956-57_33k_ES_PAN_21mic_H50_0375_fot_40B-38930_W_tif
  70
32
  10
455936.500
  20
4603450.500
  30
972.088
  0
VERTEX
  8
PNOA-H_AMS_1956-57_33k_ES_PAN_21mic_H50_0375_fot_40B-38930_W_tif
  70
32
  10
456076.951
  20
4603369.028
  30
977.807
  0
VERTEX
  8
PNOA-H_AMS_1956-57_33k_ES_PAN_21mic_H50_0375_fot_40B-38930_W_tif
  70
32
  10
456077.000
  20
4603369.000
  30
977.809
  0
VERTEX
  8
PNOA-H_AMS_1956-57_33k_ES_PAN_21mic_H50_0375_fot_40B-38930_W_tif
  70
32
  10
455998.500
  20
4598866.500
  30
1027.926
  0
VERTEX
  8
PNOA-H_AMS_1956-57_33k_ES_PAN_21mic_H50_0375_fot_40B-38930_W_tif
  70
32
  10
455998.375
  20
4598866.435
  30
1027.92
  0
SEQEND
  8
PNOA-H_AMS_1956-57_33k_ES_PAN_21mic_H50_0375_fot_40B-38930_W_tif
  0
INSERT
  8
FeatureAttribs
  2
FEATURE
  41
1
  42
1
  43
1
  50
0
  10
451875.495
  20
4601085.250
 66
1
  0
ATTRIB
  8
FeatureAttribs
 70
0
  1
PNOA-H_AMS_1956-57_33k_ES_PAN_21mic_H50_0375_fot_40B-38931_W.tif
  2
NAME
  10
451875.495
  20
4601085.250
 40
33.50603
  0
SEQEND
  0
POLYLINE
  8
PNOA-H_AMS_1956-57_33k_ES_PAN_21mic_H50_0375_fot_40B-38931_W_tif
  70
9
  66
1
  0
VERTEX
  8
PNOA-H_AMS_1956-57_33k_ES_PAN_21mic_H50_0375_fot_40B-38931_W_tif
  70
32
  10
452664.040
  20
4598674.135
  30
891.266
  0
VERTEX
  8
PNOA-H_AMS_1956-57_33k_ES_PAN_21mic_H50_0375_fot_40B-38931_W_tif
  70
32
  10
452663.500
  20
4598674.000
  30
891.305
  0
VERTEX
  8
PNOA-H_AMS_1956-57_33k_ES_PAN_21mic_H50_0375_fot_40B-38931_W_tif
  70
32
  10
452576.000
  20
4598686.500
  30
928.861
  0
VERTEX
  8
PNOA-H_AMS_1956-57_33k_ES_PAN_21mic_H50_0375_fot_40B-38931_W_tif
  70
32
  10
452550.500
  20
4598690.000
  30
986.225
  0
VERTEX
  8
PNOA-H_AMS_1956-57_33k_ES_PAN_21mic_H50_0375_fot_40B-38931_W_tif
  70
32
  10
452546.500
  20
4598690.000
  30
992.987
  0
VERTEX
  8
PNOA-H_AMS_1956-57_33k_ES_PAN_21mic_H50_0375_fot_40B-38931_W_tif
  70
32
  10
451925.500
  20
4598775.000
  30
883.856
  0
VERTEX
  8
PNOA-H_AMS_1956-57_33k_ES_PAN_21mic_H50_0375_fot_40B-38931_W_tif
  70
32
  10
451775.500
  20
4598795.500
  30
946.025
  0
VERTEX
  8
PNOA-H_AMS_1956-57_33k_ES_PAN_21mic_H50_0375_fot_40B-38931_W_tif
  70
32
  10
451019.800
  20
4598899.000
  30
934.636
  0
VERTEX
  8
PNOA-H_AMS_1956-57_33k_ES_PAN_21mic_H50_0375_fot_40B-38931_W_tif
  70
32
  10
450516.000
  20
4598968.000
  30
927.044
  0
VERTEX
  8
PNOA-H_AMS_1956-57_33k_ES_PAN_21mic_H50_0375_fot_40B-38931_W_tif
  70
32
  10
450512.500
  20
4599369.000
  30
930.807
  0
VERTEX
  8
PNOA-H_AMS_1956-57_33k_ES_PAN_21mic_H50_0375_fot_40B-38931_W_tif
  70
32
  10
450512.000
  20
4599394.000
  30
995.592
  0
VERTEX
  8
PNOA-H_AMS_1956-57_33k_ES_PAN_21mic_H50_0375_fot_40B-38931_W_tif
  70
32
  10
450472.000
  20
4603340.500
  30
938.873
  0
VERTEX
  8
PNOA-H_AMS_1956-57_33k_ES_PAN_21mic_H50_0375_fot_40B-38931_W_tif
  70
32
  10
450757.944
  20
4603357.833
  30
940.329
  0
VERTEX
  8
PNOA-H_AMS_1956-57_33k_ES_PAN_21mic_H50_0375_fot_40B-38931_W_tif
  70
32
  10
453045.500
  20
4603496.500
  30
951.977
  0
VERTEX
  8
PNOA-H_AMS_1956-57_33k_ES_PAN_21mic_H50_0375_fot_40B-38931_W_tif
  70
32
  10
453049.500
  20
4603496.500
  30
951.973
  0
VERTEX
  8
PNOA-H_AMS_1956-57_33k_ES_PAN_21mic_H50_0375_fot_40B-38931_W_tif
  70
32
  10
453050.000
  20
4603496.500
  30
951.973
  0
VERTEX
  8
PNOA-H_AMS_1956-57_33k_ES_PAN_21mic_H50_0375_fot_40B-38931_W_tif
  70
32
  10
453058.653
  20
4603491.155
  30
952.076
  0
VERTEX
  8
PNOA-H_AMS_1956-57_33k_ES_PAN_21mic_H50_0375_fot_40B-38931_W_tif
  70
32
  10
453067.000
  20
4603486.000
  30
952.176
  0
VERTEX
  8
PNOA-H_AMS_1956-57_33k_ES_PAN_21mic_H50_0375_fot_40B-38931_W_tif
  70
32
  10
453068.000
  20
4603485.500
  30
952.18
  0
VERTEX
  8
PNOA-H_AMS_1956-57_33k_ES_PAN_21mic_H50_0375_fot_40B-38931_W_tif
  70
32
  10
453118.588
  20
4603456.159
  30
952.733
  0
VERTEX
  8
PNOA-H_AMS_1956-57_33k_ES_PAN_21mic_H50_0375_fot_40B-38931_W_tif
  70
32
  10
453267.950
  20
4603369.529
  30
954.366
  0
VERTEX
  8
PNOA-H_AMS_1956-57_33k_ES_PAN_21mic_H50_0375_fot_40B-38931_W_tif
  70
32
  10
453268.000
  20
4603369.500
  30
954.367
  0
VERTEX
  8
PNOA-H_AMS_1956-57_33k_ES_PAN_21mic_H50_0375_fot_40B-38931_W_tif
  70
32
  10
453245.003
  20
4598943.500
  30
988.119
  0
VERTEX
  8
PNOA-H_AMS_1956-57_33k_ES_PAN_21mic_H50_0375_fot_40B-38931_W_tif
  70
32
  10
453245.000
  20
4598943.039
  30
988.122
  0
VERTEX
  8
PNOA-H_AMS_1956-57_33k_ES_PAN_21mic_H50_0375_fot_40B-38931_W_tif
  70
32
  10
453245.000
  20
4598943.000
  30
988.123
  0
VERTEX
  8
PNOA-H_AMS_1956-57_33k_ES_PAN_21mic_H50_0375_fot_40B-38931_W_tif
  70
32
  10
452971.500
  20
4598816.000
  30
1002.741
  0
VERTEX
  8
PNOA-H_AMS_1956-57_33k_ES_PAN_21mic_H50_0375_fot_40B-38931_W_tif
  70
32
  10
452968.500
  20
4598815.500
  30
999.664
  0
VERTEX
  8
PNOA-H_AMS_1956-57_33k_ES_PAN_21mic_H50_0375_fot_40B-38931_W_tif
  70
32
  10
452956.000
  20
4598809.000
  30
982.247
  0
VERTEX
  8
PNOA-H_AMS_1956-57_33k_ES_PAN_21mic_H50_0375_fot_40B-38931_W_tif
  70
32
  10
452951.000
  20
4598806.500
  30
976.08
  0
VERTEX
  8
PNOA-H_AMS_1956-57_33k_ES_PAN_21mic_H50_0375_fot_40B-38931_W_tif
  70
32
  10
452667.500
  20
4598675.000
  30
891.018
  0
VERTEX
  8
PNOA-H_AMS_1956-57_33k_ES_PAN_21mic_H50_0375_fot_40B-38931_W_tif
  70
32
  10
452664.999
  20
4598674.375
  30
891.197
  0
VERTEX
  8
PNOA-H_AMS_1956-57_33k_ES_PAN_21mic_H50_0375_fot_40B-38931_W_tif
  70
32
  10
452664.040
  20
4598674.135
  30
891.266
  0
SEQEND
  8
PNOA-H_AMS_1956-57_33k_ES_PAN_21mic_H50_0375_fot_40B-38931_W_tif
  0
INSERT
  8
FeatureAttribs
  2
FEATURE
  41
1
  42
1
  43
1
  50
0
  10
452617.076
  20
4594422.861
 66
1
  0
ATTRIB
  8
FeatureAttribs
 70
0
  1
PNOA-H_AMS_1956-57_33k_ES_PAN_21mic_H50_0403_fot_42B-36300_E.tif
  2
NAME
  10
452617.076
  20
4594422.861
 40
33.50603
  0
SEQEND
  0
POLYLINE
  8
PNOA-H_AMS_1956-57_33k_ES_PAN_21mic_H50_0403_fot_42B-36300_E_tif
  70
9
  66
1
  0
VERTEX
  8
PNOA-H_AMS_1956-57_33k_ES_PAN_21mic_H50_0403_fot_42B-36300_E_tif
  70
32
  10
452616.764
  20
4594425.923
  30
1047.665
  0
VERTEX
  8
PNOA-H_AMS_1956-57_33k_ES_PAN_21mic_H50_0403_fot_42B-36300_E_tif
  70
32
  10
452637.981
  20
4594419.723
  30
1047.3
  0
VERTEX
  8
PNOA-H_AMS_1956-57_33k_ES_PAN_21mic_H50_0403_fot_42B-36300_E_tif
  70
32
  10
452598.632
  20
4594419.988
  30
1048.118
  0
VERTEX
  8
PNOA-H_AMS_1956-57_33k_ES_PAN_21mic_H50_0403_fot_42B-36300_E_tif
  70
32
  10
452598.142
  20
4594419.991
  30
1048.129
  0
VERTEX
  8
PNOA-H_AMS_1956-57_33k_ES_PAN_21mic_H50_0403_fot_42B-36300_E_tif
  70
32
  10
452616.500
  20
4594426.000
  30
1047.669
  0
VERTEX
  8
PNOA-H_AMS_1956-57_33k_ES_PAN_21mic_H50_0403_fot_42B-36300_E_tif
  70
32
  10
452616.764
  20
4594425.923
  30
1047.665
  0
SEQEND
  8
PNOA-H_AMS_1956-57_33k_ES_PAN_21mic_H50_0403_fot_42B-36300_E_tif
  0
INSERT
  8
FeatureAttribs
  2
FEATURE
  41
1
  42
1
  43
1
  50
0
  10
455555.019
  20
4594419.278
 66
1
  0
ATTRIB
  8
FeatureAttribs
 70
0
  1
PNOA-H_AMS_1956-57_33k_ES_PAN_21mic_H50_0403_fot_42B-36301_E.tif
  2
NAME
  10
455555.019
  20
4594419.278
 40
33.50603
  0
SEQEND
  0
POLYLINE
  8
PNOA-H_AMS_1956-57_33k_ES_PAN_21mic_H50_0403_fot_42B-36301_E_tif
  70
9
  66
1
  0
VERTEX
  8
PNOA-H_AMS_1956-57_33k_ES_PAN_21mic_H50_0403_fot_42B-36301_E_tif
  70
32
  10
455585.000
  20
4594429.000
  30
922.996
  0
VERTEX
  8
PNOA-H_AMS_1956-57_33k_ES_PAN_21mic_H50_0403_fot_42B-36301_E_tif
  70
32
  10
455665.772
  20
4594400.556
  30
922.248
  0
VERTEX
  8
PNOA-H_AMS_1956-57_33k_ES_PAN_21mic_H50_0403_fot_42B-36301_E_tif
  70
32
  10
455664.086
  20
4594400.566
  30
922.274
  0
VERTEX
  8
PNOA-H_AMS_1956-57_33k_ES_PAN_21mic_H50_0403_fot_42B-36301_E_tif
  70
32
  10
455444.102
  20
4594401.944
  30
925.584
  0
VERTEX
  8
PNOA-H_AMS_1956-57_33k_ES_PAN_21mic_H50_0403_fot_42B-36301_E_tif
  70
32
  10
455442.697
  20
4594401.953
  30
925.605
  0
VERTEX
  8
PNOA-H_AMS_1956-57_33k_ES_PAN_21mic_H50_0403_fot_42B-36301_E_tif
  70
32
  10
455555.000
  20
4594437.500
  30
919.864
  0
VERTEX
  8
PNOA-H_AMS_1956-57_33k_ES_PAN_21mic_H50_0403_fot_42B-36301_E_tif
  70
32
  10
455556.500
  20
4594438.000
  30
919.959
  0
VERTEX
  8
PNOA-H_AMS_1956-57_33k_ES_PAN_21mic_H50_0403_fot_42B-36301_E_tif
  70
32
  10
455558.000
  20
4594438.000
  30
920.095
  0
VERTEX
  8
PNOA-H_AMS_1956-57_33k_ES_PAN_21mic_H50_0403_fot_42B-36301_E_tif
  70
32
  10
455559.000
  20
4594438.000
  30
920.185
  0
VERTEX
  8
PNOA-H_AMS_1956-57_33k_ES_PAN_21mic_H50_0403_fot_42B-36301_E_tif
  70
32
  10
455585.000
  20
4594429.000
  30
922.996
  0
SEQEND
  8
PNOA-H_AMS_1956-57_33k_ES_PAN_21mic_H50_0403_fot_42B-36301_E_tif
  0
INSERT
  8
FeatureAttribs
  2
FEATURE
  41
1
  42
1
  43
1
  50
0
  10
456055.428
  20
4596630.822
 66
1
  0
ATTRIB
  8
FeatureAttribs
 70
0
  1
PNOA-H_AMS_1956-57_33k_ES_PAN_21mic_H50_0376_fot_41B-37416_W.tif
  2
NAME
  10
456055.428
  20
4596630.822
 40
33.50603
  0
SEQEND
  0
POLYLINE
  8
PNOA-H_AMS_1956-57_33k_ES_PAN_21mic_H50_0376_fot_41B-37416_W_tif
  70
9
  66
1
  0
VERTEX
  8
PNOA-H_AMS_1956-57_33k_ES_PAN_21mic_H50_0376_fot_41B-37416_W_tif
  70
32
  10
456543.668
  20
4596708.058
  30
0
  0
VERTEX
  8
PNOA-H_AMS_1956-57_33k_ES_PAN_21mic_H50_0376_fot_41B-37416_W_tif
  70
32
  10
456529.733
  20
4594395.143
  30
0
  0
VERTEX
  8
PNOA-H_AMS_1956-57_33k_ES_PAN_21mic_H50_0376_fot_41B-37416_W_tif
  70
32
  10
455665.772
  20
4594400.556
  30
0
  0
VERTEX
  8
PNOA-H_AMS_1956-57_33k_ES_PAN_21mic_H50_0376_fot_41B-37416_W_tif
  70
32
  10
455664.086
  20
4594400.566
  30
919.475
  0
VERTEX
  8
PNOA-H_AMS_1956-57_33k_ES_PAN_21mic_H50_0376_fot_41B-37416_W_tif
  70
32
  10
455559.000
  20
4594437.500
  30
920.229
  0
VERTEX
  8
PNOA-H_AMS_1956-57_33k_ES_PAN_21mic_H50_0376_fot_41B-37416_W_tif
  70
32
  10
455558.000
  20
4594438.000
  30
920.099
  0
VERTEX
  8
PNOA-H_AMS_1956-57_33k_ES_PAN_21mic_H50_0376_fot_41B-37416_W_tif
  70
32
  10
455558.500
  20
4594528.500
  30
891.723
  0
VERTEX
  8
PNOA-H_AMS_1956-57_33k_ES_PAN_21mic_H50_0376_fot_41B-37416_W_tif
  70
32
  10
455558.500
  20
4594544.500
  30
907.194
  0
VERTEX
  8
PNOA-H_AMS_1956-57_33k_ES_PAN_21mic_H50_0376_fot_41B-37416_W_tif
  70
32
  10
455576.498
  20
4598646.500
  30
1008.964
  0
VERTEX
  8
PNOA-H_AMS_1956-57_33k_ES_PAN_21mic_H50_0376_fot_41B-37416_W_tif
  70
32
  10
455576.500
  20
4598647.000
  30
1008.976
  0
VERTEX
  8
PNOA-H_AMS_1956-57_33k_ES_PAN_21mic_H50_0376_fot_41B-37416_W_tif
  70
32
  10
455997.500
  20
4598866.500
  30
1027.926
  0
VERTEX
  8
PNOA-H_AMS_1956-57_33k_ES_PAN_21mic_H50_0376_fot_41B-37416_W_tif
  70
32
  10
455998.375
  20
4598866.435
  30
1027.919
  0
VERTEX
  8
PNOA-H_AMS_1956-57_33k_ES_PAN_21mic_H50_0376_fot_41B-37416_W_tif
  70
32
  10
456556.426
  20
4598824.743
  30
1023.25
  0
VERTEX
  8
PNOA-H_AMS_1956-57_33k_ES_PAN_21mic_H50_0376_fot_41B-37416_W_tif
  70
32
  10
456543.668
  20
4596708.058
  30
0
  0
SEQEND
  8
PNOA-H_AMS_1956-57_33k_ES_PAN_21mic_H50_0376_fot_41B-37416_W_tif
  0
INSERT
  8
FeatureAttribs
  2
FEATURE
  41
1
  42
1
  43
1
  50
0
  10
456575.182
  20
4612731.783
 66
1
  0
ATTRIB
  8
FeatureAttribs
 70
0
  1
PNOA-H_AMS_1956-57_33k_ES_PAN_21mic_H50_0347_fot_37B-38969_E.tif
  2
NAME
  10
456575.182
  20
4612731.783
 40
33.50603
  0
SEQEND
  0
POLYLINE
  8
PNOA-H_AMS_1956-57_33k_ES_PAN_21mic_H50_0347_fot_37B-38969_E_tif
  70
9
  66
1
  0
VERTEX
  8
PNOA-H_AMS_1956-57_33k_ES_PAN_21mic_H50_0347_fot_37B-38969_E_tif
  70
32
  10
456639.354
  20
4612564.560
  30
0
  0
VERTEX
  8
PNOA-H_AMS_1956-57_33k_ES_PAN_21mic_H50_0347_fot_37B-38969_E_tif
  70
32
  10
456639.351
  20
4612564.042
  30
874.611
  0
VERTEX
  8
PNOA-H_AMS_1956-57_33k_ES_PAN_21mic_H50_0347_fot_37B-38969_E_tif
  70
32
  10
456510.000
  20
4612633.257
  30
874.645
  0
VERTEX
  8
PNOA-H_AMS_1956-57_33k_ES_PAN_21mic_H50_0347_fot_37B-38969_E_tif
  70
32
  10
456510.000
  20
4612633.774
  30
874.648
  0
VERTEX
  8
PNOA-H_AMS_1956-57_33k_ES_PAN_21mic_H50_0347_fot_37B-38969_E_tif
  70
32
  10
456510.000
  20
4612899.524
  30
876.367
  0
VERTEX
  8
PNOA-H_AMS_1956-57_33k_ES_PAN_21mic_H50_0347_fot_37B-38969_E_tif
  70
32
  10
456641.373
  20
4612898.698
  30
0
  0
VERTEX
  8
PNOA-H_AMS_1956-57_33k_ES_PAN_21mic_H50_0347_fot_37B-38969_E_tif
  70
32
  10
456639.354
  20
4612564.560
  30
0
  0
SEQEND
  8
PNOA-H_AMS_1956-57_33k_ES_PAN_21mic_H50_0347_fot_37B-38969_E_tif
  0
ENDSEC
  0
EOF
