  0
SECTION
  2
HEADER
  9
$ACADVER
  1
AC1009
  9
$LUNITS
  70
2
  9
$LIMMIN
  10
400887.053
  20
4603760.000
  9
$LIMMAX
  10
428891.685
  20
4613448.811
  9
$EXTMIN
  10
400887.053
  20
4603760.000
  9
$EXTMAX
  10
428891.685
  20
4613448.811
  999
Created by Global Mapper
  999
Projection: UTM
  999
Datum: ETRS89
  999
Ground Units: meters
  999
ZONE: 30
  0
ENDSEC
  0
SECTION
  2
TABLES
  0
ENDSEC
  0
SECTION
  2
BLOCKS
  0
BLOCK
  8
FeatureAttribs
  70
0
  2
FEATURE
  3
FEATURE
  10
0.00000000
  20
0.00000000
  0
ATTDEF
  8
FeatureAttribs
  70
0
  1
 
  2
NAME
  3
NAME
  10
0.00000000
  20
0.00000000
  40
1.00000000
  0
ENDBLK
  0
ENDSEC
  0
SECTION
  2
ENTITIES
  0
INSERT
  8
FeatureAttribs
  2
FEATURE
  41
1
  42
1
  43
1
  50
0
  10
428620.575
  20
4613037.775
 66
1
  0
ATTRIB
  8
FeatureAttribs
 70
0
  1
PNOA-H_AMS_1956-57_33k_ES_PAN_2
  2
NAME
  10
428620.575
  20
4613037.775
 40
29.63330
  0
SEQEND
  0
POLYLINE
  8
Unknown_Area_Type
  70
1
  66
1
  0
VERTEX
  8
Unknown_Area_Type
  10
428889.971
  20
4612950.000
  0
VERTEX
  8
Unknown_Area_Type
  10
428790.000
  20
4612950.000
  0
VERTEX
  8
Unknown_Area_Type
  10
428790.000
  20
4613020.000
  0
VERTEX
  8
Unknown_Area_Type
  10
428350.026
  20
4613020.000
  0
VERTEX
  8
Unknown_Area_Type
  10
428351.707
  20
4613125.551
  0
VERTEX
  8
Unknown_Area_Type
  10
428891.657
  20
4613120.069
  0
VERTEX
  8
Unknown_Area_Type
  10
428889.971
  20
4612950.000
  0
SEQEND
  8
Unknown_Area_Type
  0
INSERT
  8
FeatureAttribs
  2
FEATURE
  41
1
  42
1
  43
1
  50
0
  10
428891.671
  20
4613120.775
 66
1
  0
ATTRIB
  8
FeatureAttribs
 70
0
  1
PNOA-H_AMS_1956-57_33k_ES_PAN_2
  2
NAME
  10
428891.671
  20
4613120.775
 40
29.63330
  0
SEQEND
  0
POLYLINE
  8
Unknown_Area_Type
  70
1
  66
1
  0
VERTEX
  8
Unknown_Area_Type
  10
428891.685
  20
4613122.893
  0
VERTEX
  8
Unknown_Area_Type
  10
428891.685
  20
4613120.068
  0
VERTEX
  8
Unknown_Area_Type
  10
428891.657
  20
4613120.069
  0
VERTEX
  8
Unknown_Area_Type
  10
428891.685
  20
4613122.893
  0
SEQEND
  8
Unknown_Area_Type
  0
INSERT
  8
FeatureAttribs
  2
FEATURE
  41
1
  42
1
  43
1
  50
0
  10
428620.575
  20
4613037.775
 66
1
  0
ATTRIB
  8
FeatureAttribs
 70
0
  1
PNOA-H_AMS_1956-57_33k_ES_PAN_2
  2
NAME
  10
428620.575
  20
4613037.775
 40
29.63330
  0
SEQEND
  0
POLYLINE
  8
Unknown_Area_Type
  70
1
  66
1
  0
VERTEX
  8
Unknown_Area_Type
  10
428889.971
  20
4612950.000
  0
VERTEX
  8
Unknown_Area_Type
  10
428790.000
  20
4612950.000
  0
VERTEX
  8
Unknown_Area_Type
  10
428790.000
  20
4613020.000
  0
VERTEX
  8
Unknown_Area_Type
  10
428350.026
  20
4613020.000
  0
VERTEX
  8
Unknown_Area_Type
  10
428351.707
  20
4613125.551
  0
VERTEX
  8
Unknown_Area_Type
  10
428891.657
  20
4613120.069
  0
VERTEX
  8
Unknown_Area_Type
  10
428889.971
  20
4612950.000
  0
SEQEND
  8
Unknown_Area_Type
  0
INSERT
  8
FeatureAttribs
  2
FEATURE
  41
1
  42
1
  43
1
  50
0
  10
428622.961
  20
4613284.440
 66
1
  0
ATTRIB
  8
FeatureAttribs
 70
0
  1
PNOA-H_AMS_1956-57_33k_ES_PAN_2
  2
NAME
  10
428622.961
  20
4613284.440
 40
29.63330
  0
SEQEND
  0
POLYLINE
  8
Unknown_Area_Type
  70
1
  66
1
  0
VERTEX
  8
Unknown_Area_Type
  10
428356.855
  20
4613448.811
  0
VERTEX
  8
Unknown_Area_Type
  10
428891.685
  20
4613448.811
  0
VERTEX
  8
Unknown_Area_Type
  10
428891.685
  20
4613122.893
  0
VERTEX
  8
Unknown_Area_Type
  10
428891.657
  20
4613120.069
  0
VERTEX
  8
Unknown_Area_Type
  10
428351.707
  20
4613125.551
  0
VERTEX
  8
Unknown_Area_Type
  10
428356.855
  20
4613448.811
  0
SEQEND
  8
Unknown_Area_Type
  0
INSERT
  8
FeatureAttribs
  2
FEATURE
  41
1
  42
1
  43
1
  50
0
  10
421938.089
  20
4607788.665
 66
1
  0
ATTRIB
  8
FeatureAttribs
 70
0
  1
PNOA-H_AMS_1956-57_33k_ES_PAN_2
  2
NAME
  10
421938.089
  20
4607788.665
 40
29.63330
  0
SEQEND
  0
POLYLINE
  8
Unknown_Area_Type
  70
1
  66
1
  0
VERTEX
  8
Unknown_Area_Type
  10
421750.000
  20
4608341.100
  0
VERTEX
  8
Unknown_Area_Type
  10
422204.500
  20
4608129.000
  0
VERTEX
  8
Unknown_Area_Type
  10
422149.500
  20
4607542.000
  0
VERTEX
  8
Unknown_Area_Type
  10
421750.000
  20
4607115.460
  0
VERTEX
  8
Unknown_Area_Type
  10
421750.000
  20
4608341.100
  0
SEQEND
  8
Unknown_Area_Type
  0
INSERT
  8
FeatureAttribs
  2
FEATURE
  41
1
  42
1
  43
1
  50
0
  10
421938.089
  20
4607788.665
 66
1
  0
ATTRIB
  8
FeatureAttribs
 70
0
  1
PNOA-H_AMS_1956-57_33k_ES_PAN_2
  2
NAME
  10
421938.089
  20
4607788.665
 40
29.63330
  0
SEQEND
  0
POLYLINE
  8
Unknown_Area_Type
  70
1
  66
1
  0
VERTEX
  8
Unknown_Area_Type
  10
421750.000
  20
4608341.100
  0
VERTEX
  8
Unknown_Area_Type
  10
421750.000
  20
4607115.460
  0
VERTEX
  8
Unknown_Area_Type
  10
422149.500
  20
4607542.000
  0
VERTEX
  8
Unknown_Area_Type
  10
422204.500
  20
4608129.000
  0
VERTEX
  8
Unknown_Area_Type
  10
421750.000
  20
4608341.100
  0
SEQEND
  8
Unknown_Area_Type
  0
INSERT
  8
FeatureAttribs
  2
FEATURE
  41
1
  42
1
  43
1
  50
0
  10
401141.320
  20
4613448.802
 66
1
  0
ATTRIB
  8
FeatureAttribs
 70
0
  1
PNOA-H_AMS_1956-57_33k_ES_PAN_2
  2
NAME
  10
401141.320
  20
4613448.802
 40
29.63330
  0
SEQEND
  0
POLYLINE
  8
Unknown_Area_Type
  70
1
  66
1
  0
VERTEX
  8
Unknown_Area_Type
  10
401141.656
  20
4613448.811
  0
VERTEX
  8
Unknown_Area_Type
  10
401141.656
  20
4613448.792
  0
VERTEX
  8
Unknown_Area_Type
  10
401140.313
  20
4613448.811
  0
VERTEX
  8
Unknown_Area_Type
  10
401141.656
  20
4613448.811
  0
SEQEND
  8
Unknown_Area_Type
  0
INSERT
  8
FeatureAttribs
  2
FEATURE
  41
1
  42
1
  43
1
  50
0
  10
402038.566
  20
4613440.703
 66
1
  0
ATTRIB
  8
FeatureAttribs
 70
0
  1
PNOA-H_AMS_1956-57_33k_ES_PAN_2
  2
NAME
  10
402038.566
  20
4613440.703
 40
29.63330
  0
SEQEND
  0
POLYLINE
  8
Unknown_Area_Type
  70
1
  66
1
  0
VERTEX
  8
Unknown_Area_Type
  10
402338.000
  20
4613448.811
  0
VERTEX
  8
Unknown_Area_Type
  10
402338.000
  20
4613432.596
  0
VERTEX
  8
Unknown_Area_Type
  10
401141.656
  20
4613448.792
  0
VERTEX
  8
Unknown_Area_Type
  10
401141.656
  20
4613448.811
  0
VERTEX
  8
Unknown_Area_Type
  10
402338.000
  20
4613448.811
  0
SEQEND
  8
Unknown_Area_Type
  0
INSERT
  8
FeatureAttribs
  2
FEATURE
  41
1
  42
1
  43
1
  50
0
  10
401013.670
  20
4613349.406
 66
1
  0
ATTRIB
  8
FeatureAttribs
 70
0
  1
PNOA-H_AMS_1956-57_33k_ES_PAN_2
  2
NAME
  10
401013.670
  20
4613349.406
 40
29.63330
  0
SEQEND
  0
POLYLINE
  8
Unknown_Area_Type
  70
1
  66
1
  0
VERTEX
  8
Unknown_Area_Type
  10
401138.917
  20
4613250.000
  0
VERTEX
  8
Unknown_Area_Type
  10
401040.000
  20
4613250.000
  0
VERTEX
  8
Unknown_Area_Type
  10
401040.000
  20
4613340.000
  0
VERTEX
  8
Unknown_Area_Type
  10
400887.053
  20
4613340.000
  0
VERTEX
  8
Unknown_Area_Type
  10
400887.053
  20
4613448.811
  0
VERTEX
  8
Unknown_Area_Type
  10
401140.313
  20
4613448.811
  0
VERTEX
  8
Unknown_Area_Type
  10
401141.656
  20
4613448.792
  0
VERTEX
  8
Unknown_Area_Type
  10
401138.917
  20
4613250.000
  0
SEQEND
  8
Unknown_Area_Type
  0
INSERT
  8
FeatureAttribs
  2
FEATURE
  41
1
  42
1
  43
1
  50
0
  10
401730.686
  20
4613345.367
 66
1
  0
ATTRIB
  8
FeatureAttribs
 70
0
  1
PNOA-H_AMS_1956-57_33k_ES_PAN_2
  2
NAME
  10
401730.686
  20
4613345.367
 40
29.63330
  0
SEQEND
  0
POLYLINE
  8
Unknown_Area_Type
  70
1
  66
1
  0
VERTEX
  8
Unknown_Area_Type
  10
402338.000
  20
4613432.596
  0
VERTEX
  8
Unknown_Area_Type
  10
402338.000
  20
4613384.000
  0
VERTEX
  8
Unknown_Area_Type
  10
402338.165
  20
4613250.000
  0
VERTEX
  8
Unknown_Area_Type
  10
401138.917
  20
4613250.000
  0
VERTEX
  8
Unknown_Area_Type
  10
401141.656
  20
4613448.792
  0
VERTEX
  8
Unknown_Area_Type
  10
402338.000
  20
4613432.596
  0
SEQEND
  8
Unknown_Area_Type
  0
INSERT
  8
FeatureAttribs
  2
FEATURE
  41
1
  42
1
  43
1
  50
0
  10
401730.686
  20
4613345.367
 66
1
  0
ATTRIB
  8
FeatureAttribs
 70
0
  1
PNOA-H_AMS_1956-57_33k_ES_PAN_2
  2
NAME
  10
401730.686
  20
4613345.367
 40
29.63330
  0
SEQEND
  0
POLYLINE
  8
Unknown_Area_Type
  70
1
  66
1
  0
VERTEX
  8
Unknown_Area_Type
  10
402338.000
  20
4613432.596
  0
VERTEX
  8
Unknown_Area_Type
  10
401141.656
  20
4613448.792
  0
VERTEX
  8
Unknown_Area_Type
  10
401138.917
  20
4613250.000
  0
VERTEX
  8
Unknown_Area_Type
  10
402338.165
  20
4613250.000
  0
VERTEX
  8
Unknown_Area_Type
  10
402338.000
  20
4613384.000
  0
VERTEX
  8
Unknown_Area_Type
  10
402338.000
  20
4613432.596
  0
SEQEND
  8
Unknown_Area_Type
  0
INSERT
  8
FeatureAttribs
  2
FEATURE
  41
1
  42
1
  43
1
  50
0
  10
406686.811
  20
4613402.407
 66
1
  0
ATTRIB
  8
FeatureAttribs
 70
0
  1
PNOA-H_AMS_1956-57_33k_ES_PAN_2
  2
NAME
  10
406686.811
  20
4613402.407
 40
29.63330
  0
SEQEND
  0
POLYLINE
  8
Unknown_Area_Type
  70
1
  66
1
  0
VERTEX
  8
Unknown_Area_Type
  10
408120.063
  20
4613448.811
  0
VERTEX
  8
Unknown_Area_Type
  10
408122.413
  20
4613356.002
  0
VERTEX
  8
Unknown_Area_Type
  10
408079.189
  20
4613356.546
  0
VERTEX
  8
Unknown_Area_Type
  10
405252.473
  20
4613393.448
  0
VERTEX
  8
Unknown_Area_Type
  10
405251.924
  20
4613448.811
  0
VERTEX
  8
Unknown_Area_Type
  10
408120.063
  20
4613448.811
  0
SEQEND
  8
Unknown_Area_Type
  0
INSERT
  8
FeatureAttribs
  2
FEATURE
  41
1
  42
1
  43
1
  50
0
  10
406664.842
  20
4613309.351
 66
1
  0
ATTRIB
  8
FeatureAttribs
 70
0
  1
PNOA-H_AMS_1956-57_33k_ES_PAN_2
  2
NAME
  10
406664.842
  20
4613309.351
 40
29.63330
  0
SEQEND
  0
POLYLINE
  8
Unknown_Area_Type
  70
1
  66
1
  0
VERTEX
  8
Unknown_Area_Type
  10
408122.413
  20
4613356.002
  0
VERTEX
  8
Unknown_Area_Type
  10
408127.123
  20
4613170.000
  0
VERTEX
  8
Unknown_Area_Type
  10
407970.000
  20
4613170.000
  0
VERTEX
  8
Unknown_Area_Type
  10
407970.000
  20
4613250.000
  0
VERTEX
  8
Unknown_Area_Type
  10
405253.896
  20
4613250.000
  0
VERTEX
  8
Unknown_Area_Type
  10
405252.473
  20
4613393.448
  0
VERTEX
  8
Unknown_Area_Type
  10
408079.189
  20
4613356.546
  0
VERTEX
  8
Unknown_Area_Type
  10
408122.413
  20
4613356.002
  0
SEQEND
  8
Unknown_Area_Type
  0
INSERT
  8
FeatureAttribs
  2
FEATURE
  41
1
  42
1
  43
1
  50
0
  10
406664.842
  20
4613309.351
 66
1
  0
ATTRIB
  8
FeatureAttribs
 70
0
  1
PNOA-H_AMS_1956-57_33k_ES_PAN_2
  2
NAME
  10
406664.842
  20
4613309.351
 40
29.63330
  0
SEQEND
  0
POLYLINE
  8
Unknown_Area_Type
  70
1
  66
1
  0
VERTEX
  8
Unknown_Area_Type
  10
408122.413
  20
4613356.002
  0
VERTEX
  8
Unknown_Area_Type
  10
408079.189
  20
4613356.546
  0
VERTEX
  8
Unknown_Area_Type
  10
405252.473
  20
4613393.448
  0
VERTEX
  8
Unknown_Area_Type
  10
405253.896
  20
4613250.000
  0
VERTEX
  8
Unknown_Area_Type
  10
407970.000
  20
4613250.000
  0
VERTEX
  8
Unknown_Area_Type
  10
407970.000
  20
4613170.000
  0
VERTEX
  8
Unknown_Area_Type
  10
408127.123
  20
4613170.000
  0
VERTEX
  8
Unknown_Area_Type
  10
408122.413
  20
4613356.002
  0
SEQEND
  8
Unknown_Area_Type
  0
INSERT
  8
FeatureAttribs
  2
FEATURE
  41
1
  42
1
  43
1
  50
0
  10
409542.367
  20
4613384.541
 66
1
  0
ATTRIB
  8
FeatureAttribs
 70
0
  1
PNOA-H_AMS_1956-57_33k_ES_PAN_2
  2
NAME
  10
409542.367
  20
4613384.541
 40
29.63330
  0
SEQEND
  0
POLYLINE
  8
Unknown_Area_Type
  70
1
  66
1
  0
VERTEX
  8
Unknown_Area_Type
  10
410961.615
  20
4613448.811
  0
VERTEX
  8
Unknown_Area_Type
  10
410964.666
  20
4613320.271
  0
VERTEX
  8
Unknown_Area_Type
  10
408122.319
  20
4613356.003
  0
VERTEX
  8
Unknown_Area_Type
  10
408119.959
  20
4613448.811
  0
VERTEX
  8
Unknown_Area_Type
  10
410961.615
  20
4613448.811
  0
SEQEND
  8
Unknown_Area_Type
  0
INSERT
  8
FeatureAttribs
  2
FEATURE
  41
1
  42
1
  43
1
  50
0
  10
409495.242
  20
4613254.387
 66
1
  0
ATTRIB
  8
FeatureAttribs
 70
0
  1
PNOA-H_AMS_1956-57_33k_ES_PAN_2
  2
NAME
  10
409495.242
  20
4613254.387
 40
29.63330
  0
SEQEND
  0
POLYLINE
  8
Unknown_Area_Type
  70
1
  66
1
  0
VERTEX
  8
Unknown_Area_Type
  10
410964.666
  20
4613320.271
  0
VERTEX
  8
Unknown_Area_Type
  10
410968.233
  20
4613170.000
  0
VERTEX
  8
Unknown_Area_Type
  10
408127.047
  20
4613170.000
  0
VERTEX
  8
Unknown_Area_Type
  10
408122.319
  20
4613356.003
  0
VERTEX
  8
Unknown_Area_Type
  10
410964.666
  20
4613320.271
  0
SEQEND
  8
Unknown_Area_Type
  0
INSERT
  8
FeatureAttribs
  2
FEATURE
  41
1
  42
1
  43
1
  50
0
  10
409495.242
  20
4613254.387
 66
1
  0
ATTRIB
  8
FeatureAttribs
 70
0
  1
PNOA-H_AMS_1956-57_33k_ES_PAN_2
  2
NAME
  10
409495.242
  20
4613254.387
 40
29.63330
  0
SEQEND
  0
POLYLINE
  8
Unknown_Area_Type
  70
1
  66
1
  0
VERTEX
  8
Unknown_Area_Type
  10
410964.666
  20
4613320.271
  0
VERTEX
  8
Unknown_Area_Type
  10
408122.319
  20
4613356.003
  0
VERTEX
  8
Unknown_Area_Type
  10
408127.047
  20
4613170.000
  0
VERTEX
  8
Unknown_Area_Type
  10
410968.233
  20
4613170.000
  0
VERTEX
  8
Unknown_Area_Type
  10
410964.666
  20
4613320.271
  0
SEQEND
  8
Unknown_Area_Type
  0
INSERT
  8
FeatureAttribs
  2
FEATURE
  41
1
  42
1
  43
1
  50
0
  10
415292.888
  20
4613187.810
 66
1
  0
ATTRIB
  8
FeatureAttribs
 70
0
  1
PNOA-H_AMS_1956-57_33k_ES_PAN_2
  2
NAME
  10
415292.888
  20
4613187.810
 40
29.63330
  0
SEQEND
  0
POLYLINE
  8
Unknown_Area_Type
  70
1
  66
1
  0
VERTEX
  8
Unknown_Area_Type
  10
416778.870
  20
4613250.561
  0
VERTEX
  8
Unknown_Area_Type
  10
416777.870
  20
4613090.000
  0
VERTEX
  8
Unknown_Area_Type
  10
414910.000
  20
4613090.000
  0
VERTEX
  8
Unknown_Area_Type
  10
414910.000
  20
4613170.000
  0
VERTEX
  8
Unknown_Area_Type
  10
413807.158
  20
4613170.000
  0
VERTEX
  8
Unknown_Area_Type
  10
413808.065
  20
4613285.619
  0
VERTEX
  8
Unknown_Area_Type
  10
415016.699
  20
4613271.010
  0
VERTEX
  8
Unknown_Area_Type
  10
416778.870
  20
4613250.561
  0
SEQEND
  8
Unknown_Area_Type
  0
INSERT
  8
FeatureAttribs
  2
FEATURE
  41
1
  42
1
  43
1
  50
0
  10
415292.888
  20
4613187.810
 66
1
  0
ATTRIB
  8
FeatureAttribs
 70
0
  1
PNOA-H_AMS_1956-57_33k_ES_PAN_2
  2
NAME
  10
415292.888
  20
4613187.810
 40
29.63330
  0
SEQEND
  0
POLYLINE
  8
Unknown_Area_Type
  70
1
  66
1
  0
VERTEX
  8
Unknown_Area_Type
  10
416778.870
  20
4613250.561
  0
VERTEX
  8
Unknown_Area_Type
  10
416777.870
  20
4613090.000
  0
VERTEX
  8
Unknown_Area_Type
  10
414910.000
  20
4613090.000
  0
VERTEX
  8
Unknown_Area_Type
  10
414910.000
  20
4613170.000
  0
VERTEX
  8
Unknown_Area_Type
  10
413807.158
  20
4613170.000
  0
VERTEX
  8
Unknown_Area_Type
  10
413808.065
  20
4613285.619
  0
VERTEX
  8
Unknown_Area_Type
  10
415016.699
  20
4613271.010
  0
VERTEX
  8
Unknown_Area_Type
  10
416778.870
  20
4613250.561
  0
SEQEND
  8
Unknown_Area_Type
  0
INSERT
  8
FeatureAttribs
  2
FEATURE
  41
1
  42
1
  43
1
  50
0
  10
415294.028
  20
4613349.686
 66
1
  0
ATTRIB
  8
FeatureAttribs
 70
0
  1
PNOA-H_AMS_1956-57_33k_ES_PAN_2
  2
NAME
  10
415294.028
  20
4613349.686
 40
29.63330
  0
SEQEND
  0
POLYLINE
  8
Unknown_Area_Type
  70
1
  66
1
  0
VERTEX
  8
Unknown_Area_Type
  10
416780.105
  20
4613448.811
  0
VERTEX
  8
Unknown_Area_Type
  10
416778.870
  20
4613250.561
  0
VERTEX
  8
Unknown_Area_Type
  10
415016.699
  20
4613271.010
  0
VERTEX
  8
Unknown_Area_Type
  10
413808.065
  20
4613285.619
  0
VERTEX
  8
Unknown_Area_Type
  10
413809.345
  20
4613448.811
  0
VERTEX
  8
Unknown_Area_Type
  10
416780.105
  20
4613448.811
  0
SEQEND
  8
Unknown_Area_Type
  0
INSERT
  8
FeatureAttribs
  2
FEATURE
  41
1
  42
1
  43
1
  50
0
  10
421124.942
  20
4613118.676
 66
1
  0
ATTRIB
  8
FeatureAttribs
 70
0
  1
PNOA-H_AMS_1956-57_33k_ES_PAN_2
  2
NAME
  10
421124.942
  20
4613118.676
 40
29.63330
  0
SEQEND
  0
POLYLINE
  8
Unknown_Area_Type
  70
1
  66
1
  0
VERTEX
  8
Unknown_Area_Type
  10
422560.331
  20
4613185.737
  0
VERTEX
  8
Unknown_Area_Type
  10
422559.338
  20
4613020.000
  0
VERTEX
  8
Unknown_Area_Type
  10
421850.000
  20
4613020.000
  0
VERTEX
  8
Unknown_Area_Type
  10
421850.000
  20
4613090.000
  0
VERTEX
  8
Unknown_Area_Type
  10
419689.638
  20
4613090.000
  0
VERTEX
  8
Unknown_Area_Type
  10
419691.046
  20
4613217.351
  0
VERTEX
  8
Unknown_Area_Type
  10
421954.187
  20
4613192.184
  0
VERTEX
  8
Unknown_Area_Type
  10
422560.331
  20
4613185.737
  0
SEQEND
  8
Unknown_Area_Type
  0
INSERT
  8
FeatureAttribs
  2
FEATURE
  41
1
  42
1
  43
1
  50
0
  10
421124.942
  20
4613118.676
 66
1
  0
ATTRIB
  8
FeatureAttribs
 70
0
  1
PNOA-H_AMS_1956-57_33k_ES_PAN_2
  2
NAME
  10
421124.942
  20
4613118.676
 40
29.63330
  0
SEQEND
  0
POLYLINE
  8
Unknown_Area_Type
  70
1
  66
1
  0
VERTEX
  8
Unknown_Area_Type
  10
422560.331
  20
4613185.737
  0
VERTEX
  8
Unknown_Area_Type
  10
422559.338
  20
4613020.000
  0
VERTEX
  8
Unknown_Area_Type
  10
421850.000
  20
4613020.000
  0
VERTEX
  8
Unknown_Area_Type
  10
421850.000
  20
4613090.000
  0
VERTEX
  8
Unknown_Area_Type
  10
419689.638
  20
4613090.000
  0
VERTEX
  8
Unknown_Area_Type
  10
419691.046
  20
4613217.351
  0
VERTEX
  8
Unknown_Area_Type
  10
421954.187
  20
4613192.184
  0
VERTEX
  8
Unknown_Area_Type
  10
422560.331
  20
4613185.737
  0
SEQEND
  8
Unknown_Area_Type
  0
INSERT
  8
FeatureAttribs
  2
FEATURE
  41
1
  42
1
  43
1
  50
0
  10
421126.635
  20
4613317.274
 66
1
  0
ATTRIB
  8
FeatureAttribs
 70
0
  1
PNOA-H_AMS_1956-57_33k_ES_PAN_2
  2
NAME
  10
421126.635
  20
4613317.274
 40
29.63330
  0
SEQEND
  0
POLYLINE
  8
Unknown_Area_Type
  70
1
  66
1
  0
VERTEX
  8
Unknown_Area_Type
  10
422561.908
  20
4613448.811
  0
VERTEX
  8
Unknown_Area_Type
  10
422560.331
  20
4613185.737
  0
VERTEX
  8
Unknown_Area_Type
  10
421954.187
  20
4613192.184
  0
VERTEX
  8
Unknown_Area_Type
  10
419691.046
  20
4613217.351
  0
VERTEX
  8
Unknown_Area_Type
  10
419693.606
  20
4613448.811
  0
VERTEX
  8
Unknown_Area_Type
  10
422561.908
  20
4613448.811
  0
SEQEND
  8
Unknown_Area_Type
  0
INSERT
  8
FeatureAttribs
  2
FEATURE
  41
1
  42
1
  43
1
  50
0
  10
404218.547
  20
4613421.130
 66
1
  0
ATTRIB
  8
FeatureAttribs
 70
0
  1
PNOA-H_AMS_1956-57_33k_ES_PAN_2
  2
NAME
  10
404218.547
  20
4613421.130
 40
29.63330
  0
SEQEND
  0
POLYLINE
  8
Unknown_Area_Type
  70
1
  66
1
  0
VERTEX
  8
Unknown_Area_Type
  10
405251.921
  20
4613448.811
  0
VERTEX
  8
Unknown_Area_Type
  10
405252.470
  20
4613393.448
  0
VERTEX
  8
Unknown_Area_Type
  10
404610.425
  20
4613401.830
  0
VERTEX
  8
Unknown_Area_Type
  10
402337.801
  20
4613432.598
  0
VERTEX
  8
Unknown_Area_Type
  10
402337.780
  20
4613448.811
  0
VERTEX
  8
Unknown_Area_Type
  10
405251.921
  20
4613448.811
  0
SEQEND
  8
Unknown_Area_Type
  0
INSERT
  8
FeatureAttribs
  2
FEATURE
  41
1
  42
1
  43
1
  50
0
  10
403736.952
  20
4613331.840
 66
1
  0
ATTRIB
  8
FeatureAttribs
 70
0
  1
PNOA-H_AMS_1956-57_33k_ES_PAN_2
  2
NAME
  10
403736.952
  20
4613331.840
 40
29.63330
  0
SEQEND
  0
POLYLINE
  8
Unknown_Area_Type
  70
1
  66
1
  0
VERTEX
  8
Unknown_Area_Type
  10
405252.470
  20
4613393.448
  0
VERTEX
  8
Unknown_Area_Type
  10
405253.892
  20
4613250.000
  0
VERTEX
  8
Unknown_Area_Type
  10
402338.046
  20
4613250.000
  0
VERTEX
  8
Unknown_Area_Type
  10
402337.801
  20
4613432.598
  0
VERTEX
  8
Unknown_Area_Type
  10
404610.425
  20
4613401.830
  0
VERTEX
  8
Unknown_Area_Type
  10
405252.470
  20
4613393.448
  0
SEQEND
  8
Unknown_Area_Type
  0
INSERT
  8
FeatureAttribs
  2
FEATURE
  41
1
  42
1
  43
1
  50
0
  10
403736.952
  20
4613331.840
 66
1
  0
ATTRIB
  8
FeatureAttribs
 70
0
  1
PNOA-H_AMS_1956-57_33k_ES_PAN_2
  2
NAME
  10
403736.952
  20
4613331.840
 40
29.63330
  0
SEQEND
  0
POLYLINE
  8
Unknown_Area_Type
  70
1
  66
1
  0
VERTEX
  8
Unknown_Area_Type
  10
405252.470
  20
4613393.448
  0
VERTEX
  8
Unknown_Area_Type
  10
404610.425
  20
4613401.830
  0
VERTEX
  8
Unknown_Area_Type
  10
402337.801
  20
4613432.598
  0
VERTEX
  8
Unknown_Area_Type
  10
402338.046
  20
4613250.000
  0
VERTEX
  8
Unknown_Area_Type
  10
405253.892
  20
4613250.000
  0
VERTEX
  8
Unknown_Area_Type
  10
405252.470
  20
4613393.448
  0
SEQEND
  8
Unknown_Area_Type
  0
INSERT
  8
FeatureAttribs
  2
FEATURE
  41
1
  42
1
  43
1
  50
0
  10
424004.164
  20
4613102.868
 66
1
  0
ATTRIB
  8
FeatureAttribs
 70
0
  1
PNOA-H_AMS_1956-57_33k_ES_PAN_2
  2
NAME
  10
424004.164
  20
4613102.868
 40
29.63330
  0
SEQEND
  0
POLYLINE
  8
Unknown_Area_Type
  70
1
  66
1
  0
VERTEX
  8
Unknown_Area_Type
  10
425448.026
  20
4613155.033
  0
VERTEX
  8
Unknown_Area_Type
  10
425449.243
  20
4613020.000
  0
VERTEX
  8
Unknown_Area_Type
  10
422559.335
  20
4613020.000
  0
VERTEX
  8
Unknown_Area_Type
  10
422560.329
  20
4613185.737
  0
VERTEX
  8
Unknown_Area_Type
  10
425422.924
  20
4613155.288
  0
VERTEX
  8
Unknown_Area_Type
  10
425448.026
  20
4613155.033
  0
SEQEND
  8
Unknown_Area_Type
  0
INSERT
  8
FeatureAttribs
  2
FEATURE
  41
1
  42
1
  43
1
  50
0
  10
424004.164
  20
4613102.868
 66
1
  0
ATTRIB
  8
FeatureAttribs
 70
0
  1
PNOA-H_AMS_1956-57_33k_ES_PAN_2
  2
NAME
  10
424004.164
  20
4613102.868
 40
29.63330
  0
SEQEND
  0
POLYLINE
  8
Unknown_Area_Type
  70
1
  66
1
  0
VERTEX
  8
Unknown_Area_Type
  10
425448.026
  20
4613155.033
  0
VERTEX
  8
Unknown_Area_Type
  10
425449.243
  20
4613020.000
  0
VERTEX
  8
Unknown_Area_Type
  10
422559.335
  20
4613020.000
  0
VERTEX
  8
Unknown_Area_Type
  10
422560.329
  20
4613185.737
  0
VERTEX
  8
Unknown_Area_Type
  10
425422.924
  20
4613155.288
  0
VERTEX
  8
Unknown_Area_Type
  10
425448.026
  20
4613155.033
  0
SEQEND
  8
Unknown_Area_Type
  0
INSERT
  8
FeatureAttribs
  2
FEATURE
  41
1
  42
1
  43
1
  50
0
  10
424003.864
  20
4613301.922
 66
1
  0
ATTRIB
  8
FeatureAttribs
 70
0
  1
PNOA-H_AMS_1956-57_33k_ES_PAN_2
  2
NAME
  10
424003.864
  20
4613301.922
 40
29.63330
  0
SEQEND
  0
POLYLINE
  8
Unknown_Area_Type
  70
1
  66
1
  0
VERTEX
  8
Unknown_Area_Type
  10
425445.379
  20
4613448.811
  0
VERTEX
  8
Unknown_Area_Type
  10
425448.026
  20
4613155.033
  0
VERTEX
  8
Unknown_Area_Type
  10
425422.924
  20
4613155.288
  0
VERTEX
  8
Unknown_Area_Type
  10
422560.329
  20
4613185.737
  0
VERTEX
  8
Unknown_Area_Type
  10
422561.905
  20
4613448.811
  0
VERTEX
  8
Unknown_Area_Type
  10
425445.379
  20
4613448.811
  0
SEQEND
  8
Unknown_Area_Type
  0
INSERT
  8
FeatureAttribs
  2
FEATURE
  41
1
  42
1
  43
1
  50
0
  10
412387.067
  20
4613245.136
 66
1
  0
ATTRIB
  8
FeatureAttribs
 70
0
  1
PNOA-H_AMS_1956-57_33k_ES_PAN_2
  2
NAME
  10
412387.067
  20
4613245.136
 40
29.63330
  0
SEQEND
  0
POLYLINE
  8
Unknown_Area_Type
  70
1
  66
1
  0
VERTEX
  8
Unknown_Area_Type
  10
413808.062
  20
4613285.619
  0
VERTEX
  8
Unknown_Area_Type
  10
413807.154
  20
4613170.000
  0
VERTEX
  8
Unknown_Area_Type
  10
410968.179
  20
4613170.000
  0
VERTEX
  8
Unknown_Area_Type
  10
410964.601
  20
4613320.272
  0
VERTEX
  8
Unknown_Area_Type
  10
411547.946
  20
4613312.939
  0
VERTEX
  8
Unknown_Area_Type
  10
413808.062
  20
4613285.619
  0
SEQEND
  8
Unknown_Area_Type
  0
INSERT
  8
FeatureAttribs
  2
FEATURE
  41
1
  42
1
  43
1
  50
0
  10
412387.067
  20
4613245.136
 66
1
  0
ATTRIB
  8
FeatureAttribs
 70
0
  1
PNOA-H_AMS_1956-57_33k_ES_PAN_2
  2
NAME
  10
412387.067
  20
4613245.136
 40
29.63330
  0
SEQEND
  0
POLYLINE
  8
Unknown_Area_Type
  70
1
  66
1
  0
VERTEX
  8
Unknown_Area_Type
  10
413808.062
  20
4613285.619
  0
VERTEX
  8
Unknown_Area_Type
  10
413807.154
  20
4613170.000
  0
VERTEX
  8
Unknown_Area_Type
  10
410968.179
  20
4613170.000
  0
VERTEX
  8
Unknown_Area_Type
  10
410964.601
  20
4613320.272
  0
VERTEX
  8
Unknown_Area_Type
  10
411547.946
  20
4613312.939
  0
VERTEX
  8
Unknown_Area_Type
  10
413808.062
  20
4613285.619
  0
SEQEND
  8
Unknown_Area_Type
  0
INSERT
  8
FeatureAttribs
  2
FEATURE
  41
1
  42
1
  43
1
  50
0
  10
412386.092
  20
4613367.215
 66
1
  0
ATTRIB
  8
FeatureAttribs
 70
0
  1
PNOA-H_AMS_1956-57_33k_ES_PAN_2
  2
NAME
  10
412386.092
  20
4613367.215
 40
29.63330
  0
SEQEND
  0
POLYLINE
  8
Unknown_Area_Type
  70
1
  66
1
  0
VERTEX
  8
Unknown_Area_Type
  10
413809.342
  20
4613448.811
  0
VERTEX
  8
Unknown_Area_Type
  10
413808.062
  20
4613285.619
  0
VERTEX
  8
Unknown_Area_Type
  10
411547.946
  20
4613312.939
  0
VERTEX
  8
Unknown_Area_Type
  10
410964.601
  20
4613320.272
  0
VERTEX
  8
Unknown_Area_Type
  10
410961.540
  20
4613448.811
  0
VERTEX
  8
Unknown_Area_Type
  10
413809.342
  20
4613448.811
  0
SEQEND
  8
Unknown_Area_Type
  0
INSERT
  8
FeatureAttribs
  2
FEATURE
  41
1
  42
1
  43
1
  50
0
  10
418234.448
  20
4613170.281
 66
1
  0
ATTRIB
  8
FeatureAttribs
 70
0
  1
PNOA-H_AMS_1956-57_33k_ES_PAN_2
  2
NAME
  10
418234.448
  20
4613170.281
 40
29.63330
  0
SEQEND
  0
POLYLINE
  8
Unknown_Area_Type
  70
1
  66
1
  0
VERTEX
  8
Unknown_Area_Type
  10
419691.046
  20
4613217.351
  0
VERTEX
  8
Unknown_Area_Type
  10
419689.638
  20
4613090.000
  0
VERTEX
  8
Unknown_Area_Type
  10
416777.870
  20
4613090.000
  0
VERTEX
  8
Unknown_Area_Type
  10
416778.870
  20
4613250.561
  0
VERTEX
  8
Unknown_Area_Type
  10
418485.445
  20
4613230.758
  0
VERTEX
  8
Unknown_Area_Type
  10
419691.046
  20
4613217.351
  0
SEQEND
  8
Unknown_Area_Type
  0
INSERT
  8
FeatureAttribs
  2
FEATURE
  41
1
  42
1
  43
1
  50
0
  10
418234.448
  20
4613170.281
 66
1
  0
ATTRIB
  8
FeatureAttribs
 70
0
  1
PNOA-H_AMS_1956-57_33k_ES_PAN_2
  2
NAME
  10
418234.448
  20
4613170.281
 40
29.63330
  0
SEQEND
  0
POLYLINE
  8
Unknown_Area_Type
  70
1
  66
1
  0
VERTEX
  8
Unknown_Area_Type
  10
419691.046
  20
4613217.351
  0
VERTEX
  8
Unknown_Area_Type
  10
419689.638
  20
4613090.000
  0
VERTEX
  8
Unknown_Area_Type
  10
416777.870
  20
4613090.000
  0
VERTEX
  8
Unknown_Area_Type
  10
416778.870
  20
4613250.561
  0
VERTEX
  8
Unknown_Area_Type
  10
418485.445
  20
4613230.758
  0
VERTEX
  8
Unknown_Area_Type
  10
419691.046
  20
4613217.351
  0
SEQEND
  8
Unknown_Area_Type
  0
INSERT
  8
FeatureAttribs
  2
FEATURE
  41
1
  42
1
  43
1
  50
0
  10
418235.855
  20
4613333.081
 66
1
  0
ATTRIB
  8
FeatureAttribs
 70
0
  1
PNOA-H_AMS_1956-57_33k_ES_PAN_2
  2
NAME
  10
418235.855
  20
4613333.081
 40
29.63330
  0
SEQEND
  0
POLYLINE
  8
Unknown_Area_Type
  70
1
  66
1
  0
VERTEX
  8
Unknown_Area_Type
  10
419693.606
  20
4613448.811
  0
VERTEX
  8
Unknown_Area_Type
  10
419691.046
  20
4613217.351
  0
VERTEX
  8
Unknown_Area_Type
  10
418485.445
  20
4613230.758
  0
VERTEX
  8
Unknown_Area_Type
  10
416778.870
  20
4613250.561
  0
VERTEX
  8
Unknown_Area_Type
  10
416780.105
  20
4613448.811
  0
VERTEX
  8
Unknown_Area_Type
  10
419693.606
  20
4613448.811
  0
SEQEND
  8
Unknown_Area_Type
  0
INSERT
  8
FeatureAttribs
  2
FEATURE
  41
1
  42
1
  43
1
  50
0
  10
426899.873
  20
4613087.516
 66
1
  0
ATTRIB
  8
FeatureAttribs
 70
0
  1
PNOA-H_AMS_1956-57_33k_ES_PAN_2
  2
NAME
  10
426899.873
  20
4613087.516
 40
29.63330
  0
SEQEND
  0
POLYLINE
  8
Unknown_Area_Type
  70
1
  66
1
  0
VERTEX
  8
Unknown_Area_Type
  10
428351.714
  20
4613125.551
  0
VERTEX
  8
Unknown_Area_Type
  10
428350.033
  20
4613020.000
  0
VERTEX
  8
Unknown_Area_Type
  10
425449.247
  20
4613020.000
  0
VERTEX
  8
Unknown_Area_Type
  10
425448.030
  20
4613155.033
  0
VERTEX
  8
Unknown_Area_Type
  10
428351.714
  20
4613125.551
  0
SEQEND
  8
Unknown_Area_Type
  0
INSERT
  8
FeatureAttribs
  2
FEATURE
  41
1
  42
1
  43
1
  50
0
  10
426899.873
  20
4613087.516
 66
1
  0
ATTRIB
  8
FeatureAttribs
 70
0
  1
PNOA-H_AMS_1956-57_33k_ES_PAN_2
  2
NAME
  10
426899.873
  20
4613087.516
 40
29.63330
  0
SEQEND
  0
POLYLINE
  8
Unknown_Area_Type
  70
1
  66
1
  0
VERTEX
  8
Unknown_Area_Type
  10
428351.714
  20
4613125.551
  0
VERTEX
  8
Unknown_Area_Type
  10
428350.033
  20
4613020.000
  0
VERTEX
  8
Unknown_Area_Type
  10
425449.247
  20
4613020.000
  0
VERTEX
  8
Unknown_Area_Type
  10
425448.030
  20
4613155.033
  0
VERTEX
  8
Unknown_Area_Type
  10
428351.714
  20
4613125.551
  0
SEQEND
  8
Unknown_Area_Type
  0
INSERT
  8
FeatureAttribs
  2
FEATURE
  41
1
  42
1
  43
1
  50
0
  10
426900.563
  20
4613287.181
 66
1
  0
ATTRIB
  8
FeatureAttribs
 70
0
  1
PNOA-H_AMS_1956-57_33k_ES_PAN_2
  2
NAME
  10
426900.563
  20
4613287.181
 40
29.63330
  0
SEQEND
  0
POLYLINE
  8
Unknown_Area_Type
  70
1
  66
1
  0
VERTEX
  8
Unknown_Area_Type
  10
428356.861
  20
4613448.811
  0
VERTEX
  8
Unknown_Area_Type
  10
428351.714
  20
4613125.551
  0
VERTEX
  8
Unknown_Area_Type
  10
425448.030
  20
4613155.033
  0
VERTEX
  8
Unknown_Area_Type
  10
425445.383
  20
4613448.811
  0
VERTEX
  8
Unknown_Area_Type
  10
428356.861
  20
4613448.811
  0
SEQEND
  8
Unknown_Area_Type
  0
INSERT
  8
FeatureAttribs
  2
FEATURE
  41
1
  42
1
  43
1
  50
0
  10
427888.430
  20
4605973.226
 66
1
  0
ATTRIB
  8
FeatureAttribs
 70
0
  1
PNOA-H_AMS_1956-57_33k_ES_PAN_2
  2
NAME
  10
427888.430
  20
4605973.226
 40
29.63330
  0
SEQEND
  0
POLYLINE
  8
Unknown_Area_Type
  70
1
  66
1
  0
VERTEX
  8
Unknown_Area_Type
  10
428843.990
  20
4608308.830
  0
VERTEX
  8
Unknown_Area_Type
  10
428822.923
  20
4606181.115
  0
VERTEX
  8
Unknown_Area_Type
  10
428800.031
  20
4603868.147
  0
VERTEX
  8
Unknown_Area_Type
  10
428798.968
  20
4603760.736
  0
VERTEX
  8
Unknown_Area_Type
  10
428790.112
  20
4603760.000
  0
VERTEX
  8
Unknown_Area_Type
  10
428121.050
  20
4603760.000
  0
VERTEX
  8
Unknown_Area_Type
  10
426916.000
  20
4604392.500
  0
VERTEX
  8
Unknown_Area_Type
  10
426718.500
  20
4607410.500
  0
VERTEX
  8
Unknown_Area_Type
  10
427664.000
  20
4607833.500
  0
VERTEX
  8
Unknown_Area_Type
  10
427665.000
  20
4607834.000
  0
VERTEX
  8
Unknown_Area_Type
  10
428760.500
  20
4608324.000
  0
VERTEX
  8
Unknown_Area_Type
  10
428843.990
  20
4608308.830
  0
SEQEND
  8
Unknown_Area_Type
  0
INSERT
  8
FeatureAttribs
  2
FEATURE
  41
1
  42
1
  43
1
  50
0
  10
427888.430
  20
4605973.226
 66
1
  0
ATTRIB
  8
FeatureAttribs
 70
0
  1
PNOA-H_AMS_1956-57_33k_ES_PAN_2
  2
NAME
  10
427888.430
  20
4605973.226
 40
29.63330
  0
SEQEND
  0
POLYLINE
  8
Unknown_Area_Type
  70
1
  66
1
  0
VERTEX
  8
Unknown_Area_Type
  10
428843.990
  20
4608308.830
  0
VERTEX
  8
Unknown_Area_Type
  10
428760.500
  20
4608324.000
  0
VERTEX
  8
Unknown_Area_Type
  10
427665.000
  20
4607834.000
  0
VERTEX
  8
Unknown_Area_Type
  10
427664.000
  20
4607833.500
  0
VERTEX
  8
Unknown_Area_Type
  10
426718.500
  20
4607410.500
  0
VERTEX
  8
Unknown_Area_Type
  10
426916.000
  20
4604392.500
  0
VERTEX
  8
Unknown_Area_Type
  10
428121.050
  20
4603760.000
  0
VERTEX
  8
Unknown_Area_Type
  10
428790.112
  20
4603760.000
  0
VERTEX
  8
Unknown_Area_Type
  10
428798.968
  20
4603760.736
  0
VERTEX
  8
Unknown_Area_Type
  10
428800.031
  20
4603868.147
  0
VERTEX
  8
Unknown_Area_Type
  10
428822.923
  20
4606181.115
  0
VERTEX
  8
Unknown_Area_Type
  10
428843.990
  20
4608308.830
  0
SEQEND
  8
Unknown_Area_Type
  0
INSERT
  8
FeatureAttribs
  2
FEATURE
  41
1
  42
1
  43
1
  50
0
  10
422246.658
  20
4605350.814
 66
1
  0
ATTRIB
  8
FeatureAttribs
 70
0
  1
PNOA-H_AMS_1956-57_33k_ES_PAN_2
  2
NAME
  10
422246.658
  20
4605350.814
 40
29.63330
  0
SEQEND
  0
POLYLINE
  8
Unknown_Area_Type
  70
1
  66
1
  0
VERTEX
  8
Unknown_Area_Type
  10
422788.885
  20
4603760.000
  0
VERTEX
  8
Unknown_Area_Type
  10
421750.000
  20
4603760.000
  0
VERTEX
  8
Unknown_Area_Type
  10
421750.000
  20
4607115.507
  0
VERTEX
  8
Unknown_Area_Type
  10
422148.500
  20
4607541.000
  0
VERTEX
  8
Unknown_Area_Type
  10
422149.000
  20
4607542.000
  0
VERTEX
  8
Unknown_Area_Type
  10
422150.000
  20
4607542.000
  0
VERTEX
  8
Unknown_Area_Type
  10
422159.000
  20
4607515.500
  0
VERTEX
  8
Unknown_Area_Type
  10
422929.500
  20
4605235.500
  0
VERTEX
  8
Unknown_Area_Type
  10
422788.885
  20
4603760.000
  0
SEQEND
  8
Unknown_Area_Type
  0
INSERT
  8
FeatureAttribs
  2
FEATURE
  41
1
  42
1
  43
1
  50
0
  10
422246.658
  20
4605350.814
 66
1
  0
ATTRIB
  8
FeatureAttribs
 70
0
  1
PNOA-H_AMS_1956-57_33k_ES_PAN_2
  2
NAME
  10
422246.658
  20
4605350.814
 40
29.63330
  0
SEQEND
  0
POLYLINE
  8
Unknown_Area_Type
  70
1
  66
1
  0
VERTEX
  8
Unknown_Area_Type
  10
422788.885
  20
4603760.000
  0
VERTEX
  8
Unknown_Area_Type
  10
422929.500
  20
4605235.500
  0
VERTEX
  8
Unknown_Area_Type
  10
422159.000
  20
4607515.500
  0
VERTEX
  8
Unknown_Area_Type
  10
422150.000
  20
4607542.000
  0
VERTEX
  8
Unknown_Area_Type
  10
422149.000
  20
4607542.000
  0
VERTEX
  8
Unknown_Area_Type
  10
422148.500
  20
4607541.000
  0
VERTEX
  8
Unknown_Area_Type
  10
421750.000
  20
4607115.507
  0
VERTEX
  8
Unknown_Area_Type
  10
421750.000
  20
4603760.000
  0
VERTEX
  8
Unknown_Area_Type
  10
422788.885
  20
4603760.000
  0
SEQEND
  8
Unknown_Area_Type
  0
INSERT
  8
FeatureAttribs
  2
FEATURE
  41
1
  42
1
  43
1
  50
0
  10
422416.157
  20
4608473.876
 66
1
  0
ATTRIB
  8
FeatureAttribs
 70
0
  1
PNOA-H_AMS_1956-57_33k_ES_PAN_2
  2
NAME
  10
422416.157
  20
4608473.876
 40
29.63330
  0
SEQEND
  0
POLYLINE
  8
Unknown_Area_Type
  70
1
  66
1
  0
VERTEX
  8
Unknown_Area_Type
  10
423423.318
  20
4608670.000
  0
VERTEX
  8
Unknown_Area_Type
  10
423424.000
  20
4608618.500
  0
VERTEX
  8
Unknown_Area_Type
  10
422205.500
  20
4608129.000
  0
VERTEX
  8
Unknown_Area_Type
  10
422199.000
  20
4608131.000
  0
VERTEX
  8
Unknown_Area_Type
  10
421750.000
  20
4608340.875
  0
VERTEX
  8
Unknown_Area_Type
  10
421750.000
  20
4608670.000
  0
VERTEX
  8
Unknown_Area_Type
  10
423423.318
  20
4608670.000
  0
SEQEND
  8
Unknown_Area_Type
  0
INSERT
  8
FeatureAttribs
  2
FEATURE
  41
1
  42
1
  43
1
  50
0
  10
422416.157
  20
4608473.876
 66
1
  0
ATTRIB
  8
FeatureAttribs
 70
0
  1
PNOA-H_AMS_1956-57_33k_ES_PAN_2
  2
NAME
  10
422416.157
  20
4608473.876
 40
29.63330
  0
SEQEND
  0
POLYLINE
  8
Unknown_Area_Type
  70
1
  66
1
  0
VERTEX
  8
Unknown_Area_Type
  10
423423.318
  20
4608670.000
  0
VERTEX
  8
Unknown_Area_Type
  10
421750.000
  20
4608670.000
  0
VERTEX
  8
Unknown_Area_Type
  10
421750.000
  20
4608340.875
  0
VERTEX
  8
Unknown_Area_Type
  10
422199.000
  20
4608131.000
  0
VERTEX
  8
Unknown_Area_Type
  10
422205.500
  20
4608129.000
  0
VERTEX
  8
Unknown_Area_Type
  10
423424.000
  20
4608618.500
  0
VERTEX
  8
Unknown_Area_Type
  10
423423.318
  20
4608670.000
  0
SEQEND
  8
Unknown_Area_Type
  0
INSERT
  8
FeatureAttribs
  2
FEATURE
  41
1
  42
1
  43
1
  50
0
  10
427216.511
  20
4608200.303
 66
1
  0
ATTRIB
  8
FeatureAttribs
 70
0
  1
PNOA-H_AMS_1956-57_33k_ES_PAN_2
  2
NAME
  10
427216.511
  20
4608200.303
 40
29.63330
  0
SEQEND
  0
POLYLINE
  8
Unknown_Area_Type
  70
1
  66
1
  0
VERTEX
  8
Unknown_Area_Type
  10
428752.119
  20
4608670.000
  0
VERTEX
  8
Unknown_Area_Type
  10
428760.500
  20
4608323.500
  0
VERTEX
  8
Unknown_Area_Type
  10
426719.500
  20
4607410.500
  0
VERTEX
  8
Unknown_Area_Type
  10
426709.500
  20
4607416.000
  0
VERTEX
  8
Unknown_Area_Type
  10
426084.500
  20
4607828.500
  0
VERTEX
  8
Unknown_Area_Type
  10
426065.194
  20
4608670.000
  0
VERTEX
  8
Unknown_Area_Type
  10
428752.119
  20
4608670.000
  0
SEQEND
  8
Unknown_Area_Type
  0
INSERT
  8
FeatureAttribs
  2
FEATURE
  41
1
  42
1
  43
1
  50
0
  10
427216.511
  20
4608200.303
 66
1
  0
ATTRIB
  8
FeatureAttribs
 70
0
  1
PNOA-H_AMS_1956-57_33k_ES_PAN_2
  2
NAME
  10
427216.511
  20
4608200.303
 40
29.63330
  0
SEQEND
  0
POLYLINE
  8
Unknown_Area_Type
  70
1
  66
1
  0
VERTEX
  8
Unknown_Area_Type
  10
428752.119
  20
4608670.000
  0
VERTEX
  8
Unknown_Area_Type
  10
426065.194
  20
4608670.000
  0
VERTEX
  8
Unknown_Area_Type
  10
426084.500
  20
4607828.500
  0
VERTEX
  8
Unknown_Area_Type
  10
426709.500
  20
4607416.000
  0
VERTEX
  8
Unknown_Area_Type
  10
426719.500
  20
4607410.500
  0
VERTEX
  8
Unknown_Area_Type
  10
428760.500
  20
4608323.500
  0
VERTEX
  8
Unknown_Area_Type
  10
428752.119
  20
4608670.000
  0
SEQEND
  8
Unknown_Area_Type
  0
INSERT
  8
FeatureAttribs
  2
FEATURE
  41
1
  42
1
  43
1
  50
0
  10
425138.872
  20
4608372.572
 66
1
  0
ATTRIB
  8
FeatureAttribs
 70
0
  1
PNOA-H_AMS_1956-57_33k_ES_PAN_2
  2
NAME
  10
425138.872
  20
4608372.572
 40
29.63330
  0
SEQEND
  0
POLYLINE
  8
Unknown_Area_Type
  70
1
  66
1
  0
VERTEX
  8
Unknown_Area_Type
  10
426065.206
  20
4608670.000
  0
VERTEX
  8
Unknown_Area_Type
  10
426084.500
  20
4607829.000
  0
VERTEX
  8
Unknown_Area_Type
  10
425857.500
  20
4607844.500
  0
VERTEX
  8
Unknown_Area_Type
  10
423425.000
  20
4608618.000
  0
VERTEX
  8
Unknown_Area_Type
  10
423423.500
  20
4608621.500
  0
VERTEX
  8
Unknown_Area_Type
  10
423422.921
  20
4608670.000
  0
VERTEX
  8
Unknown_Area_Type
  10
426065.206
  20
4608670.000
  0
SEQEND
  8
Unknown_Area_Type
  0
INSERT
  8
FeatureAttribs
  2
FEATURE
  41
1
  42
1
  43
1
  50
0
  10
425138.872
  20
4608372.572
 66
1
  0
ATTRIB
  8
FeatureAttribs
 70
0
  1
PNOA-H_AMS_1956-57_33k_ES_PAN_2
  2
NAME
  10
425138.872
  20
4608372.572
 40
29.63330
  0
SEQEND
  0
POLYLINE
  8
Unknown_Area_Type
  70
1
  66
1
  0
VERTEX
  8
Unknown_Area_Type
  10
426065.206
  20
4608670.000
  0
VERTEX
  8
Unknown_Area_Type
  10
423422.921
  20
4608670.000
  0
VERTEX
  8
Unknown_Area_Type
  10
423423.500
  20
4608621.500
  0
VERTEX
  8
Unknown_Area_Type
  10
423425.000
  20
4608618.000
  0
VERTEX
  8
Unknown_Area_Type
  10
425857.500
  20
4607844.500
  0
VERTEX
  8
Unknown_Area_Type
  10
426084.500
  20
4607829.000
  0
VERTEX
  8
Unknown_Area_Type
  10
426065.206
  20
4608670.000
  0
SEQEND
  8
Unknown_Area_Type
  0
INSERT
  8
FeatureAttribs
  2
FEATURE
  41
1
  42
1
  43
1
  50
0
  10
428801.359
  20
4608497.154
 66
1
  0
ATTRIB
  8
FeatureAttribs
 70
0
  1
PNOA-H_AMS_1956-57_33k_ES_PAN_2
  2
NAME
  10
428801.359
  20
4608497.154
 40
29.63330
  0
SEQEND
  0
POLYLINE
  8
Unknown_Area_Type
  70
1
  66
1
  0
VERTEX
  8
Unknown_Area_Type
  10
428847.567
  20
4608670.000
  0
VERTEX
  8
Unknown_Area_Type
  10
428845.825
  20
4608494.091
  0
VERTEX
  8
Unknown_Area_Type
  10
428843.990
  20
4608308.836
  0
VERTEX
  8
Unknown_Area_Type
  10
428760.500
  20
4608324.000
  0
VERTEX
  8
Unknown_Area_Type
  10
428752.122
  20
4608670.000
  0
VERTEX
  8
Unknown_Area_Type
  10
428847.567
  20
4608670.000
  0
SEQEND
  8
Unknown_Area_Type
  0
INSERT
  8
FeatureAttribs
  2
FEATURE
  41
1
  42
1
  43
1
  50
0
  10
428801.359
  20
4608497.154
 66
1
  0
ATTRIB
  8
FeatureAttribs
 70
0
  1
PNOA-H_AMS_1956-57_33k_ES_PAN_2
  2
NAME
  10
428801.359
  20
4608497.154
 40
29.63330
  0
SEQEND
  0
POLYLINE
  8
Unknown_Area_Type
  70
1
  66
1
  0
VERTEX
  8
Unknown_Area_Type
  10
428847.567
  20
4608670.000
  0
VERTEX
  8
Unknown_Area_Type
  10
428752.122
  20
4608670.000
  0
VERTEX
  8
Unknown_Area_Type
  10
428760.500
  20
4608324.000
  0
VERTEX
  8
Unknown_Area_Type
  10
428843.990
  20
4608308.836
  0
VERTEX
  8
Unknown_Area_Type
  10
428845.825
  20
4608494.091
  0
VERTEX
  8
Unknown_Area_Type
  10
428847.567
  20
4608670.000
  0
SEQEND
  8
Unknown_Area_Type
  0
INSERT
  8
FeatureAttribs
  2
FEATURE
  41
1
  42
1
  43
1
  50
0
  10
425108.494
  20
4605405.084
 66
1
  0
ATTRIB
  8
FeatureAttribs
 70
0
  1
PNOA-H_AMS_1956-57_33k_ES_PAN_2
  2
NAME
  10
425108.494
  20
4605405.084
 40
29.63330
  0
SEQEND
  0
POLYLINE
  8
Unknown_Area_Type
  70
1
  66
1
  0
VERTEX
  8
Unknown_Area_Type
  10
425884.995
  20
4603760.000
  0
VERTEX
  8
Unknown_Area_Type
  10
422788.752
  20
4603760.000
  0
VERTEX
  8
Unknown_Area_Type
  10
422929.500
  20
4605234.500
  0
VERTEX
  8
Unknown_Area_Type
  10
423569.000
  20
4605804.000
  0
VERTEX
  8
Unknown_Area_Type
  10
423569.500
  20
4605805.000
  0
VERTEX
  8
Unknown_Area_Type
  10
425857.000
  20
4607844.500
  0
VERTEX
  8
Unknown_Area_Type
  10
426084.500
  20
4607829.000
  0
VERTEX
  8
Unknown_Area_Type
  10
426719.000
  20
4607410.000
  0
VERTEX
  8
Unknown_Area_Type
  10
426916.000
  20
4604392.500
  0
VERTEX
  8
Unknown_Area_Type
  10
425884.995
  20
4603760.000
  0
SEQEND
  8
Unknown_Area_Type
  0
INSERT
  8
FeatureAttribs
  2
FEATURE
  41
1
  42
1
  43
1
  50
0
  10
425108.494
  20
4605405.084
 66
1
  0
ATTRIB
  8
FeatureAttribs
 70
0
  1
PNOA-H_AMS_1956-57_33k_ES_PAN_2
  2
NAME
  10
425108.494
  20
4605405.084
 40
29.63330
  0
SEQEND
  0
POLYLINE
  8
Unknown_Area_Type
  70
1
  66
1
  0
VERTEX
  8
Unknown_Area_Type
  10
425884.995
  20
4603760.000
  0
VERTEX
  8
Unknown_Area_Type
  10
426916.000
  20
4604392.500
  0
VERTEX
  8
Unknown_Area_Type
  10
426719.000
  20
4607410.000
  0
VERTEX
  8
Unknown_Area_Type
  10
426084.500
  20
4607829.000
  0
VERTEX
  8
Unknown_Area_Type
  10
425857.000
  20
4607844.500
  0
VERTEX
  8
Unknown_Area_Type
  10
423569.500
  20
4605805.000
  0
VERTEX
  8
Unknown_Area_Type
  10
423569.000
  20
4605804.000
  0
VERTEX
  8
Unknown_Area_Type
  10
422929.500
  20
4605234.500
  0
VERTEX
  8
Unknown_Area_Type
  10
422788.752
  20
4603760.000
  0
VERTEX
  8
Unknown_Area_Type
  10
425884.995
  20
4603760.000
  0
SEQEND
  8
Unknown_Area_Type
  0
INSERT
  8
FeatureAttribs
  2
FEATURE
  41
1
  42
1
  43
1
  50
0
  10
428796.661
  20
4603760.384
 66
1
  0
ATTRIB
  8
FeatureAttribs
 70
0
  1
PNOA-H_AMS_1956-57_33k_ES_PAN_2
  2
NAME
  10
428796.661
  20
4603760.384
 40
29.63330
  0
SEQEND
  0
POLYLINE
  8
Unknown_Area_Type
  70
1
  66
1
  0
VERTEX
  8
Unknown_Area_Type
  10
428798.968
  20
4603760.768
  0
VERTEX
  8
Unknown_Area_Type
  10
428798.961
  20
4603760.000
  0
VERTEX
  8
Unknown_Area_Type
  10
428789.746
  20
4603760.000
  0
VERTEX
  8
Unknown_Area_Type
  10
428798.968
  20
4603760.768
  0
SEQEND
  8
Unknown_Area_Type
  0
INSERT
  8
FeatureAttribs
  2
FEATURE
  41
1
  42
1
  43
1
  50
0
  10
428796.661
  20
4603760.384
 66
1
  0
ATTRIB
  8
FeatureAttribs
 70
0
  1
PNOA-H_AMS_1956-57_33k_ES_PAN_2
  2
NAME
  10
428796.661
  20
4603760.384
 40
29.63330
  0
SEQEND
  0
POLYLINE
  8
Unknown_Area_Type
  70
1
  66
1
  0
VERTEX
  8
Unknown_Area_Type
  10
428798.968
  20
4603760.768
  0
VERTEX
  8
Unknown_Area_Type
  10
428789.746
  20
4603760.000
  0
VERTEX
  8
Unknown_Area_Type
  10
428798.961
  20
4603760.000
  0
VERTEX
  8
Unknown_Area_Type
  10
428798.968
  20
4603760.768
  0
SEQEND
  8
Unknown_Area_Type
  0
INSERT
  8
FeatureAttribs
  2
FEATURE
  41
1
  42
1
  43
1
  50
0
  10
426973.927
  20
4603971.024
 66
1
  0
ATTRIB
  8
FeatureAttribs
 70
0
  1
PNOA-H_AMS_1956-57_33k_ES_PAN_2
  2
NAME
  10
426973.927
  20
4603971.024
 40
29.63330
  0
SEQEND
  0
POLYLINE
  8
Unknown_Area_Type
  70
1
  66
1
  0
VERTEX
  8
Unknown_Area_Type
  10
426915.000
  20
4604392.500
  0
VERTEX
  8
Unknown_Area_Type
  10
426917.000
  20
4604392.500
  0
VERTEX
  8
Unknown_Area_Type
  10
426927.500
  20
4604387.000
  0
VERTEX
  8
Unknown_Area_Type
  10
428121.587
  20
4603760.000
  0
VERTEX
  8
Unknown_Area_Type
  10
425884.259
  20
4603760.000
  0
VERTEX
  8
Unknown_Area_Type
  10
426915.000
  20
4604392.500
  0
SEQEND
  8
Unknown_Area_Type
  0
INSERT
  8
FeatureAttribs
  2
FEATURE
  41
1
  42
1
  43
1
  50
0
  10
426973.927
  20
4603971.024
 66
1
  0
ATTRIB
  8
FeatureAttribs
 70
0
  1
PNOA-H_AMS_1956-57_33k_ES_PAN_2
  2
NAME
  10
426973.927
  20
4603971.024
 40
29.63330
  0
SEQEND
  0
POLYLINE
  8
Unknown_Area_Type
  70
1
  66
1
  0
VERTEX
  8
Unknown_Area_Type
  10
426915.000
  20
4604392.500
  0
VERTEX
  8
Unknown_Area_Type
  10
425884.259
  20
4603760.000
  0
VERTEX
  8
Unknown_Area_Type
  10
428121.587
  20
4603760.000
  0
VERTEX
  8
Unknown_Area_Type
  10
426927.500
  20
4604387.000
  0
VERTEX
  8
Unknown_Area_Type
  10
426917.000
  20
4604392.500
  0
VERTEX
  8
Unknown_Area_Type
  10
426915.000
  20
4604392.500
  0
SEQEND
  8
Unknown_Area_Type
  0
INSERT
  8
FeatureAttribs
  2
FEATURE
  41
1
  42
1
  43
1
  50
0
  10
423635.382
  20
4607248.677
 66
1
  0
ATTRIB
  8
FeatureAttribs
 70
0
  1
PNOA-H_AMS_1956-57_33k_ES_PAN_2
  2
NAME
  10
423635.382
  20
4607248.677
 40
29.63330
  0
SEQEND
  0
POLYLINE
  8
Unknown_Area_Type
  70
1
  66
1
  0
VERTEX
  8
Unknown_Area_Type
  10
423423.000
  20
4608618.500
  0
VERTEX
  8
Unknown_Area_Type
  10
425857.500
  20
4607844.500
  0
VERTEX
  8
Unknown_Area_Type
  10
422930.000
  20
4605234.500
  0
VERTEX
  8
Unknown_Area_Type
  10
422928.000
  20
4605238.000
  0
VERTEX
  8
Unknown_Area_Type
  10
422149.500
  20
4607542.000
  0
VERTEX
  8
Unknown_Area_Type
  10
422204.000
  20
4608126.000
  0
VERTEX
  8
Unknown_Area_Type
  10
422205.500
  20
4608129.500
  0
VERTEX
  8
Unknown_Area_Type
  10
423421.500
  20
4608618.000
  0
VERTEX
  8
Unknown_Area_Type
  10
423423.000
  20
4608618.500
  0
SEQEND
  8
Unknown_Area_Type
  0
INSERT
  8
FeatureAttribs
  2
FEATURE
  41
1
  42
1
  43
1
  50
0
  10
423635.382
  20
4607248.677
 66
1
  0
ATTRIB
  8
FeatureAttribs
 70
0
  1
PNOA-H_AMS_1956-57_33k_ES_PAN_2
  2
NAME
  10
423635.382
  20
4607248.677
 40
29.63330
  0
SEQEND
  0
POLYLINE
  8
Unknown_Area_Type
  70
1
  66
1
  0
VERTEX
  8
Unknown_Area_Type
  10
423423.000
  20
4608618.500
  0
VERTEX
  8
Unknown_Area_Type
  10
423421.500
  20
4608618.000
  0
VERTEX
  8
Unknown_Area_Type
  10
422205.500
  20
4608129.500
  0
VERTEX
  8
Unknown_Area_Type
  10
422204.000
  20
4608126.000
  0
VERTEX
  8
Unknown_Area_Type
  10
422149.500
  20
4607542.000
  0
VERTEX
  8
Unknown_Area_Type
  10
422928.000
  20
4605238.000
  0
VERTEX
  8
Unknown_Area_Type
  10
422930.000
  20
4605234.500
  0
VERTEX
  8
Unknown_Area_Type
  10
425857.500
  20
4607844.500
  0
VERTEX
  8
Unknown_Area_Type
  10
423423.000
  20
4608618.500
  0
SEQEND
  8
Unknown_Area_Type
  0
ENDSEC
  0
EOF
