  0
SECTION
  2
HEADER
  9
$ACADVER
  1
AC1009
  9
$LUNITS
  70
2
  9
$LIMMIN
  10
373065.162
  20
4613250.000
  9
$LIMMAX
  10
401141.684
  20
4613884.915
  9
$EXTMIN
  10
373065.162
  20
4613250.000
  9
$EXTMAX
  10
401141.684
  20
4613884.915
  999
Created by Global Mapper
  999
Projection: UTM
  999
Datum: ETRS89
  999
Ground Units: meters
  999
ZONE: 30
  0
ENDSEC
  0
SECTION
  2
TABLES
  0
ENDSEC
  0
SECTION
  2
BLOCKS
  0
BLOCK
  8
FeatureAttribs
  70
0
  2
FEATURE
  3
FEATURE
  10
0.00000000
  20
0.00000000
  0
ATTDEF
  8
FeatureAttribs
  70
0
  1
 
  2
NAME
  3
NAME
  10
0.00000000
  20
0.00000000
  40
1.00000000
  0
ENDBLK
  0
ENDSEC
  0
SECTION
  2
ENTITIES
  0
INSERT
  8
FeatureAttribs
  2
FEATURE
  41
1
  42
1
  43
1
  50
0
  10
400328.501
  20
4613360.279
 66
1
  0
ATTRIB
  8
FeatureAttribs
 70
0
  1
PNOA-H_AMS_1956-57_33k_ES_PAN_2
  2
NAME
  10
400328.501
  20
4613360.279
 40
28.08370
  0
SEQEND
  0
POLYLINE
  8
Unknown_Area_Type
  70
1
  66
1
  0
VERTEX
  8
Unknown_Area_Type
  10
401138.917
  20
4613250.000
  0
VERTEX
  8
Unknown_Area_Type
  10
401040.000
  20
4613250.000
  0
VERTEX
  8
Unknown_Area_Type
  10
401040.000
  20
4613340.000
  0
VERTEX
  8
Unknown_Area_Type
  10
399503.156
  20
4613340.000
  0
VERTEX
  8
Unknown_Area_Type
  10
399589.494
  20
4613470.557
  0
VERTEX
  8
Unknown_Area_Type
  10
401141.656
  20
4613448.792
  0
VERTEX
  8
Unknown_Area_Type
  10
401138.917
  20
4613250.000
  0
SEQEND
  8
Unknown_Area_Type
  0
INSERT
  8
FeatureAttribs
  2
FEATURE
  41
1
  42
1
  43
1
  50
0
  10
401141.670
  20
4613449.301
 66
1
  0
ATTRIB
  8
FeatureAttribs
 70
0
  1
PNOA-H_AMS_1956-57_33k_ES_PAN_2
  2
NAME
  10
401141.670
  20
4613449.301
 40
28.08370
  0
SEQEND
  0
POLYLINE
  8
Unknown_Area_Type
  70
1
  66
1
  0
VERTEX
  8
Unknown_Area_Type
  10
401141.684
  20
4613450.829
  0
VERTEX
  8
Unknown_Area_Type
  10
401141.684
  20
4613448.792
  0
VERTEX
  8
Unknown_Area_Type
  10
401141.656
  20
4613448.792
  0
VERTEX
  8
Unknown_Area_Type
  10
401141.684
  20
4613450.829
  0
SEQEND
  8
Unknown_Area_Type
  0
INSERT
  8
FeatureAttribs
  2
FEATURE
  41
1
  42
1
  43
1
  50
0
  10
400328.501
  20
4613360.279
 66
1
  0
ATTRIB
  8
FeatureAttribs
 70
0
  1
PNOA-H_AMS_1956-57_33k_ES_PAN_2
  2
NAME
  10
400328.501
  20
4613360.279
 40
28.08370
  0
SEQEND
  0
POLYLINE
  8
Unknown_Area_Type
  70
1
  66
1
  0
VERTEX
  8
Unknown_Area_Type
  10
401138.917
  20
4613250.000
  0
VERTEX
  8
Unknown_Area_Type
  10
401040.000
  20
4613250.000
  0
VERTEX
  8
Unknown_Area_Type
  10
401040.000
  20
4613340.000
  0
VERTEX
  8
Unknown_Area_Type
  10
399503.156
  20
4613340.000
  0
VERTEX
  8
Unknown_Area_Type
  10
399589.494
  20
4613470.557
  0
VERTEX
  8
Unknown_Area_Type
  10
401141.656
  20
4613448.792
  0
VERTEX
  8
Unknown_Area_Type
  10
401138.917
  20
4613250.000
  0
SEQEND
  8
Unknown_Area_Type
  0
INSERT
  8
FeatureAttribs
  2
FEATURE
  41
1
  42
1
  43
1
  50
0
  10
401140.300
  20
4613300.208
 66
1
  0
ATTRIB
  8
FeatureAttribs
 70
0
  1
PNOA-H_AMS_1956-57_33k_ES_PAN_2
  2
NAME
  10
401140.300
  20
4613300.208
 40
28.08370
  0
SEQEND
  0
POLYLINE
  8
Unknown_Area_Type
  70
1
  66
1
  0
VERTEX
  8
Unknown_Area_Type
  10
401141.684
  20
4613250.000
  0
VERTEX
  8
Unknown_Area_Type
  10
401138.917
  20
4613250.000
  0
VERTEX
  8
Unknown_Area_Type
  10
401141.656
  20
4613448.792
  0
VERTEX
  8
Unknown_Area_Type
  10
401141.684
  20
4613448.792
  0
VERTEX
  8
Unknown_Area_Type
  10
401141.684
  20
4613250.000
  0
SEQEND
  8
Unknown_Area_Type
  0
INSERT
  8
FeatureAttribs
  2
FEATURE
  41
1
  42
1
  43
1
  50
0
  10
400430.495
  20
4613666.854
 66
1
  0
ATTRIB
  8
FeatureAttribs
 70
0
  1
PNOA-H_AMS_1956-57_33k_ES_PAN_2
  2
NAME
  10
400430.495
  20
4613666.854
 40
28.08370
  0
SEQEND
  0
POLYLINE
  8
Unknown_Area_Type
  70
1
  66
1
  0
VERTEX
  8
Unknown_Area_Type
  10
399863.510
  20
4613884.915
  0
VERTEX
  8
Unknown_Area_Type
  10
401141.684
  20
4613884.915
  0
VERTEX
  8
Unknown_Area_Type
  10
401141.684
  20
4613450.829
  0
VERTEX
  8
Unknown_Area_Type
  10
401141.656
  20
4613448.792
  0
VERTEX
  8
Unknown_Area_Type
  10
399589.494
  20
4613470.557
  0
VERTEX
  8
Unknown_Area_Type
  10
399863.510
  20
4613884.915
  0
SEQEND
  8
Unknown_Area_Type
  0
INSERT
  8
FeatureAttribs
  2
FEATURE
  41
1
  42
1
  43
1
  50
0
  10
373148.974
  20
4613832.457
 66
1
  0
ATTRIB
  8
FeatureAttribs
 70
0
  1
PNOA-H_AMS_1956-57_33k_ES_PAN_2
  2
NAME
  10
373148.974
  20
4613832.457
 40
28.08370
  0
SEQEND
  0
POLYLINE
  8
Unknown_Area_Type
  70
1
  66
1
  0
VERTEX
  8
Unknown_Area_Type
  10
373234.429
  20
4613884.915
  0
VERTEX
  8
Unknown_Area_Type
  10
373231.141
  20
4613780.000
  0
VERTEX
  8
Unknown_Area_Type
  10
373065.162
  20
4613780.000
  0
VERTEX
  8
Unknown_Area_Type
  10
373065.162
  20
4613884.915
  0
VERTEX
  8
Unknown_Area_Type
  10
373234.429
  20
4613884.915
  0
SEQEND
  8
Unknown_Area_Type
  0
INSERT
  8
FeatureAttribs
  2
FEATURE
  41
1
  42
1
  43
1
  50
0
  10
373390.995
  20
4613884.905
 66
1
  0
ATTRIB
  8
FeatureAttribs
 70
0
  1
PNOA-H_AMS_1956-57_33k_ES_PAN_2
  2
NAME
  10
373390.995
  20
4613884.905
 40
28.08370
  0
SEQEND
  0
POLYLINE
  8
Unknown_Area_Type
  70
1
  66
1
  0
VERTEX
  8
Unknown_Area_Type
  10
373391.260
  20
4613884.915
  0
VERTEX
  8
Unknown_Area_Type
  10
373391.260
  20
4613884.896
  0
VERTEX
  8
Unknown_Area_Type
  10
373390.201
  20
4613884.915
  0
VERTEX
  8
Unknown_Area_Type
  10
373391.260
  20
4613884.915
  0
SEQEND
  8
Unknown_Area_Type
  0
INSERT
  8
FeatureAttribs
  2
FEATURE
  41
1
  42
1
  43
1
  50
0
  10
375437.061
  20
4613861.163
 66
1
  0
ATTRIB
  8
FeatureAttribs
 70
0
  1
PNOA-H_AMS_1956-57_33k_ES_PAN_2
  2
NAME
  10
375437.061
  20
4613861.163
 40
28.08370
  0
SEQEND
  0
POLYLINE
  8
Unknown_Area_Type
  70
1
  66
1
  0
VERTEX
  8
Unknown_Area_Type
  10
376120.027
  20
4613884.915
  0
VERTEX
  8
Unknown_Area_Type
  10
376119.022
  20
4613837.410
  0
VERTEX
  8
Unknown_Area_Type
  10
373391.260
  20
4613884.896
  0
VERTEX
  8
Unknown_Area_Type
  10
373391.260
  20
4613884.915
  0
VERTEX
  8
Unknown_Area_Type
  10
376120.027
  20
4613884.915
  0
SEQEND
  8
Unknown_Area_Type
  0
INSERT
  8
FeatureAttribs
  2
FEATURE
  41
1
  42
1
  43
1
  50
0
  10
373339.638
  20
4613772.457
 66
1
  0
ATTRIB
  8
FeatureAttribs
 70
0
  1
PNOA-H_AMS_1956-57_33k_ES_PAN_2
  2
NAME
  10
373339.638
  20
4613772.457
 40
28.08370
  0
SEQEND
  0
POLYLINE
  8
Unknown_Area_Type
  70
1
  66
1
  0
VERTEX
  8
Unknown_Area_Type
  10
373387.291
  20
4613660.000
  0
VERTEX
  8
Unknown_Area_Type
  10
373290.000
  20
4613660.000
  0
VERTEX
  8
Unknown_Area_Type
  10
373290.000
  20
4613780.000
  0
VERTEX
  8
Unknown_Area_Type
  10
373230.971
  20
4613780.000
  0
VERTEX
  8
Unknown_Area_Type
  10
373234.255
  20
4613884.915
  0
VERTEX
  8
Unknown_Area_Type
  10
373390.201
  20
4613884.915
  0
VERTEX
  8
Unknown_Area_Type
  10
373391.260
  20
4613884.896
  0
VERTEX
  8
Unknown_Area_Type
  10
373387.291
  20
4613660.000
  0
SEQEND
  8
Unknown_Area_Type
  0
INSERT
  8
FeatureAttribs
  2
FEATURE
  41
1
  42
1
  43
1
  50
0
  10
374699.553
  20
4613761.048
 66
1
  0
ATTRIB
  8
FeatureAttribs
 70
0
  1
PNOA-H_AMS_1956-57_33k_ES_PAN_2
  2
NAME
  10
374699.553
  20
4613761.048
 40
28.08370
  0
SEQEND
  0
POLYLINE
  8
Unknown_Area_Type
  70
1
  66
1
  0
VERTEX
  8
Unknown_Area_Type
  10
376119.022
  20
4613837.410
  0
VERTEX
  8
Unknown_Area_Type
  10
376115.265
  20
4613660.000
  0
VERTEX
  8
Unknown_Area_Type
  10
373387.291
  20
4613660.000
  0
VERTEX
  8
Unknown_Area_Type
  10
373391.260
  20
4613884.896
  0
VERTEX
  8
Unknown_Area_Type
  10
376119.022
  20
4613837.410
  0
SEQEND
  8
Unknown_Area_Type
  0
INSERT
  8
FeatureAttribs
  2
FEATURE
  41
1
  42
1
  43
1
  50
0
  10
374699.553
  20
4613761.048
 66
1
  0
ATTRIB
  8
FeatureAttribs
 70
0
  1
PNOA-H_AMS_1956-57_33k_ES_PAN_2
  2
NAME
  10
374699.553
  20
4613761.048
 40
28.08370
  0
SEQEND
  0
POLYLINE
  8
Unknown_Area_Type
  70
1
  66
1
  0
VERTEX
  8
Unknown_Area_Type
  10
376119.022
  20
4613837.410
  0
VERTEX
  8
Unknown_Area_Type
  10
373391.260
  20
4613884.896
  0
VERTEX
  8
Unknown_Area_Type
  10
373387.291
  20
4613660.000
  0
VERTEX
  8
Unknown_Area_Type
  10
376115.265
  20
4613660.000
  0
VERTEX
  8
Unknown_Area_Type
  10
376119.022
  20
4613837.410
  0
SEQEND
  8
Unknown_Area_Type
  0
INSERT
  8
FeatureAttribs
  2
FEATURE
  41
1
  42
1
  43
1
  50
0
  10
383159.608
  20
4613791.203
 66
1
  0
ATTRIB
  8
FeatureAttribs
 70
0
  1
PNOA-H_AMS_1956-57_33k_ES_PAN_2
  2
NAME
  10
383159.608
  20
4613791.203
 40
28.08370
  0
SEQEND
  0
POLYLINE
  8
Unknown_Area_Type
  70
1
  66
1
  0
VERTEX
  8
Unknown_Area_Type
  10
384510.435
  20
4613884.915
  0
VERTEX
  8
Unknown_Area_Type
  10
384504.599
  20
4613697.492
  0
VERTEX
  8
Unknown_Area_Type
  10
383797.712
  20
4613708.771
  0
VERTEX
  8
Unknown_Area_Type
  10
381812.206
  20
4613741.415
  0
VERTEX
  8
Unknown_Area_Type
  10
381810.745
  20
4613884.915
  0
VERTEX
  8
Unknown_Area_Type
  10
384510.435
  20
4613884.915
  0
SEQEND
  8
Unknown_Area_Type
  0
INSERT
  8
FeatureAttribs
  2
FEATURE
  41
1
  42
1
  43
1
  50
0
  10
383099.528
  20
4613635.176
 66
1
  0
ATTRIB
  8
FeatureAttribs
 70
0
  1
PNOA-H_AMS_1956-57_33k_ES_PAN_2
  2
NAME
  10
383099.528
  20
4613635.176
 40
28.08370
  0
SEQEND
  0
POLYLINE
  8
Unknown_Area_Type
  70
1
  66
1
  0
VERTEX
  8
Unknown_Area_Type
  10
384504.599
  20
4613697.492
  0
VERTEX
  8
Unknown_Area_Type
  10
384500.007
  20
4613550.000
  0
VERTEX
  8
Unknown_Area_Type
  10
381814.155
  20
4613550.000
  0
VERTEX
  8
Unknown_Area_Type
  10
381812.206
  20
4613741.415
  0
VERTEX
  8
Unknown_Area_Type
  10
383797.712
  20
4613708.771
  0
VERTEX
  8
Unknown_Area_Type
  10
384504.599
  20
4613697.492
  0
SEQEND
  8
Unknown_Area_Type
  0
INSERT
  8
FeatureAttribs
  2
FEATURE
  41
1
  42
1
  43
1
  50
0
  10
383099.528
  20
4613635.176
 66
1
  0
ATTRIB
  8
FeatureAttribs
 70
0
  1
PNOA-H_AMS_1956-57_33k_ES_PAN_2
  2
NAME
  10
383099.528
  20
4613635.176
 40
28.08370
  0
SEQEND
  0
POLYLINE
  8
Unknown_Area_Type
  70
1
  66
1
  0
VERTEX
  8
Unknown_Area_Type
  10
384504.599
  20
4613697.492
  0
VERTEX
  8
Unknown_Area_Type
  10
383797.712
  20
4613708.771
  0
VERTEX
  8
Unknown_Area_Type
  10
381812.206
  20
4613741.415
  0
VERTEX
  8
Unknown_Area_Type
  10
381814.155
  20
4613550.000
  0
VERTEX
  8
Unknown_Area_Type
  10
384500.007
  20
4613550.000
  0
VERTEX
  8
Unknown_Area_Type
  10
384504.599
  20
4613697.492
  0
SEQEND
  8
Unknown_Area_Type
  0
INSERT
  8
FeatureAttribs
  2
FEATURE
  41
1
  42
1
  43
1
  50
0
  10
380402.298
  20
4613813.165
 66
1
  0
ATTRIB
  8
FeatureAttribs
 70
0
  1
PNOA-H_AMS_1956-57_33k_ES_PAN_2
  2
NAME
  10
380402.298
  20
4613813.165
 40
28.08370
  0
SEQEND
  0
POLYLINE
  8
Unknown_Area_Type
  70
1
  66
1
  0
VERTEX
  8
Unknown_Area_Type
  10
381810.764
  20
4613884.915
  0
VERTEX
  8
Unknown_Area_Type
  10
381812.226
  20
4613741.414
  0
VERTEX
  8
Unknown_Area_Type
  10
380328.902
  20
4613765.801
  0
VERTEX
  8
Unknown_Area_Type
  10
378992.669
  20
4613788.417
  0
VERTEX
  8
Unknown_Area_Type
  10
378994.356
  20
4613884.915
  0
VERTEX
  8
Unknown_Area_Type
  10
381810.764
  20
4613884.915
  0
SEQEND
  8
Unknown_Area_Type
  0
INSERT
  8
FeatureAttribs
  2
FEATURE
  41
1
  42
1
  43
1
  50
0
  10
380564.749
  20
4613672.938
 66
1
  0
ATTRIB
  8
FeatureAttribs
 70
0
  1
PNOA-H_AMS_1956-57_33k_ES_PAN_2
  2
NAME
  10
380564.749
  20
4613672.938
 40
28.08370
  0
SEQEND
  0
POLYLINE
  8
Unknown_Area_Type
  70
1
  66
1
  0
VERTEX
  8
Unknown_Area_Type
  10
381812.226
  20
4613741.414
  0
VERTEX
  8
Unknown_Area_Type
  10
381814.176
  20
4613550.000
  0
VERTEX
  8
Unknown_Area_Type
  10
380220.000
  20
4613550.000
  0
VERTEX
  8
Unknown_Area_Type
  10
380220.000
  20
4613660.000
  0
VERTEX
  8
Unknown_Area_Type
  10
378990.424
  20
4613660.000
  0
VERTEX
  8
Unknown_Area_Type
  10
378992.669
  20
4613788.417
  0
VERTEX
  8
Unknown_Area_Type
  10
380328.902
  20
4613765.801
  0
VERTEX
  8
Unknown_Area_Type
  10
381812.226
  20
4613741.414
  0
SEQEND
  8
Unknown_Area_Type
  0
INSERT
  8
FeatureAttribs
  2
FEATURE
  41
1
  42
1
  43
1
  50
0
  10
380564.749
  20
4613672.938
 66
1
  0
ATTRIB
  8
FeatureAttribs
 70
0
  1
PNOA-H_AMS_1956-57_33k_ES_PAN_2
  2
NAME
  10
380564.749
  20
4613672.938
 40
28.08370
  0
SEQEND
  0
POLYLINE
  8
Unknown_Area_Type
  70
1
  66
1
  0
VERTEX
  8
Unknown_Area_Type
  10
381812.226
  20
4613741.414
  0
VERTEX
  8
Unknown_Area_Type
  10
380328.902
  20
4613765.801
  0
VERTEX
  8
Unknown_Area_Type
  10
378992.669
  20
4613788.417
  0
VERTEX
  8
Unknown_Area_Type
  10
378990.424
  20
4613660.000
  0
VERTEX
  8
Unknown_Area_Type
  10
380220.000
  20
4613660.000
  0
VERTEX
  8
Unknown_Area_Type
  10
380220.000
  20
4613550.000
  0
VERTEX
  8
Unknown_Area_Type
  10
381814.176
  20
4613550.000
  0
VERTEX
  8
Unknown_Area_Type
  10
381812.226
  20
4613741.414
  0
SEQEND
  8
Unknown_Area_Type
  0
INSERT
  8
FeatureAttribs
  2
FEATURE
  41
1
  42
1
  43
1
  50
0
  10
377577.645
  20
4613836.666
 66
1
  0
ATTRIB
  8
FeatureAttribs
 70
0
  1
PNOA-H_AMS_1956-57_33k_ES_PAN_2
  2
NAME
  10
377577.645
  20
4613836.666
 40
28.08370
  0
SEQEND
  0
POLYLINE
  8
Unknown_Area_Type
  70
1
  66
1
  0
VERTEX
  8
Unknown_Area_Type
  10
378994.348
  20
4613884.915
  0
VERTEX
  8
Unknown_Area_Type
  10
378992.662
  20
4613788.417
  0
VERTEX
  8
Unknown_Area_Type
  10
376860.085
  20
4613824.510
  0
VERTEX
  8
Unknown_Area_Type
  10
376119.022
  20
4613837.410
  0
VERTEX
  8
Unknown_Area_Type
  10
376120.027
  20
4613884.915
  0
VERTEX
  8
Unknown_Area_Type
  10
378994.348
  20
4613884.915
  0
SEQEND
  8
Unknown_Area_Type
  0
INSERT
  8
FeatureAttribs
  2
FEATURE
  41
1
  42
1
  43
1
  50
0
  10
377477.722
  20
4613737.039
 66
1
  0
ATTRIB
  8
FeatureAttribs
 70
0
  1
PNOA-H_AMS_1956-57_33k_ES_PAN_2
  2
NAME
  10
377477.722
  20
4613737.039
 40
28.08370
  0
SEQEND
  0
POLYLINE
  8
Unknown_Area_Type
  70
1
  66
1
  0
VERTEX
  8
Unknown_Area_Type
  10
378992.662
  20
4613788.417
  0
VERTEX
  8
Unknown_Area_Type
  10
378990.419
  20
4613660.000
  0
VERTEX
  8
Unknown_Area_Type
  10
376115.265
  20
4613660.000
  0
VERTEX
  8
Unknown_Area_Type
  10
376119.022
  20
4613837.410
  0
VERTEX
  8
Unknown_Area_Type
  10
376860.085
  20
4613824.510
  0
VERTEX
  8
Unknown_Area_Type
  10
378992.662
  20
4613788.417
  0
SEQEND
  8
Unknown_Area_Type
  0
INSERT
  8
FeatureAttribs
  2
FEATURE
  41
1
  42
1
  43
1
  50
0
  10
377477.722
  20
4613737.039
 66
1
  0
ATTRIB
  8
FeatureAttribs
 70
0
  1
PNOA-H_AMS_1956-57_33k_ES_PAN_2
  2
NAME
  10
377477.722
  20
4613737.039
 40
28.08370
  0
SEQEND
  0
POLYLINE
  8
Unknown_Area_Type
  70
1
  66
1
  0
VERTEX
  8
Unknown_Area_Type
  10
378992.662
  20
4613788.417
  0
VERTEX
  8
Unknown_Area_Type
  10
376860.085
  20
4613824.510
  0
VERTEX
  8
Unknown_Area_Type
  10
376119.022
  20
4613837.410
  0
VERTEX
  8
Unknown_Area_Type
  10
376115.265
  20
4613660.000
  0
VERTEX
  8
Unknown_Area_Type
  10
378990.419
  20
4613660.000
  0
VERTEX
  8
Unknown_Area_Type
  10
378992.662
  20
4613788.417
  0
SEQEND
  8
Unknown_Area_Type
  0
INSERT
  8
FeatureAttribs
  2
FEATURE
  41
1
  42
1
  43
1
  50
0
  10
388740.990
  20
4613546.138
 66
1
  0
ATTRIB
  8
FeatureAttribs
 70
0
  1
PNOA-H_AMS_1956-57_33k_ES_PAN_2
  2
NAME
  10
388740.990
  20
4613546.138
 40
28.08370
  0
SEQEND
  0
POLYLINE
  8
Unknown_Area_Type
  70
1
  66
1
  0
VERTEX
  8
Unknown_Area_Type
  10
390145.566
  20
4613608.871
  0
VERTEX
  8
Unknown_Area_Type
  10
390141.947
  20
4613440.000
  0
VERTEX
  8
Unknown_Area_Type
  10
387335.066
  20
4613440.000
  0
VERTEX
  8
Unknown_Area_Type
  10
387340.450
  20
4613652.276
  0
VERTEX
  8
Unknown_Area_Type
  10
390145.566
  20
4613608.871
  0
SEQEND
  8
Unknown_Area_Type
  0
INSERT
  8
FeatureAttribs
  2
FEATURE
  41
1
  42
1
  43
1
  50
0
  10
388740.990
  20
4613546.138
 66
1
  0
ATTRIB
  8
FeatureAttribs
 70
0
  1
PNOA-H_AMS_1956-57_33k_ES_PAN_2
  2
NAME
  10
388740.990
  20
4613546.138
 40
28.08370
  0
SEQEND
  0
POLYLINE
  8
Unknown_Area_Type
  70
1
  66
1
  0
VERTEX
  8
Unknown_Area_Type
  10
390145.566
  20
4613608.871
  0
VERTEX
  8
Unknown_Area_Type
  10
390141.947
  20
4613440.000
  0
VERTEX
  8
Unknown_Area_Type
  10
387335.066
  20
4613440.000
  0
VERTEX
  8
Unknown_Area_Type
  10
387340.450
  20
4613652.276
  0
VERTEX
  8
Unknown_Area_Type
  10
390145.566
  20
4613608.871
  0
SEQEND
  8
Unknown_Area_Type
  0
INSERT
  8
FeatureAttribs
  2
FEATURE
  41
1
  42
1
  43
1
  50
0
  10
388745.686
  20
4613746.893
 66
1
  0
ATTRIB
  8
FeatureAttribs
 70
0
  1
PNOA-H_AMS_1956-57_33k_ES_PAN_2
  2
NAME
  10
388745.686
  20
4613746.893
 40
28.08370
  0
SEQEND
  0
POLYLINE
  8
Unknown_Area_Type
  70
1
  66
1
  0
VERTEX
  8
Unknown_Area_Type
  10
390151.480
  20
4613884.915
  0
VERTEX
  8
Unknown_Area_Type
  10
390145.566
  20
4613608.871
  0
VERTEX
  8
Unknown_Area_Type
  10
387340.450
  20
4613652.276
  0
VERTEX
  8
Unknown_Area_Type
  10
387346.349
  20
4613884.915
  0
VERTEX
  8
Unknown_Area_Type
  10
390151.480
  20
4613884.915
  0
SEQEND
  8
Unknown_Area_Type
  0
INSERT
  8
FeatureAttribs
  2
FEATURE
  41
1
  42
1
  43
1
  50
0
  10
394279.680
  20
4613453.788
 66
1
  0
ATTRIB
  8
FeatureAttribs
 70
0
  1
PNOA-H_AMS_1956-57_33k_ES_PAN_2
  2
NAME
  10
394279.680
  20
4613453.788
 40
28.08370
  0
SEQEND
  0
POLYLINE
  8
Unknown_Area_Type
  70
1
  66
1
  0
VERTEX
  8
Unknown_Area_Type
  10
395680.439
  20
4613526.334
  0
VERTEX
  8
Unknown_Area_Type
  10
395679.645
  20
4613340.000
  0
VERTEX
  8
Unknown_Area_Type
  10
394100.000
  20
4613340.000
  0
VERTEX
  8
Unknown_Area_Type
  10
394100.000
  20
4613440.000
  0
VERTEX
  8
Unknown_Area_Type
  10
392878.956
  20
4613440.000
  0
VERTEX
  8
Unknown_Area_Type
  10
392881.492
  20
4613567.575
  0
VERTEX
  8
Unknown_Area_Type
  10
394204.098
  20
4613547.750
  0
VERTEX
  8
Unknown_Area_Type
  10
395680.439
  20
4613526.334
  0
SEQEND
  8
Unknown_Area_Type
  0
INSERT
  8
FeatureAttribs
  2
FEATURE
  41
1
  42
1
  43
1
  50
0
  10
394279.680
  20
4613453.788
 66
1
  0
ATTRIB
  8
FeatureAttribs
 70
0
  1
PNOA-H_AMS_1956-57_33k_ES_PAN_2
  2
NAME
  10
394279.680
  20
4613453.788
 40
28.08370
  0
SEQEND
  0
POLYLINE
  8
Unknown_Area_Type
  70
1
  66
1
  0
VERTEX
  8
Unknown_Area_Type
  10
395680.439
  20
4613526.334
  0
VERTEX
  8
Unknown_Area_Type
  10
395679.645
  20
4613340.000
  0
VERTEX
  8
Unknown_Area_Type
  10
394100.000
  20
4613340.000
  0
VERTEX
  8
Unknown_Area_Type
  10
394100.000
  20
4613440.000
  0
VERTEX
  8
Unknown_Area_Type
  10
392878.956
  20
4613440.000
  0
VERTEX
  8
Unknown_Area_Type
  10
392881.492
  20
4613567.575
  0
VERTEX
  8
Unknown_Area_Type
  10
394204.098
  20
4613547.750
  0
VERTEX
  8
Unknown_Area_Type
  10
395680.439
  20
4613526.334
  0
SEQEND
  8
Unknown_Area_Type
  0
INSERT
  8
FeatureAttribs
  2
FEATURE
  41
1
  42
1
  43
1
  50
0
  10
394282.720
  20
4613705.625
 66
1
  0
ATTRIB
  8
FeatureAttribs
 70
0
  1
PNOA-H_AMS_1956-57_33k_ES_PAN_2
  2
NAME
  10
394282.720
  20
4613705.625
 40
28.08370
  0
SEQEND
  0
POLYLINE
  8
Unknown_Area_Type
  70
1
  66
1
  0
VERTEX
  8
Unknown_Area_Type
  10
395681.968
  20
4613884.915
  0
VERTEX
  8
Unknown_Area_Type
  10
395680.439
  20
4613526.334
  0
VERTEX
  8
Unknown_Area_Type
  10
394204.098
  20
4613547.750
  0
VERTEX
  8
Unknown_Area_Type
  10
392881.492
  20
4613567.575
  0
VERTEX
  8
Unknown_Area_Type
  10
392887.801
  20
4613884.915
  0
VERTEX
  8
Unknown_Area_Type
  10
395681.968
  20
4613884.915
  0
SEQEND
  8
Unknown_Area_Type
  0
INSERT
  8
FeatureAttribs
  2
FEATURE
  41
1
  42
1
  43
1
  50
0
  10
397099.273
  20
4613433.170
 66
1
  0
ATTRIB
  8
FeatureAttribs
 70
0
  1
PNOA-H_AMS_1956-57_33k_ES_PAN_2
  2
NAME
  10
397099.273
  20
4613433.170
 40
28.08370
  0
SEQEND
  0
POLYLINE
  8
Unknown_Area_Type
  70
1
  66
1
  0
VERTEX
  8
Unknown_Area_Type
  10
398518.152
  20
4613485.580
  0
VERTEX
  8
Unknown_Area_Type
  10
398520.187
  20
4613340.000
  0
VERTEX
  8
Unknown_Area_Type
  10
395679.255
  20
4613340.000
  0
VERTEX
  8
Unknown_Area_Type
  10
395680.066
  20
4613526.340
  0
VERTEX
  8
Unknown_Area_Type
  10
397672.880
  20
4613497.432
  0
VERTEX
  8
Unknown_Area_Type
  10
398518.152
  20
4613485.580
  0
SEQEND
  8
Unknown_Area_Type
  0
INSERT
  8
FeatureAttribs
  2
FEATURE
  41
1
  42
1
  43
1
  50
0
  10
397099.273
  20
4613433.170
 66
1
  0
ATTRIB
  8
FeatureAttribs
 70
0
  1
PNOA-H_AMS_1956-57_33k_ES_PAN_2
  2
NAME
  10
397099.273
  20
4613433.170
 40
28.08370
  0
SEQEND
  0
POLYLINE
  8
Unknown_Area_Type
  70
1
  66
1
  0
VERTEX
  8
Unknown_Area_Type
  10
398518.152
  20
4613485.580
  0
VERTEX
  8
Unknown_Area_Type
  10
398520.187
  20
4613340.000
  0
VERTEX
  8
Unknown_Area_Type
  10
395679.255
  20
4613340.000
  0
VERTEX
  8
Unknown_Area_Type
  10
395680.066
  20
4613526.340
  0
VERTEX
  8
Unknown_Area_Type
  10
397672.880
  20
4613497.432
  0
VERTEX
  8
Unknown_Area_Type
  10
398518.152
  20
4613485.580
  0
SEQEND
  8
Unknown_Area_Type
  0
INSERT
  8
FeatureAttribs
  2
FEATURE
  41
1
  42
1
  43
1
  50
0
  10
397098.059
  20
4613685.247
 66
1
  0
ATTRIB
  8
FeatureAttribs
 70
0
  1
PNOA-H_AMS_1956-57_33k_ES_PAN_2
  2
NAME
  10
397098.059
  20
4613685.247
 40
28.08370
  0
SEQEND
  0
POLYLINE
  8
Unknown_Area_Type
  70
1
  66
1
  0
VERTEX
  8
Unknown_Area_Type
  10
398512.568
  20
4613884.915
  0
VERTEX
  8
Unknown_Area_Type
  10
398518.152
  20
4613485.580
  0
VERTEX
  8
Unknown_Area_Type
  10
397672.880
  20
4613497.432
  0
VERTEX
  8
Unknown_Area_Type
  10
395680.066
  20
4613526.340
  0
VERTEX
  8
Unknown_Area_Type
  10
395681.628
  20
4613884.915
  0
VERTEX
  8
Unknown_Area_Type
  10
398512.568
  20
4613884.915
  0
SEQEND
  8
Unknown_Area_Type
  0
INSERT
  8
FeatureAttribs
  2
FEATURE
  41
1
  42
1
  43
1
  50
0
  10
385919.550
  20
4613568.745
 66
1
  0
ATTRIB
  8
FeatureAttribs
 70
0
  1
PNOA-H_AMS_1956-57_33k_ES_PAN_2
  2
NAME
  10
385919.550
  20
4613568.745
 40
28.08370
  0
SEQEND
  0
POLYLINE
  8
Unknown_Area_Type
  70
1
  66
1
  0
VERTEX
  8
Unknown_Area_Type
  10
387340.555
  20
4613652.274
  0
VERTEX
  8
Unknown_Area_Type
  10
387335.150
  20
4613440.000
  0
VERTEX
  8
Unknown_Area_Type
  10
387160.000
  20
4613440.000
  0
VERTEX
  8
Unknown_Area_Type
  10
387160.000
  20
4613550.000
  0
VERTEX
  8
Unknown_Area_Type
  10
384500.086
  20
4613550.000
  0
VERTEX
  8
Unknown_Area_Type
  10
384504.691
  20
4613697.490
  0
VERTEX
  8
Unknown_Area_Type
  10
387266.514
  20
4613653.420
  0
VERTEX
  8
Unknown_Area_Type
  10
387340.555
  20
4613652.274
  0
SEQEND
  8
Unknown_Area_Type
  0
INSERT
  8
FeatureAttribs
  2
FEATURE
  41
1
  42
1
  43
1
  50
0
  10
385919.550
  20
4613568.745
 66
1
  0
ATTRIB
  8
FeatureAttribs
 70
0
  1
PNOA-H_AMS_1956-57_33k_ES_PAN_2
  2
NAME
  10
385919.550
  20
4613568.745
 40
28.08370
  0
SEQEND
  0
POLYLINE
  8
Unknown_Area_Type
  70
1
  66
1
  0
VERTEX
  8
Unknown_Area_Type
  10
387340.555
  20
4613652.274
  0
VERTEX
  8
Unknown_Area_Type
  10
387335.150
  20
4613440.000
  0
VERTEX
  8
Unknown_Area_Type
  10
387160.000
  20
4613440.000
  0
VERTEX
  8
Unknown_Area_Type
  10
387160.000
  20
4613550.000
  0
VERTEX
  8
Unknown_Area_Type
  10
384500.086
  20
4613550.000
  0
VERTEX
  8
Unknown_Area_Type
  10
384504.691
  20
4613697.490
  0
VERTEX
  8
Unknown_Area_Type
  10
387266.514
  20
4613653.420
  0
VERTEX
  8
Unknown_Area_Type
  10
387340.555
  20
4613652.274
  0
SEQEND
  8
Unknown_Area_Type
  0
INSERT
  8
FeatureAttribs
  2
FEATURE
  41
1
  42
1
  43
1
  50
0
  10
385925.214
  20
4613768.594
 66
1
  0
ATTRIB
  8
FeatureAttribs
 70
0
  1
PNOA-H_AMS_1956-57_33k_ES_PAN_2
  2
NAME
  10
385925.214
  20
4613768.594
 40
28.08370
  0
SEQEND
  0
POLYLINE
  8
Unknown_Area_Type
  70
1
  66
1
  0
VERTEX
  8
Unknown_Area_Type
  10
387346.478
  20
4613884.915
  0
VERTEX
  8
Unknown_Area_Type
  10
387340.555
  20
4613652.274
  0
VERTEX
  8
Unknown_Area_Type
  10
387266.514
  20
4613653.420
  0
VERTEX
  8
Unknown_Area_Type
  10
384504.691
  20
4613697.490
  0
VERTEX
  8
Unknown_Area_Type
  10
384510.543
  20
4613884.915
  0
VERTEX
  8
Unknown_Area_Type
  10
387346.478
  20
4613884.915
  0
SEQEND
  8
Unknown_Area_Type
  0
INSERT
  8
FeatureAttribs
  2
FEATURE
  41
1
  42
1
  43
1
  50
0
  10
399034.915
  20
4613412.792
 66
1
  0
ATTRIB
  8
FeatureAttribs
 70
0
  1
PNOA-H_AMS_1956-57_33k_ES_PAN_2
  2
NAME
  10
399034.915
  20
4613412.792
 40
28.08370
  0
SEQEND
  0
POLYLINE
  8
Unknown_Area_Type
  70
1
  66
1
  0
VERTEX
  8
Unknown_Area_Type
  10
399589.239
  20
4613470.561
  0
VERTEX
  8
Unknown_Area_Type
  10
399502.889
  20
4613340.000
  0
VERTEX
  8
Unknown_Area_Type
  10
398519.808
  20
4613340.000
  0
VERTEX
  8
Unknown_Area_Type
  10
398517.786
  20
4613485.585
  0
VERTEX
  8
Unknown_Area_Type
  10
399589.239
  20
4613470.561
  0
SEQEND
  8
Unknown_Area_Type
  0
INSERT
  8
FeatureAttribs
  2
FEATURE
  41
1
  42
1
  43
1
  50
0
  10
399034.915
  20
4613412.792
 66
1
  0
ATTRIB
  8
FeatureAttribs
 70
0
  1
PNOA-H_AMS_1956-57_33k_ES_PAN_2
  2
NAME
  10
399034.915
  20
4613412.792
 40
28.08370
  0
SEQEND
  0
POLYLINE
  8
Unknown_Area_Type
  70
1
  66
1
  0
VERTEX
  8
Unknown_Area_Type
  10
399589.239
  20
4613470.561
  0
VERTEX
  8
Unknown_Area_Type
  10
399502.889
  20
4613340.000
  0
VERTEX
  8
Unknown_Area_Type
  10
398519.808
  20
4613340.000
  0
VERTEX
  8
Unknown_Area_Type
  10
398517.786
  20
4613485.585
  0
VERTEX
  8
Unknown_Area_Type
  10
399589.239
  20
4613470.561
  0
SEQEND
  8
Unknown_Area_Type
  0
INSERT
  8
FeatureAttribs
  2
FEATURE
  41
1
  42
1
  43
1
  50
0
  10
399120.689
  20
4613677.738
 66
1
  0
ATTRIB
  8
FeatureAttribs
 70
0
  1
PNOA-H_AMS_1956-57_33k_ES_PAN_2
  2
NAME
  10
399120.689
  20
4613677.738
 40
28.08370
  0
SEQEND
  0
POLYLINE
  8
Unknown_Area_Type
  70
1
  66
1
  0
VERTEX
  8
Unknown_Area_Type
  10
399863.285
  20
4613884.915
  0
VERTEX
  8
Unknown_Area_Type
  10
399589.239
  20
4613470.561
  0
VERTEX
  8
Unknown_Area_Type
  10
398517.786
  20
4613485.585
  0
VERTEX
  8
Unknown_Area_Type
  10
398512.237
  20
4613884.915
  0
VERTEX
  8
Unknown_Area_Type
  10
399863.285
  20
4613884.915
  0
SEQEND
  8
Unknown_Area_Type
  0
INSERT
  8
FeatureAttribs
  2
FEATURE
  41
1
  42
1
  43
1
  50
0
  10
391511.959
  20
4613524.439
 66
1
  0
ATTRIB
  8
FeatureAttribs
 70
0
  1
PNOA-H_AMS_1956-57_33k_ES_PAN_2
  2
NAME
  10
391511.959
  20
4613524.439
 40
28.08370
  0
SEQEND
  0
POLYLINE
  8
Unknown_Area_Type
  70
1
  66
1
  0
VERTEX
  8
Unknown_Area_Type
  10
392881.502
  20
4613567.575
  0
VERTEX
  8
Unknown_Area_Type
  10
392878.966
  20
4613440.000
  0
VERTEX
  8
Unknown_Area_Type
  10
390141.464
  20
4613440.000
  0
VERTEX
  8
Unknown_Area_Type
  10
390145.082
  20
4613608.879
  0
VERTEX
  8
Unknown_Area_Type
  10
390735.310
  20
4613599.746
  0
VERTEX
  8
Unknown_Area_Type
  10
392881.502
  20
4613567.575
  0
SEQEND
  8
Unknown_Area_Type
  0
INSERT
  8
FeatureAttribs
  2
FEATURE
  41
1
  42
1
  43
1
  50
0
  10
391511.959
  20
4613524.439
 66
1
  0
ATTRIB
  8
FeatureAttribs
 70
0
  1
PNOA-H_AMS_1956-57_33k_ES_PAN_2
  2
NAME
  10
391511.959
  20
4613524.439
 40
28.08370
  0
SEQEND
  0
POLYLINE
  8
Unknown_Area_Type
  70
1
  66
1
  0
VERTEX
  8
Unknown_Area_Type
  10
392881.502
  20
4613567.575
  0
VERTEX
  8
Unknown_Area_Type
  10
392878.966
  20
4613440.000
  0
VERTEX
  8
Unknown_Area_Type
  10
390141.464
  20
4613440.000
  0
VERTEX
  8
Unknown_Area_Type
  10
390145.082
  20
4613608.879
  0
VERTEX
  8
Unknown_Area_Type
  10
390735.310
  20
4613599.746
  0
VERTEX
  8
Unknown_Area_Type
  10
392881.502
  20
4613567.575
  0
SEQEND
  8
Unknown_Area_Type
  0
INSERT
  8
FeatureAttribs
  2
FEATURE
  41
1
  42
1
  43
1
  50
0
  10
391516.126
  20
4613726.245
 66
1
  0
ATTRIB
  8
FeatureAttribs
 70
0
  1
PNOA-H_AMS_1956-57_33k_ES_PAN_2
  2
NAME
  10
391516.126
  20
4613726.245
 40
28.08370
  0
SEQEND
  0
POLYLINE
  8
Unknown_Area_Type
  70
1
  66
1
  0
VERTEX
  8
Unknown_Area_Type
  10
392887.810
  20
4613884.915
  0
VERTEX
  8
Unknown_Area_Type
  10
392881.502
  20
4613567.575
  0
VERTEX
  8
Unknown_Area_Type
  10
390735.310
  20
4613599.746
  0
VERTEX
  8
Unknown_Area_Type
  10
390145.082
  20
4613608.879
  0
VERTEX
  8
Unknown_Area_Type
  10
390150.995
  20
4613884.915
  0
VERTEX
  8
Unknown_Area_Type
  10
392887.810
  20
4613884.915
  0
SEQEND
  8
Unknown_Area_Type
  0
ENDSEC
  0
EOF
