  0
SECTION
  2
HEADER
  9
$ACADVER
  1
AC1009
  9
$LUNITS
  70
2
  9
$LIMMIN
  10
345242.740
  20
4613660.000
  9
$LIMMAX
  10
373391.288
  20
4614428.433
  9
$EXTMIN
  10
345242.740
  20
4613660.000
  9
$EXTMAX
  10
373391.288
  20
4614428.433
  999
Created by Global Mapper
  999
Projection: UTM
  999
Datum: ETRS89
  999
Ground Units: meters
  999
ZONE: 30
  0
ENDSEC
  0
SECTION
  2
TABLES
  0
ENDSEC
  0
SECTION
  2
BLOCKS
  0
BLOCK
  8
FeatureAttribs
  70
0
  2
FEATURE
  3
FEATURE
  10
0.00000000
  20
0.00000000
  0
ATTDEF
  8
FeatureAttribs
  70
0
  1
 
  2
NAME
  3
NAME
  10
0.00000000
  20
0.00000000
  40
1.00000000
  0
ENDBLK
  0
ENDSEC
  0
SECTION
  2
ENTITIES
  0
INSERT
  8
FeatureAttribs
  2
FEATURE
  41
1
  42
1
  43
1
  50
0
  10
345640.141
  20
4614428.424
 66
1
  0
ATTRIB
  8
FeatureAttribs
 70
0
  1
PNOA-H_AMS_1956-57_33k_ES_PAN_2
  2
NAME
  10
345640.141
  20
4614428.424
 40
28.15903
  0
SEQEND
  0
POLYLINE
  8
Unknown_Area_Type
  70
1
  66
1
  0
VERTEX
  8
Unknown_Area_Type
  10
345640.360
  20
4614428.433
  0
VERTEX
  8
Unknown_Area_Type
  10
345640.359
  20
4614428.414
  0
VERTEX
  8
Unknown_Area_Type
  10
345639.484
  20
4614428.433
  0
VERTEX
  8
Unknown_Area_Type
  10
345640.360
  20
4614428.433
  0
SEQEND
  8
Unknown_Area_Type
  0
INSERT
  8
FeatureAttribs
  2
FEATURE
  41
1
  42
1
  43
1
  50
0
  10
347189.860
  20
4614406.440
 66
1
  0
ATTRIB
  8
FeatureAttribs
 70
0
  1
PNOA-H_AMS_1956-57_33k_ES_PAN_2
  2
NAME
  10
347189.860
  20
4614406.440
 40
28.15903
  0
SEQEND
  0
POLYLINE
  8
Unknown_Area_Type
  70
1
  66
1
  0
VERTEX
  8
Unknown_Area_Type
  10
347706.730
  20
4614428.433
  0
VERTEX
  8
Unknown_Area_Type
  10
347706.623
  20
4614384.446
  0
VERTEX
  8
Unknown_Area_Type
  10
345640.359
  20
4614428.414
  0
VERTEX
  8
Unknown_Area_Type
  10
345640.360
  20
4614428.433
  0
VERTEX
  8
Unknown_Area_Type
  10
347706.730
  20
4614428.433
  0
SEQEND
  8
Unknown_Area_Type
  0
INSERT
  8
FeatureAttribs
  2
FEATURE
  41
1
  42
1
  43
1
  50
0
  10
345441.550
  20
4614374.217
 66
1
  0
ATTRIB
  8
FeatureAttribs
 70
0
  1
PNOA-H_AMS_1956-57_33k_ES_PAN_2
  2
NAME
  10
345441.550
  20
4614374.217
 40
28.15903
  0
SEQEND
  0
POLYLINE
  8
Unknown_Area_Type
  70
1
  66
1
  0
VERTEX
  8
Unknown_Area_Type
  10
345635.014
  20
4614180.000
  0
VERTEX
  8
Unknown_Area_Type
  10
345540.000
  20
4614180.000
  0
VERTEX
  8
Unknown_Area_Type
  10
345540.000
  20
4614320.000
  0
VERTEX
  8
Unknown_Area_Type
  10
345242.740
  20
4614320.000
  0
VERTEX
  8
Unknown_Area_Type
  10
345242.740
  20
4614428.433
  0
VERTEX
  8
Unknown_Area_Type
  10
345639.484
  20
4614428.433
  0
VERTEX
  8
Unknown_Area_Type
  10
345640.359
  20
4614428.414
  0
VERTEX
  8
Unknown_Area_Type
  10
345635.014
  20
4614180.000
  0
SEQEND
  8
Unknown_Area_Type
  0
INSERT
  8
FeatureAttribs
  2
FEATURE
  41
1
  42
1
  43
1
  50
0
  10
346638.520
  20
4614293.532
 66
1
  0
ATTRIB
  8
FeatureAttribs
 70
0
  1
PNOA-H_AMS_1956-57_33k_ES_PAN_2
  2
NAME
  10
346638.520
  20
4614293.532
 40
28.15903
  0
SEQEND
  0
POLYLINE
  8
Unknown_Area_Type
  70
1
  66
1
  0
VERTEX
  8
Unknown_Area_Type
  10
347706.623
  20
4614384.446
  0
VERTEX
  8
Unknown_Area_Type
  10
347706.124
  20
4614180.000
  0
VERTEX
  8
Unknown_Area_Type
  10
345635.014
  20
4614180.000
  0
VERTEX
  8
Unknown_Area_Type
  10
345640.359
  20
4614428.414
  0
VERTEX
  8
Unknown_Area_Type
  10
347706.623
  20
4614384.446
  0
SEQEND
  8
Unknown_Area_Type
  0
INSERT
  8
FeatureAttribs
  2
FEATURE
  41
1
  42
1
  43
1
  50
0
  10
346638.520
  20
4614293.532
 66
1
  0
ATTRIB
  8
FeatureAttribs
 70
0
  1
PNOA-H_AMS_1956-57_33k_ES_PAN_2
  2
NAME
  10
346638.520
  20
4614293.532
 40
28.15903
  0
SEQEND
  0
POLYLINE
  8
Unknown_Area_Type
  70
1
  66
1
  0
VERTEX
  8
Unknown_Area_Type
  10
347706.623
  20
4614384.446
  0
VERTEX
  8
Unknown_Area_Type
  10
345640.359
  20
4614428.414
  0
VERTEX
  8
Unknown_Area_Type
  10
345635.014
  20
4614180.000
  0
VERTEX
  8
Unknown_Area_Type
  10
347706.124
  20
4614180.000
  0
VERTEX
  8
Unknown_Area_Type
  10
347706.623
  20
4614384.446
  0
SEQEND
  8
Unknown_Area_Type
  0
INSERT
  8
FeatureAttribs
  2
FEATURE
  41
1
  42
1
  43
1
  50
0
  10
351882.639
  20
4614348.291
 66
1
  0
ATTRIB
  8
FeatureAttribs
 70
0
  1
PNOA-H_AMS_1956-57_33k_ES_PAN_2
  2
NAME
  10
351882.639
  20
4614348.291
 40
28.15903
  0
SEQEND
  0
POLYLINE
  8
Unknown_Area_Type
  70
1
  66
1
  0
VERTEX
  8
Unknown_Area_Type
  10
353289.021
  20
4614428.433
  0
VERTEX
  8
Unknown_Area_Type
  10
353282.891
  20
4614268.148
  0
VERTEX
  8
Unknown_Area_Type
  10
352578.138
  20
4614282.462
  0
VERTEX
  8
Unknown_Area_Type
  10
350478.819
  20
4614326.118
  0
VERTEX
  8
Unknown_Area_Type
  10
350481.135
  20
4614428.433
  0
VERTEX
  8
Unknown_Area_Type
  10
353289.021
  20
4614428.433
  0
SEQEND
  8
Unknown_Area_Type
  0
INSERT
  8
FeatureAttribs
  2
FEATURE
  41
1
  42
1
  43
1
  50
0
  10
352047.477
  20
4614206.517
 66
1
  0
ATTRIB
  8
FeatureAttribs
 70
0
  1
PNOA-H_AMS_1956-57_33k_ES_PAN_2
  2
NAME
  10
352047.477
  20
4614206.517
 40
28.15903
  0
SEQEND
  0
POLYLINE
  8
Unknown_Area_Type
  70
1
  66
1
  0
VERTEX
  8
Unknown_Area_Type
  10
353282.891
  20
4614268.148
  0
VERTEX
  8
Unknown_Area_Type
  10
353274.167
  20
4614040.000
  0
VERTEX
  8
Unknown_Area_Type
  10
352470.000
  20
4614040.000
  0
VERTEX
  8
Unknown_Area_Type
  10
352470.000
  20
4614180.000
  0
VERTEX
  8
Unknown_Area_Type
  10
350475.513
  20
4614180.000
  0
VERTEX
  8
Unknown_Area_Type
  10
350478.819
  20
4614326.118
  0
VERTEX
  8
Unknown_Area_Type
  10
352578.138
  20
4614282.462
  0
VERTEX
  8
Unknown_Area_Type
  10
353282.891
  20
4614268.148
  0
SEQEND
  8
Unknown_Area_Type
  0
INSERT
  8
FeatureAttribs
  2
FEATURE
  41
1
  42
1
  43
1
  50
0
  10
352047.477
  20
4614206.517
 66
1
  0
ATTRIB
  8
FeatureAttribs
 70
0
  1
PNOA-H_AMS_1956-57_33k_ES_PAN_2
  2
NAME
  10
352047.477
  20
4614206.517
 40
28.15903
  0
SEQEND
  0
POLYLINE
  8
Unknown_Area_Type
  70
1
  66
1
  0
VERTEX
  8
Unknown_Area_Type
  10
353282.891
  20
4614268.148
  0
VERTEX
  8
Unknown_Area_Type
  10
352578.138
  20
4614282.462
  0
VERTEX
  8
Unknown_Area_Type
  10
350478.819
  20
4614326.118
  0
VERTEX
  8
Unknown_Area_Type
  10
350475.513
  20
4614180.000
  0
VERTEX
  8
Unknown_Area_Type
  10
352470.000
  20
4614180.000
  0
VERTEX
  8
Unknown_Area_Type
  10
352470.000
  20
4614040.000
  0
VERTEX
  8
Unknown_Area_Type
  10
353274.167
  20
4614040.000
  0
VERTEX
  8
Unknown_Area_Type
  10
353282.891
  20
4614268.148
  0
SEQEND
  8
Unknown_Area_Type
  0
INSERT
  8
FeatureAttribs
  2
FEATURE
  41
1
  42
1
  43
1
  50
0
  10
357578.302
  20
4614124.736
 66
1
  0
ATTRIB
  8
FeatureAttribs
 70
0
  1
PNOA-H_AMS_1956-57_33k_ES_PAN_2
  2
NAME
  10
357578.302
  20
4614124.736
 40
28.15903
  0
SEQEND
  0
POLYLINE
  8
Unknown_Area_Type
  70
1
  66
1
  0
VERTEX
  8
Unknown_Area_Type
  10
358985.777
  20
4614153.736
  0
VERTEX
  8
Unknown_Area_Type
  10
358979.762
  20
4614040.000
  0
VERTEX
  8
Unknown_Area_Type
  10
356169.959
  20
4614040.000
  0
VERTEX
  8
Unknown_Area_Type
  10
356174.764
  20
4614209.472
  0
VERTEX
  8
Unknown_Area_Type
  10
358985.777
  20
4614153.736
  0
SEQEND
  8
Unknown_Area_Type
  0
INSERT
  8
FeatureAttribs
  2
FEATURE
  41
1
  42
1
  43
1
  50
0
  10
357578.302
  20
4614124.736
 66
1
  0
ATTRIB
  8
FeatureAttribs
 70
0
  1
PNOA-H_AMS_1956-57_33k_ES_PAN_2
  2
NAME
  10
357578.302
  20
4614124.736
 40
28.15903
  0
SEQEND
  0
POLYLINE
  8
Unknown_Area_Type
  70
1
  66
1
  0
VERTEX
  8
Unknown_Area_Type
  10
358985.777
  20
4614153.736
  0
VERTEX
  8
Unknown_Area_Type
  10
358979.762
  20
4614040.000
  0
VERTEX
  8
Unknown_Area_Type
  10
356169.959
  20
4614040.000
  0
VERTEX
  8
Unknown_Area_Type
  10
356174.764
  20
4614209.472
  0
VERTEX
  8
Unknown_Area_Type
  10
358985.777
  20
4614153.736
  0
SEQEND
  8
Unknown_Area_Type
  0
INSERT
  8
FeatureAttribs
  2
FEATURE
  41
1
  42
1
  43
1
  50
0
  10
357585.059
  20
4614291.085
 66
1
  0
ATTRIB
  8
FeatureAttribs
 70
0
  1
PNOA-H_AMS_1956-57_33k_ES_PAN_2
  2
NAME
  10
357585.059
  20
4614291.085
 40
28.15903
  0
SEQEND
  0
POLYLINE
  8
Unknown_Area_Type
  70
1
  66
1
  0
VERTEX
  8
Unknown_Area_Type
  10
359000.305
  20
4614428.433
  0
VERTEX
  8
Unknown_Area_Type
  10
358985.777
  20
4614153.736
  0
VERTEX
  8
Unknown_Area_Type
  10
356174.764
  20
4614209.472
  0
VERTEX
  8
Unknown_Area_Type
  10
356180.972
  20
4614428.433
  0
VERTEX
  8
Unknown_Area_Type
  10
359000.305
  20
4614428.433
  0
SEQEND
  8
Unknown_Area_Type
  0
INSERT
  8
FeatureAttribs
  2
FEATURE
  41
1
  42
1
  43
1
  50
0
  10
360601.156
  20
4614031.872
 66
1
  0
ATTRIB
  8
FeatureAttribs
 70
0
  1
PNOA-H_AMS_1956-57_33k_ES_PAN_2
  2
NAME
  10
360601.156
  20
4614031.872
 40
28.15903
  0
SEQEND
  0
POLYLINE
  8
Unknown_Area_Type
  70
1
  66
1
  0
VERTEX
  8
Unknown_Area_Type
  10
361796.485
  20
4614099.111
  0
VERTEX
  8
Unknown_Area_Type
  10
361784.751
  20
4613910.000
  0
VERTEX
  8
Unknown_Area_Type
  10
359410.000
  20
4613910.000
  0
VERTEX
  8
Unknown_Area_Type
  10
359410.000
  20
4614040.000
  0
VERTEX
  8
Unknown_Area_Type
  10
358979.394
  20
4614040.000
  0
VERTEX
  8
Unknown_Area_Type
  10
358985.419
  20
4614153.744
  0
VERTEX
  8
Unknown_Area_Type
  10
359515.880
  20
4614143.226
  0
VERTEX
  8
Unknown_Area_Type
  10
361796.485
  20
4614099.111
  0
SEQEND
  8
Unknown_Area_Type
  0
INSERT
  8
FeatureAttribs
  2
FEATURE
  41
1
  42
1
  43
1
  50
0
  10
360601.156
  20
4614031.872
 66
1
  0
ATTRIB
  8
FeatureAttribs
 70
0
  1
PNOA-H_AMS_1956-57_33k_ES_PAN_2
  2
NAME
  10
360601.156
  20
4614031.872
 40
28.15903
  0
SEQEND
  0
POLYLINE
  8
Unknown_Area_Type
  70
1
  66
1
  0
VERTEX
  8
Unknown_Area_Type
  10
361796.485
  20
4614099.111
  0
VERTEX
  8
Unknown_Area_Type
  10
361784.751
  20
4613910.000
  0
VERTEX
  8
Unknown_Area_Type
  10
359410.000
  20
4613910.000
  0
VERTEX
  8
Unknown_Area_Type
  10
359410.000
  20
4614040.000
  0
VERTEX
  8
Unknown_Area_Type
  10
358979.394
  20
4614040.000
  0
VERTEX
  8
Unknown_Area_Type
  10
358985.419
  20
4614153.744
  0
VERTEX
  8
Unknown_Area_Type
  10
359515.880
  20
4614143.226
  0
VERTEX
  8
Unknown_Area_Type
  10
361796.485
  20
4614099.111
  0
SEQEND
  8
Unknown_Area_Type
  0
INSERT
  8
FeatureAttribs
  2
FEATURE
  41
1
  42
1
  43
1
  50
0
  10
360398.974
  20
4614263.772
 66
1
  0
ATTRIB
  8
FeatureAttribs
 70
0
  1
PNOA-H_AMS_1956-57_33k_ES_PAN_2
  2
NAME
  10
360398.974
  20
4614263.772
 40
28.15903
  0
SEQEND
  0
POLYLINE
  8
Unknown_Area_Type
  70
1
  66
1
  0
VERTEX
  8
Unknown_Area_Type
  10
361816.918
  20
4614428.433
  0
VERTEX
  8
Unknown_Area_Type
  10
361796.485
  20
4614099.111
  0
VERTEX
  8
Unknown_Area_Type
  10
359515.880
  20
4614143.226
  0
VERTEX
  8
Unknown_Area_Type
  10
358985.419
  20
4614153.744
  0
VERTEX
  8
Unknown_Area_Type
  10
358999.969
  20
4614428.433
  0
VERTEX
  8
Unknown_Area_Type
  10
361816.918
  20
4614428.433
  0
SEQEND
  8
Unknown_Area_Type
  0
INSERT
  8
FeatureAttribs
  2
FEATURE
  41
1
  42
1
  43
1
  50
0
  10
366137.387
  20
4613911.960
 66
1
  0
ATTRIB
  8
FeatureAttribs
 70
0
  1
PNOA-H_AMS_1956-57_33k_ES_PAN_2
  2
NAME
  10
366137.387
  20
4613911.960
 40
28.15903
  0
SEQEND
  0
POLYLINE
  8
Unknown_Area_Type
  70
1
  66
1
  0
VERTEX
  8
Unknown_Area_Type
  10
367590.822
  20
4613989.806
  0
VERTEX
  8
Unknown_Area_Type
  10
367587.090
  20
4613780.000
  0
VERTEX
  8
Unknown_Area_Type
  10
366350.000
  20
4613780.000
  0
VERTEX
  8
Unknown_Area_Type
  10
366350.000
  20
4613910.000
  0
VERTEX
  8
Unknown_Area_Type
  10
364685.231
  20
4613910.000
  0
VERTEX
  8
Unknown_Area_Type
  10
364692.412
  20
4614043.919
  0
VERTEX
  8
Unknown_Area_Type
  10
366453.587
  20
4614010.704
  0
VERTEX
  8
Unknown_Area_Type
  10
367590.822
  20
4613989.806
  0
SEQEND
  8
Unknown_Area_Type
  0
INSERT
  8
FeatureAttribs
  2
FEATURE
  41
1
  42
1
  43
1
  50
0
  10
366137.387
  20
4613911.960
 66
1
  0
ATTRIB
  8
FeatureAttribs
 70
0
  1
PNOA-H_AMS_1956-57_33k_ES_PAN_2
  2
NAME
  10
366137.387
  20
4613911.960
 40
28.15903
  0
SEQEND
  0
POLYLINE
  8
Unknown_Area_Type
  70
1
  66
1
  0
VERTEX
  8
Unknown_Area_Type
  10
367590.822
  20
4613989.806
  0
VERTEX
  8
Unknown_Area_Type
  10
367587.090
  20
4613780.000
  0
VERTEX
  8
Unknown_Area_Type
  10
366350.000
  20
4613780.000
  0
VERTEX
  8
Unknown_Area_Type
  10
366350.000
  20
4613910.000
  0
VERTEX
  8
Unknown_Area_Type
  10
364685.231
  20
4613910.000
  0
VERTEX
  8
Unknown_Area_Type
  10
364692.412
  20
4614043.919
  0
VERTEX
  8
Unknown_Area_Type
  10
366453.587
  20
4614010.704
  0
VERTEX
  8
Unknown_Area_Type
  10
367590.822
  20
4613989.806
  0
SEQEND
  8
Unknown_Area_Type
  0
INSERT
  8
FeatureAttribs
  2
FEATURE
  41
1
  42
1
  43
1
  50
0
  10
366147.996
  20
4614209.120
 66
1
  0
ATTRIB
  8
FeatureAttribs
 70
0
  1
PNOA-H_AMS_1956-57_33k_ES_PAN_2
  2
NAME
  10
366147.996
  20
4614209.120
 40
28.15903
  0
SEQEND
  0
POLYLINE
  8
Unknown_Area_Type
  70
1
  66
1
  0
VERTEX
  8
Unknown_Area_Type
  10
367598.624
  20
4614428.433
  0
VERTEX
  8
Unknown_Area_Type
  10
367590.822
  20
4613989.806
  0
VERTEX
  8
Unknown_Area_Type
  10
366453.587
  20
4614010.704
  0
VERTEX
  8
Unknown_Area_Type
  10
364692.412
  20
4614043.919
  0
VERTEX
  8
Unknown_Area_Type
  10
364713.028
  20
4614428.433
  0
VERTEX
  8
Unknown_Area_Type
  10
367598.624
  20
4614428.433
  0
SEQEND
  8
Unknown_Area_Type
  0
INSERT
  8
FeatureAttribs
  2
FEATURE
  41
1
  42
1
  43
1
  50
0
  10
371819.847
  20
4613859.137
 66
1
  0
ATTRIB
  8
FeatureAttribs
 70
0
  1
PNOA-H_AMS_1956-57_33k_ES_PAN_2
  2
NAME
  10
371819.847
  20
4613859.137
 40
28.15903
  0
SEQEND
  0
POLYLINE
  8
Unknown_Area_Type
  70
1
  66
1
  0
VERTEX
  8
Unknown_Area_Type
  10
373234.516
  20
4613887.700
  0
VERTEX
  8
Unknown_Area_Type
  10
373231.141
  20
4613780.000
  0
VERTEX
  8
Unknown_Area_Type
  10
370404.244
  20
4613780.000
  0
VERTEX
  8
Unknown_Area_Type
  10
370407.903
  20
4613938.275
  0
VERTEX
  8
Unknown_Area_Type
  10
373234.516
  20
4613887.700
  0
SEQEND
  8
Unknown_Area_Type
  0
INSERT
  8
FeatureAttribs
  2
FEATURE
  41
1
  42
1
  43
1
  50
0
  10
371819.847
  20
4613859.137
 66
1
  0
ATTRIB
  8
FeatureAttribs
 70
0
  1
PNOA-H_AMS_1956-57_33k_ES_PAN_2
  2
NAME
  10
371819.847
  20
4613859.137
 40
28.15903
  0
SEQEND
  0
POLYLINE
  8
Unknown_Area_Type
  70
1
  66
1
  0
VERTEX
  8
Unknown_Area_Type
  10
373234.516
  20
4613887.700
  0
VERTEX
  8
Unknown_Area_Type
  10
373231.141
  20
4613780.000
  0
VERTEX
  8
Unknown_Area_Type
  10
370404.244
  20
4613780.000
  0
VERTEX
  8
Unknown_Area_Type
  10
370407.903
  20
4613938.275
  0
VERTEX
  8
Unknown_Area_Type
  10
373234.516
  20
4613887.700
  0
SEQEND
  8
Unknown_Area_Type
  0
INSERT
  8
FeatureAttribs
  2
FEATURE
  41
1
  42
1
  43
1
  50
0
  10
371827.986
  20
4614158.067
 66
1
  0
ATTRIB
  8
FeatureAttribs
 70
0
  1
PNOA-H_AMS_1956-57_33k_ES_PAN_2
  2
NAME
  10
371827.986
  20
4614158.067
 40
28.15903
  0
SEQEND
  0
POLYLINE
  8
Unknown_Area_Type
  70
1
  66
1
  0
VERTEX
  8
Unknown_Area_Type
  10
373251.458
  20
4614428.433
  0
VERTEX
  8
Unknown_Area_Type
  10
373234.516
  20
4613887.700
  0
VERTEX
  8
Unknown_Area_Type
  10
370407.903
  20
4613938.275
  0
VERTEX
  8
Unknown_Area_Type
  10
370419.235
  20
4614428.433
  0
VERTEX
  8
Unknown_Area_Type
  10
373251.458
  20
4614428.433
  0
SEQEND
  8
Unknown_Area_Type
  0
INSERT
  8
FeatureAttribs
  2
FEATURE
  41
1
  42
1
  43
1
  50
0
  10
349261.765
  20
4614377.276
 66
1
  0
ATTRIB
  8
FeatureAttribs
 70
0
  1
PNOA-H_AMS_1956-57_33k_ES_PAN_2
  2
NAME
  10
349261.765
  20
4614377.276
 40
28.15903
  0
SEQEND
  0
POLYLINE
  8
Unknown_Area_Type
  70
1
  66
1
  0
VERTEX
  8
Unknown_Area_Type
  10
350481.125
  20
4614428.433
  0
VERTEX
  8
Unknown_Area_Type
  10
350478.809
  20
4614326.119
  0
VERTEX
  8
Unknown_Area_Type
  10
349109.253
  20
4614354.599
  0
VERTEX
  8
Unknown_Area_Type
  10
347706.623
  20
4614384.446
  0
VERTEX
  8
Unknown_Area_Type
  10
347706.730
  20
4614428.433
  0
VERTEX
  8
Unknown_Area_Type
  10
350481.125
  20
4614428.433
  0
SEQEND
  8
Unknown_Area_Type
  0
INSERT
  8
FeatureAttribs
  2
FEATURE
  41
1
  42
1
  43
1
  50
0
  10
349014.899
  20
4614268.385
 66
1
  0
ATTRIB
  8
FeatureAttribs
 70
0
  1
PNOA-H_AMS_1956-57_33k_ES_PAN_2
  2
NAME
  10
349014.899
  20
4614268.385
 40
28.15903
  0
SEQEND
  0
POLYLINE
  8
Unknown_Area_Type
  70
1
  66
1
  0
VERTEX
  8
Unknown_Area_Type
  10
350478.809
  20
4614326.119
  0
VERTEX
  8
Unknown_Area_Type
  10
350475.503
  20
4614180.000
  0
VERTEX
  8
Unknown_Area_Type
  10
347706.124
  20
4614180.000
  0
VERTEX
  8
Unknown_Area_Type
  10
347706.623
  20
4614384.446
  0
VERTEX
  8
Unknown_Area_Type
  10
349109.253
  20
4614354.599
  0
VERTEX
  8
Unknown_Area_Type
  10
350478.809
  20
4614326.119
  0
SEQEND
  8
Unknown_Area_Type
  0
INSERT
  8
FeatureAttribs
  2
FEATURE
  41
1
  42
1
  43
1
  50
0
  10
349014.899
  20
4614268.385
 66
1
  0
ATTRIB
  8
FeatureAttribs
 70
0
  1
PNOA-H_AMS_1956-57_33k_ES_PAN_2
  2
NAME
  10
349014.899
  20
4614268.385
 40
28.15903
  0
SEQEND
  0
POLYLINE
  8
Unknown_Area_Type
  70
1
  66
1
  0
VERTEX
  8
Unknown_Area_Type
  10
350478.809
  20
4614326.119
  0
VERTEX
  8
Unknown_Area_Type
  10
349109.253
  20
4614354.599
  0
VERTEX
  8
Unknown_Area_Type
  10
347706.623
  20
4614384.446
  0
VERTEX
  8
Unknown_Area_Type
  10
347706.124
  20
4614180.000
  0
VERTEX
  8
Unknown_Area_Type
  10
350475.503
  20
4614180.000
  0
VERTEX
  8
Unknown_Area_Type
  10
350478.809
  20
4614326.119
  0
SEQEND
  8
Unknown_Area_Type
  0
INSERT
  8
FeatureAttribs
  2
FEATURE
  41
1
  42
1
  43
1
  50
0
  10
373339.650
  20
4613773.852
 66
1
  0
ATTRIB
  8
FeatureAttribs
 70
0
  1
PNOA-H_AMS_1956-57_33k_ES_PAN_2
  2
NAME
  10
373339.650
  20
4613773.852
 40
28.15903
  0
SEQEND
  0
POLYLINE
  8
Unknown_Area_Type
  70
1
  66
1
  0
VERTEX
  8
Unknown_Area_Type
  10
373387.291
  20
4613660.000
  0
VERTEX
  8
Unknown_Area_Type
  10
373290.000
  20
4613660.000
  0
VERTEX
  8
Unknown_Area_Type
  10
373290.000
  20
4613780.000
  0
VERTEX
  8
Unknown_Area_Type
  10
373230.971
  20
4613780.000
  0
VERTEX
  8
Unknown_Area_Type
  10
373234.342
  20
4613887.704
  0
VERTEX
  8
Unknown_Area_Type
  10
373391.260
  20
4613884.896
  0
VERTEX
  8
Unknown_Area_Type
  10
373387.291
  20
4613660.000
  0
SEQEND
  8
Unknown_Area_Type
  0
INSERT
  8
FeatureAttribs
  2
FEATURE
  41
1
  42
1
  43
1
  50
0
  10
373391.274
  20
4613885.294
 66
1
  0
ATTRIB
  8
FeatureAttribs
 70
0
  1
PNOA-H_AMS_1956-57_33k_ES_PAN_2
  2
NAME
  10
373391.274
  20
4613885.294
 40
28.15903
  0
SEQEND
  0
POLYLINE
  8
Unknown_Area_Type
  70
1
  66
1
  0
VERTEX
  8
Unknown_Area_Type
  10
373391.288
  20
4613886.490
  0
VERTEX
  8
Unknown_Area_Type
  10
373391.288
  20
4613884.895
  0
VERTEX
  8
Unknown_Area_Type
  10
373391.260
  20
4613884.896
  0
VERTEX
  8
Unknown_Area_Type
  10
373391.288
  20
4613886.490
  0
SEQEND
  8
Unknown_Area_Type
  0
INSERT
  8
FeatureAttribs
  2
FEATURE
  41
1
  42
1
  43
1
  50
0
  10
373339.650
  20
4613773.852
 66
1
  0
ATTRIB
  8
FeatureAttribs
 70
0
  1
PNOA-H_AMS_1956-57_33k_ES_PAN_2
  2
NAME
  10
373339.650
  20
4613773.852
 40
28.15903
  0
SEQEND
  0
POLYLINE
  8
Unknown_Area_Type
  70
1
  66
1
  0
VERTEX
  8
Unknown_Area_Type
  10
373387.291
  20
4613660.000
  0
VERTEX
  8
Unknown_Area_Type
  10
373290.000
  20
4613660.000
  0
VERTEX
  8
Unknown_Area_Type
  10
373290.000
  20
4613780.000
  0
VERTEX
  8
Unknown_Area_Type
  10
373230.971
  20
4613780.000
  0
VERTEX
  8
Unknown_Area_Type
  10
373234.342
  20
4613887.704
  0
VERTEX
  8
Unknown_Area_Type
  10
373391.260
  20
4613884.896
  0
VERTEX
  8
Unknown_Area_Type
  10
373387.291
  20
4613660.000
  0
SEQEND
  8
Unknown_Area_Type
  0
INSERT
  8
FeatureAttribs
  2
FEATURE
  41
1
  42
1
  43
1
  50
0
  10
373390.282
  20
4613772.448
 66
1
  0
ATTRIB
  8
FeatureAttribs
 70
0
  1
PNOA-H_AMS_1956-57_33k_ES_PAN_2
  2
NAME
  10
373390.282
  20
4613772.448
 40
28.15903
  0
SEQEND
  0
POLYLINE
  8
Unknown_Area_Type
  70
1
  66
1
  0
VERTEX
  8
Unknown_Area_Type
  10
373391.288
  20
4613660.000
  0
VERTEX
  8
Unknown_Area_Type
  10
373387.291
  20
4613660.000
  0
VERTEX
  8
Unknown_Area_Type
  10
373391.260
  20
4613884.896
  0
VERTEX
  8
Unknown_Area_Type
  10
373391.288
  20
4613884.895
  0
VERTEX
  8
Unknown_Area_Type
  10
373391.288
  20
4613660.000
  0
SEQEND
  8
Unknown_Area_Type
  0
INSERT
  8
FeatureAttribs
  2
FEATURE
  41
1
  42
1
  43
1
  50
0
  10
373317.025
  20
4614156.665
 66
1
  0
ATTRIB
  8
FeatureAttribs
 70
0
  1
PNOA-H_AMS_1956-57_33k_ES_PAN_2
  2
NAME
  10
373317.025
  20
4614156.665
 40
28.15903
  0
SEQEND
  0
POLYLINE
  8
Unknown_Area_Type
  70
1
  66
1
  0
VERTEX
  8
Unknown_Area_Type
  10
373251.270
  20
4614428.433
  0
VERTEX
  8
Unknown_Area_Type
  10
373391.288
  20
4614428.433
  0
VERTEX
  8
Unknown_Area_Type
  10
373391.288
  20
4613886.490
  0
VERTEX
  8
Unknown_Area_Type
  10
373391.260
  20
4613884.896
  0
VERTEX
  8
Unknown_Area_Type
  10
373234.342
  20
4613887.704
  0
VERTEX
  8
Unknown_Area_Type
  10
373251.270
  20
4614428.433
  0
SEQEND
  8
Unknown_Area_Type
  0
INSERT
  8
FeatureAttribs
  2
FEATURE
  41
1
  42
1
  43
1
  50
0
  10
354731.344
  20
4614318.949
 66
1
  0
ATTRIB
  8
FeatureAttribs
 70
0
  1
PNOA-H_AMS_1956-57_33k_ES_PAN_2
  2
NAME
  10
354731.344
  20
4614318.949
 40
28.15903
  0
SEQEND
  0
POLYLINE
  8
Unknown_Area_Type
  70
1
  66
1
  0
VERTEX
  8
Unknown_Area_Type
  10
356181.336
  20
4614428.433
  0
VERTEX
  8
Unknown_Area_Type
  10
356175.148
  20
4614209.464
  0
VERTEX
  8
Unknown_Area_Type
  10
356047.013
  20
4614212.005
  0
VERTEX
  8
Unknown_Area_Type
  10
353282.498
  20
4614268.156
  0
VERTEX
  8
Unknown_Area_Type
  10
353288.642
  20
4614428.433
  0
VERTEX
  8
Unknown_Area_Type
  10
356181.336
  20
4614428.433
  0
SEQEND
  8
Unknown_Area_Type
  0
INSERT
  8
FeatureAttribs
  2
FEATURE
  41
1
  42
1
  43
1
  50
0
  10
354654.127
  20
4614140.103
 66
1
  0
ATTRIB
  8
FeatureAttribs
 70
0
  1
PNOA-H_AMS_1956-57_33k_ES_PAN_2
  2
NAME
  10
354654.127
  20
4614140.103
 40
28.15903
  0
SEQEND
  0
POLYLINE
  8
Unknown_Area_Type
  70
1
  66
1
  0
VERTEX
  8
Unknown_Area_Type
  10
356175.148
  20
4614209.464
  0
VERTEX
  8
Unknown_Area_Type
  10
356170.359
  20
4614040.000
  0
VERTEX
  8
Unknown_Area_Type
  10
353273.751
  20
4614040.000
  0
VERTEX
  8
Unknown_Area_Type
  10
353282.498
  20
4614268.156
  0
VERTEX
  8
Unknown_Area_Type
  10
356047.013
  20
4614212.005
  0
VERTEX
  8
Unknown_Area_Type
  10
356175.148
  20
4614209.464
  0
SEQEND
  8
Unknown_Area_Type
  0
INSERT
  8
FeatureAttribs
  2
FEATURE
  41
1
  42
1
  43
1
  50
0
  10
354654.127
  20
4614140.103
 66
1
  0
ATTRIB
  8
FeatureAttribs
 70
0
  1
PNOA-H_AMS_1956-57_33k_ES_PAN_2
  2
NAME
  10
354654.127
  20
4614140.103
 40
28.15903
  0
SEQEND
  0
POLYLINE
  8
Unknown_Area_Type
  70
1
  66
1
  0
VERTEX
  8
Unknown_Area_Type
  10
356175.148
  20
4614209.464
  0
VERTEX
  8
Unknown_Area_Type
  10
356047.013
  20
4614212.005
  0
VERTEX
  8
Unknown_Area_Type
  10
353282.498
  20
4614268.156
  0
VERTEX
  8
Unknown_Area_Type
  10
353273.751
  20
4614040.000
  0
VERTEX
  8
Unknown_Area_Type
  10
356170.359
  20
4614040.000
  0
VERTEX
  8
Unknown_Area_Type
  10
356175.148
  20
4614209.464
  0
SEQEND
  8
Unknown_Area_Type
  0
INSERT
  8
FeatureAttribs
  2
FEATURE
  41
1
  42
1
  43
1
  50
0
  10
368997.812
  20
4613884.903
 66
1
  0
ATTRIB
  8
FeatureAttribs
 70
0
  1
PNOA-H_AMS_1956-57_33k_ES_PAN_2
  2
NAME
  10
368997.812
  20
4613884.903
 40
28.15903
  0
SEQEND
  0
POLYLINE
  8
Unknown_Area_Type
  70
1
  66
1
  0
VERTEX
  8
Unknown_Area_Type
  10
370407.903
  20
4613938.275
  0
VERTEX
  8
Unknown_Area_Type
  10
370404.244
  20
4613780.000
  0
VERTEX
  8
Unknown_Area_Type
  10
367587.089
  20
4613780.000
  0
VERTEX
  8
Unknown_Area_Type
  10
367590.821
  20
4613989.806
  0
VERTEX
  8
Unknown_Area_Type
  10
369922.427
  20
4613946.961
  0
VERTEX
  8
Unknown_Area_Type
  10
370407.903
  20
4613938.275
  0
SEQEND
  8
Unknown_Area_Type
  0
INSERT
  8
FeatureAttribs
  2
FEATURE
  41
1
  42
1
  43
1
  50
0
  10
368997.812
  20
4613884.903
 66
1
  0
ATTRIB
  8
FeatureAttribs
 70
0
  1
PNOA-H_AMS_1956-57_33k_ES_PAN_2
  2
NAME
  10
368997.812
  20
4613884.903
 40
28.15903
  0
SEQEND
  0
POLYLINE
  8
Unknown_Area_Type
  70
1
  66
1
  0
VERTEX
  8
Unknown_Area_Type
  10
370407.903
  20
4613938.275
  0
VERTEX
  8
Unknown_Area_Type
  10
370404.244
  20
4613780.000
  0
VERTEX
  8
Unknown_Area_Type
  10
367587.089
  20
4613780.000
  0
VERTEX
  8
Unknown_Area_Type
  10
367590.821
  20
4613989.806
  0
VERTEX
  8
Unknown_Area_Type
  10
369922.427
  20
4613946.961
  0
VERTEX
  8
Unknown_Area_Type
  10
370407.903
  20
4613938.275
  0
SEQEND
  8
Unknown_Area_Type
  0
INSERT
  8
FeatureAttribs
  2
FEATURE
  41
1
  42
1
  43
1
  50
0
  10
369003.916
  20
4614183.354
 66
1
  0
ATTRIB
  8
FeatureAttribs
 70
0
  1
PNOA-H_AMS_1956-57_33k_ES_PAN_2
  2
NAME
  10
369003.916
  20
4614183.354
 40
28.15903
  0
SEQEND
  0
POLYLINE
  8
Unknown_Area_Type
  70
1
  66
1
  0
VERTEX
  8
Unknown_Area_Type
  10
370419.235
  20
4614428.433
  0
VERTEX
  8
Unknown_Area_Type
  10
370407.903
  20
4613938.275
  0
VERTEX
  8
Unknown_Area_Type
  10
369922.427
  20
4613946.961
  0
VERTEX
  8
Unknown_Area_Type
  10
367590.821
  20
4613989.806
  0
VERTEX
  8
Unknown_Area_Type
  10
367598.622
  20
4614428.433
  0
VERTEX
  8
Unknown_Area_Type
  10
370419.235
  20
4614428.433
  0
SEQEND
  8
Unknown_Area_Type
  0
INSERT
  8
FeatureAttribs
  2
FEATURE
  41
1
  42
1
  43
1
  50
0
  10
363240.641
  20
4614004.555
 66
1
  0
ATTRIB
  8
FeatureAttribs
 70
0
  1
PNOA-H_AMS_1956-57_33k_ES_PAN_2
  2
NAME
  10
363240.641
  20
4614004.555
 40
28.15903
  0
SEQEND
  0
POLYLINE
  8
Unknown_Area_Type
  70
1
  66
1
  0
VERTEX
  8
Unknown_Area_Type
  10
364692.767
  20
4614043.913
  0
VERTEX
  8
Unknown_Area_Type
  10
364685.611
  20
4613910.000
  0
VERTEX
  8
Unknown_Area_Type
  10
361784.751
  20
4613910.000
  0
VERTEX
  8
Unknown_Area_Type
  10
361796.485
  20
4614099.111
  0
VERTEX
  8
Unknown_Area_Type
  10
362984.737
  20
4614076.126
  0
VERTEX
  8
Unknown_Area_Type
  10
364692.767
  20
4614043.913
  0
SEQEND
  8
Unknown_Area_Type
  0
INSERT
  8
FeatureAttribs
  2
FEATURE
  41
1
  42
1
  43
1
  50
0
  10
363240.641
  20
4614004.555
 66
1
  0
ATTRIB
  8
FeatureAttribs
 70
0
  1
PNOA-H_AMS_1956-57_33k_ES_PAN_2
  2
NAME
  10
363240.641
  20
4614004.555
 40
28.15903
  0
SEQEND
  0
POLYLINE
  8
Unknown_Area_Type
  70
1
  66
1
  0
VERTEX
  8
Unknown_Area_Type
  10
364692.767
  20
4614043.913
  0
VERTEX
  8
Unknown_Area_Type
  10
364685.611
  20
4613910.000
  0
VERTEX
  8
Unknown_Area_Type
  10
361784.751
  20
4613910.000
  0
VERTEX
  8
Unknown_Area_Type
  10
361796.485
  20
4614099.111
  0
VERTEX
  8
Unknown_Area_Type
  10
362984.737
  20
4614076.126
  0
VERTEX
  8
Unknown_Area_Type
  10
364692.767
  20
4614043.913
  0
SEQEND
  8
Unknown_Area_Type
  0
INSERT
  8
FeatureAttribs
  2
FEATURE
  41
1
  42
1
  43
1
  50
0
  10
363254.015
  20
4614236.173
 66
1
  0
ATTRIB
  8
FeatureAttribs
 70
0
  1
PNOA-H_AMS_1956-57_33k_ES_PAN_2
  2
NAME
  10
363254.015
  20
4614236.173
 40
28.15903
  0
SEQEND
  0
POLYLINE
  8
Unknown_Area_Type
  70
1
  66
1
  0
VERTEX
  8
Unknown_Area_Type
  10
364713.314
  20
4614428.433
  0
VERTEX
  8
Unknown_Area_Type
  10
364692.767
  20
4614043.913
  0
VERTEX
  8
Unknown_Area_Type
  10
362984.737
  20
4614076.126
  0
VERTEX
  8
Unknown_Area_Type
  10
361796.485
  20
4614099.111
  0
VERTEX
  8
Unknown_Area_Type
  10
361816.918
  20
4614428.433
  0
VERTEX
  8
Unknown_Area_Type
  10
364713.314
  20
4614428.433
  0
SEQEND
  8
Unknown_Area_Type
  0
ENDSEC
  0
EOF
