  0
SECTION
  2
HEADER
  9
$ACADVER
  1
AC1009
  9
$LUNITS
  70
2
  9
$LIMMIN
  10
317419.671
  20
4614180.000
  9
$LIMMAX
  10
345640.388
  20
4615079.410
  9
$EXTMIN
  10
317419.671
  20
4614180.000
  9
$EXTMAX
  10
345640.388
  20
4615079.410
  999
Created by Global Mapper
  999
Projection: UTM
  999
Datum: ETRS89
  999
Ground Units: meters
  999
ZONE: 30
  0
ENDSEC
  0
SECTION
  2
TABLES
  0
ENDSEC
  0
SECTION
  2
BLOCKS
  0
BLOCK
  8
FeatureAttribs
  70
0
  2
FEATURE
  3
FEATURE
  10
0.00000000
  20
0.00000000
  0
ATTDEF
  8
FeatureAttribs
  70
0
  1
 
  2
NAME
  3
NAME
  10
0.00000000
  20
0.00000000
  40
1.00000000
  0
ENDBLK
  0
ENDSEC
  0
SECTION
  2
ENTITIES
  0
INSERT
  8
FeatureAttribs
  2
FEATURE
  41
1
  42
1
  43
1
  50
0
  10
321675.042
  20
4615016.161
 66
1
  0
ATTRIB
  8
FeatureAttribs
 70
0
  1
PNOA-H_AMS_1956-57_33k_ES_PAN_2
  2
NAME
  10
321675.042
  20
4615016.161
 40
28.23505
  0
SEQEND
  0
POLYLINE
  8
Unknown_Area_Type
  70
1
  66
1
  0
VERTEX
  8
Unknown_Area_Type
  10
322946.448
  20
4615079.410
  0
VERTEX
  8
Unknown_Area_Type
  10
322948.124
  20
4614952.912
  0
VERTEX
  8
Unknown_Area_Type
  10
321357.820
  20
4614992.141
  0
VERTEX
  8
Unknown_Area_Type
  10
320153.267
  20
4615022.437
  0
VERTEX
  8
Unknown_Area_Type
  10
320153.223
  20
4615079.410
  0
VERTEX
  8
Unknown_Area_Type
  10
322946.448
  20
4615079.410
  0
SEQEND
  8
Unknown_Area_Type
  0
INSERT
  8
FeatureAttribs
  2
FEATURE
  41
1
  42
1
  43
1
  50
0
  10
321464.882
  20
4614894.815
 66
1
  0
ATTRIB
  8
FeatureAttribs
 70
0
  1
PNOA-H_AMS_1956-57_33k_ES_PAN_2
  2
NAME
  10
321464.882
  20
4614894.815
 40
28.23505
  0
SEQEND
  0
POLYLINE
  8
Unknown_Area_Type
  70
1
  66
1
  0
VERTEX
  8
Unknown_Area_Type
  10
322948.124
  20
4614952.912
  0
VERTEX
  8
Unknown_Area_Type
  10
322950.150
  20
4614800.000
  0
VERTEX
  8
Unknown_Area_Type
  10
320153.440
  20
4614800.000
  0
VERTEX
  8
Unknown_Area_Type
  10
320153.267
  20
4615022.437
  0
VERTEX
  8
Unknown_Area_Type
  10
321357.820
  20
4614992.141
  0
VERTEX
  8
Unknown_Area_Type
  10
322948.124
  20
4614952.912
  0
SEQEND
  8
Unknown_Area_Type
  0
INSERT
  8
FeatureAttribs
  2
FEATURE
  41
1
  42
1
  43
1
  50
0
  10
321464.882
  20
4614894.815
 66
1
  0
ATTRIB
  8
FeatureAttribs
 70
0
  1
PNOA-H_AMS_1956-57_33k_ES_PAN_2
  2
NAME
  10
321464.882
  20
4614894.815
 40
28.23505
  0
SEQEND
  0
POLYLINE
  8
Unknown_Area_Type
  70
1
  66
1
  0
VERTEX
  8
Unknown_Area_Type
  10
322948.124
  20
4614952.912
  0
VERTEX
  8
Unknown_Area_Type
  10
321357.820
  20
4614992.141
  0
VERTEX
  8
Unknown_Area_Type
  10
320153.267
  20
4615022.437
  0
VERTEX
  8
Unknown_Area_Type
  10
320153.440
  20
4614800.000
  0
VERTEX
  8
Unknown_Area_Type
  10
322950.150
  20
4614800.000
  0
VERTEX
  8
Unknown_Area_Type
  10
322948.124
  20
4614952.912
  0
SEQEND
  8
Unknown_Area_Type
  0
INSERT
  8
FeatureAttribs
  2
FEATURE
  41
1
  42
1
  43
1
  50
0
  10
317888.657
  20
4615079.401
 66
1
  0
ATTRIB
  8
FeatureAttribs
 70
0
  1
PNOA-H_AMS_1956-57_33k_ES_PAN_2
  2
NAME
  10
317888.657
  20
4615079.401
 40
28.23505
  0
SEQEND
  0
POLYLINE
  8
Unknown_Area_Type
  70
1
  66
1
  0
VERTEX
  8
Unknown_Area_Type
  10
317888.844
  20
4615079.410
  0
VERTEX
  8
Unknown_Area_Type
  10
317888.844
  20
4615079.391
  0
VERTEX
  8
Unknown_Area_Type
  10
317888.096
  20
4615079.410
  0
VERTEX
  8
Unknown_Area_Type
  10
317888.844
  20
4615079.410
  0
SEQEND
  8
Unknown_Area_Type
  0
INSERT
  8
FeatureAttribs
  2
FEATURE
  41
1
  42
1
  43
1
  50
0
  10
319586.960
  20
4615050.924
 66
1
  0
ATTRIB
  8
FeatureAttribs
 70
0
  1
PNOA-H_AMS_1956-57_33k_ES_PAN_2
  2
NAME
  10
319586.960
  20
4615050.924
 40
28.23505
  0
SEQEND
  0
POLYLINE
  8
Unknown_Area_Type
  70
1
  66
1
  0
VERTEX
  8
Unknown_Area_Type
  10
320153.223
  20
4615079.410
  0
VERTEX
  8
Unknown_Area_Type
  10
320153.267
  20
4615022.437
  0
VERTEX
  8
Unknown_Area_Type
  10
317888.844
  20
4615079.391
  0
VERTEX
  8
Unknown_Area_Type
  10
317888.844
  20
4615079.410
  0
VERTEX
  8
Unknown_Area_Type
  10
320153.223
  20
4615079.410
  0
SEQEND
  8
Unknown_Area_Type
  0
INSERT
  8
FeatureAttribs
  2
FEATURE
  41
1
  42
1
  43
1
  50
0
  10
317654.257
  20
4615024.705
 66
1
  0
ATTRIB
  8
FeatureAttribs
 70
0
  1
PNOA-H_AMS_1956-57_33k_ES_PAN_2
  2
NAME
  10
317654.257
  20
4615024.705
 40
28.23505
  0
SEQEND
  0
POLYLINE
  8
Unknown_Area_Type
  70
1
  66
1
  0
VERTEX
  8
Unknown_Area_Type
  10
317881.750
  20
4614800.000
  0
VERTEX
  8
Unknown_Area_Type
  10
317780.000
  20
4614800.000
  0
VERTEX
  8
Unknown_Area_Type
  10
317780.000
  20
4614970.000
  0
VERTEX
  8
Unknown_Area_Type
  10
317419.671
  20
4614970.000
  0
VERTEX
  8
Unknown_Area_Type
  10
317419.671
  20
4615079.410
  0
VERTEX
  8
Unknown_Area_Type
  10
317888.096
  20
4615079.410
  0
VERTEX
  8
Unknown_Area_Type
  10
317888.844
  20
4615079.391
  0
VERTEX
  8
Unknown_Area_Type
  10
317881.750
  20
4614800.000
  0
SEQEND
  8
Unknown_Area_Type
  0
INSERT
  8
FeatureAttribs
  2
FEATURE
  41
1
  42
1
  43
1
  50
0
  10
318976.362
  20
4614925.937
 66
1
  0
ATTRIB
  8
FeatureAttribs
 70
0
  1
PNOA-H_AMS_1956-57_33k_ES_PAN_2
  2
NAME
  10
318976.362
  20
4614925.937
 40
28.23505
  0
SEQEND
  0
POLYLINE
  8
Unknown_Area_Type
  70
1
  66
1
  0
VERTEX
  8
Unknown_Area_Type
  10
320153.267
  20
4615022.437
  0
VERTEX
  8
Unknown_Area_Type
  10
320153.440
  20
4614800.000
  0
VERTEX
  8
Unknown_Area_Type
  10
317881.750
  20
4614800.000
  0
VERTEX
  8
Unknown_Area_Type
  10
317888.844
  20
4615079.391
  0
VERTEX
  8
Unknown_Area_Type
  10
320153.267
  20
4615022.437
  0
SEQEND
  8
Unknown_Area_Type
  0
INSERT
  8
FeatureAttribs
  2
FEATURE
  41
1
  42
1
  43
1
  50
0
  10
318976.362
  20
4614925.937
 66
1
  0
ATTRIB
  8
FeatureAttribs
 70
0
  1
PNOA-H_AMS_1956-57_33k_ES_PAN_2
  2
NAME
  10
318976.362
  20
4614925.937
 40
28.23505
  0
SEQEND
  0
POLYLINE
  8
Unknown_Area_Type
  70
1
  66
1
  0
VERTEX
  8
Unknown_Area_Type
  10
320153.267
  20
4615022.437
  0
VERTEX
  8
Unknown_Area_Type
  10
317888.844
  20
4615079.391
  0
VERTEX
  8
Unknown_Area_Type
  10
317881.750
  20
4614800.000
  0
VERTEX
  8
Unknown_Area_Type
  10
320153.440
  20
4614800.000
  0
VERTEX
  8
Unknown_Area_Type
  10
320153.267
  20
4615022.437
  0
SEQEND
  8
Unknown_Area_Type
  0
INSERT
  8
FeatureAttribs
  2
FEATURE
  41
1
  42
1
  43
1
  50
0
  10
329652.650
  20
4614731.777
 66
1
  0
ATTRIB
  8
FeatureAttribs
 70
0
  1
PNOA-H_AMS_1956-57_33k_ES_PAN_2
  2
NAME
  10
329652.650
  20
4614731.777
 40
28.23505
  0
SEQEND
  0
POLYLINE
  8
Unknown_Area_Type
  70
1
  66
1
  0
VERTEX
  8
Unknown_Area_Type
  10
331046.144
  20
4614757.496
  0
VERTEX
  8
Unknown_Area_Type
  10
331045.871
  20
4614640.000
  0
VERTEX
  8
Unknown_Area_Type
  10
328258.907
  20
4614640.000
  0
VERTEX
  8
Unknown_Area_Type
  10
328259.523
  20
4614823.555
  0
VERTEX
  8
Unknown_Area_Type
  10
328295.741
  20
4614822.679
  0
VERTEX
  8
Unknown_Area_Type
  10
331046.144
  20
4614757.496
  0
SEQEND
  8
Unknown_Area_Type
  0
INSERT
  8
FeatureAttribs
  2
FEATURE
  41
1
  42
1
  43
1
  50
0
  10
329652.650
  20
4614731.777
 66
1
  0
ATTRIB
  8
FeatureAttribs
 70
0
  1
PNOA-H_AMS_1956-57_33k_ES_PAN_2
  2
NAME
  10
329652.650
  20
4614731.777
 40
28.23505
  0
SEQEND
  0
POLYLINE
  8
Unknown_Area_Type
  70
1
  66
1
  0
VERTEX
  8
Unknown_Area_Type
  10
331046.144
  20
4614757.496
  0
VERTEX
  8
Unknown_Area_Type
  10
331045.871
  20
4614640.000
  0
VERTEX
  8
Unknown_Area_Type
  10
328258.907
  20
4614640.000
  0
VERTEX
  8
Unknown_Area_Type
  10
328259.523
  20
4614823.555
  0
VERTEX
  8
Unknown_Area_Type
  10
328295.741
  20
4614822.679
  0
VERTEX
  8
Unknown_Area_Type
  10
331046.144
  20
4614757.496
  0
SEQEND
  8
Unknown_Area_Type
  0
INSERT
  8
FeatureAttribs
  2
FEATURE
  41
1
  42
1
  43
1
  50
0
  10
329653.179
  20
4614918.453
 66
1
  0
ATTRIB
  8
FeatureAttribs
 70
0
  1
PNOA-H_AMS_1956-57_33k_ES_PAN_2
  2
NAME
  10
329653.179
  20
4614918.453
 40
28.23505
  0
SEQEND
  0
POLYLINE
  8
Unknown_Area_Type
  70
1
  66
1
  0
VERTEX
  8
Unknown_Area_Type
  10
331046.891
  20
4615079.410
  0
VERTEX
  8
Unknown_Area_Type
  10
331046.144
  20
4614757.496
  0
VERTEX
  8
Unknown_Area_Type
  10
328295.741
  20
4614822.679
  0
VERTEX
  8
Unknown_Area_Type
  10
328259.523
  20
4614823.555
  0
VERTEX
  8
Unknown_Area_Type
  10
328260.380
  20
4615079.410
  0
VERTEX
  8
Unknown_Area_Type
  10
331046.891
  20
4615079.410
  0
SEQEND
  8
Unknown_Area_Type
  0
INSERT
  8
FeatureAttribs
  2
FEATURE
  41
1
  42
1
  43
1
  50
0
  10
326920.778
  20
4614764.175
 66
1
  0
ATTRIB
  8
FeatureAttribs
 70
0
  1
PNOA-H_AMS_1956-57_33k_ES_PAN_2
  2
NAME
  10
326920.778
  20
4614764.175
 40
28.23505
  0
SEQEND
  0
POLYLINE
  8
Unknown_Area_Type
  70
1
  66
1
  0
VERTEX
  8
Unknown_Area_Type
  10
328259.523
  20
4614823.555
  0
VERTEX
  8
Unknown_Area_Type
  10
328258.907
  20
4614640.000
  0
VERTEX
  8
Unknown_Area_Type
  10
325584.255
  20
4614640.000
  0
VERTEX
  8
Unknown_Area_Type
  10
325580.211
  20
4614888.350
  0
VERTEX
  8
Unknown_Area_Type
  10
328259.523
  20
4614823.555
  0
SEQEND
  8
Unknown_Area_Type
  0
INSERT
  8
FeatureAttribs
  2
FEATURE
  41
1
  42
1
  43
1
  50
0
  10
326920.778
  20
4614764.175
 66
1
  0
ATTRIB
  8
FeatureAttribs
 70
0
  1
PNOA-H_AMS_1956-57_33k_ES_PAN_2
  2
NAME
  10
326920.778
  20
4614764.175
 40
28.23505
  0
SEQEND
  0
POLYLINE
  8
Unknown_Area_Type
  70
1
  66
1
  0
VERTEX
  8
Unknown_Area_Type
  10
328259.523
  20
4614823.555
  0
VERTEX
  8
Unknown_Area_Type
  10
328258.907
  20
4614640.000
  0
VERTEX
  8
Unknown_Area_Type
  10
325584.255
  20
4614640.000
  0
VERTEX
  8
Unknown_Area_Type
  10
325580.211
  20
4614888.350
  0
VERTEX
  8
Unknown_Area_Type
  10
328259.523
  20
4614823.555
  0
SEQEND
  8
Unknown_Area_Type
  0
INSERT
  8
FeatureAttribs
  2
FEATURE
  41
1
  42
1
  43
1
  50
0
  10
326919.567
  20
4614951.483
 66
1
  0
ATTRIB
  8
FeatureAttribs
 70
0
  1
PNOA-H_AMS_1956-57_33k_ES_PAN_2
  2
NAME
  10
326919.567
  20
4614951.483
 40
28.23505
  0
SEQEND
  0
POLYLINE
  8
Unknown_Area_Type
  70
1
  66
1
  0
VERTEX
  8
Unknown_Area_Type
  10
328260.380
  20
4615079.410
  0
VERTEX
  8
Unknown_Area_Type
  10
328259.523
  20
4614823.555
  0
VERTEX
  8
Unknown_Area_Type
  10
325580.211
  20
4614888.350
  0
VERTEX
  8
Unknown_Area_Type
  10
325577.100
  20
4615079.410
  0
VERTEX
  8
Unknown_Area_Type
  10
328260.380
  20
4615079.410
  0
SEQEND
  8
Unknown_Area_Type
  0
INSERT
  8
FeatureAttribs
  2
FEATURE
  41
1
  42
1
  43
1
  50
0
  10
324263.240
  20
4614983.879
 66
1
  0
ATTRIB
  8
FeatureAttribs
 70
0
  1
PNOA-H_AMS_1956-57_33k_ES_PAN_2
  2
NAME
  10
324263.240
  20
4614983.879
 40
28.23505
  0
SEQEND
  0
POLYLINE
  8
Unknown_Area_Type
  70
1
  66
1
  0
VERTEX
  8
Unknown_Area_Type
  10
325577.220
  20
4615079.410
  0
VERTEX
  8
Unknown_Area_Type
  10
325580.311
  20
4614888.347
  0
VERTEX
  8
Unknown_Area_Type
  10
324826.786
  20
4614906.570
  0
VERTEX
  8
Unknown_Area_Type
  10
322948.124
  20
4614952.912
  0
VERTEX
  8
Unknown_Area_Type
  10
322946.448
  20
4615079.410
  0
VERTEX
  8
Unknown_Area_Type
  10
325577.220
  20
4615079.410
  0
SEQEND
  8
Unknown_Area_Type
  0
INSERT
  8
FeatureAttribs
  2
FEATURE
  41
1
  42
1
  43
1
  50
0
  10
324451.990
  20
4614818.697
 66
1
  0
ATTRIB
  8
FeatureAttribs
 70
0
  1
PNOA-H_AMS_1956-57_33k_ES_PAN_2
  2
NAME
  10
324451.990
  20
4614818.697
 40
28.23505
  0
SEQEND
  0
POLYLINE
  8
Unknown_Area_Type
  70
1
  66
1
  0
VERTEX
  8
Unknown_Area_Type
  10
325580.311
  20
4614888.347
  0
VERTEX
  8
Unknown_Area_Type
  10
325584.329
  20
4614640.000
  0
VERTEX
  8
Unknown_Area_Type
  10
324720.000
  20
4614640.000
  0
VERTEX
  8
Unknown_Area_Type
  10
324720.000
  20
4614800.000
  0
VERTEX
  8
Unknown_Area_Type
  10
322950.150
  20
4614800.000
  0
VERTEX
  8
Unknown_Area_Type
  10
322948.124
  20
4614952.912
  0
VERTEX
  8
Unknown_Area_Type
  10
324826.786
  20
4614906.570
  0
VERTEX
  8
Unknown_Area_Type
  10
325580.311
  20
4614888.347
  0
SEQEND
  8
Unknown_Area_Type
  0
INSERT
  8
FeatureAttribs
  2
FEATURE
  41
1
  42
1
  43
1
  50
0
  10
324451.990
  20
4614818.697
 66
1
  0
ATTRIB
  8
FeatureAttribs
 70
0
  1
PNOA-H_AMS_1956-57_33k_ES_PAN_2
  2
NAME
  10
324451.990
  20
4614818.697
 40
28.23505
  0
SEQEND
  0
POLYLINE
  8
Unknown_Area_Type
  70
1
  66
1
  0
VERTEX
  8
Unknown_Area_Type
  10
325580.311
  20
4614888.347
  0
VERTEX
  8
Unknown_Area_Type
  10
324826.786
  20
4614906.570
  0
VERTEX
  8
Unknown_Area_Type
  10
322948.124
  20
4614952.912
  0
VERTEX
  8
Unknown_Area_Type
  10
322950.150
  20
4614800.000
  0
VERTEX
  8
Unknown_Area_Type
  10
324720.000
  20
4614800.000
  0
VERTEX
  8
Unknown_Area_Type
  10
324720.000
  20
4614640.000
  0
VERTEX
  8
Unknown_Area_Type
  10
325584.329
  20
4614640.000
  0
VERTEX
  8
Unknown_Area_Type
  10
325580.311
  20
4614888.347
  0
SEQEND
  8
Unknown_Area_Type
  0
INSERT
  8
FeatureAttribs
  2
FEATURE
  41
1
  42
1
  43
1
  50
0
  10
335134.164
  20
4614587.220
 66
1
  0
ATTRIB
  8
FeatureAttribs
 70
0
  1
PNOA-H_AMS_1956-57_33k_ES_PAN_2
  2
NAME
  10
335134.164
  20
4614587.220
 40
28.23505
  0
SEQEND
  0
POLYLINE
  8
Unknown_Area_Type
  70
1
  66
1
  0
VERTEX
  8
Unknown_Area_Type
  10
336522.876
  20
4614630.629
  0
VERTEX
  8
Unknown_Area_Type
  10
336523.164
  20
4614480.000
  0
VERTEX
  8
Unknown_Area_Type
  10
333743.426
  20
4614480.000
  0
VERTEX
  8
Unknown_Area_Type
  10
333747.314
  20
4614694.440
  0
VERTEX
  8
Unknown_Area_Type
  10
335233.619
  20
4614659.935
  0
VERTEX
  8
Unknown_Area_Type
  10
336522.876
  20
4614630.629
  0
SEQEND
  8
Unknown_Area_Type
  0
INSERT
  8
FeatureAttribs
  2
FEATURE
  41
1
  42
1
  43
1
  50
0
  10
335134.164
  20
4614587.220
 66
1
  0
ATTRIB
  8
FeatureAttribs
 70
0
  1
PNOA-H_AMS_1956-57_33k_ES_PAN_2
  2
NAME
  10
335134.164
  20
4614587.220
 40
28.23505
  0
SEQEND
  0
POLYLINE
  8
Unknown_Area_Type
  70
1
  66
1
  0
VERTEX
  8
Unknown_Area_Type
  10
336522.876
  20
4614630.629
  0
VERTEX
  8
Unknown_Area_Type
  10
336523.164
  20
4614480.000
  0
VERTEX
  8
Unknown_Area_Type
  10
333743.426
  20
4614480.000
  0
VERTEX
  8
Unknown_Area_Type
  10
333747.314
  20
4614694.440
  0
VERTEX
  8
Unknown_Area_Type
  10
335233.619
  20
4614659.935
  0
VERTEX
  8
Unknown_Area_Type
  10
336522.876
  20
4614630.629
  0
SEQEND
  8
Unknown_Area_Type
  0
INSERT
  8
FeatureAttribs
  2
FEATURE
  41
1
  42
1
  43
1
  50
0
  10
335136.336
  20
4614855.020
 66
1
  0
ATTRIB
  8
FeatureAttribs
 70
0
  1
PNOA-H_AMS_1956-57_33k_ES_PAN_2
  2
NAME
  10
335136.336
  20
4614855.020
 40
28.23505
  0
SEQEND
  0
POLYLINE
  8
Unknown_Area_Type
  70
1
  66
1
  0
VERTEX
  8
Unknown_Area_Type
  10
336522.018
  20
4615079.410
  0
VERTEX
  8
Unknown_Area_Type
  10
336522.876
  20
4614630.629
  0
VERTEX
  8
Unknown_Area_Type
  10
335233.619
  20
4614659.935
  0
VERTEX
  8
Unknown_Area_Type
  10
333747.314
  20
4614694.440
  0
VERTEX
  8
Unknown_Area_Type
  10
333754.292
  20
4615079.410
  0
VERTEX
  8
Unknown_Area_Type
  10
336522.018
  20
4615079.410
  0
SEQEND
  8
Unknown_Area_Type
  0
INSERT
  8
FeatureAttribs
  2
FEATURE
  41
1
  42
1
  43
1
  50
0
  10
337898.340
  20
4614539.682
 66
1
  0
ATTRIB
  8
FeatureAttribs
 70
0
  1
PNOA-H_AMS_1956-57_33k_ES_PAN_2
  2
NAME
  10
337898.340
  20
4614539.682
 40
28.23505
  0
SEQEND
  0
POLYLINE
  8
Unknown_Area_Type
  70
1
  66
1
  0
VERTEX
  8
Unknown_Area_Type
  10
339273.841
  20
4614568.373
  0
VERTEX
  8
Unknown_Area_Type
  10
339268.929
  20
4614320.000
  0
VERTEX
  8
Unknown_Area_Type
  10
338600.000
  20
4614320.000
  0
VERTEX
  8
Unknown_Area_Type
  10
338600.000
  20
4614480.000
  0
VERTEX
  8
Unknown_Area_Type
  10
336523.134
  20
4614480.000
  0
VERTEX
  8
Unknown_Area_Type
  10
336522.839
  20
4614630.630
  0
VERTEX
  8
Unknown_Area_Type
  10
338702.542
  20
4614581.083
  0
VERTEX
  8
Unknown_Area_Type
  10
339273.841
  20
4614568.373
  0
SEQEND
  8
Unknown_Area_Type
  0
INSERT
  8
FeatureAttribs
  2
FEATURE
  41
1
  42
1
  43
1
  50
0
  10
337898.340
  20
4614539.682
 66
1
  0
ATTRIB
  8
FeatureAttribs
 70
0
  1
PNOA-H_AMS_1956-57_33k_ES_PAN_2
  2
NAME
  10
337898.340
  20
4614539.682
 40
28.23505
  0
SEQEND
  0
POLYLINE
  8
Unknown_Area_Type
  70
1
  66
1
  0
VERTEX
  8
Unknown_Area_Type
  10
339273.841
  20
4614568.373
  0
VERTEX
  8
Unknown_Area_Type
  10
339268.929
  20
4614320.000
  0
VERTEX
  8
Unknown_Area_Type
  10
338600.000
  20
4614320.000
  0
VERTEX
  8
Unknown_Area_Type
  10
338600.000
  20
4614480.000
  0
VERTEX
  8
Unknown_Area_Type
  10
336523.134
  20
4614480.000
  0
VERTEX
  8
Unknown_Area_Type
  10
336522.839
  20
4614630.630
  0
VERTEX
  8
Unknown_Area_Type
  10
338702.542
  20
4614581.083
  0
VERTEX
  8
Unknown_Area_Type
  10
339273.841
  20
4614568.373
  0
SEQEND
  8
Unknown_Area_Type
  0
INSERT
  8
FeatureAttribs
  2
FEATURE
  41
1
  42
1
  43
1
  50
0
  10
337900.679
  20
4614823.892
 66
1
  0
ATTRIB
  8
FeatureAttribs
 70
0
  1
PNOA-H_AMS_1956-57_33k_ES_PAN_2
  2
NAME
  10
337900.679
  20
4614823.892
 40
28.23505
  0
SEQEND
  0
POLYLINE
  8
Unknown_Area_Type
  70
1
  66
1
  0
VERTEX
  8
Unknown_Area_Type
  10
339283.950
  20
4615079.410
  0
VERTEX
  8
Unknown_Area_Type
  10
339273.841
  20
4614568.373
  0
VERTEX
  8
Unknown_Area_Type
  10
338702.542
  20
4614581.083
  0
VERTEX
  8
Unknown_Area_Type
  10
336522.839
  20
4614630.630
  0
VERTEX
  8
Unknown_Area_Type
  10
336521.962
  20
4615079.410
  0
VERTEX
  8
Unknown_Area_Type
  10
339283.950
  20
4615079.410
  0
SEQEND
  8
Unknown_Area_Type
  0
INSERT
  8
FeatureAttribs
  2
FEATURE
  41
1
  42
1
  43
1
  50
0
  10
343562.029
  20
4614412.170
 66
1
  0
ATTRIB
  8
FeatureAttribs
 70
0
  1
PNOA-H_AMS_1956-57_33k_ES_PAN_2
  2
NAME
  10
343562.029
  20
4614412.170
 40
28.23505
  0
SEQEND
  0
POLYLINE
  8
Unknown_Area_Type
  70
1
  66
1
  0
VERTEX
  8
Unknown_Area_Type
  10
344974.706
  20
4614442.901
  0
VERTEX
  8
Unknown_Area_Type
  10
344972.724
  20
4614320.000
  0
VERTEX
  8
Unknown_Area_Type
  10
342147.593
  20
4614320.000
  0
VERTEX
  8
Unknown_Area_Type
  10
342152.103
  20
4614504.339
  0
VERTEX
  8
Unknown_Area_Type
  10
342171.456
  20
4614503.909
  0
VERTEX
  8
Unknown_Area_Type
  10
344974.706
  20
4614442.901
  0
SEQEND
  8
Unknown_Area_Type
  0
INSERT
  8
FeatureAttribs
  2
FEATURE
  41
1
  42
1
  43
1
  50
0
  10
343562.029
  20
4614412.170
 66
1
  0
ATTRIB
  8
FeatureAttribs
 70
0
  1
PNOA-H_AMS_1956-57_33k_ES_PAN_2
  2
NAME
  10
343562.029
  20
4614412.170
 40
28.23505
  0
SEQEND
  0
POLYLINE
  8
Unknown_Area_Type
  70
1
  66
1
  0
VERTEX
  8
Unknown_Area_Type
  10
344974.706
  20
4614442.901
  0
VERTEX
  8
Unknown_Area_Type
  10
344972.724
  20
4614320.000
  0
VERTEX
  8
Unknown_Area_Type
  10
342147.593
  20
4614320.000
  0
VERTEX
  8
Unknown_Area_Type
  10
342152.103
  20
4614504.339
  0
VERTEX
  8
Unknown_Area_Type
  10
342171.456
  20
4614503.909
  0
VERTEX
  8
Unknown_Area_Type
  10
344974.706
  20
4614442.901
  0
SEQEND
  8
Unknown_Area_Type
  0
INSERT
  8
FeatureAttribs
  2
FEATURE
  41
1
  42
1
  43
1
  50
0
  10
343569.112
  20
4614761.156
 66
1
  0
ATTRIB
  8
FeatureAttribs
 70
0
  1
PNOA-H_AMS_1956-57_33k_ES_PAN_2
  2
NAME
  10
343569.112
  20
4614761.156
 40
28.23505
  0
SEQEND
  0
POLYLINE
  8
Unknown_Area_Type
  70
1
  66
1
  0
VERTEX
  8
Unknown_Area_Type
  10
344984.970
  20
4615079.410
  0
VERTEX
  8
Unknown_Area_Type
  10
344974.706
  20
4614442.901
  0
VERTEX
  8
Unknown_Area_Type
  10
342171.456
  20
4614503.909
  0
VERTEX
  8
Unknown_Area_Type
  10
342152.103
  20
4614504.339
  0
VERTEX
  8
Unknown_Area_Type
  10
342166.173
  20
4615079.410
  0
VERTEX
  8
Unknown_Area_Type
  10
344984.970
  20
4615079.410
  0
SEQEND
  8
Unknown_Area_Type
  0
INSERT
  8
FeatureAttribs
  2
FEATURE
  41
1
  42
1
  43
1
  50
0
  10
332702.971
  20
4614618.749
 66
1
  0
ATTRIB
  8
FeatureAttribs
 70
0
  1
PNOA-H_AMS_1956-57_33k_ES_PAN_2
  2
NAME
  10
332702.971
  20
4614618.749
 40
28.23505
  0
SEQEND
  0
POLYLINE
  8
Unknown_Area_Type
  70
1
  66
1
  0
VERTEX
  8
Unknown_Area_Type
  10
333747.314
  20
4614694.440
  0
VERTEX
  8
Unknown_Area_Type
  10
333743.426
  20
4614480.000
  0
VERTEX
  8
Unknown_Area_Type
  10
331660.000
  20
4614480.000
  0
VERTEX
  8
Unknown_Area_Type
  10
331660.000
  20
4614640.000
  0
VERTEX
  8
Unknown_Area_Type
  10
331045.839
  20
4614640.000
  0
VERTEX
  8
Unknown_Area_Type
  10
331046.107
  20
4614757.497
  0
VERTEX
  8
Unknown_Area_Type
  10
331764.685
  20
4614740.468
  0
VERTEX
  8
Unknown_Area_Type
  10
333747.314
  20
4614694.440
  0
SEQEND
  8
Unknown_Area_Type
  0
INSERT
  8
FeatureAttribs
  2
FEATURE
  41
1
  42
1
  43
1
  50
0
  10
332702.971
  20
4614618.749
 66
1
  0
ATTRIB
  8
FeatureAttribs
 70
0
  1
PNOA-H_AMS_1956-57_33k_ES_PAN_2
  2
NAME
  10
332702.971
  20
4614618.749
 40
28.23505
  0
SEQEND
  0
POLYLINE
  8
Unknown_Area_Type
  70
1
  66
1
  0
VERTEX
  8
Unknown_Area_Type
  10
333747.314
  20
4614694.440
  0
VERTEX
  8
Unknown_Area_Type
  10
333743.426
  20
4614480.000
  0
VERTEX
  8
Unknown_Area_Type
  10
331660.000
  20
4614480.000
  0
VERTEX
  8
Unknown_Area_Type
  10
331660.000
  20
4614640.000
  0
VERTEX
  8
Unknown_Area_Type
  10
331045.839
  20
4614640.000
  0
VERTEX
  8
Unknown_Area_Type
  10
331046.107
  20
4614757.497
  0
VERTEX
  8
Unknown_Area_Type
  10
331764.685
  20
4614740.468
  0
VERTEX
  8
Unknown_Area_Type
  10
333747.314
  20
4614694.440
  0
SEQEND
  8
Unknown_Area_Type
  0
INSERT
  8
FeatureAttribs
  2
FEATURE
  41
1
  42
1
  43
1
  50
0
  10
332398.602
  20
4614886.925
 66
1
  0
ATTRIB
  8
FeatureAttribs
 70
0
  1
PNOA-H_AMS_1956-57_33k_ES_PAN_2
  2
NAME
  10
332398.602
  20
4614886.925
 40
28.23505
  0
SEQEND
  0
POLYLINE
  8
Unknown_Area_Type
  70
1
  66
1
  0
VERTEX
  8
Unknown_Area_Type
  10
333754.292
  20
4615079.410
  0
VERTEX
  8
Unknown_Area_Type
  10
333747.314
  20
4614694.440
  0
VERTEX
  8
Unknown_Area_Type
  10
331764.685
  20
4614740.468
  0
VERTEX
  8
Unknown_Area_Type
  10
331046.107
  20
4614757.497
  0
VERTEX
  8
Unknown_Area_Type
  10
331046.841
  20
4615079.410
  0
VERTEX
  8
Unknown_Area_Type
  10
333754.292
  20
4615079.410
  0
SEQEND
  8
Unknown_Area_Type
  0
INSERT
  8
FeatureAttribs
  2
FEATURE
  41
1
  42
1
  43
1
  50
0
  10
345306.542
  20
4614377.840
 66
1
  0
ATTRIB
  8
FeatureAttribs
 70
0
  1
PNOA-H_AMS_1956-57_33k_ES_PAN_2
  2
NAME
  10
345306.542
  20
4614377.840
 40
28.23505
  0
SEQEND
  0
POLYLINE
  8
Unknown_Area_Type
  70
1
  66
1
  0
VERTEX
  8
Unknown_Area_Type
  10
345635.014
  20
4614180.000
  0
VERTEX
  8
Unknown_Area_Type
  10
345540.000
  20
4614180.000
  0
VERTEX
  8
Unknown_Area_Type
  10
345540.000
  20
4614320.000
  0
VERTEX
  8
Unknown_Area_Type
  10
344972.724
  20
4614320.000
  0
VERTEX
  8
Unknown_Area_Type
  10
344974.706
  20
4614442.901
  0
VERTEX
  8
Unknown_Area_Type
  10
345640.359
  20
4614428.414
  0
VERTEX
  8
Unknown_Area_Type
  10
345635.014
  20
4614180.000
  0
SEQEND
  8
Unknown_Area_Type
  0
INSERT
  8
FeatureAttribs
  2
FEATURE
  41
1
  42
1
  43
1
  50
0
  10
345640.373
  20
4614428.742
 66
1
  0
ATTRIB
  8
FeatureAttribs
 70
0
  1
PNOA-H_AMS_1956-57_33k_ES_PAN_2
  2
NAME
  10
345640.373
  20
4614428.742
 40
28.23505
  0
SEQEND
  0
POLYLINE
  8
Unknown_Area_Type
  70
1
  66
1
  0
VERTEX
  8
Unknown_Area_Type
  10
345640.388
  20
4614429.725
  0
VERTEX
  8
Unknown_Area_Type
  10
345640.388
  20
4614428.414
  0
VERTEX
  8
Unknown_Area_Type
  10
345640.359
  20
4614428.414
  0
VERTEX
  8
Unknown_Area_Type
  10
345640.388
  20
4614429.725
  0
SEQEND
  8
Unknown_Area_Type
  0
INSERT
  8
FeatureAttribs
  2
FEATURE
  41
1
  42
1
  43
1
  50
0
  10
345306.542
  20
4614377.840
 66
1
  0
ATTRIB
  8
FeatureAttribs
 70
0
  1
PNOA-H_AMS_1956-57_33k_ES_PAN_2
  2
NAME
  10
345306.542
  20
4614377.840
 40
28.23505
  0
SEQEND
  0
POLYLINE
  8
Unknown_Area_Type
  70
1
  66
1
  0
VERTEX
  8
Unknown_Area_Type
  10
345635.014
  20
4614180.000
  0
VERTEX
  8
Unknown_Area_Type
  10
345540.000
  20
4614180.000
  0
VERTEX
  8
Unknown_Area_Type
  10
345540.000
  20
4614320.000
  0
VERTEX
  8
Unknown_Area_Type
  10
344972.724
  20
4614320.000
  0
VERTEX
  8
Unknown_Area_Type
  10
344974.706
  20
4614442.901
  0
VERTEX
  8
Unknown_Area_Type
  10
345640.359
  20
4614428.414
  0
VERTEX
  8
Unknown_Area_Type
  10
345635.014
  20
4614180.000
  0
SEQEND
  8
Unknown_Area_Type
  0
INSERT
  8
FeatureAttribs
  2
FEATURE
  41
1
  42
1
  43
1
  50
0
  10
345639.037
  20
4614304.207
 66
1
  0
ATTRIB
  8
FeatureAttribs
 70
0
  1
PNOA-H_AMS_1956-57_33k_ES_PAN_2
  2
NAME
  10
345639.037
  20
4614304.207
 40
28.23505
  0
SEQEND
  0
POLYLINE
  8
Unknown_Area_Type
  70
1
  66
1
  0
VERTEX
  8
Unknown_Area_Type
  10
345640.388
  20
4614180.000
  0
VERTEX
  8
Unknown_Area_Type
  10
345635.014
  20
4614180.000
  0
VERTEX
  8
Unknown_Area_Type
  10
345640.359
  20
4614428.414
  0
VERTEX
  8
Unknown_Area_Type
  10
345640.388
  20
4614428.414
  0
VERTEX
  8
Unknown_Area_Type
  10
345640.388
  20
4614180.000
  0
SEQEND
  8
Unknown_Area_Type
  0
INSERT
  8
FeatureAttribs
  2
FEATURE
  41
1
  42
1
  43
1
  50
0
  10
345310.054
  20
4614753.912
 66
1
  0
ATTRIB
  8
FeatureAttribs
 70
0
  1
PNOA-H_AMS_1956-57_33k_ES_PAN_2
  2
NAME
  10
345310.054
  20
4614753.912
 40
28.23505
  0
SEQEND
  0
POLYLINE
  8
Unknown_Area_Type
  70
1
  66
1
  0
VERTEX
  8
Unknown_Area_Type
  10
344984.970
  20
4615079.410
  0
VERTEX
  8
Unknown_Area_Type
  10
345640.388
  20
4615079.410
  0
VERTEX
  8
Unknown_Area_Type
  10
345640.388
  20
4614429.725
  0
VERTEX
  8
Unknown_Area_Type
  10
345640.359
  20
4614428.414
  0
VERTEX
  8
Unknown_Area_Type
  10
344974.706
  20
4614442.901
  0
VERTEX
  8
Unknown_Area_Type
  10
344984.970
  20
4615079.410
  0
SEQEND
  8
Unknown_Area_Type
  0
INSERT
  8
FeatureAttribs
  2
FEATURE
  41
1
  42
1
  43
1
  50
0
  10
340711.013
  20
4614444.186
 66
1
  0
ATTRIB
  8
FeatureAttribs
 70
0
  1
PNOA-H_AMS_1956-57_33k_ES_PAN_2
  2
NAME
  10
340711.013
  20
4614444.186
 40
28.23505
  0
SEQEND
  0
POLYLINE
  8
Unknown_Area_Type
  70
1
  66
1
  0
VERTEX
  8
Unknown_Area_Type
  10
342152.114
  20
4614504.339
  0
VERTEX
  8
Unknown_Area_Type
  10
342147.604
  20
4614320.000
  0
VERTEX
  8
Unknown_Area_Type
  10
339268.929
  20
4614320.000
  0
VERTEX
  8
Unknown_Area_Type
  10
339273.841
  20
4614568.373
  0
VERTEX
  8
Unknown_Area_Type
  10
342152.114
  20
4614504.339
  0
SEQEND
  8
Unknown_Area_Type
  0
INSERT
  8
FeatureAttribs
  2
FEATURE
  41
1
  42
1
  43
1
  50
0
  10
340711.013
  20
4614444.186
 66
1
  0
ATTRIB
  8
FeatureAttribs
 70
0
  1
PNOA-H_AMS_1956-57_33k_ES_PAN_2
  2
NAME
  10
340711.013
  20
4614444.186
 40
28.23505
  0
SEQEND
  0
POLYLINE
  8
Unknown_Area_Type
  70
1
  66
1
  0
VERTEX
  8
Unknown_Area_Type
  10
342152.114
  20
4614504.339
  0
VERTEX
  8
Unknown_Area_Type
  10
342147.604
  20
4614320.000
  0
VERTEX
  8
Unknown_Area_Type
  10
339268.929
  20
4614320.000
  0
VERTEX
  8
Unknown_Area_Type
  10
339273.841
  20
4614568.373
  0
VERTEX
  8
Unknown_Area_Type
  10
342152.114
  20
4614504.339
  0
SEQEND
  8
Unknown_Area_Type
  0
INSERT
  8
FeatureAttribs
  2
FEATURE
  41
1
  42
1
  43
1
  50
0
  10
340718.705
  20
4614791.875
 66
1
  0
ATTRIB
  8
FeatureAttribs
 70
0
  1
PNOA-H_AMS_1956-57_33k_ES_PAN_2
  2
NAME
  10
340718.705
  20
4614791.875
 40
28.23505
  0
SEQEND
  0
POLYLINE
  8
Unknown_Area_Type
  70
1
  66
1
  0
VERTEX
  8
Unknown_Area_Type
  10
342166.182
  20
4615079.410
  0
VERTEX
  8
Unknown_Area_Type
  10
342152.114
  20
4614504.339
  0
VERTEX
  8
Unknown_Area_Type
  10
339273.841
  20
4614568.373
  0
VERTEX
  8
Unknown_Area_Type
  10
339283.950
  20
4615079.410
  0
VERTEX
  8
Unknown_Area_Type
  10
342166.182
  20
4615079.410
  0
SEQEND
  8
Unknown_Area_Type
  0
ENDSEC
  0
EOF
