  0
SECTION
  2
HEADER
  9
$ACADVER
  1
AC1009
  9
$LUNITS
  70
2
  9
$LIMMIN
  10
289595.840
  20
4614800.000
  9
$LIMMAX
  10
317888.872
  20
4615837.898
  9
$EXTMIN
  10
289595.840
  20
4614800.000
  9
$EXTMAX
  10
317888.872
  20
4615837.898
  999
Created by Global Mapper
  999
Projection: UTM
  999
Datum: ETRS89
  999
Ground Units: meters
  999
ZONE: 30
  0
ENDSEC
  0
SECTION
  2
TABLES
  0
ENDSEC
  0
SECTION
  2
BLOCKS
  0
BLOCK
  8
FeatureAttribs
  70
0
  2
FEATURE
  3
FEATURE
  10
0.00000000
  20
0.00000000
  0
ATTDEF
  8
FeatureAttribs
  70
0
  1
 
  2
NAME
  3
NAME
  10
0.00000000
  20
0.00000000
  40
1.00000000
  0
ENDBLK
  0
ENDSEC
  0
SECTION
  2
ENTITIES
  0
INSERT
  8
FeatureAttribs
  2
FEATURE
  41
1
  42
1
  43
1
  50
0
  10
290136.441
  20
4615837.888
 66
1
  0
ATTRIB
  8
FeatureAttribs
 70
0
  1
PNOA-H_AMS_1956-57_33k_ES_PAN_2
  2
NAME
  10
290136.441
  20
4615837.888
 40
28.31206
  0
SEQEND
  0
POLYLINE
  8
Unknown_Area_Type
  70
1
  66
1
  0
VERTEX
  8
Unknown_Area_Type
  10
290136.604
  20
4615837.898
  0
VERTEX
  8
Unknown_Area_Type
  10
290136.604
  20
4615837.879
  0
VERTEX
  8
Unknown_Area_Type
  10
290135.951
  20
4615837.898
  0
VERTEX
  8
Unknown_Area_Type
  10
290136.604
  20
4615837.898
  0
SEQEND
  8
Unknown_Area_Type
  0
INSERT
  8
FeatureAttribs
  2
FEATURE
  41
1
  42
1
  43
1
  50
0
  10
291541.034
  20
4615810.709
 66
1
  0
ATTRIB
  8
FeatureAttribs
 70
0
  1
PNOA-H_AMS_1956-57_33k_ES_PAN_2
  2
NAME
  10
291541.034
  20
4615810.709
 40
28.31206
  0
SEQEND
  0
POLYLINE
  8
Unknown_Area_Type
  70
1
  66
1
  0
VERTEX
  8
Unknown_Area_Type
  10
292009.500
  20
4615837.898
  0
VERTEX
  8
Unknown_Area_Type
  10
292009.348
  20
4615783.521
  0
VERTEX
  8
Unknown_Area_Type
  10
290136.604
  20
4615837.879
  0
VERTEX
  8
Unknown_Area_Type
  10
290136.604
  20
4615837.898
  0
VERTEX
  8
Unknown_Area_Type
  10
292009.500
  20
4615837.898
  0
SEQEND
  8
Unknown_Area_Type
  0
INSERT
  8
FeatureAttribs
  2
FEATURE
  41
1
  42
1
  43
1
  50
0
  10
289866.222
  20
4615783.949
 66
1
  0
ATTRIB
  8
FeatureAttribs
 70
0
  1
PNOA-H_AMS_1956-57_33k_ES_PAN_2
  2
NAME
  10
289866.222
  20
4615783.949
 40
28.31206
  0
SEQEND
  0
POLYLINE
  8
Unknown_Area_Type
  70
1
  66
1
  0
VERTEX
  8
Unknown_Area_Type
  10
290127.594
  20
4615530.000
  0
VERTEX
  8
Unknown_Area_Type
  10
290030.000
  20
4615530.000
  0
VERTEX
  8
Unknown_Area_Type
  10
290030.000
  20
4615730.000
  0
VERTEX
  8
Unknown_Area_Type
  10
289595.840
  20
4615730.000
  0
VERTEX
  8
Unknown_Area_Type
  10
289595.840
  20
4615837.898
  0
VERTEX
  8
Unknown_Area_Type
  10
290135.951
  20
4615837.898
  0
VERTEX
  8
Unknown_Area_Type
  10
290136.604
  20
4615837.879
  0
VERTEX
  8
Unknown_Area_Type
  10
290127.594
  20
4615530.000
  0
SEQEND
  8
Unknown_Area_Type
  0
INSERT
  8
FeatureAttribs
  2
FEATURE
  41
1
  42
1
  43
1
  50
0
  10
291040.196
  20
4615670.698
 66
1
  0
ATTRIB
  8
FeatureAttribs
 70
0
  1
PNOA-H_AMS_1956-57_33k_ES_PAN_2
  2
NAME
  10
291040.196
  20
4615670.698
 40
28.31206
  0
SEQEND
  0
POLYLINE
  8
Unknown_Area_Type
  70
1
  66
1
  0
VERTEX
  8
Unknown_Area_Type
  10
292009.348
  20
4615783.521
  0
VERTEX
  8
Unknown_Area_Type
  10
292008.637
  20
4615530.000
  0
VERTEX
  8
Unknown_Area_Type
  10
290127.594
  20
4615530.000
  0
VERTEX
  8
Unknown_Area_Type
  10
290136.604
  20
4615837.879
  0
VERTEX
  8
Unknown_Area_Type
  10
292009.348
  20
4615783.521
  0
SEQEND
  8
Unknown_Area_Type
  0
INSERT
  8
FeatureAttribs
  2
FEATURE
  41
1
  42
1
  43
1
  50
0
  10
291040.196
  20
4615670.698
 66
1
  0
ATTRIB
  8
FeatureAttribs
 70
0
  1
PNOA-H_AMS_1956-57_33k_ES_PAN_2
  2
NAME
  10
291040.196
  20
4615670.698
 40
28.31206
  0
SEQEND
  0
POLYLINE
  8
Unknown_Area_Type
  70
1
  66
1
  0
VERTEX
  8
Unknown_Area_Type
  10
292009.348
  20
4615783.521
  0
VERTEX
  8
Unknown_Area_Type
  10
290136.604
  20
4615837.879
  0
VERTEX
  8
Unknown_Area_Type
  10
290127.594
  20
4615530.000
  0
VERTEX
  8
Unknown_Area_Type
  10
292008.637
  20
4615530.000
  0
VERTEX
  8
Unknown_Area_Type
  10
292009.348
  20
4615783.521
  0
SEQEND
  8
Unknown_Area_Type
  0
INSERT
  8
FeatureAttribs
  2
FEATURE
  41
1
  42
1
  43
1
  50
0
  10
299014.331
  20
4615481.338
 66
1
  0
ATTRIB
  8
FeatureAttribs
 70
0
  1
PNOA-H_AMS_1956-57_33k_ES_PAN_2
  2
NAME
  10
299014.331
  20
4615481.338
 40
28.31206
  0
SEQEND
  0
POLYLINE
  8
Unknown_Area_Type
  70
1
  66
1
  0
VERTEX
  8
Unknown_Area_Type
  10
300409.898
  20
4615544.600
  0
VERTEX
  8
Unknown_Area_Type
  10
300400.332
  20
4615340.000
  0
VERTEX
  8
Unknown_Area_Type
  10
297616.320
  20
4615340.000
  0
VERTEX
  8
Unknown_Area_Type
  10
297627.125
  20
4615622.676
  0
VERTEX
  8
Unknown_Area_Type
  10
300409.898
  20
4615544.600
  0
SEQEND
  8
Unknown_Area_Type
  0
INSERT
  8
FeatureAttribs
  2
FEATURE
  41
1
  42
1
  43
1
  50
0
  10
299014.331
  20
4615481.338
 66
1
  0
ATTRIB
  8
FeatureAttribs
 70
0
  1
PNOA-H_AMS_1956-57_33k_ES_PAN_2
  2
NAME
  10
299014.331
  20
4615481.338
 40
28.31206
  0
SEQEND
  0
POLYLINE
  8
Unknown_Area_Type
  70
1
  66
1
  0
VERTEX
  8
Unknown_Area_Type
  10
300409.898
  20
4615544.600
  0
VERTEX
  8
Unknown_Area_Type
  10
300400.332
  20
4615340.000
  0
VERTEX
  8
Unknown_Area_Type
  10
297616.320
  20
4615340.000
  0
VERTEX
  8
Unknown_Area_Type
  10
297627.125
  20
4615622.676
  0
VERTEX
  8
Unknown_Area_Type
  10
300409.898
  20
4615544.600
  0
SEQEND
  8
Unknown_Area_Type
  0
INSERT
  8
FeatureAttribs
  2
FEATURE
  41
1
  42
1
  43
1
  50
0
  10
299023.250
  20
4615691.249
 66
1
  0
ATTRIB
  8
FeatureAttribs
 70
0
  1
PNOA-H_AMS_1956-57_33k_ES_PAN_2
  2
NAME
  10
299023.250
  20
4615691.249
 40
28.31206
  0
SEQEND
  0
POLYLINE
  8
Unknown_Area_Type
  70
1
  66
1
  0
VERTEX
  8
Unknown_Area_Type
  10
300423.611
  20
4615837.898
  0
VERTEX
  8
Unknown_Area_Type
  10
300409.898
  20
4615544.600
  0
VERTEX
  8
Unknown_Area_Type
  10
297627.125
  20
4615622.676
  0
VERTEX
  8
Unknown_Area_Type
  10
297635.352
  20
4615837.898
  0
VERTEX
  8
Unknown_Area_Type
  10
300423.611
  20
4615837.898
  0
SEQEND
  8
Unknown_Area_Type
  0
INSERT
  8
FeatureAttribs
  2
FEATURE
  41
1
  42
1
  43
1
  50
0
  10
296213.569
  20
4615730.282
 66
1
  0
ATTRIB
  8
FeatureAttribs
 70
0
  1
PNOA-H_AMS_1956-57_33k_ES_PAN_2
  2
NAME
  10
296213.569
  20
4615730.282
 40
28.31206
  0
SEQEND
  0
POLYLINE
  8
Unknown_Area_Type
  70
1
  66
1
  0
VERTEX
  8
Unknown_Area_Type
  10
297635.694
  20
4615837.898
  0
VERTEX
  8
Unknown_Area_Type
  10
297627.486
  20
4615622.666
  0
VERTEX
  8
Unknown_Area_Type
  10
297074.738
  20
4615638.175
  0
VERTEX
  8
Unknown_Area_Type
  10
294794.277
  20
4615703.262
  0
VERTEX
  8
Unknown_Area_Type
  10
294800.606
  20
4615837.898
  0
VERTEX
  8
Unknown_Area_Type
  10
297635.694
  20
4615837.898
  0
SEQEND
  8
Unknown_Area_Type
  0
INSERT
  8
FeatureAttribs
  2
FEATURE
  41
1
  42
1
  43
1
  50
0
  10
296368.208
  20
4615558.156
 66
1
  0
ATTRIB
  8
FeatureAttribs
 70
0
  1
PNOA-H_AMS_1956-57_33k_ES_PAN_2
  2
NAME
  10
296368.208
  20
4615558.156
 40
28.31206
  0
SEQEND
  0
POLYLINE
  8
Unknown_Area_Type
  70
1
  66
1
  0
VERTEX
  8
Unknown_Area_Type
  10
297627.486
  20
4615622.666
  0
VERTEX
  8
Unknown_Area_Type
  10
297616.708
  20
4615340.000
  0
VERTEX
  8
Unknown_Area_Type
  10
296970.000
  20
4615340.000
  0
VERTEX
  8
Unknown_Area_Type
  10
296970.000
  20
4615530.000
  0
VERTEX
  8
Unknown_Area_Type
  10
294786.133
  20
4615530.000
  0
VERTEX
  8
Unknown_Area_Type
  10
294794.277
  20
4615703.262
  0
VERTEX
  8
Unknown_Area_Type
  10
297074.738
  20
4615638.175
  0
VERTEX
  8
Unknown_Area_Type
  10
297627.486
  20
4615622.666
  0
SEQEND
  8
Unknown_Area_Type
  0
INSERT
  8
FeatureAttribs
  2
FEATURE
  41
1
  42
1
  43
1
  50
0
  10
296368.208
  20
4615558.156
 66
1
  0
ATTRIB
  8
FeatureAttribs
 70
0
  1
PNOA-H_AMS_1956-57_33k_ES_PAN_2
  2
NAME
  10
296368.208
  20
4615558.156
 40
28.31206
  0
SEQEND
  0
POLYLINE
  8
Unknown_Area_Type
  70
1
  66
1
  0
VERTEX
  8
Unknown_Area_Type
  10
297627.486
  20
4615622.666
  0
VERTEX
  8
Unknown_Area_Type
  10
297074.738
  20
4615638.175
  0
VERTEX
  8
Unknown_Area_Type
  10
294794.277
  20
4615703.262
  0
VERTEX
  8
Unknown_Area_Type
  10
294786.133
  20
4615530.000
  0
VERTEX
  8
Unknown_Area_Type
  10
296970.000
  20
4615530.000
  0
VERTEX
  8
Unknown_Area_Type
  10
296970.000
  20
4615340.000
  0
VERTEX
  8
Unknown_Area_Type
  10
297616.708
  20
4615340.000
  0
VERTEX
  8
Unknown_Area_Type
  10
297627.486
  20
4615622.666
  0
SEQEND
  8
Unknown_Area_Type
  0
INSERT
  8
FeatureAttribs
  2
FEATURE
  41
1
  42
1
  43
1
  50
0
  10
293626.316
  20
4615770.580
 66
1
  0
ATTRIB
  8
FeatureAttribs
 70
0
  1
PNOA-H_AMS_1956-57_33k_ES_PAN_2
  2
NAME
  10
293626.316
  20
4615770.580
 40
28.31206
  0
SEQEND
  0
POLYLINE
  8
Unknown_Area_Type
  70
1
  66
1
  0
VERTEX
  8
Unknown_Area_Type
  10
294800.606
  20
4615837.898
  0
VERTEX
  8
Unknown_Area_Type
  10
294794.277
  20
4615703.262
  0
VERTEX
  8
Unknown_Area_Type
  10
293605.677
  20
4615737.186
  0
VERTEX
  8
Unknown_Area_Type
  10
292009.348
  20
4615783.521
  0
VERTEX
  8
Unknown_Area_Type
  10
292009.500
  20
4615837.898
  0
VERTEX
  8
Unknown_Area_Type
  10
294800.606
  20
4615837.898
  0
SEQEND
  8
Unknown_Area_Type
  0
INSERT
  8
FeatureAttribs
  2
FEATURE
  41
1
  42
1
  43
1
  50
0
  10
293312.450
  20
4615637.930
 66
1
  0
ATTRIB
  8
FeatureAttribs
 70
0
  1
PNOA-H_AMS_1956-57_33k_ES_PAN_2
  2
NAME
  10
293312.450
  20
4615637.930
 40
28.31206
  0
SEQEND
  0
POLYLINE
  8
Unknown_Area_Type
  70
1
  66
1
  0
VERTEX
  8
Unknown_Area_Type
  10
294794.277
  20
4615703.262
  0
VERTEX
  8
Unknown_Area_Type
  10
294786.133
  20
4615530.000
  0
VERTEX
  8
Unknown_Area_Type
  10
292008.637
  20
4615530.000
  0
VERTEX
  8
Unknown_Area_Type
  10
292009.348
  20
4615783.521
  0
VERTEX
  8
Unknown_Area_Type
  10
293605.677
  20
4615737.186
  0
VERTEX
  8
Unknown_Area_Type
  10
294794.277
  20
4615703.262
  0
SEQEND
  8
Unknown_Area_Type
  0
INSERT
  8
FeatureAttribs
  2
FEATURE
  41
1
  42
1
  43
1
  50
0
  10
293312.450
  20
4615637.930
 66
1
  0
ATTRIB
  8
FeatureAttribs
 70
0
  1
PNOA-H_AMS_1956-57_33k_ES_PAN_2
  2
NAME
  10
293312.450
  20
4615637.930
 40
28.31206
  0
SEQEND
  0
POLYLINE
  8
Unknown_Area_Type
  70
1
  66
1
  0
VERTEX
  8
Unknown_Area_Type
  10
294794.277
  20
4615703.262
  0
VERTEX
  8
Unknown_Area_Type
  10
293605.677
  20
4615737.186
  0
VERTEX
  8
Unknown_Area_Type
  10
292009.348
  20
4615783.521
  0
VERTEX
  8
Unknown_Area_Type
  10
292008.637
  20
4615530.000
  0
VERTEX
  8
Unknown_Area_Type
  10
294786.133
  20
4615530.000
  0
VERTEX
  8
Unknown_Area_Type
  10
294794.277
  20
4615703.262
  0
SEQEND
  8
Unknown_Area_Type
  0
INSERT
  8
FeatureAttribs
  2
FEATURE
  41
1
  42
1
  43
1
  50
0
  10
304945.670
  20
4615309.022
 66
1
  0
ATTRIB
  8
FeatureAttribs
 70
0
  1
PNOA-H_AMS_1956-57_33k_ES_PAN_2
  2
NAME
  10
304945.670
  20
4615309.022
 40
28.31206
  0
SEQEND
  0
POLYLINE
  8
Unknown_Area_Type
  70
1
  66
1
  0
VERTEX
  8
Unknown_Area_Type
  10
305987.638
  20
4615391.698
  0
VERTEX
  8
Unknown_Area_Type
  10
305969.225
  20
4615150.000
  0
VERTEX
  8
Unknown_Area_Type
  10
303910.000
  20
4615150.000
  0
VERTEX
  8
Unknown_Area_Type
  10
303910.000
  20
4615340.000
  0
VERTEX
  8
Unknown_Area_Type
  10
303177.268
  20
4615340.000
  0
VERTEX
  8
Unknown_Area_Type
  10
303184.072
  20
4615468.043
  0
VERTEX
  8
Unknown_Area_Type
  10
304012.821
  20
4615445.193
  0
VERTEX
  8
Unknown_Area_Type
  10
305987.638
  20
4615391.698
  0
SEQEND
  8
Unknown_Area_Type
  0
INSERT
  8
FeatureAttribs
  2
FEATURE
  41
1
  42
1
  43
1
  50
0
  10
304945.670
  20
4615309.022
 66
1
  0
ATTRIB
  8
FeatureAttribs
 70
0
  1
PNOA-H_AMS_1956-57_33k_ES_PAN_2
  2
NAME
  10
304945.670
  20
4615309.022
 40
28.31206
  0
SEQEND
  0
POLYLINE
  8
Unknown_Area_Type
  70
1
  66
1
  0
VERTEX
  8
Unknown_Area_Type
  10
305987.638
  20
4615391.698
  0
VERTEX
  8
Unknown_Area_Type
  10
305969.225
  20
4615150.000
  0
VERTEX
  8
Unknown_Area_Type
  10
303910.000
  20
4615150.000
  0
VERTEX
  8
Unknown_Area_Type
  10
303910.000
  20
4615340.000
  0
VERTEX
  8
Unknown_Area_Type
  10
303177.268
  20
4615340.000
  0
VERTEX
  8
Unknown_Area_Type
  10
303184.072
  20
4615468.043
  0
VERTEX
  8
Unknown_Area_Type
  10
304012.821
  20
4615445.193
  0
VERTEX
  8
Unknown_Area_Type
  10
305987.638
  20
4615391.698
  0
SEQEND
  8
Unknown_Area_Type
  0
INSERT
  8
FeatureAttribs
  2
FEATURE
  41
1
  42
1
  43
1
  50
0
  10
304598.253
  20
4615614.798
 66
1
  0
ATTRIB
  8
FeatureAttribs
 70
0
  1
PNOA-H_AMS_1956-57_33k_ES_PAN_2
  2
NAME
  10
304598.253
  20
4615614.798
 40
28.31206
  0
SEQEND
  0
POLYLINE
  8
Unknown_Area_Type
  70
1
  66
1
  0
VERTEX
  8
Unknown_Area_Type
  10
306021.632
  20
4615837.898
  0
VERTEX
  8
Unknown_Area_Type
  10
305987.638
  20
4615391.698
  0
VERTEX
  8
Unknown_Area_Type
  10
304012.821
  20
4615445.193
  0
VERTEX
  8
Unknown_Area_Type
  10
303184.072
  20
4615468.043
  0
VERTEX
  8
Unknown_Area_Type
  10
303203.727
  20
4615837.898
  0
VERTEX
  8
Unknown_Area_Type
  10
306021.632
  20
4615837.898
  0
SEQEND
  8
Unknown_Area_Type
  0
INSERT
  8
FeatureAttribs
  2
FEATURE
  41
1
  42
1
  43
1
  50
0
  10
313037.248
  20
4615105.834
 66
1
  0
ATTRIB
  8
FeatureAttribs
 70
0
  1
PNOA-H_AMS_1956-57_33k_ES_PAN_2
  2
NAME
  10
313037.248
  20
4615105.834
 40
28.31206
  0
SEQEND
  0
POLYLINE
  8
Unknown_Area_Type
  70
1
  66
1
  0
VERTEX
  8
Unknown_Area_Type
  10
314468.188
  20
4615167.083
  0
VERTEX
  8
Unknown_Area_Type
  10
314467.347
  20
4614970.000
  0
VERTEX
  8
Unknown_Area_Type
  10
311601.371
  20
4614970.000
  0
VERTEX
  8
Unknown_Area_Type
  10
311611.766
  20
4615241.669
  0
VERTEX
  8
Unknown_Area_Type
  10
314419.856
  20
4615168.322
  0
VERTEX
  8
Unknown_Area_Type
  10
314468.188
  20
4615167.083
  0
SEQEND
  8
Unknown_Area_Type
  0
INSERT
  8
FeatureAttribs
  2
FEATURE
  41
1
  42
1
  43
1
  50
0
  10
313037.248
  20
4615105.834
 66
1
  0
ATTRIB
  8
FeatureAttribs
 70
0
  1
PNOA-H_AMS_1956-57_33k_ES_PAN_2
  2
NAME
  10
313037.248
  20
4615105.834
 40
28.31206
  0
SEQEND
  0
POLYLINE
  8
Unknown_Area_Type
  70
1
  66
1
  0
VERTEX
  8
Unknown_Area_Type
  10
314468.188
  20
4615167.083
  0
VERTEX
  8
Unknown_Area_Type
  10
314467.347
  20
4614970.000
  0
VERTEX
  8
Unknown_Area_Type
  10
311601.371
  20
4614970.000
  0
VERTEX
  8
Unknown_Area_Type
  10
311611.766
  20
4615241.669
  0
VERTEX
  8
Unknown_Area_Type
  10
314419.856
  20
4615168.322
  0
VERTEX
  8
Unknown_Area_Type
  10
314468.188
  20
4615167.083
  0
SEQEND
  8
Unknown_Area_Type
  0
INSERT
  8
FeatureAttribs
  2
FEATURE
  41
1
  42
1
  43
1
  50
0
  10
313045.683
  20
4615502.490
 66
1
  0
ATTRIB
  8
FeatureAttribs
 70
0
  1
PNOA-H_AMS_1956-57_33k_ES_PAN_2
  2
NAME
  10
313045.683
  20
4615502.490
 40
28.31206
  0
SEQEND
  0
POLYLINE
  8
Unknown_Area_Type
  70
1
  66
1
  0
VERTEX
  8
Unknown_Area_Type
  10
314471.054
  20
4615837.898
  0
VERTEX
  8
Unknown_Area_Type
  10
314468.188
  20
4615167.083
  0
VERTEX
  8
Unknown_Area_Type
  10
314419.856
  20
4615168.322
  0
VERTEX
  8
Unknown_Area_Type
  10
311611.766
  20
4615241.669
  0
VERTEX
  8
Unknown_Area_Type
  10
311634.577
  20
4615837.898
  0
VERTEX
  8
Unknown_Area_Type
  10
314471.054
  20
4615837.898
  0
SEQEND
  8
Unknown_Area_Type
  0
INSERT
  8
FeatureAttribs
  2
FEATURE
  41
1
  42
1
  43
1
  50
0
  10
307411.655
  20
4615270.855
 66
1
  0
ATTRIB
  8
FeatureAttribs
 70
0
  1
PNOA-H_AMS_1956-57_33k_ES_PAN_2
  2
NAME
  10
307411.655
  20
4615270.855
 40
28.31206
  0
SEQEND
  0
POLYLINE
  8
Unknown_Area_Type
  70
1
  66
1
  0
VERTEX
  8
Unknown_Area_Type
  10
308846.941
  20
4615314.905
  0
VERTEX
  8
Unknown_Area_Type
  10
308840.836
  20
4615150.000
  0
VERTEX
  8
Unknown_Area_Type
  10
305968.794
  20
4615150.000
  0
VERTEX
  8
Unknown_Area_Type
  10
305987.207
  20
4615391.709
  0
VERTEX
  8
Unknown_Area_Type
  10
307481.844
  20
4615351.222
  0
VERTEX
  8
Unknown_Area_Type
  10
308846.941
  20
4615314.905
  0
SEQEND
  8
Unknown_Area_Type
  0
INSERT
  8
FeatureAttribs
  2
FEATURE
  41
1
  42
1
  43
1
  50
0
  10
307411.655
  20
4615270.855
 66
1
  0
ATTRIB
  8
FeatureAttribs
 70
0
  1
PNOA-H_AMS_1956-57_33k_ES_PAN_2
  2
NAME
  10
307411.655
  20
4615270.855
 40
28.31206
  0
SEQEND
  0
POLYLINE
  8
Unknown_Area_Type
  70
1
  66
1
  0
VERTEX
  8
Unknown_Area_Type
  10
308846.941
  20
4615314.905
  0
VERTEX
  8
Unknown_Area_Type
  10
308840.836
  20
4615150.000
  0
VERTEX
  8
Unknown_Area_Type
  10
305968.794
  20
4615150.000
  0
VERTEX
  8
Unknown_Area_Type
  10
305987.207
  20
4615391.709
  0
VERTEX
  8
Unknown_Area_Type
  10
307481.844
  20
4615351.222
  0
VERTEX
  8
Unknown_Area_Type
  10
308846.941
  20
4615314.905
  0
SEQEND
  8
Unknown_Area_Type
  0
INSERT
  8
FeatureAttribs
  2
FEATURE
  41
1
  42
1
  43
1
  50
0
  10
307428.949
  20
4615576.401
 66
1
  0
ATTRIB
  8
FeatureAttribs
 70
0
  1
PNOA-H_AMS_1956-57_33k_ES_PAN_2
  2
NAME
  10
307428.949
  20
4615576.401
 40
28.31206
  0
SEQEND
  0
POLYLINE
  8
Unknown_Area_Type
  70
1
  66
1
  0
VERTEX
  8
Unknown_Area_Type
  10
308866.303
  20
4615837.898
  0
VERTEX
  8
Unknown_Area_Type
  10
308846.941
  20
4615314.905
  0
VERTEX
  8
Unknown_Area_Type
  10
307481.844
  20
4615351.222
  0
VERTEX
  8
Unknown_Area_Type
  10
305987.207
  20
4615391.709
  0
VERTEX
  8
Unknown_Area_Type
  10
306021.196
  20
4615837.898
  0
VERTEX
  8
Unknown_Area_Type
  10
308866.303
  20
4615837.898
  0
SEQEND
  8
Unknown_Area_Type
  0
INSERT
  8
FeatureAttribs
  2
FEATURE
  41
1
  42
1
  43
1
  50
0
  10
310226.498
  20
4615214.101
 66
1
  0
ATTRIB
  8
FeatureAttribs
 70
0
  1
PNOA-H_AMS_1956-57_33k_ES_PAN_2
  2
NAME
  10
310226.498
  20
4615214.101
 40
28.31206
  0
SEQEND
  0
POLYLINE
  8
Unknown_Area_Type
  70
1
  66
1
  0
VERTEX
  8
Unknown_Area_Type
  10
311611.785
  20
4615241.668
  0
VERTEX
  8
Unknown_Area_Type
  10
311601.391
  20
4614970.000
  0
VERTEX
  8
Unknown_Area_Type
  10
310850.000
  20
4614970.000
  0
VERTEX
  8
Unknown_Area_Type
  10
310850.000
  20
4615150.000
  0
VERTEX
  8
Unknown_Area_Type
  10
308841.211
  20
4615150.000
  0
VERTEX
  8
Unknown_Area_Type
  10
308847.292
  20
4615314.895
  0
VERTEX
  8
Unknown_Area_Type
  10
310950.856
  20
4615258.932
  0
VERTEX
  8
Unknown_Area_Type
  10
311611.785
  20
4615241.668
  0
SEQEND
  8
Unknown_Area_Type
  0
INSERT
  8
FeatureAttribs
  2
FEATURE
  41
1
  42
1
  43
1
  50
0
  10
310226.498
  20
4615214.101
 66
1
  0
ATTRIB
  8
FeatureAttribs
 70
0
  1
PNOA-H_AMS_1956-57_33k_ES_PAN_2
  2
NAME
  10
310226.498
  20
4615214.101
 40
28.31206
  0
SEQEND
  0
POLYLINE
  8
Unknown_Area_Type
  70
1
  66
1
  0
VERTEX
  8
Unknown_Area_Type
  10
311611.785
  20
4615241.668
  0
VERTEX
  8
Unknown_Area_Type
  10
311601.391
  20
4614970.000
  0
VERTEX
  8
Unknown_Area_Type
  10
310850.000
  20
4614970.000
  0
VERTEX
  8
Unknown_Area_Type
  10
310850.000
  20
4615150.000
  0
VERTEX
  8
Unknown_Area_Type
  10
308841.211
  20
4615150.000
  0
VERTEX
  8
Unknown_Area_Type
  10
308847.292
  20
4615314.895
  0
VERTEX
  8
Unknown_Area_Type
  10
310950.856
  20
4615258.932
  0
VERTEX
  8
Unknown_Area_Type
  10
311611.785
  20
4615241.668
  0
SEQEND
  8
Unknown_Area_Type
  0
INSERT
  8
FeatureAttribs
  2
FEATURE
  41
1
  42
1
  43
1
  50
0
  10
310239.388
  20
4615539.783
 66
1
  0
ATTRIB
  8
FeatureAttribs
 70
0
  1
PNOA-H_AMS_1956-57_33k_ES_PAN_2
  2
NAME
  10
310239.388
  20
4615539.783
 40
28.31206
  0
SEQEND
  0
POLYLINE
  8
Unknown_Area_Type
  70
1
  66
1
  0
VERTEX
  8
Unknown_Area_Type
  10
311634.596
  20
4615837.898
  0
VERTEX
  8
Unknown_Area_Type
  10
311611.785
  20
4615241.668
  0
VERTEX
  8
Unknown_Area_Type
  10
310950.856
  20
4615258.932
  0
VERTEX
  8
Unknown_Area_Type
  10
308847.292
  20
4615314.895
  0
VERTEX
  8
Unknown_Area_Type
  10
308866.579
  20
4615837.898
  0
VERTEX
  8
Unknown_Area_Type
  10
311634.596
  20
4615837.898
  0
SEQEND
  8
Unknown_Area_Type
  0
INSERT
  8
FeatureAttribs
  2
FEATURE
  41
1
  42
1
  43
1
  50
0
  10
315867.514
  20
4615068.541
 66
1
  0
ATTRIB
  8
FeatureAttribs
 70
0
  1
PNOA-H_AMS_1956-57_33k_ES_PAN_2
  2
NAME
  10
315867.514
  20
4615068.541
 40
28.31206
  0
SEQEND
  0
POLYLINE
  8
Unknown_Area_Type
  70
1
  66
1
  0
VERTEX
  8
Unknown_Area_Type
  10
317267.741
  20
4615095.314
  0
VERTEX
  8
Unknown_Area_Type
  10
317265.504
  20
4614970.000
  0
VERTEX
  8
Unknown_Area_Type
  10
314467.345
  20
4614970.000
  0
VERTEX
  8
Unknown_Area_Type
  10
314468.187
  20
4615167.083
  0
VERTEX
  8
Unknown_Area_Type
  10
317267.741
  20
4615095.314
  0
SEQEND
  8
Unknown_Area_Type
  0
INSERT
  8
FeatureAttribs
  2
FEATURE
  41
1
  42
1
  43
1
  50
0
  10
315867.514
  20
4615068.541
 66
1
  0
ATTRIB
  8
FeatureAttribs
 70
0
  1
PNOA-H_AMS_1956-57_33k_ES_PAN_2
  2
NAME
  10
315867.514
  20
4615068.541
 40
28.31206
  0
SEQEND
  0
POLYLINE
  8
Unknown_Area_Type
  70
1
  66
1
  0
VERTEX
  8
Unknown_Area_Type
  10
317267.741
  20
4615095.314
  0
VERTEX
  8
Unknown_Area_Type
  10
317265.504
  20
4614970.000
  0
VERTEX
  8
Unknown_Area_Type
  10
314467.345
  20
4614970.000
  0
VERTEX
  8
Unknown_Area_Type
  10
314468.187
  20
4615167.083
  0
VERTEX
  8
Unknown_Area_Type
  10
317267.741
  20
4615095.314
  0
SEQEND
  8
Unknown_Area_Type
  0
INSERT
  8
FeatureAttribs
  2
FEATURE
  41
1
  42
1
  43
1
  50
0
  10
315871.918
  20
4615466.606
 66
1
  0
ATTRIB
  8
FeatureAttribs
 70
0
  1
PNOA-H_AMS_1956-57_33k_ES_PAN_2
  2
NAME
  10
315871.918
  20
4615466.606
 40
28.31206
  0
SEQEND
  0
POLYLINE
  8
Unknown_Area_Type
  70
1
  66
1
  0
VERTEX
  8
Unknown_Area_Type
  10
317280.997
  20
4615837.898
  0
VERTEX
  8
Unknown_Area_Type
  10
317267.741
  20
4615095.314
  0
VERTEX
  8
Unknown_Area_Type
  10
314468.187
  20
4615167.083
  0
VERTEX
  8
Unknown_Area_Type
  10
314471.053
  20
4615837.898
  0
VERTEX
  8
Unknown_Area_Type
  10
317280.997
  20
4615837.898
  0
SEQEND
  8
Unknown_Area_Type
  0
INSERT
  8
FeatureAttribs
  2
FEATURE
  41
1
  42
1
  43
1
  50
0
  10
301793.745
  20
4615442.300
 66
1
  0
ATTRIB
  8
FeatureAttribs
 70
0
  1
PNOA-H_AMS_1956-57_33k_ES_PAN_2
  2
NAME
  10
301793.745
  20
4615442.300
 40
28.31206
  0
SEQEND
  0
POLYLINE
  8
Unknown_Area_Type
  70
1
  66
1
  0
VERTEX
  8
Unknown_Area_Type
  10
303183.733
  20
4615468.053
  0
VERTEX
  8
Unknown_Area_Type
  10
303182.000
  20
4615435.500
  0
VERTEX
  8
Unknown_Area_Type
  10
303182.000
  20
4615432.000
  0
VERTEX
  8
Unknown_Area_Type
  10
303177.126
  20
4615340.000
  0
VERTEX
  8
Unknown_Area_Type
  10
300400.332
  20
4615340.000
  0
VERTEX
  8
Unknown_Area_Type
  10
300409.923
  20
4615544.599
  0
VERTEX
  8
Unknown_Area_Type
  10
300543.785
  20
4615540.843
  0
VERTEX
  8
Unknown_Area_Type
  10
303183.733
  20
4615468.053
  0
SEQEND
  8
Unknown_Area_Type
  0
INSERT
  8
FeatureAttribs
  2
FEATURE
  41
1
  42
1
  43
1
  50
0
  10
301793.745
  20
4615442.300
 66
1
  0
ATTRIB
  8
FeatureAttribs
 70
0
  1
PNOA-H_AMS_1956-57_33k_ES_PAN_2
  2
NAME
  10
301793.745
  20
4615442.300
 40
28.31206
  0
SEQEND
  0
POLYLINE
  8
Unknown_Area_Type
  70
1
  66
1
  0
VERTEX
  8
Unknown_Area_Type
  10
303183.733
  20
4615468.053
  0
VERTEX
  8
Unknown_Area_Type
  10
303182.000
  20
4615435.500
  0
VERTEX
  8
Unknown_Area_Type
  10
303182.000
  20
4615432.000
  0
VERTEX
  8
Unknown_Area_Type
  10
303177.126
  20
4615340.000
  0
VERTEX
  8
Unknown_Area_Type
  10
300400.332
  20
4615340.000
  0
VERTEX
  8
Unknown_Area_Type
  10
300409.923
  20
4615544.599
  0
VERTEX
  8
Unknown_Area_Type
  10
300543.785
  20
4615540.843
  0
VERTEX
  8
Unknown_Area_Type
  10
303183.733
  20
4615468.053
  0
SEQEND
  8
Unknown_Area_Type
  0
INSERT
  8
FeatureAttribs
  2
FEATURE
  41
1
  42
1
  43
1
  50
0
  10
301804.290
  20
4615652.975
 66
1
  0
ATTRIB
  8
FeatureAttribs
 70
0
  1
PNOA-H_AMS_1956-57_33k_ES_PAN_2
  2
NAME
  10
301804.290
  20
4615652.975
 40
28.31206
  0
SEQEND
  0
POLYLINE
  8
Unknown_Area_Type
  70
1
  66
1
  0
VERTEX
  8
Unknown_Area_Type
  10
303203.421
  20
4615837.898
  0
VERTEX
  8
Unknown_Area_Type
  10
303183.733
  20
4615468.053
  0
VERTEX
  8
Unknown_Area_Type
  10
300543.785
  20
4615540.843
  0
VERTEX
  8
Unknown_Area_Type
  10
300409.923
  20
4615544.599
  0
VERTEX
  8
Unknown_Area_Type
  10
300423.673
  20
4615837.898
  0
VERTEX
  8
Unknown_Area_Type
  10
303203.421
  20
4615837.898
  0
SEQEND
  8
Unknown_Area_Type
  0
INSERT
  8
FeatureAttribs
  2
FEATURE
  41
1
  42
1
  43
1
  50
0
  10
317577.174
  20
4615028.691
 66
1
  0
ATTRIB
  8
FeatureAttribs
 70
0
  1
PNOA-H_AMS_1956-57_33k_ES_PAN_2
  2
NAME
  10
317577.174
  20
4615028.691
 40
28.31206
  0
SEQEND
  0
POLYLINE
  8
Unknown_Area_Type
  70
1
  66
1
  0
VERTEX
  8
Unknown_Area_Type
  10
317881.750
  20
4614800.000
  0
VERTEX
  8
Unknown_Area_Type
  10
317780.000
  20
4614800.000
  0
VERTEX
  8
Unknown_Area_Type
  10
317780.000
  20
4614970.000
  0
VERTEX
  8
Unknown_Area_Type
  10
317265.504
  20
4614970.000
  0
VERTEX
  8
Unknown_Area_Type
  10
317267.741
  20
4615095.314
  0
VERTEX
  8
Unknown_Area_Type
  10
317888.844
  20
4615079.391
  0
VERTEX
  8
Unknown_Area_Type
  10
317881.750
  20
4614800.000
  0
SEQEND
  8
Unknown_Area_Type
  0
INSERT
  8
FeatureAttribs
  2
FEATURE
  41
1
  42
1
  43
1
  50
0
  10
317888.858
  20
4615079.670
 66
1
  0
ATTRIB
  8
FeatureAttribs
 70
0
  1
PNOA-H_AMS_1956-57_33k_ES_PAN_2
  2
NAME
  10
317888.858
  20
4615079.670
 40
28.31206
  0
SEQEND
  0
POLYLINE
  8
Unknown_Area_Type
  70
1
  66
1
  0
VERTEX
  8
Unknown_Area_Type
  10
317888.872
  20
4615080.505
  0
VERTEX
  8
Unknown_Area_Type
  10
317888.872
  20
4615079.391
  0
VERTEX
  8
Unknown_Area_Type
  10
317888.844
  20
4615079.391
  0
VERTEX
  8
Unknown_Area_Type
  10
317888.872
  20
4615080.505
  0
SEQEND
  8
Unknown_Area_Type
  0
INSERT
  8
FeatureAttribs
  2
FEATURE
  41
1
  42
1
  43
1
  50
0
  10
317577.174
  20
4615028.691
 66
1
  0
ATTRIB
  8
FeatureAttribs
 70
0
  1
PNOA-H_AMS_1956-57_33k_ES_PAN_2
  2
NAME
  10
317577.174
  20
4615028.691
 40
28.31206
  0
SEQEND
  0
POLYLINE
  8
Unknown_Area_Type
  70
1
  66
1
  0
VERTEX
  8
Unknown_Area_Type
  10
317881.750
  20
4614800.000
  0
VERTEX
  8
Unknown_Area_Type
  10
317780.000
  20
4614800.000
  0
VERTEX
  8
Unknown_Area_Type
  10
317780.000
  20
4614970.000
  0
VERTEX
  8
Unknown_Area_Type
  10
317265.504
  20
4614970.000
  0
VERTEX
  8
Unknown_Area_Type
  10
317267.741
  20
4615095.314
  0
VERTEX
  8
Unknown_Area_Type
  10
317888.844
  20
4615079.391
  0
VERTEX
  8
Unknown_Area_Type
  10
317881.750
  20
4614800.000
  0
SEQEND
  8
Unknown_Area_Type
  0
INSERT
  8
FeatureAttribs
  2
FEATURE
  41
1
  42
1
  43
1
  50
0
  10
317887.084
  20
4614939.696
 66
1
  0
ATTRIB
  8
FeatureAttribs
 70
0
  1
PNOA-H_AMS_1956-57_33k_ES_PAN_2
  2
NAME
  10
317887.084
  20
4614939.696
 40
28.31206
  0
SEQEND
  0
POLYLINE
  8
Unknown_Area_Type
  70
1
  66
1
  0
VERTEX
  8
Unknown_Area_Type
  10
317888.872
  20
4614800.000
  0
VERTEX
  8
Unknown_Area_Type
  10
317881.750
  20
4614800.000
  0
VERTEX
  8
Unknown_Area_Type
  10
317888.844
  20
4615079.391
  0
VERTEX
  8
Unknown_Area_Type
  10
317888.872
  20
4615079.391
  0
VERTEX
  8
Unknown_Area_Type
  10
317888.872
  20
4614800.000
  0
SEQEND
  8
Unknown_Area_Type
  0
INSERT
  8
FeatureAttribs
  2
FEATURE
  41
1
  42
1
  43
1
  50
0
  10
317581.549
  20
4615458.645
 66
1
  0
ATTRIB
  8
FeatureAttribs
 70
0
  1
PNOA-H_AMS_1956-57_33k_ES_PAN_2
  2
NAME
  10
317581.549
  20
4615458.645
 40
28.31206
  0
SEQEND
  0
POLYLINE
  8
Unknown_Area_Type
  70
1
  66
1
  0
VERTEX
  8
Unknown_Area_Type
  10
317280.997
  20
4615837.898
  0
VERTEX
  8
Unknown_Area_Type
  10
317888.872
  20
4615837.898
  0
VERTEX
  8
Unknown_Area_Type
  10
317888.872
  20
4615080.505
  0
VERTEX
  8
Unknown_Area_Type
  10
317888.844
  20
4615079.391
  0
VERTEX
  8
Unknown_Area_Type
  10
317267.741
  20
4615095.314
  0
VERTEX
  8
Unknown_Area_Type
  10
317280.997
  20
4615837.898
  0
SEQEND
  8
Unknown_Area_Type
  0
ENDSEC
  0
EOF
