  0
SECTION
  2
HEADER
  9
$ACADVER
  1
AC1009
  9
$LUNITS
  70
2
  9
$LIMMIN
  10
261771.132
  20
4598189.219
  9
$LIMMAX
  10
290136.632
  20
4616703.957
  9
$EXTMIN
  10
261771.132
  20
4598189.219
  9
$EXTMAX
  10
290136.632
  20
4616703.957
  999
Created by Global Mapper
  999
Projection: UTM
  999
Datum: ETRS89
  999
Ground Units: meters
  999
ZONE: 30
  0
ENDSEC
  0
SECTION
  2
TABLES
  0
ENDSEC
  0
SECTION
  2
BLOCKS
  0
BLOCK
  8
FeatureAttribs
  70
0
  2
FEATURE
  3
FEATURE
  10
0.00000000
  20
0.00000000
  0
ATTDEF
  8
FeatureAttribs
  70
0
  1
 
  2
NAME
  3
NAME
  10
0.00000000
  20
0.00000000
  40
1.00000000
  0
ENDBLK
  0
ENDSEC
  0
SECTION
  2
ENTITIES
  0
INSERT
  8
FeatureAttribs
  2
FEATURE
  41
1
  42
1
  43
1
  50
0
  10
261780.581
  20
4598768.776
 66
1
  0
ATTRIB
  8
FeatureAttribs
 70
0
  1
PNOA-H_AMS_1956-57_33k_ES_PAN_2
  2
NAME
  10
261780.581
  20
4598768.776
 40
33.87325
  0
SEQEND
  0
POLYLINE
  8
Unknown_Area_Type
  70
1
  66
1
  0
VERTEX
  8
Unknown_Area_Type
  10
261808.900
  20
4599339.843
  0
VERTEX
  8
Unknown_Area_Type
  10
261771.161
  20
4598197.708
  0
VERTEX
  8
Unknown_Area_Type
  10
261771.132
  20
4598197.709
  0
VERTEX
  8
Unknown_Area_Type
  10
261771.132
  20
4599332.049
  0
VERTEX
  8
Unknown_Area_Type
  10
261808.900
  20
4599339.843
  0
SEQEND
  8
Unknown_Area_Type
  0
INSERT
  8
FeatureAttribs
  2
FEATURE
  41
1
  42
1
  43
1
  50
0
  10
261771.147
  20
4598197.493
 66
1
  0
ATTRIB
  8
FeatureAttribs
 70
0
  1
PNOA-H_AMS_1956-57_33k_ES_PAN_2
  2
NAME
  10
261771.147
  20
4598197.493
 40
33.87325
  0
SEQEND
  0
POLYLINE
  8
Unknown_Area_Type
  70
1
  66
1
  0
VERTEX
  8
Unknown_Area_Type
  10
261771.132
  20
4598197.709
  0
VERTEX
  8
Unknown_Area_Type
  10
261771.161
  20
4598197.708
  0
VERTEX
  8
Unknown_Area_Type
  10
261771.132
  20
4598196.849
  0
VERTEX
  8
Unknown_Area_Type
  10
261771.132
  20
4598197.709
  0
SEQEND
  8
Unknown_Area_Type
  0
INSERT
  8
FeatureAttribs
  2
FEATURE
  41
1
  42
1
  43
1
  50
0
  10
261910.739
  20
4598762.440
 66
1
  0
ATTRIB
  8
FeatureAttribs
 70
0
  1
PNOA-H_AMS_1956-57_33k_ES_PAN_2
  2
NAME
  10
261910.739
  20
4598762.440
 40
33.87325
  0
SEQEND
  0
POLYLINE
  8
Unknown_Area_Type
  70
1
  66
1
  0
VERTEX
  8
Unknown_Area_Type
  10
262030.000
  20
4598189.219
  0
VERTEX
  8
Unknown_Area_Type
  10
261771.161
  20
4598197.708
  0
VERTEX
  8
Unknown_Area_Type
  10
261808.900
  20
4599339.843
  0
VERTEX
  8
Unknown_Area_Type
  10
262030.000
  20
4599385.477
  0
VERTEX
  8
Unknown_Area_Type
  10
262030.000
  20
4598189.219
  0
SEQEND
  8
Unknown_Area_Type
  0
INSERT
  8
FeatureAttribs
  2
FEATURE
  41
1
  42
1
  43
1
  50
0
  10
261910.739
  20
4598762.440
 66
1
  0
ATTRIB
  8
FeatureAttribs
 70
0
  1
PNOA-H_AMS_1956-57_33k_ES_PAN_2
  2
NAME
  10
261910.739
  20
4598762.440
 40
33.87325
  0
SEQEND
  0
POLYLINE
  8
Unknown_Area_Type
  70
1
  66
1
  0
VERTEX
  8
Unknown_Area_Type
  10
262030.000
  20
4598189.219
  0
VERTEX
  8
Unknown_Area_Type
  10
262030.000
  20
4599385.477
  0
VERTEX
  8
Unknown_Area_Type
  10
261808.900
  20
4599339.843
  0
VERTEX
  8
Unknown_Area_Type
  10
261771.161
  20
4598197.708
  0
VERTEX
  8
Unknown_Area_Type
  10
262030.000
  20
4598189.219
  0
SEQEND
  8
Unknown_Area_Type
  0
INSERT
  8
FeatureAttribs
  2
FEATURE
  41
1
  42
1
  43
1
  50
0
  10
262984.229
  20
4616527.087
 66
1
  0
ATTRIB
  8
FeatureAttribs
 70
0
  1
PNOA-H_AMS_1956-57_33k_ES_PAN_2
  2
NAME
  10
262984.229
  20
4616527.087
 40
33.87325
  0
SEQEND
  0
POLYLINE
  8
Unknown_Area_Type
  70
1
  66
1
  0
VERTEX
  8
Unknown_Area_Type
  10
263615.813
  20
4616663.393
  0
VERTEX
  8
Unknown_Area_Type
  10
263599.983
  20
4616370.000
  0
VERTEX
  8
Unknown_Area_Type
  10
262490.000
  20
4616370.000
  0
VERTEX
  8
Unknown_Area_Type
  10
262490.000
  20
4615775.660
  0
VERTEX
  8
Unknown_Area_Type
  10
262352.646
  20
4615771.927
  0
VERTEX
  8
Unknown_Area_Type
  10
262383.530
  20
4616703.937
  0
VERTEX
  8
Unknown_Area_Type
  10
263615.813
  20
4616663.393
  0
SEQEND
  8
Unknown_Area_Type
  0
INSERT
  8
FeatureAttribs
  2
FEATURE
  41
1
  42
1
  43
1
  50
0
  10
262383.385
  20
4616703.947
 66
1
  0
ATTRIB
  8
FeatureAttribs
 70
0
  1
PNOA-H_AMS_1956-57_33k_ES_PAN_2
  2
NAME
  10
262383.385
  20
4616703.947
 40
33.87325
  0
SEQEND
  0
POLYLINE
  8
Unknown_Area_Type
  70
1
  66
1
  0
VERTEX
  8
Unknown_Area_Type
  10
262383.531
  20
4616703.957
  0
VERTEX
  8
Unknown_Area_Type
  10
262383.530
  20
4616703.937
  0
VERTEX
  8
Unknown_Area_Type
  10
262382.950
  20
4616703.957
  0
VERTEX
  8
Unknown_Area_Type
  10
262383.531
  20
4616703.957
  0
SEQEND
  8
Unknown_Area_Type
  0
INSERT
  8
FeatureAttribs
  2
FEATURE
  41
1
  42
1
  43
1
  50
0
  10
263308.142
  20
4616683.675
 66
1
  0
ATTRIB
  8
FeatureAttribs
 70
0
  1
PNOA-H_AMS_1956-57_33k_ES_PAN_2
  2
NAME
  10
263308.142
  20
4616683.675
 40
33.87325
  0
SEQEND
  0
POLYLINE
  8
Unknown_Area_Type
  70
1
  66
1
  0
VERTEX
  8
Unknown_Area_Type
  10
263618.001
  20
4616703.957
  0
VERTEX
  8
Unknown_Area_Type
  10
263615.813
  20
4616663.393
  0
VERTEX
  8
Unknown_Area_Type
  10
262383.530
  20
4616703.937
  0
VERTEX
  8
Unknown_Area_Type
  10
262383.531
  20
4616703.957
  0
VERTEX
  8
Unknown_Area_Type
  10
263618.001
  20
4616703.957
  0
SEQEND
  8
Unknown_Area_Type
  0
INSERT
  8
FeatureAttribs
  2
FEATURE
  41
1
  42
1
  43
1
  50
0
  10
262984.229
  20
4616527.087
 66
1
  0
ATTRIB
  8
FeatureAttribs
 70
0
  1
PNOA-H_AMS_1956-57_33k_ES_PAN_2
  2
NAME
  10
262984.229
  20
4616527.087
 40
33.87325
  0
SEQEND
  0
POLYLINE
  8
Unknown_Area_Type
  70
1
  66
1
  0
VERTEX
  8
Unknown_Area_Type
  10
263615.813
  20
4616663.393
  0
VERTEX
  8
Unknown_Area_Type
  10
263599.983
  20
4616370.000
  0
VERTEX
  8
Unknown_Area_Type
  10
262490.000
  20
4616370.000
  0
VERTEX
  8
Unknown_Area_Type
  10
262490.000
  20
4615775.660
  0
VERTEX
  8
Unknown_Area_Type
  10
262352.646
  20
4615771.927
  0
VERTEX
  8
Unknown_Area_Type
  10
262383.530
  20
4616703.937
  0
VERTEX
  8
Unknown_Area_Type
  10
263615.813
  20
4616663.393
  0
SEQEND
  8
Unknown_Area_Type
  0
INSERT
  8
FeatureAttribs
  2
FEATURE
  41
1
  42
1
  43
1
  50
0
  10
262069.479
  20
4616230.039
 66
1
  0
ATTRIB
  8
FeatureAttribs
 70
0
  1
PNOA-H_AMS_1956-57_33k_ES_PAN_2
  2
NAME
  10
262069.479
  20
4616230.039
 40
33.87325
  0
SEQEND
  0
POLYLINE
  8
Unknown_Area_Type
  70
1
  66
1
  0
VERTEX
  8
Unknown_Area_Type
  10
262352.646
  20
4615771.927
  0
VERTEX
  8
Unknown_Area_Type
  10
261771.132
  20
4615756.122
  0
VERTEX
  8
Unknown_Area_Type
  10
261771.132
  20
4616703.957
  0
VERTEX
  8
Unknown_Area_Type
  10
262382.950
  20
4616703.957
  0
VERTEX
  8
Unknown_Area_Type
  10
262383.530
  20
4616703.937
  0
VERTEX
  8
Unknown_Area_Type
  10
262352.646
  20
4615771.927
  0
SEQEND
  8
Unknown_Area_Type
  0
INSERT
  8
FeatureAttribs
  2
FEATURE
  41
1
  42
1
  43
1
  50
0
  10
267895.478
  20
4616446.787
 66
1
  0
ATTRIB
  8
FeatureAttribs
 70
0
  1
PNOA-H_AMS_1956-57_33k_ES_PAN_2
  2
NAME
  10
267895.478
  20
4616446.787
 40
33.87325
  0
SEQEND
  0
POLYLINE
  8
Unknown_Area_Type
  70
1
  66
1
  0
VERTEX
  8
Unknown_Area_Type
  10
269342.382
  20
4616476.680
  0
VERTEX
  8
Unknown_Area_Type
  10
269334.469
  20
4616150.000
  0
VERTEX
  8
Unknown_Area_Type
  10
269220.000
  20
4616150.000
  0
VERTEX
  8
Unknown_Area_Type
  10
269220.000
  20
4616370.000
  0
VERTEX
  8
Unknown_Area_Type
  10
266448.573
  20
4616370.000
  0
VERTEX
  8
Unknown_Area_Type
  10
266458.440
  20
4616570.159
  0
VERTEX
  8
Unknown_Area_Type
  10
269321.883
  20
4616477.334
  0
VERTEX
  8
Unknown_Area_Type
  10
269342.382
  20
4616476.680
  0
SEQEND
  8
Unknown_Area_Type
  0
INSERT
  8
FeatureAttribs
  2
FEATURE
  41
1
  42
1
  43
1
  50
0
  10
267895.478
  20
4616446.787
 66
1
  0
ATTRIB
  8
FeatureAttribs
 70
0
  1
PNOA-H_AMS_1956-57_33k_ES_PAN_2
  2
NAME
  10
267895.478
  20
4616446.787
 40
33.87325
  0
SEQEND
  0
POLYLINE
  8
Unknown_Area_Type
  70
1
  66
1
  0
VERTEX
  8
Unknown_Area_Type
  10
269342.382
  20
4616476.680
  0
VERTEX
  8
Unknown_Area_Type
  10
269334.469
  20
4616150.000
  0
VERTEX
  8
Unknown_Area_Type
  10
269220.000
  20
4616150.000
  0
VERTEX
  8
Unknown_Area_Type
  10
269220.000
  20
4616370.000
  0
VERTEX
  8
Unknown_Area_Type
  10
266448.573
  20
4616370.000
  0
VERTEX
  8
Unknown_Area_Type
  10
266458.440
  20
4616570.159
  0
VERTEX
  8
Unknown_Area_Type
  10
269321.883
  20
4616477.334
  0
VERTEX
  8
Unknown_Area_Type
  10
269342.382
  20
4616476.680
  0
SEQEND
  8
Unknown_Area_Type
  0
INSERT
  8
FeatureAttribs
  2
FEATURE
  41
1
  42
1
  43
1
  50
0
  10
267902.284
  20
4616590.318
 66
1
  0
ATTRIB
  8
FeatureAttribs
 70
0
  1
PNOA-H_AMS_1956-57_33k_ES_PAN_2
  2
NAME
  10
267902.284
  20
4616590.318
 40
33.87325
  0
SEQEND
  0
POLYLINE
  8
Unknown_Area_Type
  70
1
  66
1
  0
VERTEX
  8
Unknown_Area_Type
  10
269347.887
  20
4616703.957
  0
VERTEX
  8
Unknown_Area_Type
  10
269342.382
  20
4616476.680
  0
VERTEX
  8
Unknown_Area_Type
  10
269321.883
  20
4616477.334
  0
VERTEX
  8
Unknown_Area_Type
  10
266458.440
  20
4616570.159
  0
VERTEX
  8
Unknown_Area_Type
  10
266465.036
  20
4616703.957
  0
VERTEX
  8
Unknown_Area_Type
  10
269347.887
  20
4616703.957
  0
SEQEND
  8
Unknown_Area_Type
  0
INSERT
  8
FeatureAttribs
  2
FEATURE
  41
1
  42
1
  43
1
  50
0
  10
273492.273
  20
4616268.984
 66
1
  0
ATTRIB
  8
FeatureAttribs
 70
0
  1
PNOA-H_AMS_1956-57_33k_ES_PAN_2
  2
NAME
  10
273492.273
  20
4616268.984
 40
33.87325
  0
SEQEND
  0
POLYLINE
  8
Unknown_Area_Type
  70
1
  66
1
  0
VERTEX
  8
Unknown_Area_Type
  10
274866.615
  20
4616301.282
  0
VERTEX
  8
Unknown_Area_Type
  10
274862.964
  20
4616150.000
  0
VERTEX
  8
Unknown_Area_Type
  10
272116.978
  20
4616150.000
  0
VERTEX
  8
Unknown_Area_Type
  10
272120.445
  20
4616387.969
  0
VERTEX
  8
Unknown_Area_Type
  10
272791.037
  20
4616366.555
  0
VERTEX
  8
Unknown_Area_Type
  10
274866.615
  20
4616301.282
  0
SEQEND
  8
Unknown_Area_Type
  0
INSERT
  8
FeatureAttribs
  2
FEATURE
  41
1
  42
1
  43
1
  50
0
  10
273492.273
  20
4616268.984
 66
1
  0
ATTRIB
  8
FeatureAttribs
 70
0
  1
PNOA-H_AMS_1956-57_33k_ES_PAN_2
  2
NAME
  10
273492.273
  20
4616268.984
 40
33.87325
  0
SEQEND
  0
POLYLINE
  8
Unknown_Area_Type
  70
1
  66
1
  0
VERTEX
  8
Unknown_Area_Type
  10
274866.615
  20
4616301.282
  0
VERTEX
  8
Unknown_Area_Type
  10
274862.964
  20
4616150.000
  0
VERTEX
  8
Unknown_Area_Type
  10
272116.978
  20
4616150.000
  0
VERTEX
  8
Unknown_Area_Type
  10
272120.445
  20
4616387.969
  0
VERTEX
  8
Unknown_Area_Type
  10
272791.037
  20
4616366.555
  0
VERTEX
  8
Unknown_Area_Type
  10
274866.615
  20
4616301.282
  0
SEQEND
  8
Unknown_Area_Type
  0
INSERT
  8
FeatureAttribs
  2
FEATURE
  41
1
  42
1
  43
1
  50
0
  10
273496.794
  20
4616502.619
 66
1
  0
ATTRIB
  8
FeatureAttribs
 70
0
  1
PNOA-H_AMS_1956-57_33k_ES_PAN_2
  2
NAME
  10
273496.794
  20
4616502.619
 40
33.87325
  0
SEQEND
  0
POLYLINE
  8
Unknown_Area_Type
  70
1
  66
1
  0
VERTEX
  8
Unknown_Area_Type
  10
274876.331
  20
4616703.957
  0
VERTEX
  8
Unknown_Area_Type
  10
274866.615
  20
4616301.282
  0
VERTEX
  8
Unknown_Area_Type
  10
272791.037
  20
4616366.555
  0
VERTEX
  8
Unknown_Area_Type
  10
272120.445
  20
4616387.969
  0
VERTEX
  8
Unknown_Area_Type
  10
272125.048
  20
4616703.957
  0
VERTEX
  8
Unknown_Area_Type
  10
274876.331
  20
4616703.957
  0
SEQEND
  8
Unknown_Area_Type
  0
INSERT
  8
FeatureAttribs
  2
FEATURE
  41
1
  42
1
  43
1
  50
0
  10
276954.924
  20
4616120.642
 66
1
  0
ATTRIB
  8
FeatureAttribs
 70
0
  1
PNOA-H_AMS_1956-57_33k_ES_PAN_2
  2
NAME
  10
276954.924
  20
4616120.642
 40
33.87325
  0
SEQEND
  0
POLYLINE
  8
Unknown_Area_Type
  70
1
  66
1
  0
VERTEX
  8
Unknown_Area_Type
  10
277750.623
  20
4616211.308
  0
VERTEX
  8
Unknown_Area_Type
  10
277748.301
  20
4615940.000
  0
VERTEX
  8
Unknown_Area_Type
  10
276160.000
  20
4615940.000
  0
VERTEX
  8
Unknown_Area_Type
  10
276160.000
  20
4616150.000
  0
VERTEX
  8
Unknown_Area_Type
  10
274862.893
  20
4616150.000
  0
VERTEX
  8
Unknown_Area_Type
  10
274866.529
  20
4616301.285
  0
VERTEX
  8
Unknown_Area_Type
  10
276260.178
  20
4616257.457
  0
VERTEX
  8
Unknown_Area_Type
  10
277750.623
  20
4616211.308
  0
SEQEND
  8
Unknown_Area_Type
  0
INSERT
  8
FeatureAttribs
  2
FEATURE
  41
1
  42
1
  43
1
  50
0
  10
276954.924
  20
4616120.642
 66
1
  0
ATTRIB
  8
FeatureAttribs
 70
0
  1
PNOA-H_AMS_1956-57_33k_ES_PAN_2
  2
NAME
  10
276954.924
  20
4616120.642
 40
33.87325
  0
SEQEND
  0
POLYLINE
  8
Unknown_Area_Type
  70
1
  66
1
  0
VERTEX
  8
Unknown_Area_Type
  10
277750.623
  20
4616211.308
  0
VERTEX
  8
Unknown_Area_Type
  10
277748.301
  20
4615940.000
  0
VERTEX
  8
Unknown_Area_Type
  10
276160.000
  20
4615940.000
  0
VERTEX
  8
Unknown_Area_Type
  10
276160.000
  20
4616150.000
  0
VERTEX
  8
Unknown_Area_Type
  10
274862.893
  20
4616150.000
  0
VERTEX
  8
Unknown_Area_Type
  10
274866.529
  20
4616301.285
  0
VERTEX
  8
Unknown_Area_Type
  10
276260.178
  20
4616257.457
  0
VERTEX
  8
Unknown_Area_Type
  10
277750.623
  20
4616211.308
  0
SEQEND
  8
Unknown_Area_Type
  0
INSERT
  8
FeatureAttribs
  2
FEATURE
  41
1
  42
1
  43
1
  50
0
  10
276311.508
  20
4616457.632
 66
1
  0
ATTRIB
  8
FeatureAttribs
 70
0
  1
PNOA-H_AMS_1956-57_33k_ES_PAN_2
  2
NAME
  10
276311.508
  20
4616457.632
 40
33.87325
  0
SEQEND
  0
POLYLINE
  8
Unknown_Area_Type
  70
1
  66
1
  0
VERTEX
  8
Unknown_Area_Type
  10
277754.839
  20
4616703.957
  0
VERTEX
  8
Unknown_Area_Type
  10
277750.623
  20
4616211.308
  0
VERTEX
  8
Unknown_Area_Type
  10
276260.178
  20
4616257.457
  0
VERTEX
  8
Unknown_Area_Type
  10
274866.529
  20
4616301.285
  0
VERTEX
  8
Unknown_Area_Type
  10
274876.205
  20
4616703.957
  0
VERTEX
  8
Unknown_Area_Type
  10
277754.839
  20
4616703.957
  0
SEQEND
  8
Unknown_Area_Type
  0
INSERT
  8
FeatureAttribs
  2
FEATURE
  41
1
  42
1
  43
1
  50
0
  10
281985.319
  20
4616010.640
 66
1
  0
ATTRIB
  8
FeatureAttribs
 70
0
  1
PNOA-H_AMS_1956-57_33k_ES_PAN_2
  2
NAME
  10
281985.319
  20
4616010.640
 40
33.87325
  0
SEQEND
  0
POLYLINE
  8
Unknown_Area_Type
  70
1
  66
1
  0
VERTEX
  8
Unknown_Area_Type
  10
283388.614
  20
4616038.601
  0
VERTEX
  8
Unknown_Area_Type
  10
283384.695
  20
4615730.000
  0
VERTEX
  8
Unknown_Area_Type
  10
283090.000
  20
4615730.000
  0
VERTEX
  8
Unknown_Area_Type
  10
283090.000
  20
4615940.000
  0
VERTEX
  8
Unknown_Area_Type
  10
280582.629
  20
4615940.000
  0
VERTEX
  8
Unknown_Area_Type
  10
280582.024
  20
4616124.051
  0
VERTEX
  8
Unknown_Area_Type
  10
283198.418
  20
4616044.306
  0
VERTEX
  8
Unknown_Area_Type
  10
283388.614
  20
4616038.601
  0
SEQEND
  8
Unknown_Area_Type
  0
INSERT
  8
FeatureAttribs
  2
FEATURE
  41
1
  42
1
  43
1
  50
0
  10
281985.319
  20
4616010.640
 66
1
  0
ATTRIB
  8
FeatureAttribs
 70
0
  1
PNOA-H_AMS_1956-57_33k_ES_PAN_2
  2
NAME
  10
281985.319
  20
4616010.640
 40
33.87325
  0
SEQEND
  0
POLYLINE
  8
Unknown_Area_Type
  70
1
  66
1
  0
VERTEX
  8
Unknown_Area_Type
  10
283388.614
  20
4616038.601
  0
VERTEX
  8
Unknown_Area_Type
  10
283384.695
  20
4615730.000
  0
VERTEX
  8
Unknown_Area_Type
  10
283090.000
  20
4615730.000
  0
VERTEX
  8
Unknown_Area_Type
  10
283090.000
  20
4615940.000
  0
VERTEX
  8
Unknown_Area_Type
  10
280582.629
  20
4615940.000
  0
VERTEX
  8
Unknown_Area_Type
  10
280582.024
  20
4616124.051
  0
VERTEX
  8
Unknown_Area_Type
  10
283198.418
  20
4616044.306
  0
VERTEX
  8
Unknown_Area_Type
  10
283388.614
  20
4616038.601
  0
SEQEND
  8
Unknown_Area_Type
  0
INSERT
  8
FeatureAttribs
  2
FEATURE
  41
1
  42
1
  43
1
  50
0
  10
281987.026
  20
4616371.279
 66
1
  0
ATTRIB
  8
FeatureAttribs
 70
0
  1
PNOA-H_AMS_1956-57_33k_ES_PAN_2
  2
NAME
  10
281987.026
  20
4616371.279
 40
33.87325
  0
SEQEND
  0
POLYLINE
  8
Unknown_Area_Type
  70
1
  66
1
  0
VERTEX
  8
Unknown_Area_Type
  10
283397.065
  20
4616703.957
  0
VERTEX
  8
Unknown_Area_Type
  10
283388.614
  20
4616038.601
  0
VERTEX
  8
Unknown_Area_Type
  10
283198.418
  20
4616044.306
  0
VERTEX
  8
Unknown_Area_Type
  10
280582.024
  20
4616124.051
  0
VERTEX
  8
Unknown_Area_Type
  10
280580.121
  20
4616703.957
  0
VERTEX
  8
Unknown_Area_Type
  10
283397.065
  20
4616703.957
  0
SEQEND
  8
Unknown_Area_Type
  0
INSERT
  8
FeatureAttribs
  2
FEATURE
  41
1
  42
1
  43
1
  50
0
  10
265438.969
  20
4616637.058
 66
1
  0
ATTRIB
  8
FeatureAttribs
 70
0
  1
PNOA-H_AMS_1956-57_33k_ES_PAN_2
  2
NAME
  10
265438.969
  20
4616637.058
 40
33.87325
  0
SEQEND
  0
POLYLINE
  8
Unknown_Area_Type
  70
1
  66
1
  0
VERTEX
  8
Unknown_Area_Type
  10
266465.017
  20
4616703.957
  0
VERTEX
  8
Unknown_Area_Type
  10
266458.421
  20
4616570.160
  0
VERTEX
  8
Unknown_Area_Type
  10
265852.714
  20
4616589.795
  0
VERTEX
  8
Unknown_Area_Type
  10
263615.799
  20
4616663.393
  0
VERTEX
  8
Unknown_Area_Type
  10
263617.986
  20
4616703.957
  0
VERTEX
  8
Unknown_Area_Type
  10
266465.017
  20
4616703.957
  0
SEQEND
  8
Unknown_Area_Type
  0
INSERT
  8
FeatureAttribs
  2
FEATURE
  41
1
  42
1
  43
1
  50
0
  10
264940.909
  20
4616494.796
 66
1
  0
ATTRIB
  8
FeatureAttribs
 70
0
  1
PNOA-H_AMS_1956-57_33k_ES_PAN_2
  2
NAME
  10
264940.909
  20
4616494.796
 40
33.87325
  0
SEQEND
  0
POLYLINE
  8
Unknown_Area_Type
  70
1
  66
1
  0
VERTEX
  8
Unknown_Area_Type
  10
266458.421
  20
4616570.160
  0
VERTEX
  8
Unknown_Area_Type
  10
266448.553
  20
4616370.000
  0
VERTEX
  8
Unknown_Area_Type
  10
263599.984
  20
4616370.000
  0
VERTEX
  8
Unknown_Area_Type
  10
263615.799
  20
4616663.393
  0
VERTEX
  8
Unknown_Area_Type
  10
265852.714
  20
4616589.795
  0
VERTEX
  8
Unknown_Area_Type
  10
266458.421
  20
4616570.160
  0
SEQEND
  8
Unknown_Area_Type
  0
INSERT
  8
FeatureAttribs
  2
FEATURE
  41
1
  42
1
  43
1
  50
0
  10
264940.909
  20
4616494.796
 66
1
  0
ATTRIB
  8
FeatureAttribs
 70
0
  1
PNOA-H_AMS_1956-57_33k_ES_PAN_2
  2
NAME
  10
264940.909
  20
4616494.796
 40
33.87325
  0
SEQEND
  0
POLYLINE
  8
Unknown_Area_Type
  70
1
  66
1
  0
VERTEX
  8
Unknown_Area_Type
  10
266458.421
  20
4616570.160
  0
VERTEX
  8
Unknown_Area_Type
  10
265852.714
  20
4616589.795
  0
VERTEX
  8
Unknown_Area_Type
  10
263615.799
  20
4616663.393
  0
VERTEX
  8
Unknown_Area_Type
  10
263599.984
  20
4616370.000
  0
VERTEX
  8
Unknown_Area_Type
  10
266448.553
  20
4616370.000
  0
VERTEX
  8
Unknown_Area_Type
  10
266458.421
  20
4616570.160
  0
SEQEND
  8
Unknown_Area_Type
  0
INSERT
  8
FeatureAttribs
  2
FEATURE
  41
1
  42
1
  43
1
  50
0
  10
270733.353
  20
4616545.963
 66
1
  0
ATTRIB
  8
FeatureAttribs
 70
0
  1
PNOA-H_AMS_1956-57_33k_ES_PAN_2
  2
NAME
  10
270733.353
  20
4616545.963
 40
33.87325
  0
SEQEND
  0
POLYLINE
  8
Unknown_Area_Type
  70
1
  66
1
  0
VERTEX
  8
Unknown_Area_Type
  10
272125.048
  20
4616703.957
  0
VERTEX
  8
Unknown_Area_Type
  10
272120.445
  20
4616387.969
  0
VERTEX
  8
Unknown_Area_Type
  10
269342.289
  20
4616476.683
  0
VERTEX
  8
Unknown_Area_Type
  10
269347.771
  20
4616703.957
  0
VERTEX
  8
Unknown_Area_Type
  10
272125.048
  20
4616703.957
  0
SEQEND
  8
Unknown_Area_Type
  0
INSERT
  8
FeatureAttribs
  2
FEATURE
  41
1
  42
1
  43
1
  50
0
  10
270655.690
  20
4616292.303
 66
1
  0
ATTRIB
  8
FeatureAttribs
 70
0
  1
PNOA-H_AMS_1956-57_33k_ES_PAN_2
  2
NAME
  10
270655.690
  20
4616292.303
 40
33.87325
  0
SEQEND
  0
POLYLINE
  8
Unknown_Area_Type
  70
1
  66
1
  0
VERTEX
  8
Unknown_Area_Type
  10
272120.445
  20
4616387.969
  0
VERTEX
  8
Unknown_Area_Type
  10
272116.978
  20
4616150.000
  0
VERTEX
  8
Unknown_Area_Type
  10
269334.409
  20
4616150.000
  0
VERTEX
  8
Unknown_Area_Type
  10
269342.289
  20
4616476.683
  0
VERTEX
  8
Unknown_Area_Type
  10
272120.445
  20
4616387.969
  0
SEQEND
  8
Unknown_Area_Type
  0
INSERT
  8
FeatureAttribs
  2
FEATURE
  41
1
  42
1
  43
1
  50
0
  10
270655.690
  20
4616292.303
 66
1
  0
ATTRIB
  8
FeatureAttribs
 70
0
  1
PNOA-H_AMS_1956-57_33k_ES_PAN_2
  2
NAME
  10
270655.690
  20
4616292.303
 40
33.87325
  0
SEQEND
  0
POLYLINE
  8
Unknown_Area_Type
  70
1
  66
1
  0
VERTEX
  8
Unknown_Area_Type
  10
272120.445
  20
4616387.969
  0
VERTEX
  8
Unknown_Area_Type
  10
269342.289
  20
4616476.683
  0
VERTEX
  8
Unknown_Area_Type
  10
269334.409
  20
4616150.000
  0
VERTEX
  8
Unknown_Area_Type
  10
272116.978
  20
4616150.000
  0
VERTEX
  8
Unknown_Area_Type
  10
272120.445
  20
4616387.969
  0
SEQEND
  8
Unknown_Area_Type
  0
INSERT
  8
FeatureAttribs
  2
FEATURE
  41
1
  42
1
  43
1
  50
0
  10
284808.003
  20
4615884.302
 66
1
  0
ATTRIB
  8
FeatureAttribs
 70
0
  1
PNOA-H_AMS_1956-57_33k_ES_PAN_2
  2
NAME
  10
284808.003
  20
4615884.302
 40
33.87325
  0
SEQEND
  0
POLYLINE
  8
Unknown_Area_Type
  70
1
  66
1
  0
VERTEX
  8
Unknown_Area_Type
  10
286231.210
  20
4615953.339
  0
VERTEX
  8
Unknown_Area_Type
  10
286225.412
  20
4615730.000
  0
VERTEX
  8
Unknown_Area_Type
  10
283384.642
  20
4615730.000
  0
VERTEX
  8
Unknown_Area_Type
  10
283388.533
  20
4616038.603
  0
VERTEX
  8
Unknown_Area_Type
  10
286231.210
  20
4615953.339
  0
SEQEND
  8
Unknown_Area_Type
  0
INSERT
  8
FeatureAttribs
  2
FEATURE
  41
1
  42
1
  43
1
  50
0
  10
284808.003
  20
4615884.302
 66
1
  0
ATTRIB
  8
FeatureAttribs
 70
0
  1
PNOA-H_AMS_1956-57_33k_ES_PAN_2
  2
NAME
  10
284808.003
  20
4615884.302
 40
33.87325
  0
SEQEND
  0
POLYLINE
  8
Unknown_Area_Type
  70
1
  66
1
  0
VERTEX
  8
Unknown_Area_Type
  10
286231.210
  20
4615953.339
  0
VERTEX
  8
Unknown_Area_Type
  10
286225.412
  20
4615730.000
  0
VERTEX
  8
Unknown_Area_Type
  10
283384.642
  20
4615730.000
  0
VERTEX
  8
Unknown_Area_Type
  10
283388.533
  20
4616038.603
  0
VERTEX
  8
Unknown_Area_Type
  10
286231.210
  20
4615953.339
  0
SEQEND
  8
Unknown_Area_Type
  0
INSERT
  8
FeatureAttribs
  2
FEATURE
  41
1
  42
1
  43
1
  50
0
  10
284816.571
  20
4616328.648
 66
1
  0
ATTRIB
  8
FeatureAttribs
 70
0
  1
PNOA-H_AMS_1956-57_33k_ES_PAN_2
  2
NAME
  10
284816.571
  20
4616328.648
 40
33.87325
  0
SEQEND
  0
POLYLINE
  8
Unknown_Area_Type
  70
1
  66
1
  0
VERTEX
  8
Unknown_Area_Type
  10
286250.696
  20
4616703.957
  0
VERTEX
  8
Unknown_Area_Type
  10
286231.210
  20
4615953.339
  0
VERTEX
  8
Unknown_Area_Type
  10
283388.533
  20
4616038.603
  0
VERTEX
  8
Unknown_Area_Type
  10
283396.922
  20
4616703.957
  0
VERTEX
  8
Unknown_Area_Type
  10
286250.696
  20
4616703.957
  0
SEQEND
  8
Unknown_Area_Type
  0
INSERT
  8
FeatureAttribs
  2
FEATURE
  41
1
  42
1
  43
1
  50
0
  10
279165.822
  20
4616075.654
 66
1
  0
ATTRIB
  8
FeatureAttribs
 70
0
  1
PNOA-H_AMS_1956-57_33k_ES_PAN_2
  2
NAME
  10
279165.822
  20
4616075.654
 40
33.87325
  0
SEQEND
  0
POLYLINE
  8
Unknown_Area_Type
  70
1
  66
1
  0
VERTEX
  8
Unknown_Area_Type
  10
280582.023
  20
4616124.051
  0
VERTEX
  8
Unknown_Area_Type
  10
280582.627
  20
4615940.000
  0
VERTEX
  8
Unknown_Area_Type
  10
277748.301
  20
4615940.000
  0
VERTEX
  8
Unknown_Area_Type
  10
277750.623
  20
4616211.308
  0
VERTEX
  8
Unknown_Area_Type
  10
279729.305
  20
4616150.041
  0
VERTEX
  8
Unknown_Area_Type
  10
280582.023
  20
4616124.051
  0
SEQEND
  8
Unknown_Area_Type
  0
INSERT
  8
FeatureAttribs
  2
FEATURE
  41
1
  42
1
  43
1
  50
0
  10
279165.822
  20
4616075.654
 66
1
  0
ATTRIB
  8
FeatureAttribs
 70
0
  1
PNOA-H_AMS_1956-57_33k_ES_PAN_2
  2
NAME
  10
279165.822
  20
4616075.654
 40
33.87325
  0
SEQEND
  0
POLYLINE
  8
Unknown_Area_Type
  70
1
  66
1
  0
VERTEX
  8
Unknown_Area_Type
  10
280582.023
  20
4616124.051
  0
VERTEX
  8
Unknown_Area_Type
  10
280582.627
  20
4615940.000
  0
VERTEX
  8
Unknown_Area_Type
  10
277748.301
  20
4615940.000
  0
VERTEX
  8
Unknown_Area_Type
  10
277750.623
  20
4616211.308
  0
VERTEX
  8
Unknown_Area_Type
  10
279729.305
  20
4616150.041
  0
VERTEX
  8
Unknown_Area_Type
  10
280582.023
  20
4616124.051
  0
SEQEND
  8
Unknown_Area_Type
  0
INSERT
  8
FeatureAttribs
  2
FEATURE
  41
1
  42
1
  43
1
  50
0
  10
279166.715
  20
4616414.004
 66
1
  0
ATTRIB
  8
FeatureAttribs
 70
0
  1
PNOA-H_AMS_1956-57_33k_ES_PAN_2
  2
NAME
  10
279166.715
  20
4616414.004
 40
33.87325
  0
SEQEND
  0
POLYLINE
  8
Unknown_Area_Type
  70
1
  66
1
  0
VERTEX
  8
Unknown_Area_Type
  10
280580.120
  20
4616703.957
  0
VERTEX
  8
Unknown_Area_Type
  10
280582.023
  20
4616124.051
  0
VERTEX
  8
Unknown_Area_Type
  10
279729.305
  20
4616150.041
  0
VERTEX
  8
Unknown_Area_Type
  10
277750.623
  20
4616211.308
  0
VERTEX
  8
Unknown_Area_Type
  10
277754.839
  20
4616703.957
  0
VERTEX
  8
Unknown_Area_Type
  10
280580.120
  20
4616703.957
  0
SEQEND
  8
Unknown_Area_Type
  0
INSERT
  8
FeatureAttribs
  2
FEATURE
  41
1
  42
1
  43
1
  50
0
  10
287650.118
  20
4615841.663
 66
1
  0
ATTRIB
  8
FeatureAttribs
 70
0
  1
PNOA-H_AMS_1956-57_33k_ES_PAN_2
  2
NAME
  10
287650.118
  20
4615841.663
 40
33.87325
  0
SEQEND
  0
POLYLINE
  8
Unknown_Area_Type
  70
1
  66
1
  0
VERTEX
  8
Unknown_Area_Type
  10
289072.328
  20
4615869.286
  0
VERTEX
  8
Unknown_Area_Type
  10
289068.227
  20
4615730.000
  0
VERTEX
  8
Unknown_Area_Type
  10
286225.834
  20
4615730.000
  0
VERTEX
  8
Unknown_Area_Type
  10
286231.609
  20
4615953.327
  0
VERTEX
  8
Unknown_Area_Type
  10
286667.517
  20
4615940.252
  0
VERTEX
  8
Unknown_Area_Type
  10
289072.328
  20
4615869.286
  0
SEQEND
  8
Unknown_Area_Type
  0
INSERT
  8
FeatureAttribs
  2
FEATURE
  41
1
  42
1
  43
1
  50
0
  10
287650.118
  20
4615841.663
 66
1
  0
ATTRIB
  8
FeatureAttribs
 70
0
  1
PNOA-H_AMS_1956-57_33k_ES_PAN_2
  2
NAME
  10
287650.118
  20
4615841.663
 40
33.87325
  0
SEQEND
  0
POLYLINE
  8
Unknown_Area_Type
  70
1
  66
1
  0
VERTEX
  8
Unknown_Area_Type
  10
289072.328
  20
4615869.286
  0
VERTEX
  8
Unknown_Area_Type
  10
289068.227
  20
4615730.000
  0
VERTEX
  8
Unknown_Area_Type
  10
286225.834
  20
4615730.000
  0
VERTEX
  8
Unknown_Area_Type
  10
286231.609
  20
4615953.327
  0
VERTEX
  8
Unknown_Area_Type
  10
286667.517
  20
4615940.252
  0
VERTEX
  8
Unknown_Area_Type
  10
289072.328
  20
4615869.286
  0
SEQEND
  8
Unknown_Area_Type
  0
INSERT
  8
FeatureAttribs
  2
FEATURE
  41
1
  42
1
  43
1
  50
0
  10
287662.421
  20
4616286.621
 66
1
  0
ATTRIB
  8
FeatureAttribs
 70
0
  1
PNOA-H_AMS_1956-57_33k_ES_PAN_2
  2
NAME
  10
287662.421
  20
4616286.621
 40
33.87325
  0
SEQEND
  0
POLYLINE
  8
Unknown_Area_Type
  70
1
  66
1
  0
VERTEX
  8
Unknown_Area_Type
  10
289096.903
  20
4616703.957
  0
VERTEX
  8
Unknown_Area_Type
  10
289072.328
  20
4615869.286
  0
VERTEX
  8
Unknown_Area_Type
  10
286667.517
  20
4615940.252
  0
VERTEX
  8
Unknown_Area_Type
  10
286231.609
  20
4615953.327
  0
VERTEX
  8
Unknown_Area_Type
  10
286251.019
  20
4616703.957
  0
VERTEX
  8
Unknown_Area_Type
  10
289096.903
  20
4616703.957
  0
SEQEND
  8
Unknown_Area_Type
  0
INSERT
  8
FeatureAttribs
  2
FEATURE
  41
1
  42
1
  43
1
  50
0
  10
289602.415
  20
4615791.821
 66
1
  0
ATTRIB
  8
FeatureAttribs
 70
0
  1
PNOA-H_AMS_1956-57_33k_ES_PAN_2
  2
NAME
  10
289602.415
  20
4615791.821
 40
33.87325
  0
SEQEND
  0
POLYLINE
  8
Unknown_Area_Type
  70
1
  66
1
  0
VERTEX
  8
Unknown_Area_Type
  10
290127.594
  20
4615530.000
  0
VERTEX
  8
Unknown_Area_Type
  10
290030.000
  20
4615530.000
  0
VERTEX
  8
Unknown_Area_Type
  10
290030.000
  20
4615730.000
  0
VERTEX
  8
Unknown_Area_Type
  10
289068.227
  20
4615730.000
  0
VERTEX
  8
Unknown_Area_Type
  10
289072.328
  20
4615869.286
  0
VERTEX
  8
Unknown_Area_Type
  10
290136.604
  20
4615837.879
  0
VERTEX
  8
Unknown_Area_Type
  10
290127.594
  20
4615530.000
  0
SEQEND
  8
Unknown_Area_Type
  0
INSERT
  8
FeatureAttribs
  2
FEATURE
  41
1
  42
1
  43
1
  50
0
  10
290136.618
  20
4615838.121
 66
1
  0
ATTRIB
  8
FeatureAttribs
 70
0
  1
PNOA-H_AMS_1956-57_33k_ES_PAN_2
  2
NAME
  10
290136.618
  20
4615838.121
 40
33.87325
  0
SEQEND
  0
POLYLINE
  8
Unknown_Area_Type
  70
1
  66
1
  0
VERTEX
  8
Unknown_Area_Type
  10
290136.632
  20
4615838.848
  0
VERTEX
  8
Unknown_Area_Type
  10
290136.632
  20
4615837.878
  0
VERTEX
  8
Unknown_Area_Type
  10
290136.604
  20
4615837.879
  0
VERTEX
  8
Unknown_Area_Type
  10
290136.632
  20
4615838.848
  0
SEQEND
  8
Unknown_Area_Type
  0
INSERT
  8
FeatureAttribs
  2
FEATURE
  41
1
  42
1
  43
1
  50
0
  10
289602.415
  20
4615791.821
 66
1
  0
ATTRIB
  8
FeatureAttribs
 70
0
  1
PNOA-H_AMS_1956-57_33k_ES_PAN_2
  2
NAME
  10
289602.415
  20
4615791.821
 40
33.87325
  0
SEQEND
  0
POLYLINE
  8
Unknown_Area_Type
  70
1
  66
1
  0
VERTEX
  8
Unknown_Area_Type
  10
290127.594
  20
4615530.000
  0
VERTEX
  8
Unknown_Area_Type
  10
290030.000
  20
4615530.000
  0
VERTEX
  8
Unknown_Area_Type
  10
290030.000
  20
4615730.000
  0
VERTEX
  8
Unknown_Area_Type
  10
289068.227
  20
4615730.000
  0
VERTEX
  8
Unknown_Area_Type
  10
289072.328
  20
4615869.286
  0
VERTEX
  8
Unknown_Area_Type
  10
290136.604
  20
4615837.879
  0
VERTEX
  8
Unknown_Area_Type
  10
290127.594
  20
4615530.000
  0
SEQEND
  8
Unknown_Area_Type
  0
INSERT
  8
FeatureAttribs
  2
FEATURE
  41
1
  42
1
  43
1
  50
0
  10
290134.366
  20
4615683.939
 66
1
  0
ATTRIB
  8
FeatureAttribs
 70
0
  1
PNOA-H_AMS_1956-57_33k_ES_PAN_2
  2
NAME
  10
290134.366
  20
4615683.939
 40
33.87325
  0
SEQEND
  0
POLYLINE
  8
Unknown_Area_Type
  70
1
  66
1
  0
VERTEX
  8
Unknown_Area_Type
  10
290136.632
  20
4615530.000
  0
VERTEX
  8
Unknown_Area_Type
  10
290127.594
  20
4615530.000
  0
VERTEX
  8
Unknown_Area_Type
  10
290136.604
  20
4615837.879
  0
VERTEX
  8
Unknown_Area_Type
  10
290136.632
  20
4615837.878
  0
VERTEX
  8
Unknown_Area_Type
  10
290136.632
  20
4615530.000
  0
SEQEND
  8
Unknown_Area_Type
  0
INSERT
  8
FeatureAttribs
  2
FEATURE
  41
1
  42
1
  43
1
  50
0
  10
289610.393
  20
4616270.918
 66
1
  0
ATTRIB
  8
FeatureAttribs
 70
0
  1
PNOA-H_AMS_1956-57_33k_ES_PAN_2
  2
NAME
  10
289610.393
  20
4616270.918
 40
33.87325
  0
SEQEND
  0
POLYLINE
  8
Unknown_Area_Type
  70
1
  66
1
  0
VERTEX
  8
Unknown_Area_Type
  10
289096.903
  20
4616703.957
  0
VERTEX
  8
Unknown_Area_Type
  10
290136.632
  20
4616703.957
  0
VERTEX
  8
Unknown_Area_Type
  10
290136.632
  20
4615838.848
  0
VERTEX
  8
Unknown_Area_Type
  10
290136.604
  20
4615837.879
  0
VERTEX
  8
Unknown_Area_Type
  10
289072.328
  20
4615869.286
  0
VERTEX
  8
Unknown_Area_Type
  10
289096.903
  20
4616703.957
  0
SEQEND
  8
Unknown_Area_Type
  0
INSERT
  8
FeatureAttribs
  2
FEATURE
  41
1
  42
1
  43
1
  50
0
  10
262245.800
  20
4609701.970
 66
1
  0
ATTRIB
  8
FeatureAttribs
 70
0
  1
PNOA-H_AMS_1956-57_33k_ES_PAN_2
  2
NAME
  10
262245.800
  20
4609701.970
 40
33.87325
  0
SEQEND
  0
POLYLINE
  8
Unknown_Area_Type
  70
1
  66
1
  0
VERTEX
  8
Unknown_Area_Type
  10
262211.051
  20
4611497.528
  0
VERTEX
  8
Unknown_Area_Type
  10
262340.000
  20
4611476.097
  0
VERTEX
  8
Unknown_Area_Type
  10
262340.000
  20
4607906.411
  0
VERTEX
  8
Unknown_Area_Type
  10
262093.502
  20
4607946.572
  0
VERTEX
  8
Unknown_Area_Type
  10
262153.655
  20
4609764.054
  0
VERTEX
  8
Unknown_Area_Type
  10
262211.051
  20
4611497.528
  0
SEQEND
  8
Unknown_Area_Type
  0
INSERT
  8
FeatureAttribs
  2
FEATURE
  41
1
  42
1
  43
1
  50
0
  10
262245.800
  20
4609701.970
 66
1
  0
ATTRIB
  8
FeatureAttribs
 70
0
  1
PNOA-H_AMS_1956-57_33k_ES_PAN_2
  2
NAME
  10
262245.800
  20
4609701.970
 40
33.87325
  0
SEQEND
  0
POLYLINE
  8
Unknown_Area_Type
  70
1
  66
1
  0
VERTEX
  8
Unknown_Area_Type
  10
262211.051
  20
4611497.528
  0
VERTEX
  8
Unknown_Area_Type
  10
262340.000
  20
4611476.097
  0
VERTEX
  8
Unknown_Area_Type
  10
262340.000
  20
4607906.411
  0
VERTEX
  8
Unknown_Area_Type
  10
262093.502
  20
4607946.572
  0
VERTEX
  8
Unknown_Area_Type
  10
262153.655
  20
4609764.054
  0
VERTEX
  8
Unknown_Area_Type
  10
262211.051
  20
4611497.528
  0
SEQEND
  8
Unknown_Area_Type
  0
INSERT
  8
FeatureAttribs
  2
FEATURE
  41
1
  42
1
  43
1
  50
0
  10
261962.303
  20
4609758.566
 66
1
  0
ATTRIB
  8
FeatureAttribs
 70
0
  1
PNOA-H_AMS_1956-57_33k_ES_PAN_2
  2
NAME
  10
261962.303
  20
4609758.566
 40
33.87325
  0
SEQEND
  0
POLYLINE
  8
Unknown_Area_Type
  70
1
  66
1
  0
VERTEX
  8
Unknown_Area_Type
  10
262211.051
  20
4611497.528
  0
VERTEX
  8
Unknown_Area_Type
  10
262153.655
  20
4609764.054
  0
VERTEX
  8
Unknown_Area_Type
  10
262093.502
  20
4607946.572
  0
VERTEX
  8
Unknown_Area_Type
  10
261771.132
  20
4607999.094
  0
VERTEX
  8
Unknown_Area_Type
  10
261771.132
  20
4611570.560
  0
VERTEX
  8
Unknown_Area_Type
  10
261774.500
  20
4611570.000
  0
VERTEX
  8
Unknown_Area_Type
  10
261778.000
  20
4611569.500
  0
VERTEX
  8
Unknown_Area_Type
  10
262211.051
  20
4611497.528
  0
SEQEND
  8
Unknown_Area_Type
  0
INSERT
  8
FeatureAttribs
  2
FEATURE
  41
1
  42
1
  43
1
  50
0
  10
261830.209
  20
4601772.112
 66
1
  0
ATTRIB
  8
FeatureAttribs
 70
0
  1
PNOA-H_AMS_1956-57_33k_ES_PAN_2
  2
NAME
  10
261830.209
  20
4601772.112
 40
33.87325
  0
SEQEND
  0
POLYLINE
  8
Unknown_Area_Type
  70
1
  66
1
  0
VERTEX
  8
Unknown_Area_Type
  10
261969.973
  20
4604212.485
  0
VERTEX
  8
Unknown_Area_Type
  10
261924.064
  20
4602824.227
  0
VERTEX
  8
Unknown_Area_Type
  10
261847.596
  20
4600510.964
  0
VERTEX
  8
Unknown_Area_Type
  10
261808.889
  20
4599339.532
  0
VERTEX
  8
Unknown_Area_Type
  10
261771.132
  20
4599331.739
  0
VERTEX
  8
Unknown_Area_Type
  10
261771.132
  20
4604180.870
  0
VERTEX
  8
Unknown_Area_Type
  10
261969.973
  20
4604212.485
  0
SEQEND
  8
Unknown_Area_Type
  0
INSERT
  8
FeatureAttribs
  2
FEATURE
  41
1
  42
1
  43
1
  50
0
  10
261990.349
  20
4601864.662
 66
1
  0
ATTRIB
  8
FeatureAttribs
 70
0
  1
PNOA-H_AMS_1956-57_33k_ES_PAN_2
  2
NAME
  10
261990.349
  20
4601864.662
 40
33.87325
  0
SEQEND
  0
POLYLINE
  8
Unknown_Area_Type
  70
1
  66
1
  0
VERTEX
  8
Unknown_Area_Type
  10
261969.973
  20
4604212.485
  0
VERTEX
  8
Unknown_Area_Type
  10
262180.000
  20
4604245.879
  0
VERTEX
  8
Unknown_Area_Type
  10
262180.000
  20
4602720.000
  0
VERTEX
  8
Unknown_Area_Type
  10
262030.000
  20
4602720.000
  0
VERTEX
  8
Unknown_Area_Type
  10
262030.000
  20
4599385.167
  0
VERTEX
  8
Unknown_Area_Type
  10
261808.889
  20
4599339.532
  0
VERTEX
  8
Unknown_Area_Type
  10
261847.596
  20
4600510.964
  0
VERTEX
  8
Unknown_Area_Type
  10
261924.064
  20
4602824.227
  0
VERTEX
  8
Unknown_Area_Type
  10
261969.973
  20
4604212.485
  0
SEQEND
  8
Unknown_Area_Type
  0
INSERT
  8
FeatureAttribs
  2
FEATURE
  41
1
  42
1
  43
1
  50
0
  10
261990.349
  20
4601864.662
 66
1
  0
ATTRIB
  8
FeatureAttribs
 70
0
  1
PNOA-H_AMS_1956-57_33k_ES_PAN_2
  2
NAME
  10
261990.349
  20
4601864.662
 40
33.87325
  0
SEQEND
  0
POLYLINE
  8
Unknown_Area_Type
  70
1
  66
1
  0
VERTEX
  8
Unknown_Area_Type
  10
261969.973
  20
4604212.485
  0
VERTEX
  8
Unknown_Area_Type
  10
261924.064
  20
4602824.227
  0
VERTEX
  8
Unknown_Area_Type
  10
261847.596
  20
4600510.964
  0
VERTEX
  8
Unknown_Area_Type
  10
261808.889
  20
4599339.532
  0
VERTEX
  8
Unknown_Area_Type
  10
262030.000
  20
4599385.167
  0
VERTEX
  8
Unknown_Area_Type
  10
262030.000
  20
4602720.000
  0
VERTEX
  8
Unknown_Area_Type
  10
262180.000
  20
4602720.000
  0
VERTEX
  8
Unknown_Area_Type
  10
262180.000
  20
4604245.879
  0
VERTEX
  8
Unknown_Area_Type
  10
261969.973
  20
4604212.485
  0
SEQEND
  8
Unknown_Area_Type
  0
INSERT
  8
FeatureAttribs
  2
FEATURE
  41
1
  42
1
  43
1
  50
0
  10
262385.772
  20
4613625.934
 66
1
  0
ATTRIB
  8
FeatureAttribs
 70
0
  1
PNOA-H_AMS_1956-57_33k_ES_PAN_2
  2
NAME
  10
262385.772
  20
4613625.934
 40
33.87325
  0
SEQEND
  0
POLYLINE
  8
Unknown_Area_Type
  70
1
  66
1
  0
VERTEX
  8
Unknown_Area_Type
  10
262352.650
  20
4615772.036
  0
VERTEX
  8
Unknown_Area_Type
  10
262490.000
  20
4615775.781
  0
VERTEX
  8
Unknown_Area_Type
  10
262490.000
  20
4611970.000
  0
VERTEX
  8
Unknown_Area_Type
  10
262340.000
  20
4611970.000
  0
VERTEX
  8
Unknown_Area_Type
  10
262340.000
  20
4611476.087
  0
VERTEX
  8
Unknown_Area_Type
  10
262211.051
  20
4611497.529
  0
VERTEX
  8
Unknown_Area_Type
  10
262230.249
  20
4612077.342
  0
VERTEX
  8
Unknown_Area_Type
  10
262306.874
  20
4614390.636
  0
VERTEX
  8
Unknown_Area_Type
  10
262352.650
  20
4615772.036
  0
SEQEND
  8
Unknown_Area_Type
  0
INSERT
  8
FeatureAttribs
  2
FEATURE
  41
1
  42
1
  43
1
  50
0
  10
262385.772
  20
4613625.934
 66
1
  0
ATTRIB
  8
FeatureAttribs
 70
0
  1
PNOA-H_AMS_1956-57_33k_ES_PAN_2
  2
NAME
  10
262385.772
  20
4613625.934
 40
33.87325
  0
SEQEND
  0
POLYLINE
  8
Unknown_Area_Type
  70
1
  66
1
  0
VERTEX
  8
Unknown_Area_Type
  10
262352.650
  20
4615772.036
  0
VERTEX
  8
Unknown_Area_Type
  10
262490.000
  20
4615775.781
  0
VERTEX
  8
Unknown_Area_Type
  10
262490.000
  20
4611970.000
  0
VERTEX
  8
Unknown_Area_Type
  10
262340.000
  20
4611970.000
  0
VERTEX
  8
Unknown_Area_Type
  10
262340.000
  20
4611476.087
  0
VERTEX
  8
Unknown_Area_Type
  10
262211.051
  20
4611497.529
  0
VERTEX
  8
Unknown_Area_Type
  10
262230.249
  20
4612077.342
  0
VERTEX
  8
Unknown_Area_Type
  10
262306.874
  20
4614390.636
  0
VERTEX
  8
Unknown_Area_Type
  10
262352.650
  20
4615772.036
  0
SEQEND
  8
Unknown_Area_Type
  0
INSERT
  8
FeatureAttribs
  2
FEATURE
  41
1
  42
1
  43
1
  50
0
  10
262026.485
  20
4613634.782
 66
1
  0
ATTRIB
  8
FeatureAttribs
 70
0
  1
PNOA-H_AMS_1956-57_33k_ES_PAN_2
  2
NAME
  10
262026.485
  20
4613634.782
 40
33.87325
  0
SEQEND
  0
POLYLINE
  8
Unknown_Area_Type
  70
1
  66
1
  0
VERTEX
  8
Unknown_Area_Type
  10
262352.650
  20
4615772.036
  0
VERTEX
  8
Unknown_Area_Type
  10
262306.874
  20
4614390.636
  0
VERTEX
  8
Unknown_Area_Type
  10
262230.249
  20
4612077.342
  0
VERTEX
  8
Unknown_Area_Type
  10
262211.051
  20
4611497.529
  0
VERTEX
  8
Unknown_Area_Type
  10
261771.132
  20
4611570.680
  0
VERTEX
  8
Unknown_Area_Type
  10
261771.132
  20
4615756.178
  0
VERTEX
  8
Unknown_Area_Type
  10
262352.650
  20
4615772.036
  0
SEQEND
  8
Unknown_Area_Type
  0
INSERT
  8
FeatureAttribs
  2
FEATURE
  41
1
  42
1
  43
1
  50
0
  10
262105.865
  20
4606079.598
 66
1
  0
ATTRIB
  8
FeatureAttribs
 70
0
  1
PNOA-H_AMS_1956-57_33k_ES_PAN_2
  2
NAME
  10
262105.865
  20
4606079.598
 40
33.87325
  0
SEQEND
  0
POLYLINE
  8
Unknown_Area_Type
  70
1
  66
1
  0
VERTEX
  8
Unknown_Area_Type
  10
262093.507
  20
4607946.724
  0
VERTEX
  8
Unknown_Area_Type
  10
262340.000
  20
4607906.664
  0
VERTEX
  8
Unknown_Area_Type
  10
262340.000
  20
4607350.000
  0
VERTEX
  8
Unknown_Area_Type
  10
262180.000
  20
4607350.000
  0
VERTEX
  8
Unknown_Area_Type
  10
262180.000
  20
4604245.852
  0
VERTEX
  8
Unknown_Area_Type
  10
261969.972
  20
4604212.472
  0
VERTEX
  8
Unknown_Area_Type
  10
262000.562
  20
4605137.496
  0
VERTEX
  8
Unknown_Area_Type
  10
262077.093
  20
4607450.772
  0
VERTEX
  8
Unknown_Area_Type
  10
262093.507
  20
4607946.724
  0
SEQEND
  8
Unknown_Area_Type
  0
INSERT
  8
FeatureAttribs
  2
FEATURE
  41
1
  42
1
  43
1
  50
0
  10
262105.865
  20
4606079.598
 66
1
  0
ATTRIB
  8
FeatureAttribs
 70
0
  1
PNOA-H_AMS_1956-57_33k_ES_PAN_2
  2
NAME
  10
262105.865
  20
4606079.598
 40
33.87325
  0
SEQEND
  0
POLYLINE
  8
Unknown_Area_Type
  70
1
  66
1
  0
VERTEX
  8
Unknown_Area_Type
  10
262093.507
  20
4607946.724
  0
VERTEX
  8
Unknown_Area_Type
  10
262340.000
  20
4607906.664
  0
VERTEX
  8
Unknown_Area_Type
  10
262340.000
  20
4607350.000
  0
VERTEX
  8
Unknown_Area_Type
  10
262180.000
  20
4607350.000
  0
VERTEX
  8
Unknown_Area_Type
  10
262180.000
  20
4604245.852
  0
VERTEX
  8
Unknown_Area_Type
  10
261969.972
  20
4604212.472
  0
VERTEX
  8
Unknown_Area_Type
  10
262000.562
  20
4605137.496
  0
VERTEX
  8
Unknown_Area_Type
  10
262077.093
  20
4607450.772
  0
VERTEX
  8
Unknown_Area_Type
  10
262093.507
  20
4607946.724
  0
SEQEND
  8
Unknown_Area_Type
  0
INSERT
  8
FeatureAttribs
  2
FEATURE
  41
1
  42
1
  43
1
  50
0
  10
261901.603
  20
4606089.960
 66
1
  0
ATTRIB
  8
FeatureAttribs
 70
0
  1
PNOA-H_AMS_1956-57_33k_ES_PAN_2
  2
NAME
  10
261901.603
  20
4606089.960
 40
33.87325
  0
SEQEND
  0
POLYLINE
  8
Unknown_Area_Type
  70
1
  66
1
  0
VERTEX
  8
Unknown_Area_Type
  10
262093.507
  20
4607946.724
  0
VERTEX
  8
Unknown_Area_Type
  10
262077.093
  20
4607450.772
  0
VERTEX
  8
Unknown_Area_Type
  10
262000.562
  20
4605137.496
  0
VERTEX
  8
Unknown_Area_Type
  10
261969.972
  20
4604212.472
  0
VERTEX
  8
Unknown_Area_Type
  10
261771.132
  20
4604180.870
  0
VERTEX
  8
Unknown_Area_Type
  10
261771.132
  20
4607999.049
  0
VERTEX
  8
Unknown_Area_Type
  10
261774.500
  20
4607998.500
  0
VERTEX
  8
Unknown_Area_Type
  10
261778.000
  20
4607998.000
  0
VERTEX
  8
Unknown_Area_Type
  10
262093.507
  20
4607946.724
  0
SEQEND
  8
Unknown_Area_Type
  0
ENDSEC
  0
EOF
