  0
SECTION
  2
HEADER
  9
$ACADVER
  1
AC1009
  9
$LUNITS
  70
2
  9
$LIMMIN
  10
233945.434
  20
4598197.688
  9
$LIMMAX
  10
262383.559
  20
4617677.656
  9
$EXTMIN
  10
233945.434
  20
4598197.688
  9
$EXTMAX
  10
262383.559
  20
4617677.656
  999
Created by Global Mapper
  999
Projection: UTM
  999
Datum: ETRS89
  999
Ground Units: meters
  999
ZONE: 30
  0
ENDSEC
  0
SECTION
  2
TABLES
  0
ENDSEC
  0
SECTION
  2
BLOCKS
  0
BLOCK
  8
FeatureAttribs
  70
0
  2
FEATURE
  3
FEATURE
  10
0.00000000
  20
0.00000000
  0
ATTDEF
  8
FeatureAttribs
  70
0
  1
 
  2
NAME
  3
NAME
  10
0.00000000
  20
0.00000000
  40
1.00000000
  0
ENDBLK
  0
ENDSEC
  0
SECTION
  2
ENTITIES
  0
INSERT
  8
FeatureAttribs
  2
FEATURE
  41
1
  42
1
  43
1
  50
0
  10
259560.786
  20
4598246.700
 66
1
  0
ATTRIB
  8
FeatureAttribs
 70
0
  1
PNOA-H_AMS_1956-57_33k_ES_PAN_2
  2
NAME
  10
259560.786
  20
4598246.700
 40
34.47022
  0
SEQEND
  0
POLYLINE
  8
Unknown_Area_Type
  70
1
  66
1
  0
VERTEX
  8
Unknown_Area_Type
  10
261587.313
  20
4598203.826
  0
VERTEX
  8
Unknown_Area_Type
  10
261587.005
  20
4598197.688
  0
VERTEX
  8
Unknown_Area_Type
  10
258819.161
  20
4598197.688
  0
VERTEX
  8
Unknown_Area_Type
  10
258826.117
  20
4598295.711
  0
VERTEX
  8
Unknown_Area_Type
  10
261587.313
  20
4598203.826
  0
SEQEND
  8
Unknown_Area_Type
  0
INSERT
  8
FeatureAttribs
  2
FEATURE
  41
1
  42
1
  43
1
  50
0
  10
260250.575
  20
4598920.776
 66
1
  0
ATTRIB
  8
FeatureAttribs
 70
0
  1
PNOA-H_AMS_1956-57_33k_ES_PAN_2
  2
NAME
  10
260250.575
  20
4598920.776
 40
34.47022
  0
SEQEND
  0
POLYLINE
  8
Unknown_Area_Type
  70
1
  66
1
  0
VERTEX
  8
Unknown_Area_Type
  10
261587.313
  20
4598203.826
  0
VERTEX
  8
Unknown_Area_Type
  10
258826.117
  20
4598295.711
  0
VERTEX
  8
Unknown_Area_Type
  10
258907.500
  20
4599442.500
  0
VERTEX
  8
Unknown_Area_Type
  10
259726.000
  20
4599616.000
  0
VERTEX
  8
Unknown_Area_Type
  10
259728.500
  20
4599616.500
  0
VERTEX
  8
Unknown_Area_Type
  10
260512.500
  20
4599782.000
  0
VERTEX
  8
Unknown_Area_Type
  10
261642.500
  20
4599305.500
  0
VERTEX
  8
Unknown_Area_Type
  10
261587.313
  20
4598203.826
  0
SEQEND
  8
Unknown_Area_Type
  0
INSERT
  8
FeatureAttribs
  2
FEATURE
  41
1
  42
1
  43
1
  50
0
  10
260250.575
  20
4598920.776
 66
1
  0
ATTRIB
  8
FeatureAttribs
 70
0
  1
PNOA-H_AMS_1956-57_33k_ES_PAN_2
  2
NAME
  10
260250.575
  20
4598920.776
 40
34.47022
  0
SEQEND
  0
POLYLINE
  8
Unknown_Area_Type
  70
1
  66
1
  0
VERTEX
  8
Unknown_Area_Type
  10
261587.313
  20
4598203.826
  0
VERTEX
  8
Unknown_Area_Type
  10
261642.500
  20
4599305.500
  0
VERTEX
  8
Unknown_Area_Type
  10
260512.500
  20
4599782.000
  0
VERTEX
  8
Unknown_Area_Type
  10
259728.500
  20
4599616.500
  0
VERTEX
  8
Unknown_Area_Type
  10
259726.000
  20
4599616.000
  0
VERTEX
  8
Unknown_Area_Type
  10
258907.500
  20
4599442.500
  0
VERTEX
  8
Unknown_Area_Type
  10
258826.117
  20
4598295.711
  0
VERTEX
  8
Unknown_Area_Type
  10
261587.313
  20
4598203.826
  0
SEQEND
  8
Unknown_Area_Type
  0
INSERT
  8
FeatureAttribs
  2
FEATURE
  41
1
  42
1
  43
1
  50
0
  10
257446.485
  20
4598293.052
 66
1
  0
ATTRIB
  8
FeatureAttribs
 70
0
  1
PNOA-H_AMS_1956-57_33k_ES_PAN_2
  2
NAME
  10
257446.485
  20
4598293.052
 40
34.47022
  0
SEQEND
  0
POLYLINE
  8
Unknown_Area_Type
  70
1
  66
1
  0
VERTEX
  8
Unknown_Area_Type
  10
258826.117
  20
4598295.711
  0
VERTEX
  8
Unknown_Area_Type
  10
258819.161
  20
4598197.688
  0
VERTEX
  8
Unknown_Area_Type
  10
256061.587
  20
4598197.688
  0
VERTEX
  8
Unknown_Area_Type
  10
256072.495
  20
4598388.416
  0
VERTEX
  8
Unknown_Area_Type
  10
258293.005
  20
4598313.451
  0
VERTEX
  8
Unknown_Area_Type
  10
258826.117
  20
4598295.711
  0
SEQEND
  8
Unknown_Area_Type
  0
INSERT
  8
FeatureAttribs
  2
FEATURE
  41
1
  42
1
  43
1
  50
0
  10
257493.675
  20
4599037.040
 66
1
  0
ATTRIB
  8
FeatureAttribs
 70
0
  1
PNOA-H_AMS_1956-57_33k_ES_PAN_2
  2
NAME
  10
257493.675
  20
4599037.040
 40
34.47022
  0
SEQEND
  0
POLYLINE
  8
Unknown_Area_Type
  70
1
  66
1
  0
VERTEX
  8
Unknown_Area_Type
  10
258826.117
  20
4598295.711
  0
VERTEX
  8
Unknown_Area_Type
  10
258293.005
  20
4598313.451
  0
VERTEX
  8
Unknown_Area_Type
  10
256072.495
  20
4598388.416
  0
VERTEX
  8
Unknown_Area_Type
  10
256139.500
  20
4599560.000
  0
VERTEX
  8
Unknown_Area_Type
  10
257621.500
  20
4599933.000
  0
VERTEX
  8
Unknown_Area_Type
  10
257623.500
  20
4599933.500
  0
VERTEX
  8
Unknown_Area_Type
  10
257635.500
  20
4599930.000
  0
VERTEX
  8
Unknown_Area_Type
  10
258907.500
  20
4599442.500
  0
VERTEX
  8
Unknown_Area_Type
  10
258826.117
  20
4598295.711
  0
SEQEND
  8
Unknown_Area_Type
  0
INSERT
  8
FeatureAttribs
  2
FEATURE
  41
1
  42
1
  43
1
  50
0
  10
257493.675
  20
4599037.040
 66
1
  0
ATTRIB
  8
FeatureAttribs
 70
0
  1
PNOA-H_AMS_1956-57_33k_ES_PAN_2
  2
NAME
  10
257493.675
  20
4599037.040
 40
34.47022
  0
SEQEND
  0
POLYLINE
  8
Unknown_Area_Type
  70
1
  66
1
  0
VERTEX
  8
Unknown_Area_Type
  10
258826.117
  20
4598295.711
  0
VERTEX
  8
Unknown_Area_Type
  10
258907.500
  20
4599442.500
  0
VERTEX
  8
Unknown_Area_Type
  10
257635.500
  20
4599930.000
  0
VERTEX
  8
Unknown_Area_Type
  10
257623.500
  20
4599933.500
  0
VERTEX
  8
Unknown_Area_Type
  10
257621.500
  20
4599933.000
  0
VERTEX
  8
Unknown_Area_Type
  10
256139.500
  20
4599560.000
  0
VERTEX
  8
Unknown_Area_Type
  10
256072.495
  20
4598388.416
  0
VERTEX
  8
Unknown_Area_Type
  10
258293.005
  20
4598313.451
  0
VERTEX
  8
Unknown_Area_Type
  10
258826.117
  20
4598295.711
  0
SEQEND
  8
Unknown_Area_Type
  0
INSERT
  8
FeatureAttribs
  2
FEATURE
  41
1
  42
1
  43
1
  50
0
  10
250057.500
  20
4598827.500
 66
1
  0
ATTRIB
  8
FeatureAttribs
 70
0
  1
PNOA-H_AMS_1956-57_33k_ES_PAN_2
  2
NAME
  10
250057.500
  20
4598827.500
 40
34.47022
  0
SEQEND
  0
POLYLINE
  8
Unknown_Area_Type
  70
1
  66
1
  0
VERTEX
  8
Unknown_Area_Type
  10
250055.000
  20
4598833.500
  0
VERTEX
  8
Unknown_Area_Type
  10
250059.000
  20
4598834.000
  0
VERTEX
  8
Unknown_Area_Type
  10
250060.000
  20
4598833.500
  0
VERTEX
  8
Unknown_Area_Type
  10
250063.500
  20
4598830.000
  0
VERTEX
  8
Unknown_Area_Type
  10
250064.000
  20
4598826.000
  0
VERTEX
  8
Unknown_Area_Type
  10
250059.000
  20
4598821.000
  0
VERTEX
  8
Unknown_Area_Type
  10
250055.000
  20
4598821.500
  0
VERTEX
  8
Unknown_Area_Type
  10
250051.500
  20
4598825.000
  0
VERTEX
  8
Unknown_Area_Type
  10
250051.000
  20
4598829.000
  0
VERTEX
  8
Unknown_Area_Type
  10
250055.000
  20
4598833.500
  0
SEQEND
  8
Unknown_Area_Type
  0
INSERT
  8
FeatureAttribs
  2
FEATURE
  41
1
  42
1
  43
1
  50
0
  10
250057.500
  20
4598827.500
 66
1
  0
ATTRIB
  8
FeatureAttribs
 70
0
  1
PNOA-H_AMS_1956-57_33k_ES_PAN_2
  2
NAME
  10
250057.500
  20
4598827.500
 40
34.47022
  0
SEQEND
  0
POLYLINE
  8
Unknown_Area_Type
  70
1
  66
1
  0
VERTEX
  8
Unknown_Area_Type
  10
250055.000
  20
4598833.500
  0
VERTEX
  8
Unknown_Area_Type
  10
250051.000
  20
4598829.000
  0
VERTEX
  8
Unknown_Area_Type
  10
250051.500
  20
4598825.000
  0
VERTEX
  8
Unknown_Area_Type
  10
250055.000
  20
4598821.500
  0
VERTEX
  8
Unknown_Area_Type
  10
250059.000
  20
4598821.000
  0
VERTEX
  8
Unknown_Area_Type
  10
250064.000
  20
4598826.000
  0
VERTEX
  8
Unknown_Area_Type
  10
250063.500
  20
4598830.000
  0
VERTEX
  8
Unknown_Area_Type
  10
250060.000
  20
4598833.500
  0
VERTEX
  8
Unknown_Area_Type
  10
250059.000
  20
4598834.000
  0
VERTEX
  8
Unknown_Area_Type
  10
250055.000
  20
4598833.500
  0
SEQEND
  8
Unknown_Area_Type
  0
INSERT
  8
FeatureAttribs
  2
FEATURE
  41
1
  42
1
  43
1
  50
0
  10
249150.828
  20
4598435.888
 66
1
  0
ATTRIB
  8
FeatureAttribs
 70
0
  1
PNOA-H_AMS_1956-57_33k_ES_PAN_2
  2
NAME
  10
249150.828
  20
4598435.888
 40
34.47022
  0
SEQEND
  0
POLYLINE
  8
Unknown_Area_Type
  70
1
  66
1
  0
VERTEX
  8
Unknown_Area_Type
  10
250542.527
  20
4598197.688
  0
VERTEX
  8
Unknown_Area_Type
  10
247737.229
  20
4598197.688
  0
VERTEX
  8
Unknown_Area_Type
  10
247764.138
  20
4598674.087
  0
VERTEX
  8
Unknown_Area_Type
  10
247858.442
  20
4598670.767
  0
VERTEX
  8
Unknown_Area_Type
  10
250555.979
  20
4598577.090
  0
VERTEX
  8
Unknown_Area_Type
  10
250542.527
  20
4598197.688
  0
SEQEND
  8
Unknown_Area_Type
  0
INSERT
  8
FeatureAttribs
  2
FEATURE
  41
1
  42
1
  43
1
  50
0
  10
249170.343
  20
4599294.046
 66
1
  0
ATTRIB
  8
FeatureAttribs
 70
0
  1
PNOA-H_AMS_1956-57_33k_ES_PAN_2
  2
NAME
  10
249170.343
  20
4599294.046
 40
34.47022
  0
SEQEND
  0
POLYLINE
  8
Unknown_Area_Type
  70
1
  66
1
  0
VERTEX
  8
Unknown_Area_Type
  10
250555.979
  20
4598577.090
  0
VERTEX
  8
Unknown_Area_Type
  10
247858.442
  20
4598670.767
  0
VERTEX
  8
Unknown_Area_Type
  10
247764.138
  20
4598674.087
  0
VERTEX
  8
Unknown_Area_Type
  10
247827.000
  20
4599787.000
  0
VERTEX
  8
Unknown_Area_Type
  10
248954.000
  20
4600187.500
  0
VERTEX
  8
Unknown_Area_Type
  10
249488.500
  20
4600016.500
  0
VERTEX
  8
Unknown_Area_Type
  10
249490.000
  20
4600016.000
  0
VERTEX
  8
Unknown_Area_Type
  10
250594.500
  20
4599663.500
  0
VERTEX
  8
Unknown_Area_Type
  10
250555.979
  20
4598577.090
  0
SEQEND
  8
Unknown_Area_Type
  0
INSERT
  8
FeatureAttribs
  2
FEATURE
  41
1
  42
1
  43
1
  50
0
  10
249170.343
  20
4599294.046
 66
1
  0
ATTRIB
  8
FeatureAttribs
 70
0
  1
PNOA-H_AMS_1956-57_33k_ES_PAN_2
  2
NAME
  10
249170.343
  20
4599294.046
 40
34.47022
  0
SEQEND
  0
POLYLINE
  8
Unknown_Area_Type
  70
1
  66
1
  0
VERTEX
  8
Unknown_Area_Type
  10
250555.979
  20
4598577.090
  0
VERTEX
  8
Unknown_Area_Type
  10
250594.500
  20
4599663.500
  0
VERTEX
  8
Unknown_Area_Type
  10
249490.000
  20
4600016.000
  0
VERTEX
  8
Unknown_Area_Type
  10
249488.500
  20
4600016.500
  0
VERTEX
  8
Unknown_Area_Type
  10
248954.000
  20
4600187.500
  0
VERTEX
  8
Unknown_Area_Type
  10
247827.000
  20
4599787.000
  0
VERTEX
  8
Unknown_Area_Type
  10
247764.138
  20
4598674.087
  0
VERTEX
  8
Unknown_Area_Type
  10
247858.442
  20
4598670.767
  0
VERTEX
  8
Unknown_Area_Type
  10
250555.979
  20
4598577.090
  0
SEQEND
  8
Unknown_Area_Type
  0
INSERT
  8
FeatureAttribs
  2
FEATURE
  41
1
  42
1
  43
1
  50
0
  10
250057.500
  20
4598827.500
 66
1
  0
ATTRIB
  8
FeatureAttribs
 70
0
  1
PNOA-H_AMS_1956-57_33k_ES_PAN_2
  2
NAME
  10
250057.500
  20
4598827.500
 40
34.47022
  0
SEQEND
  0
POLYLINE
  8
Unknown_Area_Type
  70
1
  66
1
  0
VERTEX
  8
Unknown_Area_Type
  10
250051.500
  20
4598830.000
  0
VERTEX
  8
Unknown_Area_Type
  10
250055.000
  20
4598833.500
  0
VERTEX
  8
Unknown_Area_Type
  10
250056.000
  20
4598834.000
  0
VERTEX
  8
Unknown_Area_Type
  10
250060.000
  20
4598833.500
  0
VERTEX
  8
Unknown_Area_Type
  10
250064.000
  20
4598829.000
  0
VERTEX
  8
Unknown_Area_Type
  10
250063.500
  20
4598825.000
  0
VERTEX
  8
Unknown_Area_Type
  10
250060.000
  20
4598821.500
  0
VERTEX
  8
Unknown_Area_Type
  10
250056.000
  20
4598821.000
  0
VERTEX
  8
Unknown_Area_Type
  10
250051.000
  20
4598826.000
  0
VERTEX
  8
Unknown_Area_Type
  10
250051.500
  20
4598830.000
  0
SEQEND
  8
Unknown_Area_Type
  0
INSERT
  8
FeatureAttribs
  2
FEATURE
  41
1
  42
1
  43
1
  50
0
  10
250057.500
  20
4598827.500
 66
1
  0
ATTRIB
  8
FeatureAttribs
 70
0
  1
PNOA-H_AMS_1956-57_33k_ES_PAN_2
  2
NAME
  10
250057.500
  20
4598827.500
 40
34.47022
  0
SEQEND
  0
POLYLINE
  8
Unknown_Area_Type
  70
1
  66
1
  0
VERTEX
  8
Unknown_Area_Type
  10
250051.500
  20
4598830.000
  0
VERTEX
  8
Unknown_Area_Type
  10
250051.000
  20
4598826.000
  0
VERTEX
  8
Unknown_Area_Type
  10
250056.000
  20
4598821.000
  0
VERTEX
  8
Unknown_Area_Type
  10
250060.000
  20
4598821.500
  0
VERTEX
  8
Unknown_Area_Type
  10
250063.500
  20
4598825.000
  0
VERTEX
  8
Unknown_Area_Type
  10
250064.000
  20
4598829.000
  0
VERTEX
  8
Unknown_Area_Type
  10
250060.000
  20
4598833.500
  0
VERTEX
  8
Unknown_Area_Type
  10
250056.000
  20
4598834.000
  0
VERTEX
  8
Unknown_Area_Type
  10
250055.000
  20
4598833.500
  0
VERTEX
  8
Unknown_Area_Type
  10
250051.500
  20
4598830.000
  0
SEQEND
  8
Unknown_Area_Type
  0
INSERT
  8
FeatureAttribs
  2
FEATURE
  41
1
  42
1
  43
1
  50
0
  10
251939.645
  20
4598387.389
 66
1
  0
ATTRIB
  8
FeatureAttribs
 70
0
  1
PNOA-H_AMS_1956-57_33k_ES_PAN_2
  2
NAME
  10
251939.645
  20
4598387.389
 40
34.47022
  0
SEQEND
  0
POLYLINE
  8
Unknown_Area_Type
  70
1
  66
1
  0
VERTEX
  8
Unknown_Area_Type
  10
253320.120
  20
4598197.688
  0
VERTEX
  8
Unknown_Area_Type
  10
250542.533
  20
4598197.688
  0
VERTEX
  8
Unknown_Area_Type
  10
250555.984
  20
4598577.090
  0
VERTEX
  8
Unknown_Area_Type
  10
251336.646
  20
4598549.981
  0
VERTEX
  8
Unknown_Area_Type
  10
253334.951
  20
4598481.552
  0
VERTEX
  8
Unknown_Area_Type
  10
253320.120
  20
4598197.688
  0
SEQEND
  8
Unknown_Area_Type
  0
INSERT
  8
FeatureAttribs
  2
FEATURE
  41
1
  42
1
  43
1
  50
0
  10
251980.630
  20
4599220.102
 66
1
  0
ATTRIB
  8
FeatureAttribs
 70
0
  1
PNOA-H_AMS_1956-57_33k_ES_PAN_2
  2
NAME
  10
251980.630
  20
4599220.102
 40
34.47022
  0
SEQEND
  0
POLYLINE
  8
Unknown_Area_Type
  70
1
  66
1
  0
VERTEX
  8
Unknown_Area_Type
  10
253334.951
  20
4598481.552
  0
VERTEX
  8
Unknown_Area_Type
  10
251336.646
  20
4598549.981
  0
VERTEX
  8
Unknown_Area_Type
  10
250555.984
  20
4598577.090
  0
VERTEX
  8
Unknown_Area_Type
  10
250594.500
  20
4599663.500
  0
VERTEX
  8
Unknown_Area_Type
  10
251885.500
  20
4600139.000
  0
VERTEX
  8
Unknown_Area_Type
  10
251887.000
  20
4600139.500
  0
VERTEX
  8
Unknown_Area_Type
  10
253395.500
  20
4599640.500
  0
VERTEX
  8
Unknown_Area_Type
  10
253334.951
  20
4598481.552
  0
SEQEND
  8
Unknown_Area_Type
  0
INSERT
  8
FeatureAttribs
  2
FEATURE
  41
1
  42
1
  43
1
  50
0
  10
251980.630
  20
4599220.102
 66
1
  0
ATTRIB
  8
FeatureAttribs
 70
0
  1
PNOA-H_AMS_1956-57_33k_ES_PAN_2
  2
NAME
  10
251980.630
  20
4599220.102
 40
34.47022
  0
SEQEND
  0
POLYLINE
  8
Unknown_Area_Type
  70
1
  66
1
  0
VERTEX
  8
Unknown_Area_Type
  10
253334.951
  20
4598481.552
  0
VERTEX
  8
Unknown_Area_Type
  10
253395.500
  20
4599640.500
  0
VERTEX
  8
Unknown_Area_Type
  10
251887.000
  20
4600139.500
  0
VERTEX
  8
Unknown_Area_Type
  10
251885.500
  20
4600139.000
  0
VERTEX
  8
Unknown_Area_Type
  10
250594.500
  20
4599663.500
  0
VERTEX
  8
Unknown_Area_Type
  10
250555.984
  20
4598577.090
  0
VERTEX
  8
Unknown_Area_Type
  10
251336.646
  20
4598549.981
  0
VERTEX
  8
Unknown_Area_Type
  10
253334.951
  20
4598481.552
  0
SEQEND
  8
Unknown_Area_Type
  0
INSERT
  8
FeatureAttribs
  2
FEATURE
  41
1
  42
1
  43
1
  50
0
  10
243564.013
  20
4598535.367
 66
1
  0
ATTRIB
  8
FeatureAttribs
 70
0
  1
PNOA-H_AMS_1956-57_33k_ES_PAN_2
  2
NAME
  10
243564.013
  20
4598535.367
 40
34.47022
  0
SEQEND
  0
POLYLINE
  8
Unknown_Area_Type
  70
1
  66
1
  0
VERTEX
  8
Unknown_Area_Type
  10
244969.285
  20
4598197.688
  0
VERTEX
  8
Unknown_Area_Type
  10
242140.685
  20
4598197.688
  0
VERTEX
  8
Unknown_Area_Type
  10
242144.198
  20
4598873.045
  0
VERTEX
  8
Unknown_Area_Type
  10
244380.223
  20
4598793.235
  0
VERTEX
  8
Unknown_Area_Type
  10
244996.983
  20
4598771.519
  0
VERTEX
  8
Unknown_Area_Type
  10
244969.285
  20
4598197.688
  0
SEQEND
  8
Unknown_Area_Type
  0
INSERT
  8
FeatureAttribs
  2
FEATURE
  41
1
  42
1
  43
1
  50
0
  10
243590.252
  20
4599488.396
 66
1
  0
ATTRIB
  8
FeatureAttribs
 70
0
  1
PNOA-H_AMS_1956-57_33k_ES_PAN_2
  2
NAME
  10
243590.252
  20
4599488.396
 40
34.47022
  0
SEQEND
  0
POLYLINE
  8
Unknown_Area_Type
  70
1
  66
1
  0
VERTEX
  8
Unknown_Area_Type
  10
244996.983
  20
4598771.519
  0
VERTEX
  8
Unknown_Area_Type
  10
244380.223
  20
4598793.235
  0
VERTEX
  8
Unknown_Area_Type
  10
242144.198
  20
4598873.045
  0
VERTEX
  8
Unknown_Area_Type
  10
242149.500
  20
4599892.500
  0
VERTEX
  8
Unknown_Area_Type
  10
243302.500
  20
4600376.000
  0
VERTEX
  8
Unknown_Area_Type
  10
243343.500
  20
4600364.500
  0
VERTEX
  8
Unknown_Area_Type
  10
243346.000
  20
4600364.000
  0
VERTEX
  8
Unknown_Area_Type
  10
245051.500
  20
4599901.000
  0
VERTEX
  8
Unknown_Area_Type
  10
244996.983
  20
4598771.519
  0
SEQEND
  8
Unknown_Area_Type
  0
INSERT
  8
FeatureAttribs
  2
FEATURE
  41
1
  42
1
  43
1
  50
0
  10
243590.252
  20
4599488.396
 66
1
  0
ATTRIB
  8
FeatureAttribs
 70
0
  1
PNOA-H_AMS_1956-57_33k_ES_PAN_2
  2
NAME
  10
243590.252
  20
4599488.396
 40
34.47022
  0
SEQEND
  0
POLYLINE
  8
Unknown_Area_Type
  70
1
  66
1
  0
VERTEX
  8
Unknown_Area_Type
  10
244996.983
  20
4598771.519
  0
VERTEX
  8
Unknown_Area_Type
  10
245051.500
  20
4599901.000
  0
VERTEX
  8
Unknown_Area_Type
  10
243346.000
  20
4600364.000
  0
VERTEX
  8
Unknown_Area_Type
  10
243343.500
  20
4600364.500
  0
VERTEX
  8
Unknown_Area_Type
  10
243302.500
  20
4600376.000
  0
VERTEX
  8
Unknown_Area_Type
  10
242149.500
  20
4599892.500
  0
VERTEX
  8
Unknown_Area_Type
  10
242144.198
  20
4598873.045
  0
VERTEX
  8
Unknown_Area_Type
  10
244380.223
  20
4598793.235
  0
VERTEX
  8
Unknown_Area_Type
  10
244996.983
  20
4598771.519
  0
SEQEND
  8
Unknown_Area_Type
  0
INSERT
  8
FeatureAttribs
  2
FEATURE
  41
1
  42
1
  43
1
  50
0
  10
254698.610
  20
4598339.620
 66
1
  0
ATTRIB
  8
FeatureAttribs
 70
0
  1
PNOA-H_AMS_1956-57_33k_ES_PAN_2
  2
NAME
  10
254698.610
  20
4598339.620
 40
34.47022
  0
SEQEND
  0
POLYLINE
  8
Unknown_Area_Type
  70
1
  66
1
  0
VERTEX
  8
Unknown_Area_Type
  10
256061.567
  20
4598197.688
  0
VERTEX
  8
Unknown_Area_Type
  10
253320.120
  20
4598197.688
  0
VERTEX
  8
Unknown_Area_Type
  10
253334.951
  20
4598481.552
  0
VERTEX
  8
Unknown_Area_Type
  10
254814.833
  20
4598430.875
  0
VERTEX
  8
Unknown_Area_Type
  10
256072.474
  20
4598388.417
  0
VERTEX
  8
Unknown_Area_Type
  10
256061.567
  20
4598197.688
  0
SEQEND
  8
Unknown_Area_Type
  0
INSERT
  8
FeatureAttribs
  2
FEATURE
  41
1
  42
1
  43
1
  50
0
  10
254746.491
  20
4599138.366
 66
1
  0
ATTRIB
  8
FeatureAttribs
 70
0
  1
PNOA-H_AMS_1956-57_33k_ES_PAN_2
  2
NAME
  10
254746.491
  20
4599138.366
 40
34.47022
  0
SEQEND
  0
POLYLINE
  8
Unknown_Area_Type
  70
1
  66
1
  0
VERTEX
  8
Unknown_Area_Type
  10
256072.474
  20
4598388.417
  0
VERTEX
  8
Unknown_Area_Type
  10
254814.833
  20
4598430.875
  0
VERTEX
  8
Unknown_Area_Type
  10
253334.951
  20
4598481.552
  0
VERTEX
  8
Unknown_Area_Type
  10
253395.500
  20
4599640.500
  0
VERTEX
  8
Unknown_Area_Type
  10
253582.500
  20
4599695.000
  0
VERTEX
  8
Unknown_Area_Type
  10
253584.500
  20
4599695.500
  0
VERTEX
  8
Unknown_Area_Type
  10
254831.500
  20
4600056.500
  0
VERTEX
  8
Unknown_Area_Type
  10
256139.500
  20
4599560.500
  0
VERTEX
  8
Unknown_Area_Type
  10
256072.474
  20
4598388.417
  0
SEQEND
  8
Unknown_Area_Type
  0
INSERT
  8
FeatureAttribs
  2
FEATURE
  41
1
  42
1
  43
1
  50
0
  10
254746.491
  20
4599138.366
 66
1
  0
ATTRIB
  8
FeatureAttribs
 70
0
  1
PNOA-H_AMS_1956-57_33k_ES_PAN_2
  2
NAME
  10
254746.491
  20
4599138.366
 40
34.47022
  0
SEQEND
  0
POLYLINE
  8
Unknown_Area_Type
  70
1
  66
1
  0
VERTEX
  8
Unknown_Area_Type
  10
256072.474
  20
4598388.417
  0
VERTEX
  8
Unknown_Area_Type
  10
256139.500
  20
4599560.500
  0
VERTEX
  8
Unknown_Area_Type
  10
254831.500
  20
4600056.500
  0
VERTEX
  8
Unknown_Area_Type
  10
253584.500
  20
4599695.500
  0
VERTEX
  8
Unknown_Area_Type
  10
253582.500
  20
4599695.000
  0
VERTEX
  8
Unknown_Area_Type
  10
253395.500
  20
4599640.500
  0
VERTEX
  8
Unknown_Area_Type
  10
253334.951
  20
4598481.552
  0
VERTEX
  8
Unknown_Area_Type
  10
254814.833
  20
4598430.875
  0
VERTEX
  8
Unknown_Area_Type
  10
256072.474
  20
4598388.417
  0
SEQEND
  8
Unknown_Area_Type
  0
INSERT
  8
FeatureAttribs
  2
FEATURE
  41
1
  42
1
  43
1
  50
0
  10
241705.000
  20
4601080.000
 66
1
  0
ATTRIB
  8
FeatureAttribs
 70
0
  1
PNOA-H_AMS_1956-57_33k_ES_PAN_2
  2
NAME
  10
241705.000
  20
4601080.000
 40
34.47022
  0
SEQEND
  0
POLYLINE
  8
Unknown_Area_Type
  70
1
  66
1
  0
VERTEX
  8
Unknown_Area_Type
  10
241701.000
  20
4601088.000
  0
VERTEX
  8
Unknown_Area_Type
  10
241709.000
  20
4601088.000
  0
VERTEX
  8
Unknown_Area_Type
  10
241713.000
  20
4601084.000
  0
VERTEX
  8
Unknown_Area_Type
  10
241713.000
  20
4601076.000
  0
VERTEX
  8
Unknown_Area_Type
  10
241709.000
  20
4601072.000
  0
VERTEX
  8
Unknown_Area_Type
  10
241701.000
  20
4601072.000
  0
VERTEX
  8
Unknown_Area_Type
  10
241697.000
  20
4601076.000
  0
VERTEX
  8
Unknown_Area_Type
  10
241697.000
  20
4601084.000
  0
VERTEX
  8
Unknown_Area_Type
  10
241700.500
  20
4601087.000
  0
VERTEX
  8
Unknown_Area_Type
  10
241701.000
  20
4601088.000
  0
SEQEND
  8
Unknown_Area_Type
  0
INSERT
  8
FeatureAttribs
  2
FEATURE
  41
1
  42
1
  43
1
  50
0
  10
241705.000
  20
4601080.000
 66
1
  0
ATTRIB
  8
FeatureAttribs
 70
0
  1
PNOA-H_AMS_1956-57_33k_ES_PAN_2
  2
NAME
  10
241705.000
  20
4601080.000
 40
34.47022
  0
SEQEND
  0
POLYLINE
  8
Unknown_Area_Type
  70
1
  66
1
  0
VERTEX
  8
Unknown_Area_Type
  10
241701.000
  20
4601088.000
  0
VERTEX
  8
Unknown_Area_Type
  10
241700.500
  20
4601087.000
  0
VERTEX
  8
Unknown_Area_Type
  10
241697.000
  20
4601084.000
  0
VERTEX
  8
Unknown_Area_Type
  10
241697.000
  20
4601076.000
  0
VERTEX
  8
Unknown_Area_Type
  10
241701.000
  20
4601072.000
  0
VERTEX
  8
Unknown_Area_Type
  10
241709.000
  20
4601072.000
  0
VERTEX
  8
Unknown_Area_Type
  10
241713.000
  20
4601076.000
  0
VERTEX
  8
Unknown_Area_Type
  10
241713.000
  20
4601084.000
  0
VERTEX
  8
Unknown_Area_Type
  10
241709.000
  20
4601088.000
  0
VERTEX
  8
Unknown_Area_Type
  10
241701.000
  20
4601088.000
  0
SEQEND
  8
Unknown_Area_Type
  0
INSERT
  8
FeatureAttribs
  2
FEATURE
  41
1
  42
1
  43
1
  50
0
  10
240716.642
  20
4598586.682
 66
1
  0
ATTRIB
  8
FeatureAttribs
 70
0
  1
PNOA-H_AMS_1956-57_33k_ES_PAN_2
  2
NAME
  10
240716.642
  20
4598586.682
 40
34.47022
  0
SEQEND
  0
POLYLINE
  8
Unknown_Area_Type
  70
1
  66
1
  0
VERTEX
  8
Unknown_Area_Type
  10
242140.775
  20
4598197.688
  0
VERTEX
  8
Unknown_Area_Type
  10
239290.366
  20
4598197.688
  0
VERTEX
  8
Unknown_Area_Type
  10
239290.649
  20
4598975.676
  0
VERTEX
  8
Unknown_Area_Type
  10
240901.986
  20
4598917.384
  0
VERTEX
  8
Unknown_Area_Type
  10
242144.252
  20
4598873.043
  0
VERTEX
  8
Unknown_Area_Type
  10
242140.775
  20
4598197.688
  0
SEQEND
  8
Unknown_Area_Type
  0
INSERT
  8
FeatureAttribs
  2
FEATURE
  41
1
  42
1
  43
1
  50
0
  10
240705.583
  20
4599558.334
 66
1
  0
ATTRIB
  8
FeatureAttribs
 70
0
  1
PNOA-H_AMS_1956-57_33k_ES_PAN_2
  2
NAME
  10
240705.583
  20
4599558.334
 40
34.47022
  0
SEQEND
  0
POLYLINE
  8
Unknown_Area_Type
  70
1
  66
1
  0
VERTEX
  8
Unknown_Area_Type
  10
242144.252
  20
4598873.043
  0
VERTEX
  8
Unknown_Area_Type
  10
240901.986
  20
4598917.384
  0
VERTEX
  8
Unknown_Area_Type
  10
239290.649
  20
4598975.676
  0
VERTEX
  8
Unknown_Area_Type
  10
239291.000
  20
4599942.500
  0
VERTEX
  8
Unknown_Area_Type
  10
240375.500
  20
4600437.000
  0
VERTEX
  8
Unknown_Area_Type
  10
241297.000
  20
4600154.000
  0
VERTEX
  8
Unknown_Area_Type
  10
241298.000
  20
4600154.000
  0
VERTEX
  8
Unknown_Area_Type
  10
242149.500
  20
4599892.500
  0
VERTEX
  8
Unknown_Area_Type
  10
242144.252
  20
4598873.043
  0
SEQEND
  8
Unknown_Area_Type
  0
INSERT
  8
FeatureAttribs
  2
FEATURE
  41
1
  42
1
  43
1
  50
0
  10
240705.583
  20
4599558.334
 66
1
  0
ATTRIB
  8
FeatureAttribs
 70
0
  1
PNOA-H_AMS_1956-57_33k_ES_PAN_2
  2
NAME
  10
240705.583
  20
4599558.334
 40
34.47022
  0
SEQEND
  0
POLYLINE
  8
Unknown_Area_Type
  70
1
  66
1
  0
VERTEX
  8
Unknown_Area_Type
  10
242144.252
  20
4598873.043
  0
VERTEX
  8
Unknown_Area_Type
  10
242149.500
  20
4599892.500
  0
VERTEX
  8
Unknown_Area_Type
  10
241298.000
  20
4600154.000
  0
VERTEX
  8
Unknown_Area_Type
  10
241297.000
  20
4600154.000
  0
VERTEX
  8
Unknown_Area_Type
  10
240375.500
  20
4600437.000
  0
VERTEX
  8
Unknown_Area_Type
  10
239291.000
  20
4599942.500
  0
VERTEX
  8
Unknown_Area_Type
  10
239290.649
  20
4598975.676
  0
VERTEX
  8
Unknown_Area_Type
  10
240901.986
  20
4598917.384
  0
VERTEX
  8
Unknown_Area_Type
  10
242144.252
  20
4598873.043
  0
SEQEND
  8
Unknown_Area_Type
  0
INSERT
  8
FeatureAttribs
  2
FEATURE
  41
1
  42
1
  43
1
  50
0
  10
233954.589
  20
4599666.033
 66
1
  0
ATTRIB
  8
FeatureAttribs
 70
0
  1
PNOA-H_AMS_1956-57_33k_ES_PAN_2
  2
NAME
  10
233954.589
  20
4599666.033
 40
34.47022
  0
SEQEND
  0
POLYLINE
  8
Unknown_Area_Type
  70
1
  66
1
  0
VERTEX
  8
Unknown_Area_Type
  10
233982.025
  20
4600161.339
  0
VERTEX
  8
Unknown_Area_Type
  10
233945.462
  20
4599170.727
  0
VERTEX
  8
Unknown_Area_Type
  10
233945.434
  20
4599170.728
  0
VERTEX
  8
Unknown_Area_Type
  10
233945.434
  20
4600146.140
  0
VERTEX
  8
Unknown_Area_Type
  10
233982.025
  20
4600161.339
  0
SEQEND
  8
Unknown_Area_Type
  0
INSERT
  8
FeatureAttribs
  2
FEATURE
  41
1
  42
1
  43
1
  50
0
  10
233945.448
  20
4599170.535
 66
1
  0
ATTRIB
  8
FeatureAttribs
 70
0
  1
PNOA-H_AMS_1956-57_33k_ES_PAN_2
  2
NAME
  10
233945.448
  20
4599170.535
 40
34.47022
  0
SEQEND
  0
POLYLINE
  8
Unknown_Area_Type
  70
1
  66
1
  0
VERTEX
  8
Unknown_Area_Type
  10
233945.434
  20
4599170.728
  0
VERTEX
  8
Unknown_Area_Type
  10
233945.462
  20
4599170.727
  0
VERTEX
  8
Unknown_Area_Type
  10
233945.434
  20
4599169.956
  0
VERTEX
  8
Unknown_Area_Type
  10
233945.434
  20
4599170.728
  0
SEQEND
  8
Unknown_Area_Type
  0
INSERT
  8
FeatureAttribs
  2
FEATURE
  41
1
  42
1
  43
1
  50
0
  10
235210.369
  20
4598684.208
 66
1
  0
ATTRIB
  8
FeatureAttribs
 70
0
  1
PNOA-H_AMS_1956-57_33k_ES_PAN_2
  2
NAME
  10
235210.369
  20
4598684.208
 40
34.47022
  0
SEQEND
  0
POLYLINE
  8
Unknown_Area_Type
  70
1
  66
1
  0
VERTEX
  8
Unknown_Area_Type
  10
236463.981
  20
4598197.688
  0
VERTEX
  8
Unknown_Area_Type
  10
233945.434
  20
4598197.688
  0
VERTEX
  8
Unknown_Area_Type
  10
233945.434
  20
4599169.956
  0
VERTEX
  8
Unknown_Area_Type
  10
233945.462
  20
4599170.727
  0
VERTEX
  8
Unknown_Area_Type
  10
236484.462
  20
4599077.648
  0
VERTEX
  8
Unknown_Area_Type
  10
236463.981
  20
4598197.688
  0
SEQEND
  8
Unknown_Area_Type
  0
INSERT
  8
FeatureAttribs
  2
FEATURE
  41
1
  42
1
  43
1
  50
0
  10
235193.388
  20
4599702.007
 66
1
  0
ATTRIB
  8
FeatureAttribs
 70
0
  1
PNOA-H_AMS_1956-57_33k_ES_PAN_2
  2
NAME
  10
235193.388
  20
4599702.007
 40
34.47022
  0
SEQEND
  0
POLYLINE
  8
Unknown_Area_Type
  70
1
  66
1
  0
VERTEX
  8
Unknown_Area_Type
  10
236484.462
  20
4599077.648
  0
VERTEX
  8
Unknown_Area_Type
  10
233945.462
  20
4599170.727
  0
VERTEX
  8
Unknown_Area_Type
  10
233982.025
  20
4600161.339
  0
VERTEX
  8
Unknown_Area_Type
  10
234754.000
  20
4600482.000
  0
VERTEX
  8
Unknown_Area_Type
  10
235152.500
  20
4600373.000
  0
VERTEX
  8
Unknown_Area_Type
  10
235154.000
  20
4600373.000
  0
VERTEX
  8
Unknown_Area_Type
  10
236506.000
  20
4600003.000
  0
VERTEX
  8
Unknown_Area_Type
  10
236484.462
  20
4599077.648
  0
SEQEND
  8
Unknown_Area_Type
  0
INSERT
  8
FeatureAttribs
  2
FEATURE
  41
1
  42
1
  43
1
  50
0
  10
235193.388
  20
4599702.007
 66
1
  0
ATTRIB
  8
FeatureAttribs
 70
0
  1
PNOA-H_AMS_1956-57_33k_ES_PAN_2
  2
NAME
  10
235193.388
  20
4599702.007
 40
34.47022
  0
SEQEND
  0
POLYLINE
  8
Unknown_Area_Type
  70
1
  66
1
  0
VERTEX
  8
Unknown_Area_Type
  10
236484.462
  20
4599077.648
  0
VERTEX
  8
Unknown_Area_Type
  10
236506.000
  20
4600003.000
  0
VERTEX
  8
Unknown_Area_Type
  10
235154.000
  20
4600373.000
  0
VERTEX
  8
Unknown_Area_Type
  10
235152.500
  20
4600373.000
  0
VERTEX
  8
Unknown_Area_Type
  10
234754.000
  20
4600482.000
  0
VERTEX
  8
Unknown_Area_Type
  10
233982.025
  20
4600161.339
  0
VERTEX
  8
Unknown_Area_Type
  10
233945.462
  20
4599170.727
  0
VERTEX
  8
Unknown_Area_Type
  10
236484.462
  20
4599077.648
  0
SEQEND
  8
Unknown_Area_Type
  0
INSERT
  8
FeatureAttribs
  2
FEATURE
  41
1
  42
1
  43
1
  50
0
  10
237882.295
  20
4598637.668
 66
1
  0
ATTRIB
  8
FeatureAttribs
 70
0
  1
PNOA-H_AMS_1956-57_33k_ES_PAN_2
  2
NAME
  10
237882.295
  20
4598637.668
 40
34.47022
  0
SEQEND
  0
POLYLINE
  8
Unknown_Area_Type
  70
1
  66
1
  0
VERTEX
  8
Unknown_Area_Type
  10
239290.155
  20
4598197.688
  0
VERTEX
  8
Unknown_Area_Type
  10
236463.981
  20
4598197.688
  0
VERTEX
  8
Unknown_Area_Type
  10
236484.462
  20
4599077.648
  0
VERTEX
  8
Unknown_Area_Type
  10
237423.733
  20
4599043.214
  0
VERTEX
  8
Unknown_Area_Type
  10
239290.532
  20
4598975.680
  0
VERTEX
  8
Unknown_Area_Type
  10
239290.155
  20
4598197.688
  0
SEQEND
  8
Unknown_Area_Type
  0
INSERT
  8
FeatureAttribs
  2
FEATURE
  41
1
  42
1
  43
1
  50
0
  10
237875.516
  20
4599611.538
 66
1
  0
ATTRIB
  8
FeatureAttribs
 70
0
  1
PNOA-H_AMS_1956-57_33k_ES_PAN_2
  2
NAME
  10
237875.516
  20
4599611.538
 40
34.47022
  0
SEQEND
  0
POLYLINE
  8
Unknown_Area_Type
  70
1
  66
1
  0
VERTEX
  8
Unknown_Area_Type
  10
239290.532
  20
4598975.680
  0
VERTEX
  8
Unknown_Area_Type
  10
237423.733
  20
4599043.214
  0
VERTEX
  8
Unknown_Area_Type
  10
236484.462
  20
4599077.648
  0
VERTEX
  8
Unknown_Area_Type
  10
236506.000
  20
4600003.000
  0
VERTEX
  8
Unknown_Area_Type
  10
237200.000
  20
4600296.500
  0
VERTEX
  8
Unknown_Area_Type
  10
237201.000
  20
4600297.000
  0
VERTEX
  8
Unknown_Area_Type
  10
237460.500
  20
4600406.000
  0
VERTEX
  8
Unknown_Area_Type
  10
239291.000
  20
4599942.500
  0
VERTEX
  8
Unknown_Area_Type
  10
239290.532
  20
4598975.680
  0
SEQEND
  8
Unknown_Area_Type
  0
INSERT
  8
FeatureAttribs
  2
FEATURE
  41
1
  42
1
  43
1
  50
0
  10
237875.516
  20
4599611.538
 66
1
  0
ATTRIB
  8
FeatureAttribs
 70
0
  1
PNOA-H_AMS_1956-57_33k_ES_PAN_2
  2
NAME
  10
237875.516
  20
4599611.538
 40
34.47022
  0
SEQEND
  0
POLYLINE
  8
Unknown_Area_Type
  70
1
  66
1
  0
VERTEX
  8
Unknown_Area_Type
  10
239290.532
  20
4598975.680
  0
VERTEX
  8
Unknown_Area_Type
  10
239291.000
  20
4599942.500
  0
VERTEX
  8
Unknown_Area_Type
  10
237460.500
  20
4600406.000
  0
VERTEX
  8
Unknown_Area_Type
  10
237201.000
  20
4600297.000
  0
VERTEX
  8
Unknown_Area_Type
  10
237200.000
  20
4600296.500
  0
VERTEX
  8
Unknown_Area_Type
  10
236506.000
  20
4600003.000
  0
VERTEX
  8
Unknown_Area_Type
  10
236484.462
  20
4599077.648
  0
VERTEX
  8
Unknown_Area_Type
  10
237423.733
  20
4599043.214
  0
VERTEX
  8
Unknown_Area_Type
  10
239290.532
  20
4598975.680
  0
SEQEND
  8
Unknown_Area_Type
  0
INSERT
  8
FeatureAttribs
  2
FEATURE
  41
1
  42
1
  43
1
  50
0
  10
246368.187
  20
4598484.608
 66
1
  0
ATTRIB
  8
FeatureAttribs
 70
0
  1
PNOA-H_AMS_1956-57_33k_ES_PAN_2
  2
NAME
  10
246368.187
  20
4598484.608
 40
34.47022
  0
SEQEND
  0
POLYLINE
  8
Unknown_Area_Type
  70
1
  66
1
  0
VERTEX
  8
Unknown_Area_Type
  10
247737.296
  20
4598197.688
  0
VERTEX
  8
Unknown_Area_Type
  10
244969.060
  20
4598197.688
  0
VERTEX
  8
Unknown_Area_Type
  10
244996.706
  20
4598771.528
  0
VERTEX
  8
Unknown_Area_Type
  10
247764.185
  20
4598674.086
  0
VERTEX
  8
Unknown_Area_Type
  10
247737.296
  20
4598197.688
  0
SEQEND
  8
Unknown_Area_Type
  0
INSERT
  8
FeatureAttribs
  2
FEATURE
  41
1
  42
1
  43
1
  50
0
  10
246391.622
  20
4599408.286
 66
1
  0
ATTRIB
  8
FeatureAttribs
 70
0
  1
PNOA-H_AMS_1956-57_33k_ES_PAN_2
  2
NAME
  10
246391.622
  20
4599408.286
 40
34.47022
  0
SEQEND
  0
POLYLINE
  8
Unknown_Area_Type
  70
1
  66
1
  0
VERTEX
  8
Unknown_Area_Type
  10
247764.185
  20
4598674.086
  0
VERTEX
  8
Unknown_Area_Type
  10
244996.706
  20
4598771.528
  0
VERTEX
  8
Unknown_Area_Type
  10
245051.000
  20
4599898.500
  0
VERTEX
  8
Unknown_Area_Type
  10
245052.500
  20
4599902.000
  0
VERTEX
  8
Unknown_Area_Type
  10
245392.000
  20
4600041.500
  0
VERTEX
  8
Unknown_Area_Type
  10
245393.000
  20
4600042.000
  0
VERTEX
  8
Unknown_Area_Type
  10
246077.500
  20
4600323.500
  0
VERTEX
  8
Unknown_Area_Type
  10
246086.000
  20
4600326.000
  0
VERTEX
  8
Unknown_Area_Type
  10
247827.000
  20
4599787.000
  0
VERTEX
  8
Unknown_Area_Type
  10
247764.185
  20
4598674.086
  0
SEQEND
  8
Unknown_Area_Type
  0
INSERT
  8
FeatureAttribs
  2
FEATURE
  41
1
  42
1
  43
1
  50
0
  10
246391.622
  20
4599408.286
 66
1
  0
ATTRIB
  8
FeatureAttribs
 70
0
  1
PNOA-H_AMS_1956-57_33k_ES_PAN_2
  2
NAME
  10
246391.622
  20
4599408.286
 40
34.47022
  0
SEQEND
  0
POLYLINE
  8
Unknown_Area_Type
  70
1
  66
1
  0
VERTEX
  8
Unknown_Area_Type
  10
247764.185
  20
4598674.086
  0
VERTEX
  8
Unknown_Area_Type
  10
247827.000
  20
4599787.000
  0
VERTEX
  8
Unknown_Area_Type
  10
246086.000
  20
4600326.000
  0
VERTEX
  8
Unknown_Area_Type
  10
246077.500
  20
4600323.500
  0
VERTEX
  8
Unknown_Area_Type
  10
245393.000
  20
4600042.000
  0
VERTEX
  8
Unknown_Area_Type
  10
245392.000
  20
4600041.500
  0
VERTEX
  8
Unknown_Area_Type
  10
245052.500
  20
4599902.000
  0
VERTEX
  8
Unknown_Area_Type
  10
245051.000
  20
4599898.500
  0
VERTEX
  8
Unknown_Area_Type
  10
244996.706
  20
4598771.528
  0
VERTEX
  8
Unknown_Area_Type
  10
247764.185
  20
4598674.086
  0
SEQEND
  8
Unknown_Area_Type
  0
INSERT
  8
FeatureAttribs
  2
FEATURE
  41
1
  42
1
  43
1
  50
0
  10
261702.810
  20
4598768.776
 66
1
  0
ATTRIB
  8
FeatureAttribs
 70
0
  1
PNOA-H_AMS_1956-57_33k_ES_PAN_2
  2
NAME
  10
261702.810
  20
4598768.776
 40
34.47022
  0
SEQEND
  0
POLYLINE
  8
Unknown_Area_Type
  70
1
  66
1
  0
VERTEX
  8
Unknown_Area_Type
  10
261808.900
  20
4599339.843
  0
VERTEX
  8
Unknown_Area_Type
  10
261771.161
  20
4598197.708
  0
VERTEX
  8
Unknown_Area_Type
  10
261587.264
  20
4598203.827
  0
VERTEX
  8
Unknown_Area_Type
  10
261642.500
  20
4599305.500
  0
VERTEX
  8
Unknown_Area_Type
  10
261808.900
  20
4599339.843
  0
SEQEND
  8
Unknown_Area_Type
  0
INSERT
  8
FeatureAttribs
  2
FEATURE
  41
1
  42
1
  43
1
  50
0
  10
261702.810
  20
4598768.776
 66
1
  0
ATTRIB
  8
FeatureAttribs
 70
0
  1
PNOA-H_AMS_1956-57_33k_ES_PAN_2
  2
NAME
  10
261702.810
  20
4598768.776
 40
34.47022
  0
SEQEND
  0
POLYLINE
  8
Unknown_Area_Type
  70
1
  66
1
  0
VERTEX
  8
Unknown_Area_Type
  10
261808.900
  20
4599339.843
  0
VERTEX
  8
Unknown_Area_Type
  10
261771.161
  20
4598197.708
  0
VERTEX
  8
Unknown_Area_Type
  10
261587.264
  20
4598203.827
  0
VERTEX
  8
Unknown_Area_Type
  10
261642.500
  20
4599305.500
  0
VERTEX
  8
Unknown_Area_Type
  10
261808.900
  20
4599339.843
  0
SEQEND
  8
Unknown_Area_Type
  0
INSERT
  8
FeatureAttribs
  2
FEATURE
  41
1
  42
1
  43
1
  50
0
  10
261633.307
  20
4598200.758
 66
1
  0
ATTRIB
  8
FeatureAttribs
 70
0
  1
PNOA-H_AMS_1956-57_33k_ES_PAN_2
  2
NAME
  10
261633.307
  20
4598200.758
 40
34.47022
  0
SEQEND
  0
POLYLINE
  8
Unknown_Area_Type
  70
1
  66
1
  0
VERTEX
  8
Unknown_Area_Type
  10
261587.264
  20
4598203.827
  0
VERTEX
  8
Unknown_Area_Type
  10
261771.161
  20
4598197.708
  0
VERTEX
  8
Unknown_Area_Type
  10
261771.160
  20
4598197.688
  0
VERTEX
  8
Unknown_Area_Type
  10
261586.956
  20
4598197.688
  0
VERTEX
  8
Unknown_Area_Type
  10
261587.264
  20
4598203.827
  0
SEQEND
  8
Unknown_Area_Type
  0
INSERT
  8
FeatureAttribs
  2
FEATURE
  41
1
  42
1
  43
1
  50
0
  10
261910.392
  20
4598791.582
 66
1
  0
ATTRIB
  8
FeatureAttribs
 70
0
  1
PNOA-H_AMS_1956-57_33k_ES_PAN_2
  2
NAME
  10
261910.392
  20
4598791.582
 40
34.47022
  0
SEQEND
  0
POLYLINE
  8
Unknown_Area_Type
  70
1
  66
1
  0
VERTEX
  8
Unknown_Area_Type
  10
262030.000
  20
4598197.688
  0
VERTEX
  8
Unknown_Area_Type
  10
261771.755
  20
4598197.688
  0
VERTEX
  8
Unknown_Area_Type
  10
261771.161
  20
4598197.708
  0
VERTEX
  8
Unknown_Area_Type
  10
261808.900
  20
4599339.843
  0
VERTEX
  8
Unknown_Area_Type
  10
262030.000
  20
4599385.477
  0
VERTEX
  8
Unknown_Area_Type
  10
262030.000
  20
4598197.688
  0
SEQEND
  8
Unknown_Area_Type
  0
INSERT
  8
FeatureAttribs
  2
FEATURE
  41
1
  42
1
  43
1
  50
0
  10
234629.385
  20
4617677.646
 66
1
  0
ATTRIB
  8
FeatureAttribs
 70
0
  1
PNOA-H_AMS_1956-57_33k_ES_PAN_2
  2
NAME
  10
234629.385
  20
4617677.646
 40
34.47022
  0
SEQEND
  0
POLYLINE
  8
Unknown_Area_Type
  70
1
  66
1
  0
VERTEX
  8
Unknown_Area_Type
  10
234629.516
  20
4617677.656
  0
VERTEX
  8
Unknown_Area_Type
  10
234629.516
  20
4617677.637
  0
VERTEX
  8
Unknown_Area_Type
  10
234628.993
  20
4617677.656
  0
VERTEX
  8
Unknown_Area_Type
  10
234629.516
  20
4617677.656
  0
SEQEND
  8
Unknown_Area_Type
  0
INSERT
  8
FeatureAttribs
  2
FEATURE
  41
1
  42
1
  43
1
  50
0
  10
235275.908
  20
4617661.804
 66
1
  0
ATTRIB
  8
FeatureAttribs
 70
0
  1
PNOA-H_AMS_1956-57_33k_ES_PAN_2
  2
NAME
  10
235275.908
  20
4617661.804
 40
34.47022
  0
SEQEND
  0
POLYLINE
  8
Unknown_Area_Type
  70
1
  66
1
  0
VERTEX
  8
Unknown_Area_Type
  10
235492.704
  20
4617677.656
  0
VERTEX
  8
Unknown_Area_Type
  10
235490.971
  20
4617645.952
  0
VERTEX
  8
Unknown_Area_Type
  10
234629.516
  20
4617677.637
  0
VERTEX
  8
Unknown_Area_Type
  10
234629.516
  20
4617677.656
  0
VERTEX
  8
Unknown_Area_Type
  10
235492.704
  20
4617677.656
  0
SEQEND
  8
Unknown_Area_Type
  0
INSERT
  8
FeatureAttribs
  2
FEATURE
  41
1
  42
1
  43
1
  50
0
  10
234272.660
  20
4616877.149
 66
1
  0
ATTRIB
  8
FeatureAttribs
 70
0
  1
PNOA-H_AMS_1956-57_33k_ES_PAN_2
  2
NAME
  10
234272.660
  20
4616877.149
 40
34.47022
  0
SEQEND
  0
POLYLINE
  8
Unknown_Area_Type
  70
1
  66
1
  0
VERTEX
  8
Unknown_Area_Type
  10
234570.255
  20
4616076.643
  0
VERTEX
  8
Unknown_Area_Type
  10
233945.434
  20
4616176.593
  0
VERTEX
  8
Unknown_Area_Type
  10
233945.434
  20
4617677.656
  0
VERTEX
  8
Unknown_Area_Type
  10
234628.993
  20
4617677.656
  0
VERTEX
  8
Unknown_Area_Type
  10
234629.516
  20
4617677.637
  0
VERTEX
  8
Unknown_Area_Type
  10
234570.255
  20
4616076.643
  0
SEQEND
  8
Unknown_Area_Type
  0
INSERT
  8
FeatureAttribs
  2
FEATURE
  41
1
  42
1
  43
1
  50
0
  10
235019.946
  20
4616861.331
 66
1
  0
ATTRIB
  8
FeatureAttribs
 70
0
  1
PNOA-H_AMS_1956-57_33k_ES_PAN_2
  2
NAME
  10
235019.946
  20
4616861.331
 40
34.47022
  0
SEQEND
  0
POLYLINE
  8
Unknown_Area_Type
  70
1
  66
1
  0
VERTEX
  8
Unknown_Area_Type
  10
235490.971
  20
4617645.952
  0
VERTEX
  8
Unknown_Area_Type
  10
235409.500
  20
4616156.000
  0
VERTEX
  8
Unknown_Area_Type
  10
235072.000
  20
4615999.500
  0
VERTEX
  8
Unknown_Area_Type
  10
235065.000
  20
4615997.500
  0
VERTEX
  8
Unknown_Area_Type
  10
234570.255
  20
4616076.643
  0
VERTEX
  8
Unknown_Area_Type
  10
234629.516
  20
4617677.637
  0
VERTEX
  8
Unknown_Area_Type
  10
235490.971
  20
4617645.952
  0
SEQEND
  8
Unknown_Area_Type
  0
INSERT
  8
FeatureAttribs
  2
FEATURE
  41
1
  42
1
  43
1
  50
0
  10
235019.946
  20
4616861.331
 66
1
  0
ATTRIB
  8
FeatureAttribs
 70
0
  1
PNOA-H_AMS_1956-57_33k_ES_PAN_2
  2
NAME
  10
235019.946
  20
4616861.331
 40
34.47022
  0
SEQEND
  0
POLYLINE
  8
Unknown_Area_Type
  70
1
  66
1
  0
VERTEX
  8
Unknown_Area_Type
  10
235490.971
  20
4617645.952
  0
VERTEX
  8
Unknown_Area_Type
  10
234629.516
  20
4617677.637
  0
VERTEX
  8
Unknown_Area_Type
  10
234570.255
  20
4616076.643
  0
VERTEX
  8
Unknown_Area_Type
  10
235065.000
  20
4615997.500
  0
VERTEX
  8
Unknown_Area_Type
  10
235072.000
  20
4615999.500
  0
VERTEX
  8
Unknown_Area_Type
  10
235409.500
  20
4616156.000
  0
VERTEX
  8
Unknown_Area_Type
  10
235490.971
  20
4617645.952
  0
SEQEND
  8
Unknown_Area_Type
  0
INSERT
  8
FeatureAttribs
  2
FEATURE
  41
1
  42
1
  43
1
  50
0
  10
237334.998
  20
4617611.369
 66
1
  0
ATTRIB
  8
FeatureAttribs
 70
0
  1
PNOA-H_AMS_1956-57_33k_ES_PAN_2
  2
NAME
  10
237334.998
  20
4617611.369
 40
34.47022
  0
SEQEND
  0
POLYLINE
  8
Unknown_Area_Type
  70
1
  66
1
  0
VERTEX
  8
Unknown_Area_Type
  10
238242.185
  20
4617677.656
  0
VERTEX
  8
Unknown_Area_Type
  10
238235.310
  20
4617545.081
  0
VERTEX
  8
Unknown_Area_Type
  10
238098.823
  20
4617550.035
  0
VERTEX
  8
Unknown_Area_Type
  10
235491.302
  20
4617645.940
  0
VERTEX
  8
Unknown_Area_Type
  10
235493.034
  20
4617677.656
  0
VERTEX
  8
Unknown_Area_Type
  10
238242.185
  20
4617677.656
  0
SEQEND
  8
Unknown_Area_Type
  0
INSERT
  8
FeatureAttribs
  2
FEATURE
  41
1
  42
1
  43
1
  50
0
  10
236844.707
  20
4616789.168
 66
1
  0
ATTRIB
  8
FeatureAttribs
 70
0
  1
PNOA-H_AMS_1956-57_33k_ES_PAN_2
  2
NAME
  10
236844.707
  20
4616789.168
 40
34.47022
  0
SEQEND
  0
POLYLINE
  8
Unknown_Area_Type
  70
1
  66
1
  0
VERTEX
  8
Unknown_Area_Type
  10
238235.310
  20
4617545.081
  0
VERTEX
  8
Unknown_Area_Type
  10
238156.500
  20
4616025.500
  0
VERTEX
  8
Unknown_Area_Type
  10
237705.500
  20
4615840.000
  0
VERTEX
  8
Unknown_Area_Type
  10
235410.000
  20
4616156.500
  0
VERTEX
  8
Unknown_Area_Type
  10
235491.302
  20
4617645.940
  0
VERTEX
  8
Unknown_Area_Type
  10
238098.823
  20
4617550.035
  0
VERTEX
  8
Unknown_Area_Type
  10
238235.310
  20
4617545.081
  0
SEQEND
  8
Unknown_Area_Type
  0
INSERT
  8
FeatureAttribs
  2
FEATURE
  41
1
  42
1
  43
1
  50
0
  10
236844.707
  20
4616789.168
 66
1
  0
ATTRIB
  8
FeatureAttribs
 70
0
  1
PNOA-H_AMS_1956-57_33k_ES_PAN_2
  2
NAME
  10
236844.707
  20
4616789.168
 40
34.47022
  0
SEQEND
  0
POLYLINE
  8
Unknown_Area_Type
  70
1
  66
1
  0
VERTEX
  8
Unknown_Area_Type
  10
238235.310
  20
4617545.081
  0
VERTEX
  8
Unknown_Area_Type
  10
238098.823
  20
4617550.035
  0
VERTEX
  8
Unknown_Area_Type
  10
235491.302
  20
4617645.940
  0
VERTEX
  8
Unknown_Area_Type
  10
235410.000
  20
4616156.500
  0
VERTEX
  8
Unknown_Area_Type
  10
237705.500
  20
4615840.000
  0
VERTEX
  8
Unknown_Area_Type
  10
238156.500
  20
4616025.500
  0
VERTEX
  8
Unknown_Area_Type
  10
238235.310
  20
4617545.081
  0
SEQEND
  8
Unknown_Area_Type
  0
INSERT
  8
FeatureAttribs
  2
FEATURE
  41
1
  42
1
  43
1
  50
0
  10
245322.283
  20
4617458.246
 66
1
  0
ATTRIB
  8
FeatureAttribs
 70
0
  1
PNOA-H_AMS_1956-57_33k_ES_PAN_2
  2
NAME
  10
245322.283
  20
4617458.246
 40
34.47022
  0
SEQEND
  0
POLYLINE
  8
Unknown_Area_Type
  70
1
  66
1
  0
VERTEX
  8
Unknown_Area_Type
  10
246758.132
  20
4617677.656
  0
VERTEX
  8
Unknown_Area_Type
  10
246765.421
  20
4617238.837
  0
VERTEX
  8
Unknown_Area_Type
  10
245037.388
  20
4617299.880
  0
VERTEX
  8
Unknown_Area_Type
  10
243880.832
  20
4617341.297
  0
VERTEX
  8
Unknown_Area_Type
  10
243886.462
  20
4617677.656
  0
VERTEX
  8
Unknown_Area_Type
  10
246758.132
  20
4617677.656
  0
SEQEND
  8
Unknown_Area_Type
  0
INSERT
  8
FeatureAttribs
  2
FEATURE
  41
1
  42
1
  43
1
  50
0
  10
245319.872
  20
4616407.030
 66
1
  0
ATTRIB
  8
FeatureAttribs
 70
0
  1
PNOA-H_AMS_1956-57_33k_ES_PAN_2
  2
NAME
  10
245319.872
  20
4616407.030
 40
34.47022
  0
SEQEND
  0
POLYLINE
  8
Unknown_Area_Type
  70
1
  66
1
  0
VERTEX
  8
Unknown_Area_Type
  10
246765.421
  20
4617238.837
  0
VERTEX
  8
Unknown_Area_Type
  10
246790.500
  20
4615729.000
  0
VERTEX
  8
Unknown_Area_Type
  10
246790.500
  20
4615716.500
  0
VERTEX
  8
Unknown_Area_Type
  10
245431.500
  20
4615331.000
  0
VERTEX
  8
Unknown_Area_Type
  10
243854.500
  20
4615768.000
  0
VERTEX
  8
Unknown_Area_Type
  10
243880.832
  20
4617341.297
  0
VERTEX
  8
Unknown_Area_Type
  10
245037.388
  20
4617299.880
  0
VERTEX
  8
Unknown_Area_Type
  10
246765.421
  20
4617238.837
  0
SEQEND
  8
Unknown_Area_Type
  0
INSERT
  8
FeatureAttribs
  2
FEATURE
  41
1
  42
1
  43
1
  50
0
  10
245319.872
  20
4616407.030
 66
1
  0
ATTRIB
  8
FeatureAttribs
 70
0
  1
PNOA-H_AMS_1956-57_33k_ES_PAN_2
  2
NAME
  10
245319.872
  20
4616407.030
 40
34.47022
  0
SEQEND
  0
POLYLINE
  8
Unknown_Area_Type
  70
1
  66
1
  0
VERTEX
  8
Unknown_Area_Type
  10
246765.421
  20
4617238.837
  0
VERTEX
  8
Unknown_Area_Type
  10
245037.388
  20
4617299.880
  0
VERTEX
  8
Unknown_Area_Type
  10
243880.832
  20
4617341.297
  0
VERTEX
  8
Unknown_Area_Type
  10
243854.500
  20
4615768.000
  0
VERTEX
  8
Unknown_Area_Type
  10
245431.500
  20
4615331.000
  0
VERTEX
  8
Unknown_Area_Type
  10
246790.500
  20
4615716.500
  0
VERTEX
  8
Unknown_Area_Type
  10
246790.500
  20
4615729.000
  0
VERTEX
  8
Unknown_Area_Type
  10
246765.421
  20
4617238.837
  0
SEQEND
  8
Unknown_Area_Type
  0
INSERT
  8
FeatureAttribs
  2
FEATURE
  41
1
  42
1
  43
1
  50
0
  10
239650.840
  20
4617560.076
 66
1
  0
ATTRIB
  8
FeatureAttribs
 70
0
  1
PNOA-H_AMS_1956-57_33k_ES_PAN_2
  2
NAME
  10
239650.840
  20
4617560.076
 40
34.47022
  0
SEQEND
  0
POLYLINE
  8
Unknown_Area_Type
  70
1
  66
1
  0
VERTEX
  8
Unknown_Area_Type
  10
241069.487
  20
4617677.656
  0
VERTEX
  8
Unknown_Area_Type
  10
241061.700
  20
4617442.497
  0
VERTEX
  8
Unknown_Area_Type
  10
238235.310
  20
4617545.081
  0
VERTEX
  8
Unknown_Area_Type
  10
238242.185
  20
4617677.656
  0
VERTEX
  8
Unknown_Area_Type
  10
241069.487
  20
4617677.656
  0
SEQEND
  8
Unknown_Area_Type
  0
INSERT
  8
FeatureAttribs
  2
FEATURE
  41
1
  42
1
  43
1
  50
0
  10
239637.742
  20
4616639.948
 66
1
  0
ATTRIB
  8
FeatureAttribs
 70
0
  1
PNOA-H_AMS_1956-57_33k_ES_PAN_2
  2
NAME
  10
239637.742
  20
4616639.948
 40
34.47022
  0
SEQEND
  0
POLYLINE
  8
Unknown_Area_Type
  70
1
  66
1
  0
VERTEX
  8
Unknown_Area_Type
  10
241061.700
  20
4617442.497
  0
VERTEX
  8
Unknown_Area_Type
  10
241010.500
  20
4615896.500
  0
VERTEX
  8
Unknown_Area_Type
  10
241010.000
  20
4615895.000
  0
VERTEX
  8
Unknown_Area_Type
  10
241001.000
  20
4615891.500
  0
VERTEX
  8
Unknown_Area_Type
  10
240241.500
  20
4615602.500
  0
VERTEX
  8
Unknown_Area_Type
  10
238156.500
  20
4616025.500
  0
VERTEX
  8
Unknown_Area_Type
  10
238235.310
  20
4617545.081
  0
VERTEX
  8
Unknown_Area_Type
  10
241061.700
  20
4617442.497
  0
SEQEND
  8
Unknown_Area_Type
  0
INSERT
  8
FeatureAttribs
  2
FEATURE
  41
1
  42
1
  43
1
  50
0
  10
239637.742
  20
4616639.948
 66
1
  0
ATTRIB
  8
FeatureAttribs
 70
0
  1
PNOA-H_AMS_1956-57_33k_ES_PAN_2
  2
NAME
  10
239637.742
  20
4616639.948
 40
34.47022
  0
SEQEND
  0
POLYLINE
  8
Unknown_Area_Type
  70
1
  66
1
  0
VERTEX
  8
Unknown_Area_Type
  10
241061.700
  20
4617442.497
  0
VERTEX
  8
Unknown_Area_Type
  10
238235.310
  20
4617545.081
  0
VERTEX
  8
Unknown_Area_Type
  10
238156.500
  20
4616025.500
  0
VERTEX
  8
Unknown_Area_Type
  10
240241.500
  20
4615602.500
  0
VERTEX
  8
Unknown_Area_Type
  10
241001.000
  20
4615891.500
  0
VERTEX
  8
Unknown_Area_Type
  10
241010.000
  20
4615895.000
  0
VERTEX
  8
Unknown_Area_Type
  10
241010.500
  20
4615896.500
  0
VERTEX
  8
Unknown_Area_Type
  10
241061.700
  20
4617442.497
  0
SEQEND
  8
Unknown_Area_Type
  0
INSERT
  8
FeatureAttribs
  2
FEATURE
  41
1
  42
1
  43
1
  50
0
  10
251161.476
  20
4617355.934
 66
1
  0
ATTRIB
  8
FeatureAttribs
 70
0
  1
PNOA-H_AMS_1956-57_33k_ES_PAN_2
  2
NAME
  10
251161.476
  20
4617355.934
 40
34.47022
  0
SEQEND
  0
POLYLINE
  8
Unknown_Area_Type
  70
1
  66
1
  0
VERTEX
  8
Unknown_Area_Type
  10
252595.706
  20
4617677.656
  0
VERTEX
  8
Unknown_Area_Type
  10
252604.000
  20
4617486.500
  0
VERTEX
  8
Unknown_Area_Type
  10
252604.000
  20
4617480.000
  0
VERTEX
  8
Unknown_Area_Type
  10
252623.366
  20
4617034.212
  0
VERTEX
  8
Unknown_Area_Type
  10
251975.891
  20
4617056.456
  0
VERTEX
  8
Unknown_Area_Type
  10
249720.726
  20
4617135.028
  0
VERTEX
  8
Unknown_Area_Type
  10
249703.130
  20
4617677.656
  0
VERTEX
  8
Unknown_Area_Type
  10
252595.706
  20
4617677.656
  0
SEQEND
  8
Unknown_Area_Type
  0
INSERT
  8
FeatureAttribs
  2
FEATURE
  41
1
  42
1
  43
1
  50
0
  10
251161.339
  20
4616317.405
 66
1
  0
ATTRIB
  8
FeatureAttribs
 70
0
  1
PNOA-H_AMS_1956-57_33k_ES_PAN_2
  2
NAME
  10
251161.339
  20
4616317.405
 40
34.47022
  0
SEQEND
  0
POLYLINE
  8
Unknown_Area_Type
  70
1
  66
1
  0
VERTEX
  8
Unknown_Area_Type
  10
252623.366
  20
4617034.212
  0
VERTEX
  8
Unknown_Area_Type
  10
252680.500
  20
4615719.000
  0
VERTEX
  8
Unknown_Area_Type
  10
250601.000
  20
4615398.000
  0
VERTEX
  8
Unknown_Area_Type
  10
250597.000
  20
4615398.000
  0
VERTEX
  8
Unknown_Area_Type
  10
250583.500
  20
4615403.000
  0
VERTEX
  8
Unknown_Area_Type
  10
249767.000
  20
4615708.000
  0
VERTEX
  8
Unknown_Area_Type
  10
249720.726
  20
4617135.028
  0
VERTEX
  8
Unknown_Area_Type
  10
251975.891
  20
4617056.456
  0
VERTEX
  8
Unknown_Area_Type
  10
252623.366
  20
4617034.212
  0
SEQEND
  8
Unknown_Area_Type
  0
INSERT
  8
FeatureAttribs
  2
FEATURE
  41
1
  42
1
  43
1
  50
0
  10
251161.339
  20
4616317.405
 66
1
  0
ATTRIB
  8
FeatureAttribs
 70
0
  1
PNOA-H_AMS_1956-57_33k_ES_PAN_2
  2
NAME
  10
251161.339
  20
4616317.405
 40
34.47022
  0
SEQEND
  0
POLYLINE
  8
Unknown_Area_Type
  70
1
  66
1
  0
VERTEX
  8
Unknown_Area_Type
  10
252623.366
  20
4617034.212
  0
VERTEX
  8
Unknown_Area_Type
  10
251975.891
  20
4617056.456
  0
VERTEX
  8
Unknown_Area_Type
  10
249720.726
  20
4617135.028
  0
VERTEX
  8
Unknown_Area_Type
  10
249767.000
  20
4615708.000
  0
VERTEX
  8
Unknown_Area_Type
  10
250583.500
  20
4615403.000
  0
VERTEX
  8
Unknown_Area_Type
  10
250597.000
  20
4615398.000
  0
VERTEX
  8
Unknown_Area_Type
  10
250601.000
  20
4615398.000
  0
VERTEX
  8
Unknown_Area_Type
  10
252680.500
  20
4615719.000
  0
VERTEX
  8
Unknown_Area_Type
  10
252623.366
  20
4617034.212
  0
SEQEND
  8
Unknown_Area_Type
  0
INSERT
  8
FeatureAttribs
  2
FEATURE
  41
1
  42
1
  43
1
  50
0
  10
253995.194
  20
4617308.300
 66
1
  0
ATTRIB
  8
FeatureAttribs
 70
0
  1
PNOA-H_AMS_1956-57_33k_ES_PAN_2
  2
NAME
  10
253995.194
  20
4617308.300
 40
34.47022
  0
SEQEND
  0
POLYLINE
  8
Unknown_Area_Type
  70
1
  66
1
  0
VERTEX
  8
Unknown_Area_Type
  10
255396.311
  20
4616938.945
  0
VERTEX
  8
Unknown_Area_Type
  10
252623.138
  20
4617034.220
  0
VERTEX
  8
Unknown_Area_Type
  10
252595.310
  20
4617677.656
  0
VERTEX
  8
Unknown_Area_Type
  10
255361.897
  20
4617677.656
  0
VERTEX
  8
Unknown_Area_Type
  10
255396.311
  20
4616938.945
  0
SEQEND
  8
Unknown_Area_Type
  0
INSERT
  8
FeatureAttribs
  2
FEATURE
  41
1
  42
1
  43
1
  50
0
  10
253992.426
  20
4616308.661
 66
1
  0
ATTRIB
  8
FeatureAttribs
 70
0
  1
PNOA-H_AMS_1956-57_33k_ES_PAN_2
  2
NAME
  10
253992.426
  20
4616308.661
 40
34.47022
  0
SEQEND
  0
POLYLINE
  8
Unknown_Area_Type
  70
1
  66
1
  0
VERTEX
  8
Unknown_Area_Type
  10
255396.311
  20
4616938.945
  0
VERTEX
  8
Unknown_Area_Type
  10
255451.000
  20
4615765.000
  0
VERTEX
  8
Unknown_Area_Type
  10
253194.500
  20
4615512.500
  0
VERTEX
  8
Unknown_Area_Type
  10
253189.000
  20
4615512.500
  0
VERTEX
  8
Unknown_Area_Type
  10
253182.500
  20
4615515.000
  0
VERTEX
  8
Unknown_Area_Type
  10
252684.000
  20
4615717.000
  0
VERTEX
  8
Unknown_Area_Type
  10
252680.000
  20
4615719.500
  0
VERTEX
  8
Unknown_Area_Type
  10
252623.138
  20
4617034.220
  0
VERTEX
  8
Unknown_Area_Type
  10
255396.311
  20
4616938.945
  0
SEQEND
  8
Unknown_Area_Type
  0
INSERT
  8
FeatureAttribs
  2
FEATURE
  41
1
  42
1
  43
1
  50
0
  10
253992.426
  20
4616308.661
 66
1
  0
ATTRIB
  8
FeatureAttribs
 70
0
  1
PNOA-H_AMS_1956-57_33k_ES_PAN_2
  2
NAME
  10
253992.426
  20
4616308.661
 40
34.47022
  0
SEQEND
  0
POLYLINE
  8
Unknown_Area_Type
  70
1
  66
1
  0
VERTEX
  8
Unknown_Area_Type
  10
255396.311
  20
4616938.945
  0
VERTEX
  8
Unknown_Area_Type
  10
252623.138
  20
4617034.220
  0
VERTEX
  8
Unknown_Area_Type
  10
252680.000
  20
4615719.500
  0
VERTEX
  8
Unknown_Area_Type
  10
252684.000
  20
4615717.000
  0
VERTEX
  8
Unknown_Area_Type
  10
253182.500
  20
4615515.000
  0
VERTEX
  8
Unknown_Area_Type
  10
253189.000
  20
4615512.500
  0
VERTEX
  8
Unknown_Area_Type
  10
253194.500
  20
4615512.500
  0
VERTEX
  8
Unknown_Area_Type
  10
255451.000
  20
4615765.000
  0
VERTEX
  8
Unknown_Area_Type
  10
255396.311
  20
4616938.945
  0
SEQEND
  8
Unknown_Area_Type
  0
INSERT
  8
FeatureAttribs
  2
FEATURE
  41
1
  42
1
  43
1
  50
0
  10
242473.577
  20
4617509.477
 66
1
  0
ATTRIB
  8
FeatureAttribs
 70
0
  1
PNOA-H_AMS_1956-57_33k_ES_PAN_2
  2
NAME
  10
242473.577
  20
4617509.477
 40
34.47022
  0
SEQEND
  0
POLYLINE
  8
Unknown_Area_Type
  70
1
  66
1
  0
VERTEX
  8
Unknown_Area_Type
  10
243886.462
  20
4617677.656
  0
VERTEX
  8
Unknown_Area_Type
  10
243880.832
  20
4617341.297
  0
VERTEX
  8
Unknown_Area_Type
  10
241568.114
  20
4617424.116
  0
VERTEX
  8
Unknown_Area_Type
  10
241061.288
  20
4617442.512
  0
VERTEX
  8
Unknown_Area_Type
  10
241069.083
  20
4617677.656
  0
VERTEX
  8
Unknown_Area_Type
  10
243886.462
  20
4617677.656
  0
SEQEND
  8
Unknown_Area_Type
  0
INSERT
  8
FeatureAttribs
  2
FEATURE
  41
1
  42
1
  43
1
  50
0
  10
242467.710
  20
4616517.304
 66
1
  0
ATTRIB
  8
FeatureAttribs
 70
0
  1
PNOA-H_AMS_1956-57_33k_ES_PAN_2
  2
NAME
  10
242467.710
  20
4616517.304
 40
34.47022
  0
SEQEND
  0
POLYLINE
  8
Unknown_Area_Type
  70
1
  66
1
  0
VERTEX
  8
Unknown_Area_Type
  10
243880.832
  20
4617341.297
  0
VERTEX
  8
Unknown_Area_Type
  10
243854.500
  20
4615768.000
  0
VERTEX
  8
Unknown_Area_Type
  10
242858.500
  20
4615455.500
  0
VERTEX
  8
Unknown_Area_Type
  10
241010.000
  20
4615895.500
  0
VERTEX
  8
Unknown_Area_Type
  10
241061.288
  20
4617442.512
  0
VERTEX
  8
Unknown_Area_Type
  10
241568.114
  20
4617424.116
  0
VERTEX
  8
Unknown_Area_Type
  10
243880.832
  20
4617341.297
  0
SEQEND
  8
Unknown_Area_Type
  0
INSERT
  8
FeatureAttribs
  2
FEATURE
  41
1
  42
1
  43
1
  50
0
  10
242467.710
  20
4616517.304
 66
1
  0
ATTRIB
  8
FeatureAttribs
 70
0
  1
PNOA-H_AMS_1956-57_33k_ES_PAN_2
  2
NAME
  10
242467.710
  20
4616517.304
 40
34.47022
  0
SEQEND
  0
POLYLINE
  8
Unknown_Area_Type
  70
1
  66
1
  0
VERTEX
  8
Unknown_Area_Type
  10
243880.832
  20
4617341.297
  0
VERTEX
  8
Unknown_Area_Type
  10
241568.114
  20
4617424.116
  0
VERTEX
  8
Unknown_Area_Type
  10
241061.288
  20
4617442.512
  0
VERTEX
  8
Unknown_Area_Type
  10
241010.000
  20
4615895.500
  0
VERTEX
  8
Unknown_Area_Type
  10
242858.500
  20
4615455.500
  0
VERTEX
  8
Unknown_Area_Type
  10
243854.500
  20
4615768.000
  0
VERTEX
  8
Unknown_Area_Type
  10
243880.832
  20
4617341.297
  0
SEQEND
  8
Unknown_Area_Type
  0
INSERT
  8
FeatureAttribs
  2
FEATURE
  41
1
  42
1
  43
1
  50
0
  10
261610.779
  20
4617190.797
 66
1
  0
ATTRIB
  8
FeatureAttribs
 70
0
  1
PNOA-H_AMS_1956-57_33k_ES_PAN_2
  2
NAME
  10
261610.779
  20
4617190.797
 40
34.47022
  0
SEQEND
  0
POLYLINE
  8
Unknown_Area_Type
  70
1
  66
1
  0
VERTEX
  8
Unknown_Area_Type
  10
260864.527
  20
4617677.656
  0
VERTEX
  8
Unknown_Area_Type
  10
262383.559
  20
4617677.656
  0
VERTEX
  8
Unknown_Area_Type
  10
262383.559
  20
4616704.795
  0
VERTEX
  8
Unknown_Area_Type
  10
262383.530
  20
4616703.937
  0
VERTEX
  8
Unknown_Area_Type
  10
260814.327
  20
4616756.327
  0
VERTEX
  8
Unknown_Area_Type
  10
260864.527
  20
4617677.656
  0
SEQEND
  8
Unknown_Area_Type
  0
INSERT
  8
FeatureAttribs
  2
FEATURE
  41
1
  42
1
  43
1
  50
0
  10
262383.545
  20
4616704.151
 66
1
  0
ATTRIB
  8
FeatureAttribs
 70
0
  1
PNOA-H_AMS_1956-57_33k_ES_PAN_2
  2
NAME
  10
262383.545
  20
4616704.151
 40
34.47022
  0
SEQEND
  0
POLYLINE
  8
Unknown_Area_Type
  70
1
  66
1
  0
VERTEX
  8
Unknown_Area_Type
  10
262383.559
  20
4616704.795
  0
VERTEX
  8
Unknown_Area_Type
  10
262383.559
  20
4616703.936
  0
VERTEX
  8
Unknown_Area_Type
  10
262383.530
  20
4616703.937
  0
VERTEX
  8
Unknown_Area_Type
  10
262383.559
  20
4616704.795
  0
SEQEND
  8
Unknown_Area_Type
  0
INSERT
  8
FeatureAttribs
  2
FEATURE
  41
1
  42
1
  43
1
  50
0
  10
262375.824
  20
4616237.932
 66
1
  0
ATTRIB
  8
FeatureAttribs
 70
0
  1
PNOA-H_AMS_1956-57_33k_ES_PAN_2
  2
NAME
  10
262375.824
  20
4616237.932
 40
34.47022
  0
SEQEND
  0
POLYLINE
  8
Unknown_Area_Type
  70
1
  66
1
  0
VERTEX
  8
Unknown_Area_Type
  10
262383.559
  20
4615772.767
  0
VERTEX
  8
Unknown_Area_Type
  10
262352.646
  20
4615771.927
  0
VERTEX
  8
Unknown_Area_Type
  10
262383.530
  20
4616703.937
  0
VERTEX
  8
Unknown_Area_Type
  10
262383.559
  20
4616703.936
  0
VERTEX
  8
Unknown_Area_Type
  10
262383.559
  20
4615772.767
  0
SEQEND
  8
Unknown_Area_Type
  0
INSERT
  8
FeatureAttribs
  2
FEATURE
  41
1
  42
1
  43
1
  50
0
  10
261571.077
  20
4616243.542
 66
1
  0
ATTRIB
  8
FeatureAttribs
 70
0
  1
PNOA-H_AMS_1956-57_33k_ES_PAN_2
  2
NAME
  10
261571.077
  20
4616243.542
 40
34.47022
  0
SEQEND
  0
POLYLINE
  8
Unknown_Area_Type
  70
1
  66
1
  0
VERTEX
  8
Unknown_Area_Type
  10
262352.646
  20
4615771.927
  0
VERTEX
  8
Unknown_Area_Type
  10
260994.000
  20
4615735.000
  0
VERTEX
  8
Unknown_Area_Type
  10
260765.000
  20
4615851.000
  0
VERTEX
  8
Unknown_Area_Type
  10
260814.327
  20
4616756.327
  0
VERTEX
  8
Unknown_Area_Type
  10
262383.530
  20
4616703.937
  0
VERTEX
  8
Unknown_Area_Type
  10
262352.646
  20
4615771.927
  0
SEQEND
  8
Unknown_Area_Type
  0
INSERT
  8
FeatureAttribs
  2
FEATURE
  41
1
  42
1
  43
1
  50
0
  10
261571.077
  20
4616243.542
 66
1
  0
ATTRIB
  8
FeatureAttribs
 70
0
  1
PNOA-H_AMS_1956-57_33k_ES_PAN_2
  2
NAME
  10
261571.077
  20
4616243.542
 40
34.47022
  0
SEQEND
  0
POLYLINE
  8
Unknown_Area_Type
  70
1
  66
1
  0
VERTEX
  8
Unknown_Area_Type
  10
262352.646
  20
4615771.927
  0
VERTEX
  8
Unknown_Area_Type
  10
262383.530
  20
4616703.937
  0
VERTEX
  8
Unknown_Area_Type
  10
260814.327
  20
4616756.327
  0
VERTEX
  8
Unknown_Area_Type
  10
260765.000
  20
4615851.000
  0
VERTEX
  8
Unknown_Area_Type
  10
260994.000
  20
4615735.000
  0
VERTEX
  8
Unknown_Area_Type
  10
262352.646
  20
4615771.927
  0
SEQEND
  8
Unknown_Area_Type
  0
INSERT
  8
FeatureAttribs
  2
FEATURE
  41
1
  42
1
  43
1
  50
0
  10
259455.940
  20
4617216.986
 66
1
  0
ATTRIB
  8
FeatureAttribs
 70
0
  1
PNOA-H_AMS_1956-57_33k_ES_PAN_2
  2
NAME
  10
259455.940
  20
4617216.986
 40
34.47022
  0
SEQEND
  0
POLYLINE
  8
Unknown_Area_Type
  70
1
  66
1
  0
VERTEX
  8
Unknown_Area_Type
  10
260864.788
  20
4617677.656
  0
VERTEX
  8
Unknown_Area_Type
  10
260814.681
  20
4616756.316
  0
VERTEX
  8
Unknown_Area_Type
  10
258914.332
  20
4616819.762
  0
VERTEX
  8
Unknown_Area_Type
  10
258067.282
  20
4616848.452
  0
VERTEX
  8
Unknown_Area_Type
  10
258078.225
  20
4617677.656
  0
VERTEX
  8
Unknown_Area_Type
  10
260864.788
  20
4617677.656
  0
SEQEND
  8
Unknown_Area_Type
  0
INSERT
  8
FeatureAttribs
  2
FEATURE
  41
1
  42
1
  43
1
  50
0
  10
259375.893
  20
4616283.072
 66
1
  0
ATTRIB
  8
FeatureAttribs
 70
0
  1
PNOA-H_AMS_1956-57_33k_ES_PAN_2
  2
NAME
  10
259375.893
  20
4616283.072
 40
34.47022
  0
SEQEND
  0
POLYLINE
  8
Unknown_Area_Type
  70
1
  66
1
  0
VERTEX
  8
Unknown_Area_Type
  10
260814.681
  20
4616756.316
  0
VERTEX
  8
Unknown_Area_Type
  10
260765.500
  20
4615852.000
  0
VERTEX
  8
Unknown_Area_Type
  10
260764.500
  20
4615850.500
  0
VERTEX
  8
Unknown_Area_Type
  10
258417.500
  20
4615676.500
  0
VERTEX
  8
Unknown_Area_Type
  10
258054.000
  20
4615842.000
  0
VERTEX
  8
Unknown_Area_Type
  10
258067.282
  20
4616848.452
  0
VERTEX
  8
Unknown_Area_Type
  10
258914.332
  20
4616819.762
  0
VERTEX
  8
Unknown_Area_Type
  10
260814.681
  20
4616756.316
  0
SEQEND
  8
Unknown_Area_Type
  0
INSERT
  8
FeatureAttribs
  2
FEATURE
  41
1
  42
1
  43
1
  50
0
  10
259375.893
  20
4616283.072
 66
1
  0
ATTRIB
  8
FeatureAttribs
 70
0
  1
PNOA-H_AMS_1956-57_33k_ES_PAN_2
  2
NAME
  10
259375.893
  20
4616283.072
 40
34.47022
  0
SEQEND
  0
POLYLINE
  8
Unknown_Area_Type
  70
1
  66
1
  0
VERTEX
  8
Unknown_Area_Type
  10
260814.681
  20
4616756.316
  0
VERTEX
  8
Unknown_Area_Type
  10
258914.332
  20
4616819.762
  0
VERTEX
  8
Unknown_Area_Type
  10
258067.282
  20
4616848.452
  0
VERTEX
  8
Unknown_Area_Type
  10
258054.000
  20
4615842.000
  0
VERTEX
  8
Unknown_Area_Type
  10
258417.500
  20
4615676.500
  0
VERTEX
  8
Unknown_Area_Type
  10
260764.500
  20
4615850.500
  0
VERTEX
  8
Unknown_Area_Type
  10
260765.500
  20
4615852.000
  0
VERTEX
  8
Unknown_Area_Type
  10
260814.681
  20
4616756.316
  0
SEQEND
  8
Unknown_Area_Type
  0
INSERT
  8
FeatureAttribs
  2
FEATURE
  41
1
  42
1
  43
1
  50
0
  10
256726.983
  20
4617263.054
 66
1
  0
ATTRIB
  8
FeatureAttribs
 70
0
  1
PNOA-H_AMS_1956-57_33k_ES_PAN_2
  2
NAME
  10
256726.983
  20
4617263.054
 40
34.47022
  0
SEQEND
  0
POLYLINE
  8
Unknown_Area_Type
  70
1
  66
1
  0
VERTEX
  8
Unknown_Area_Type
  10
258078.225
  20
4617677.656
  0
VERTEX
  8
Unknown_Area_Type
  10
258067.282
  20
4616848.452
  0
VERTEX
  8
Unknown_Area_Type
  10
255445.119
  20
4616937.268
  0
VERTEX
  8
Unknown_Area_Type
  10
255396.311
  20
4616938.945
  0
VERTEX
  8
Unknown_Area_Type
  10
255361.897
  20
4617677.656
  0
VERTEX
  8
Unknown_Area_Type
  10
258078.225
  20
4617677.656
  0
SEQEND
  8
Unknown_Area_Type
  0
INSERT
  8
FeatureAttribs
  2
FEATURE
  41
1
  42
1
  43
1
  50
0
  10
256690.375
  20
4616310.036
 66
1
  0
ATTRIB
  8
FeatureAttribs
 70
0
  1
PNOA-H_AMS_1956-57_33k_ES_PAN_2
  2
NAME
  10
256690.375
  20
4616310.036
 40
34.47022
  0
SEQEND
  0
POLYLINE
  8
Unknown_Area_Type
  70
1
  66
1
  0
VERTEX
  8
Unknown_Area_Type
  10
258067.282
  20
4616848.452
  0
VERTEX
  8
Unknown_Area_Type
  10
258054.000
  20
4615842.000
  0
VERTEX
  8
Unknown_Area_Type
  10
255814.500
  20
4615617.000
  0
VERTEX
  8
Unknown_Area_Type
  10
255451.000
  20
4615765.000
  0
VERTEX
  8
Unknown_Area_Type
  10
255396.311
  20
4616938.945
  0
VERTEX
  8
Unknown_Area_Type
  10
255445.119
  20
4616937.268
  0
VERTEX
  8
Unknown_Area_Type
  10
258067.282
  20
4616848.452
  0
SEQEND
  8
Unknown_Area_Type
  0
INSERT
  8
FeatureAttribs
  2
FEATURE
  41
1
  42
1
  43
1
  50
0
  10
256690.375
  20
4616310.036
 66
1
  0
ATTRIB
  8
FeatureAttribs
 70
0
  1
PNOA-H_AMS_1956-57_33k_ES_PAN_2
  2
NAME
  10
256690.375
  20
4616310.036
 40
34.47022
  0
SEQEND
  0
POLYLINE
  8
Unknown_Area_Type
  70
1
  66
1
  0
VERTEX
  8
Unknown_Area_Type
  10
258067.282
  20
4616848.452
  0
VERTEX
  8
Unknown_Area_Type
  10
255445.119
  20
4616937.268
  0
VERTEX
  8
Unknown_Area_Type
  10
255396.311
  20
4616938.945
  0
VERTEX
  8
Unknown_Area_Type
  10
255451.000
  20
4615765.000
  0
VERTEX
  8
Unknown_Area_Type
  10
255814.500
  20
4615617.000
  0
VERTEX
  8
Unknown_Area_Type
  10
258054.000
  20
4615842.000
  0
VERTEX
  8
Unknown_Area_Type
  10
258067.282
  20
4616848.452
  0
SEQEND
  8
Unknown_Area_Type
  0
INSERT
  8
FeatureAttribs
  2
FEATURE
  41
1
  42
1
  43
1
  50
0
  10
248237.246
  20
4617406.341
 66
1
  0
ATTRIB
  8
FeatureAttribs
 70
0
  1
PNOA-H_AMS_1956-57_33k_ES_PAN_2
  2
NAME
  10
248237.246
  20
4617406.341
 40
34.47022
  0
SEQEND
  0
POLYLINE
  8
Unknown_Area_Type
  70
1
  66
1
  0
VERTEX
  8
Unknown_Area_Type
  10
249703.201
  20
4617677.656
  0
VERTEX
  8
Unknown_Area_Type
  10
249720.773
  20
4617135.026
  0
VERTEX
  8
Unknown_Area_Type
  10
248506.647
  20
4617177.327
  0
VERTEX
  8
Unknown_Area_Type
  10
246765.279
  20
4617238.842
  0
VERTEX
  8
Unknown_Area_Type
  10
246758.009
  20
4617677.656
  0
VERTEX
  8
Unknown_Area_Type
  10
249703.201
  20
4617677.656
  0
SEQEND
  8
Unknown_Area_Type
  0
INSERT
  8
FeatureAttribs
  2
FEATURE
  41
1
  42
1
  43
1
  50
0
  10
248238.080
  20
4616347.353
 66
1
  0
ATTRIB
  8
FeatureAttribs
 70
0
  1
PNOA-H_AMS_1956-57_33k_ES_PAN_2
  2
NAME
  10
248238.080
  20
4616347.353
 40
34.47022
  0
SEQEND
  0
POLYLINE
  8
Unknown_Area_Type
  70
1
  66
1
  0
VERTEX
  8
Unknown_Area_Type
  10
249720.773
  20
4617135.026
  0
VERTEX
  8
Unknown_Area_Type
  10
249767.000
  20
4615707.500
  0
VERTEX
  8
Unknown_Area_Type
  10
248001.500
  20
4615323.500
  0
VERTEX
  8
Unknown_Area_Type
  10
246790.500
  20
4615716.500
  0
VERTEX
  8
Unknown_Area_Type
  10
246765.279
  20
4617238.842
  0
VERTEX
  8
Unknown_Area_Type
  10
248506.647
  20
4617177.327
  0
VERTEX
  8
Unknown_Area_Type
  10
249720.773
  20
4617135.026
  0
SEQEND
  8
Unknown_Area_Type
  0
INSERT
  8
FeatureAttribs
  2
FEATURE
  41
1
  42
1
  43
1
  50
0
  10
248238.080
  20
4616347.353
 66
1
  0
ATTRIB
  8
FeatureAttribs
 70
0
  1
PNOA-H_AMS_1956-57_33k_ES_PAN_2
  2
NAME
  10
248238.080
  20
4616347.353
 40
34.47022
  0
SEQEND
  0
POLYLINE
  8
Unknown_Area_Type
  70
1
  66
1
  0
VERTEX
  8
Unknown_Area_Type
  10
249720.773
  20
4617135.026
  0
VERTEX
  8
Unknown_Area_Type
  10
248506.647
  20
4617177.327
  0
VERTEX
  8
Unknown_Area_Type
  10
246765.279
  20
4617238.842
  0
VERTEX
  8
Unknown_Area_Type
  10
246790.500
  20
4615716.500
  0
VERTEX
  8
Unknown_Area_Type
  10
248001.500
  20
4615323.500
  0
VERTEX
  8
Unknown_Area_Type
  10
249767.000
  20
4615707.500
  0
VERTEX
  8
Unknown_Area_Type
  10
249720.773
  20
4617135.026
  0
SEQEND
  8
Unknown_Area_Type
  0
INSERT
  8
FeatureAttribs
  2
FEATURE
  41
1
  42
1
  43
1
  50
0
  10
234000.617
  20
4602159.887
 66
1
  0
ATTRIB
  8
FeatureAttribs
 70
0
  1
PNOA-H_AMS_1956-57_33k_ES_PAN_2
  2
NAME
  10
234000.617
  20
4602159.887
 40
34.47022
  0
SEQEND
  0
POLYLINE
  8
Unknown_Area_Type
  70
1
  66
1
  0
VERTEX
  8
Unknown_Area_Type
  10
233982.008
  20
4600160.890
  0
VERTEX
  8
Unknown_Area_Type
  10
233945.434
  20
4600145.700
  0
VERTEX
  8
Unknown_Area_Type
  10
233945.434
  20
4604165.886
  0
VERTEX
  8
Unknown_Area_Type
  10
234130.178
  20
4604174.074
  0
VERTEX
  8
Unknown_Area_Type
  10
234116.264
  20
4603797.420
  0
VERTEX
  8
Unknown_Area_Type
  10
234030.846
  20
4601484.070
  0
VERTEX
  8
Unknown_Area_Type
  10
233982.008
  20
4600160.890
  0
SEQEND
  8
Unknown_Area_Type
  0
INSERT
  8
FeatureAttribs
  2
FEATURE
  41
1
  42
1
  43
1
  50
0
  10
234405.324
  20
4602196.995
 66
1
  0
ATTRIB
  8
FeatureAttribs
 70
0
  1
PNOA-H_AMS_1956-57_33k_ES_PAN_2
  2
NAME
  10
234405.324
  20
4602196.995
 40
34.47022
  0
SEQEND
  0
POLYLINE
  8
Unknown_Area_Type
  70
1
  66
1
  0
VERTEX
  8
Unknown_Area_Type
  10
234130.178
  20
4604174.074
  0
VERTEX
  8
Unknown_Area_Type
  10
234670.000
  20
4604198.000
  0
VERTEX
  8
Unknown_Area_Type
  10
234681.000
  20
4604198.500
  0
VERTEX
  8
Unknown_Area_Type
  10
234692.000
  20
4604198.000
  0
VERTEX
  8
Unknown_Area_Type
  10
234776.000
  20
4604140.500
  0
VERTEX
  8
Unknown_Area_Type
  10
234755.000
  20
4600483.500
  0
VERTEX
  8
Unknown_Area_Type
  10
234754.000
  20
4600481.500
  0
VERTEX
  8
Unknown_Area_Type
  10
233982.008
  20
4600160.890
  0
VERTEX
  8
Unknown_Area_Type
  10
234030.846
  20
4601484.070
  0
VERTEX
  8
Unknown_Area_Type
  10
234116.264
  20
4603797.420
  0
VERTEX
  8
Unknown_Area_Type
  10
234130.178
  20
4604174.074
  0
SEQEND
  8
Unknown_Area_Type
  0
INSERT
  8
FeatureAttribs
  2
FEATURE
  41
1
  42
1
  43
1
  50
0
  10
234405.324
  20
4602196.995
 66
1
  0
ATTRIB
  8
FeatureAttribs
 70
0
  1
PNOA-H_AMS_1956-57_33k_ES_PAN_2
  2
NAME
  10
234405.324
  20
4602196.995
 40
34.47022
  0
SEQEND
  0
POLYLINE
  8
Unknown_Area_Type
  70
1
  66
1
  0
VERTEX
  8
Unknown_Area_Type
  10
234130.178
  20
4604174.074
  0
VERTEX
  8
Unknown_Area_Type
  10
234116.264
  20
4603797.420
  0
VERTEX
  8
Unknown_Area_Type
  10
234030.846
  20
4601484.070
  0
VERTEX
  8
Unknown_Area_Type
  10
233982.008
  20
4600160.890
  0
VERTEX
  8
Unknown_Area_Type
  10
234754.000
  20
4600481.500
  0
VERTEX
  8
Unknown_Area_Type
  10
234755.000
  20
4600483.500
  0
VERTEX
  8
Unknown_Area_Type
  10
234776.000
  20
4604140.500
  0
VERTEX
  8
Unknown_Area_Type
  10
234692.000
  20
4604198.000
  0
VERTEX
  8
Unknown_Area_Type
  10
234681.000
  20
4604198.500
  0
VERTEX
  8
Unknown_Area_Type
  10
234670.000
  20
4604198.000
  0
VERTEX
  8
Unknown_Area_Type
  10
234130.178
  20
4604174.074
  0
SEQEND
  8
Unknown_Area_Type
  0
INSERT
  8
FeatureAttribs
  2
FEATURE
  41
1
  42
1
  43
1
  50
0
  10
234701.970
  20
4614177.597
 66
1
  0
ATTRIB
  8
FeatureAttribs
 70
0
  1
PNOA-H_AMS_1956-57_33k_ES_PAN_2
  2
NAME
  10
234701.970
  20
4614177.597
 40
34.47022
  0
SEQEND
  0
POLYLINE
  8
Unknown_Area_Type
  70
1
  66
1
  0
VERTEX
  8
Unknown_Area_Type
  10
234570.265
  20
4616076.912
  0
VERTEX
  8
Unknown_Area_Type
  10
235067.000
  20
4615997.500
  0
VERTEX
  8
Unknown_Area_Type
  10
234743.500
  20
4612386.500
  0
VERTEX
  8
Unknown_Area_Type
  10
234429.717
  20
4612278.283
  0
VERTEX
  8
Unknown_Area_Type
  10
234458.291
  20
4613050.874
  0
VERTEX
  8
Unknown_Area_Type
  10
234543.886
  20
4615364.252
  0
VERTEX
  8
Unknown_Area_Type
  10
234570.265
  20
4616076.912
  0
SEQEND
  8
Unknown_Area_Type
  0
INSERT
  8
FeatureAttribs
  2
FEATURE
  41
1
  42
1
  43
1
  50
0
  10
234701.970
  20
4614177.597
 66
1
  0
ATTRIB
  8
FeatureAttribs
 70
0
  1
PNOA-H_AMS_1956-57_33k_ES_PAN_2
  2
NAME
  10
234701.970
  20
4614177.597
 40
34.47022
  0
SEQEND
  0
POLYLINE
  8
Unknown_Area_Type
  70
1
  66
1
  0
VERTEX
  8
Unknown_Area_Type
  10
234570.265
  20
4616076.912
  0
VERTEX
  8
Unknown_Area_Type
  10
235067.000
  20
4615997.500
  0
VERTEX
  8
Unknown_Area_Type
  10
234743.500
  20
4612386.500
  0
VERTEX
  8
Unknown_Area_Type
  10
234429.717
  20
4612278.283
  0
VERTEX
  8
Unknown_Area_Type
  10
234458.291
  20
4613050.874
  0
VERTEX
  8
Unknown_Area_Type
  10
234543.886
  20
4615364.252
  0
VERTEX
  8
Unknown_Area_Type
  10
234570.265
  20
4616076.912
  0
SEQEND
  8
Unknown_Area_Type
  0
INSERT
  8
FeatureAttribs
  2
FEATURE
  41
1
  42
1
  43
1
  50
0
  10
234222.086
  20
4614144.033
 66
1
  0
ATTRIB
  8
FeatureAttribs
 70
0
  1
PNOA-H_AMS_1956-57_33k_ES_PAN_2
  2
NAME
  10
234222.086
  20
4614144.033
 40
34.47022
  0
SEQEND
  0
POLYLINE
  8
Unknown_Area_Type
  70
1
  66
1
  0
VERTEX
  8
Unknown_Area_Type
  10
234570.265
  20
4616076.912
  0
VERTEX
  8
Unknown_Area_Type
  10
234543.886
  20
4615364.252
  0
VERTEX
  8
Unknown_Area_Type
  10
234458.291
  20
4613050.874
  0
VERTEX
  8
Unknown_Area_Type
  10
234429.717
  20
4612278.283
  0
VERTEX
  8
Unknown_Area_Type
  10
233945.434
  20
4612111.264
  0
VERTEX
  8
Unknown_Area_Type
  10
233945.434
  20
4616176.802
  0
VERTEX
  8
Unknown_Area_Type
  10
234570.265
  20
4616076.912
  0
SEQEND
  8
Unknown_Area_Type
  0
INSERT
  8
FeatureAttribs
  2
FEATURE
  41
1
  42
1
  43
1
  50
0
  10
238963.767
  20
4602182.663
 66
1
  0
ATTRIB
  8
FeatureAttribs
 70
0
  1
PNOA-H_AMS_1956-57_33k_ES_PAN_2
  2
NAME
  10
238963.767
  20
4602182.663
 40
34.47022
  0
SEQEND
  0
POLYLINE
  8
Unknown_Area_Type
  70
1
  66
1
  0
VERTEX
  8
Unknown_Area_Type
  10
239250.000
  20
4604206.000
  0
VERTEX
  8
Unknown_Area_Type
  10
240329.000
  20
4604198.000
  0
VERTEX
  8
Unknown_Area_Type
  10
240430.500
  20
4604131.000
  0
VERTEX
  8
Unknown_Area_Type
  10
240376.000
  20
4600437.000
  0
VERTEX
  8
Unknown_Area_Type
  10
239291.500
  20
4599942.500
  0
VERTEX
  8
Unknown_Area_Type
  10
237459.500
  20
4600406.000
  0
VERTEX
  8
Unknown_Area_Type
  10
237583.500
  20
4604218.500
  0
VERTEX
  8
Unknown_Area_Type
  10
239209.000
  20
4604206.000
  0
VERTEX
  8
Unknown_Area_Type
  10
239250.000
  20
4604206.000
  0
SEQEND
  8
Unknown_Area_Type
  0
INSERT
  8
FeatureAttribs
  2
FEATURE
  41
1
  42
1
  43
1
  50
0
  10
238963.767
  20
4602182.663
 66
1
  0
ATTRIB
  8
FeatureAttribs
 70
0
  1
PNOA-H_AMS_1956-57_33k_ES_PAN_2
  2
NAME
  10
238963.767
  20
4602182.663
 40
34.47022
  0
SEQEND
  0
POLYLINE
  8
Unknown_Area_Type
  70
1
  66
1
  0
VERTEX
  8
Unknown_Area_Type
  10
239250.000
  20
4604206.000
  0
VERTEX
  8
Unknown_Area_Type
  10
239209.000
  20
4604206.000
  0
VERTEX
  8
Unknown_Area_Type
  10
237583.500
  20
4604218.500
  0
VERTEX
  8
Unknown_Area_Type
  10
237459.500
  20
4600406.000
  0
VERTEX
  8
Unknown_Area_Type
  10
239291.500
  20
4599942.500
  0
VERTEX
  8
Unknown_Area_Type
  10
240376.000
  20
4600437.000
  0
VERTEX
  8
Unknown_Area_Type
  10
240430.500
  20
4604131.000
  0
VERTEX
  8
Unknown_Area_Type
  10
240329.000
  20
4604198.000
  0
VERTEX
  8
Unknown_Area_Type
  10
239250.000
  20
4604206.000
  0
SEQEND
  8
Unknown_Area_Type
  0
INSERT
  8
FeatureAttribs
  2
FEATURE
  41
1
  42
1
  43
1
  50
0
  10
241705.000
  20
4601080.000
 66
1
  0
ATTRIB
  8
FeatureAttribs
 70
0
  1
PNOA-H_AMS_1956-57_33k_ES_PAN_2
  2
NAME
  10
241705.000
  20
4601080.000
 40
34.47022
  0
SEQEND
  0
POLYLINE
  8
Unknown_Area_Type
  70
1
  66
1
  0
VERTEX
  8
Unknown_Area_Type
  10
241709.000
  20
4601088.000
  0
VERTEX
  8
Unknown_Area_Type
  10
241709.500
  20
4601087.000
  0
VERTEX
  8
Unknown_Area_Type
  10
241713.000
  20
4601084.000
  0
VERTEX
  8
Unknown_Area_Type
  10
241713.000
  20
4601076.000
  0
VERTEX
  8
Unknown_Area_Type
  10
241709.000
  20
4601072.000
  0
VERTEX
  8
Unknown_Area_Type
  10
241701.000
  20
4601072.000
  0
VERTEX
  8
Unknown_Area_Type
  10
241697.000
  20
4601076.000
  0
VERTEX
  8
Unknown_Area_Type
  10
241697.000
  20
4601084.000
  0
VERTEX
  8
Unknown_Area_Type
  10
241701.000
  20
4601088.000
  0
VERTEX
  8
Unknown_Area_Type
  10
241709.000
  20
4601088.000
  0
SEQEND
  8
Unknown_Area_Type
  0
INSERT
  8
FeatureAttribs
  2
FEATURE
  41
1
  42
1
  43
1
  50
0
  10
241705.000
  20
4601080.000
 66
1
  0
ATTRIB
  8
FeatureAttribs
 70
0
  1
PNOA-H_AMS_1956-57_33k_ES_PAN_2
  2
NAME
  10
241705.000
  20
4601080.000
 40
34.47022
  0
SEQEND
  0
POLYLINE
  8
Unknown_Area_Type
  70
1
  66
1
  0
VERTEX
  8
Unknown_Area_Type
  10
241709.000
  20
4601088.000
  0
VERTEX
  8
Unknown_Area_Type
  10
241701.000
  20
4601088.000
  0
VERTEX
  8
Unknown_Area_Type
  10
241697.000
  20
4601084.000
  0
VERTEX
  8
Unknown_Area_Type
  10
241697.000
  20
4601076.000
  0
VERTEX
  8
Unknown_Area_Type
  10
241701.000
  20
4601072.000
  0
VERTEX
  8
Unknown_Area_Type
  10
241709.000
  20
4601072.000
  0
VERTEX
  8
Unknown_Area_Type
  10
241713.000
  20
4601076.000
  0
VERTEX
  8
Unknown_Area_Type
  10
241713.000
  20
4601084.000
  0
VERTEX
  8
Unknown_Area_Type
  10
241709.500
  20
4601087.000
  0
VERTEX
  8
Unknown_Area_Type
  10
241709.000
  20
4601088.000
  0
SEQEND
  8
Unknown_Area_Type
  0
INSERT
  8
FeatureAttribs
  2
FEATURE
  41
1
  42
1
  43
1
  50
0
  10
241865.432
  20
4602176.148
 66
1
  0
ATTRIB
  8
FeatureAttribs
 70
0
  1
PNOA-H_AMS_1956-57_33k_ES_PAN_2
  2
NAME
  10
241865.432
  20
4602176.148
 40
34.47022
  0
SEQEND
  0
POLYLINE
  8
Unknown_Area_Type
  70
1
  66
1
  0
VERTEX
  8
Unknown_Area_Type
  10
243168.000
  20
4604318.000
  0
VERTEX
  8
Unknown_Area_Type
  10
243269.000
  20
4604260.000
  0
VERTEX
  8
Unknown_Area_Type
  10
243303.000
  20
4600376.000
  0
VERTEX
  8
Unknown_Area_Type
  10
242150.000
  20
4599892.500
  0
VERTEX
  8
Unknown_Area_Type
  10
240376.000
  20
4600437.000
  0
VERTEX
  8
Unknown_Area_Type
  10
240430.500
  20
4604131.000
  0
VERTEX
  8
Unknown_Area_Type
  10
243161.000
  20
4604317.500
  0
VERTEX
  8
Unknown_Area_Type
  10
243168.000
  20
4604318.000
  0
SEQEND
  8
Unknown_Area_Type
  0
INSERT
  8
FeatureAttribs
  2
FEATURE
  41
1
  42
1
  43
1
  50
0
  10
241865.432
  20
4602176.148
 66
1
  0
ATTRIB
  8
FeatureAttribs
 70
0
  1
PNOA-H_AMS_1956-57_33k_ES_PAN_2
  2
NAME
  10
241865.432
  20
4602176.148
 40
34.47022
  0
SEQEND
  0
POLYLINE
  8
Unknown_Area_Type
  70
1
  66
1
  0
VERTEX
  8
Unknown_Area_Type
  10
243168.000
  20
4604318.000
  0
VERTEX
  8
Unknown_Area_Type
  10
243161.000
  20
4604317.500
  0
VERTEX
  8
Unknown_Area_Type
  10
240430.500
  20
4604131.000
  0
VERTEX
  8
Unknown_Area_Type
  10
240376.000
  20
4600437.000
  0
VERTEX
  8
Unknown_Area_Type
  10
242150.000
  20
4599892.500
  0
VERTEX
  8
Unknown_Area_Type
  10
243303.000
  20
4600376.000
  0
VERTEX
  8
Unknown_Area_Type
  10
243269.000
  20
4604260.000
  0
VERTEX
  8
Unknown_Area_Type
  10
243168.000
  20
4604318.000
  0
SEQEND
  8
Unknown_Area_Type
  0
INSERT
  8
FeatureAttribs
  2
FEATURE
  41
1
  42
1
  43
1
  50
0
  10
236159.463
  20
4602221.988
 66
1
  0
ATTRIB
  8
FeatureAttribs
 70
0
  1
PNOA-H_AMS_1956-57_33k_ES_PAN_2
  2
NAME
  10
236159.463
  20
4602221.988
 40
34.47022
  0
SEQEND
  0
POLYLINE
  8
Unknown_Area_Type
  70
1
  66
1
  0
VERTEX
  8
Unknown_Area_Type
  10
234776.000
  20
4604140.500
  0
VERTEX
  8
Unknown_Area_Type
  10
235138.500
  20
4604154.500
  0
VERTEX
  8
Unknown_Area_Type
  10
235151.500
  20
4604155.000
  0
VERTEX
  8
Unknown_Area_Type
  10
237539.500
  20
4604246.000
  0
VERTEX
  8
Unknown_Area_Type
  10
237544.500
  20
4604246.000
  0
VERTEX
  8
Unknown_Area_Type
  10
237583.500
  20
4604219.000
  0
VERTEX
  8
Unknown_Area_Type
  10
237459.500
  20
4600406.000
  0
VERTEX
  8
Unknown_Area_Type
  10
236507.000
  20
4600003.000
  0
VERTEX
  8
Unknown_Area_Type
  10
236484.000
  20
4600008.500
  0
VERTEX
  8
Unknown_Area_Type
  10
234754.500
  20
4600482.000
  0
VERTEX
  8
Unknown_Area_Type
  10
234776.000
  20
4604140.500
  0
SEQEND
  8
Unknown_Area_Type
  0
INSERT
  8
FeatureAttribs
  2
FEATURE
  41
1
  42
1
  43
1
  50
0
  10
236159.463
  20
4602221.988
 66
1
  0
ATTRIB
  8
FeatureAttribs
 70
0
  1
PNOA-H_AMS_1956-57_33k_ES_PAN_2
  2
NAME
  10
236159.463
  20
4602221.988
 40
34.47022
  0
SEQEND
  0
POLYLINE
  8
Unknown_Area_Type
  70
1
  66
1
  0
VERTEX
  8
Unknown_Area_Type
  10
234776.000
  20
4604140.500
  0
VERTEX
  8
Unknown_Area_Type
  10
234754.500
  20
4600482.000
  0
VERTEX
  8
Unknown_Area_Type
  10
236484.000
  20
4600008.500
  0
VERTEX
  8
Unknown_Area_Type
  10
236507.000
  20
4600003.000
  0
VERTEX
  8
Unknown_Area_Type
  10
237459.500
  20
4600406.000
  0
VERTEX
  8
Unknown_Area_Type
  10
237583.500
  20
4604219.000
  0
VERTEX
  8
Unknown_Area_Type
  10
237544.500
  20
4604246.000
  0
VERTEX
  8
Unknown_Area_Type
  10
237539.500
  20
4604246.000
  0
VERTEX
  8
Unknown_Area_Type
  10
235151.500
  20
4604155.000
  0
VERTEX
  8
Unknown_Area_Type
  10
235138.500
  20
4604154.500
  0
VERTEX
  8
Unknown_Area_Type
  10
234776.000
  20
4604140.500
  0
SEQEND
  8
Unknown_Area_Type
  0
INSERT
  8
FeatureAttribs
  2
FEATURE
  41
1
  42
1
  43
1
  50
0
  10
247592.939
  20
4602158.603
 66
1
  0
ATTRIB
  8
FeatureAttribs
 70
0
  1
PNOA-H_AMS_1956-57_33k_ES_PAN_2
  2
NAME
  10
247592.939
  20
4602158.603
 40
34.47022
  0
SEQEND
  0
POLYLINE
  8
Unknown_Area_Type
  70
1
  66
1
  0
VERTEX
  8
Unknown_Area_Type
  10
248653.000
  20
4604395.000
  0
VERTEX
  8
Unknown_Area_Type
  10
248657.000
  20
4604395.000
  0
VERTEX
  8
Unknown_Area_Type
  10
248661.000
  20
4604393.000
  0
VERTEX
  8
Unknown_Area_Type
  10
249067.500
  20
4604172.500
  0
VERTEX
  8
Unknown_Area_Type
  10
248954.500
  20
4600187.500
  0
VERTEX
  8
Unknown_Area_Type
  10
247828.000
  20
4599787.000
  0
VERTEX
  8
Unknown_Area_Type
  10
247822.000
  20
4599788.000
  0
VERTEX
  8
Unknown_Area_Type
  10
246085.000
  20
4600326.000
  0
VERTEX
  8
Unknown_Area_Type
  10
246184.500
  20
4604185.000
  0
VERTEX
  8
Unknown_Area_Type
  10
248647.000
  20
4604394.500
  0
VERTEX
  8
Unknown_Area_Type
  10
248653.000
  20
4604395.000
  0
SEQEND
  8
Unknown_Area_Type
  0
INSERT
  8
FeatureAttribs
  2
FEATURE
  41
1
  42
1
  43
1
  50
0
  10
247592.939
  20
4602158.603
 66
1
  0
ATTRIB
  8
FeatureAttribs
 70
0
  1
PNOA-H_AMS_1956-57_33k_ES_PAN_2
  2
NAME
  10
247592.939
  20
4602158.603
 40
34.47022
  0
SEQEND
  0
POLYLINE
  8
Unknown_Area_Type
  70
1
  66
1
  0
VERTEX
  8
Unknown_Area_Type
  10
248653.000
  20
4604395.000
  0
VERTEX
  8
Unknown_Area_Type
  10
248647.000
  20
4604394.500
  0
VERTEX
  8
Unknown_Area_Type
  10
246184.500
  20
4604185.000
  0
VERTEX
  8
Unknown_Area_Type
  10
246085.000
  20
4600326.000
  0
VERTEX
  8
Unknown_Area_Type
  10
247822.000
  20
4599788.000
  0
VERTEX
  8
Unknown_Area_Type
  10
247828.000
  20
4599787.000
  0
VERTEX
  8
Unknown_Area_Type
  10
248954.500
  20
4600187.500
  0
VERTEX
  8
Unknown_Area_Type
  10
249067.500
  20
4604172.500
  0
VERTEX
  8
Unknown_Area_Type
  10
248661.000
  20
4604393.000
  0
VERTEX
  8
Unknown_Area_Type
  10
248657.000
  20
4604395.000
  0
VERTEX
  8
Unknown_Area_Type
  10
248653.000
  20
4604395.000
  0
SEQEND
  8
Unknown_Area_Type
  0
INSERT
  8
FeatureAttribs
  2
FEATURE
  41
1
  42
1
  43
1
  50
0
  10
244723.691
  20
4602240.134
 66
1
  0
ATTRIB
  8
FeatureAttribs
 70
0
  1
PNOA-H_AMS_1956-57_33k_ES_PAN_2
  2
NAME
  10
244723.691
  20
4602240.134
 40
34.47022
  0
SEQEND
  0
POLYLINE
  8
Unknown_Area_Type
  70
1
  66
1
  0
VERTEX
  8
Unknown_Area_Type
  10
243342.500
  20
4604264.000
  0
VERTEX
  8
Unknown_Area_Type
  10
245839.500
  20
4604388.000
  0
VERTEX
  8
Unknown_Area_Type
  10
246184.500
  20
4604185.000
  0
VERTEX
  8
Unknown_Area_Type
  10
246085.000
  20
4600326.000
  0
VERTEX
  8
Unknown_Area_Type
  10
245051.500
  20
4599901.000
  0
VERTEX
  8
Unknown_Area_Type
  10
243303.000
  20
4600375.500
  0
VERTEX
  8
Unknown_Area_Type
  10
243269.000
  20
4604260.000
  0
VERTEX
  8
Unknown_Area_Type
  10
243332.500
  20
4604263.500
  0
VERTEX
  8
Unknown_Area_Type
  10
243342.500
  20
4604264.000
  0
SEQEND
  8
Unknown_Area_Type
  0
INSERT
  8
FeatureAttribs
  2
FEATURE
  41
1
  42
1
  43
1
  50
0
  10
244723.691
  20
4602240.134
 66
1
  0
ATTRIB
  8
FeatureAttribs
 70
0
  1
PNOA-H_AMS_1956-57_33k_ES_PAN_2
  2
NAME
  10
244723.691
  20
4602240.134
 40
34.47022
  0
SEQEND
  0
POLYLINE
  8
Unknown_Area_Type
  70
1
  66
1
  0
VERTEX
  8
Unknown_Area_Type
  10
243342.500
  20
4604264.000
  0
VERTEX
  8
Unknown_Area_Type
  10
243332.500
  20
4604263.500
  0
VERTEX
  8
Unknown_Area_Type
  10
243269.000
  20
4604260.000
  0
VERTEX
  8
Unknown_Area_Type
  10
243303.000
  20
4600375.500
  0
VERTEX
  8
Unknown_Area_Type
  10
245051.500
  20
4599901.000
  0
VERTEX
  8
Unknown_Area_Type
  10
246085.000
  20
4600326.000
  0
VERTEX
  8
Unknown_Area_Type
  10
246184.500
  20
4604185.000
  0
VERTEX
  8
Unknown_Area_Type
  10
245839.500
  20
4604388.000
  0
VERTEX
  8
Unknown_Area_Type
  10
243342.500
  20
4604264.000
  0
SEQEND
  8
Unknown_Area_Type
  0
INSERT
  8
FeatureAttribs
  2
FEATURE
  41
1
  42
1
  43
1
  50
0
  10
253366.889
  20
4602067.692
 66
1
  0
ATTRIB
  8
FeatureAttribs
 70
0
  1
PNOA-H_AMS_1956-57_33k_ES_PAN_2
  2
NAME
  10
253366.889
  20
4602067.692
 40
34.47022
  0
SEQEND
  0
POLYLINE
  8
Unknown_Area_Type
  70
1
  66
1
  0
VERTEX
  8
Unknown_Area_Type
  10
254203.000
  20
4604414.000
  0
VERTEX
  8
Unknown_Area_Type
  10
254813.000
  20
4604109.500
  0
VERTEX
  8
Unknown_Area_Type
  10
254830.500
  20
4600056.500
  0
VERTEX
  8
Unknown_Area_Type
  10
253396.500
  20
4599640.500
  0
VERTEX
  8
Unknown_Area_Type
  10
251887.000
  20
4600139.500
  0
VERTEX
  8
Unknown_Area_Type
  10
251882.500
  20
4604134.500
  0
VERTEX
  8
Unknown_Area_Type
  10
254198.500
  20
4604413.500
  0
VERTEX
  8
Unknown_Area_Type
  10
254203.000
  20
4604414.000
  0
SEQEND
  8
Unknown_Area_Type
  0
INSERT
  8
FeatureAttribs
  2
FEATURE
  41
1
  42
1
  43
1
  50
0
  10
253366.889
  20
4602067.692
 66
1
  0
ATTRIB
  8
FeatureAttribs
 70
0
  1
PNOA-H_AMS_1956-57_33k_ES_PAN_2
  2
NAME
  10
253366.889
  20
4602067.692
 40
34.47022
  0
SEQEND
  0
POLYLINE
  8
Unknown_Area_Type
  70
1
  66
1
  0
VERTEX
  8
Unknown_Area_Type
  10
254203.000
  20
4604414.000
  0
VERTEX
  8
Unknown_Area_Type
  10
254198.500
  20
4604413.500
  0
VERTEX
  8
Unknown_Area_Type
  10
251882.500
  20
4604134.500
  0
VERTEX
  8
Unknown_Area_Type
  10
251887.000
  20
4600139.500
  0
VERTEX
  8
Unknown_Area_Type
  10
253396.500
  20
4599640.500
  0
VERTEX
  8
Unknown_Area_Type
  10
254830.500
  20
4600056.500
  0
VERTEX
  8
Unknown_Area_Type
  10
254813.000
  20
4604109.500
  0
VERTEX
  8
Unknown_Area_Type
  10
254203.000
  20
4604414.000
  0
SEQEND
  8
Unknown_Area_Type
  0
INSERT
  8
FeatureAttribs
  2
FEATURE
  41
1
  42
1
  43
1
  50
0
  10
245635.690
  20
4609823.453
 66
1
  0
ATTRIB
  8
FeatureAttribs
 70
0
  1
PNOA-H_AMS_1956-57_33k_ES_PAN_2
  2
NAME
  10
245635.690
  20
4609823.453
 40
34.47022
  0
SEQEND
  0
POLYLINE
  8
Unknown_Area_Type
  70
1
  66
1
  0
VERTEX
  8
Unknown_Area_Type
  10
245394.000
  20
4611697.500
  0
VERTEX
  8
Unknown_Area_Type
  10
246981.000
  20
4611196.000
  0
VERTEX
  8
Unknown_Area_Type
  10
246992.000
  20
4608449.500
  0
VERTEX
  8
Unknown_Area_Type
  10
245844.000
  20
4607901.000
  0
VERTEX
  8
Unknown_Area_Type
  10
245831.000
  20
4607895.000
  0
VERTEX
  8
Unknown_Area_Type
  10
245828.500
  20
4607895.000
  0
VERTEX
  8
Unknown_Area_Type
  10
244294.500
  20
4608438.500
  0
VERTEX
  8
Unknown_Area_Type
  10
244325.000
  20
4611298.000
  0
VERTEX
  8
Unknown_Area_Type
  10
245240.000
  20
4611746.000
  0
VERTEX
  8
Unknown_Area_Type
  10
245392.000
  20
4611698.000
  0
VERTEX
  8
Unknown_Area_Type
  10
245394.000
  20
4611697.500
  0
SEQEND
  8
Unknown_Area_Type
  0
INSERT
  8
FeatureAttribs
  2
FEATURE
  41
1
  42
1
  43
1
  50
0
  10
245635.690
  20
4609823.453
 66
1
  0
ATTRIB
  8
FeatureAttribs
 70
0
  1
PNOA-H_AMS_1956-57_33k_ES_PAN_2
  2
NAME
  10
245635.690
  20
4609823.453
 40
34.47022
  0
SEQEND
  0
POLYLINE
  8
Unknown_Area_Type
  70
1
  66
1
  0
VERTEX
  8
Unknown_Area_Type
  10
245394.000
  20
4611697.500
  0
VERTEX
  8
Unknown_Area_Type
  10
245392.000
  20
4611698.000
  0
VERTEX
  8
Unknown_Area_Type
  10
245240.000
  20
4611746.000
  0
VERTEX
  8
Unknown_Area_Type
  10
244325.000
  20
4611298.000
  0
VERTEX
  8
Unknown_Area_Type
  10
244294.500
  20
4608438.500
  0
VERTEX
  8
Unknown_Area_Type
  10
245828.500
  20
4607895.000
  0
VERTEX
  8
Unknown_Area_Type
  10
245831.000
  20
4607895.000
  0
VERTEX
  8
Unknown_Area_Type
  10
245844.000
  20
4607901.000
  0
VERTEX
  8
Unknown_Area_Type
  10
246992.000
  20
4608449.500
  0
VERTEX
  8
Unknown_Area_Type
  10
246981.000
  20
4611196.000
  0
VERTEX
  8
Unknown_Area_Type
  10
245394.000
  20
4611697.500
  0
SEQEND
  8
Unknown_Area_Type
  0
INSERT
  8
FeatureAttribs
  2
FEATURE
  41
1
  42
1
  43
1
  50
0
  10
242958.411
  20
4609843.659
 66
1
  0
ATTRIB
  8
FeatureAttribs
 70
0
  1
PNOA-H_AMS_1956-57_33k_ES_PAN_2
  2
NAME
  10
242958.411
  20
4609843.659
 40
34.47022
  0
SEQEND
  0
POLYLINE
  8
Unknown_Area_Type
  70
1
  66
1
  0
VERTEX
  8
Unknown_Area_Type
  10
243346.000
  20
4611589.000
  0
VERTEX
  8
Unknown_Area_Type
  10
244325.000
  20
4611298.000
  0
VERTEX
  8
Unknown_Area_Type
  10
244294.500
  20
4608438.500
  0
VERTEX
  8
Unknown_Area_Type
  10
242943.000
  20
4607859.000
  0
VERTEX
  8
Unknown_Area_Type
  10
241593.000
  20
4608375.500
  0
VERTEX
  8
Unknown_Area_Type
  10
241707.000
  20
4611418.000
  0
VERTEX
  8
Unknown_Area_Type
  10
242592.500
  20
4611813.000
  0
VERTEX
  8
Unknown_Area_Type
  10
243344.000
  20
4611589.500
  0
VERTEX
  8
Unknown_Area_Type
  10
243346.000
  20
4611589.000
  0
SEQEND
  8
Unknown_Area_Type
  0
INSERT
  8
FeatureAttribs
  2
FEATURE
  41
1
  42
1
  43
1
  50
0
  10
242958.411
  20
4609843.659
 66
1
  0
ATTRIB
  8
FeatureAttribs
 70
0
  1
PNOA-H_AMS_1956-57_33k_ES_PAN_2
  2
NAME
  10
242958.411
  20
4609843.659
 40
34.47022
  0
SEQEND
  0
POLYLINE
  8
Unknown_Area_Type
  70
1
  66
1
  0
VERTEX
  8
Unknown_Area_Type
  10
243346.000
  20
4611589.000
  0
VERTEX
  8
Unknown_Area_Type
  10
243344.000
  20
4611589.500
  0
VERTEX
  8
Unknown_Area_Type
  10
242592.500
  20
4611813.000
  0
VERTEX
  8
Unknown_Area_Type
  10
241707.000
  20
4611418.000
  0
VERTEX
  8
Unknown_Area_Type
  10
241593.000
  20
4608375.500
  0
VERTEX
  8
Unknown_Area_Type
  10
242943.000
  20
4607859.000
  0
VERTEX
  8
Unknown_Area_Type
  10
244294.500
  20
4608438.500
  0
VERTEX
  8
Unknown_Area_Type
  10
244325.000
  20
4611298.000
  0
VERTEX
  8
Unknown_Area_Type
  10
243346.000
  20
4611589.000
  0
SEQEND
  8
Unknown_Area_Type
  0
INSERT
  8
FeatureAttribs
  2
FEATURE
  41
1
  42
1
  43
1
  50
0
  10
237552.289
  20
4610008.396
 66
1
  0
ATTRIB
  8
FeatureAttribs
 70
0
  1
PNOA-H_AMS_1956-57_33k_ES_PAN_2
  2
NAME
  10
237552.289
  20
4610008.396
 40
34.47022
  0
SEQEND
  0
POLYLINE
  8
Unknown_Area_Type
  70
1
  66
1
  0
VERTEX
  8
Unknown_Area_Type
  10
237370.000
  20
4612126.000
  0
VERTEX
  8
Unknown_Area_Type
  10
237372.500
  20
4612126.000
  0
VERTEX
  8
Unknown_Area_Type
  10
239034.500
  20
4611571.500
  0
VERTEX
  8
Unknown_Area_Type
  10
238870.000
  20
4608393.500
  0
VERTEX
  8
Unknown_Area_Type
  10
237399.000
  20
4607893.000
  0
VERTEX
  8
Unknown_Area_Type
  10
237387.000
  20
4607889.000
  0
VERTEX
  8
Unknown_Area_Type
  10
237384.500
  20
4607889.500
  0
VERTEX
  8
Unknown_Area_Type
  10
236085.000
  20
4608408.500
  0
VERTEX
  8
Unknown_Area_Type
  10
236293.000
  20
4611737.500
  0
VERTEX
  8
Unknown_Area_Type
  10
237368.500
  20
4612125.500
  0
VERTEX
  8
Unknown_Area_Type
  10
237370.000
  20
4612126.000
  0
SEQEND
  8
Unknown_Area_Type
  0
INSERT
  8
FeatureAttribs
  2
FEATURE
  41
1
  42
1
  43
1
  50
0
  10
237552.289
  20
4610008.396
 66
1
  0
ATTRIB
  8
FeatureAttribs
 70
0
  1
PNOA-H_AMS_1956-57_33k_ES_PAN_2
  2
NAME
  10
237552.289
  20
4610008.396
 40
34.47022
  0
SEQEND
  0
POLYLINE
  8
Unknown_Area_Type
  70
1
  66
1
  0
VERTEX
  8
Unknown_Area_Type
  10
237370.000
  20
4612126.000
  0
VERTEX
  8
Unknown_Area_Type
  10
237368.500
  20
4612125.500
  0
VERTEX
  8
Unknown_Area_Type
  10
236293.000
  20
4611737.500
  0
VERTEX
  8
Unknown_Area_Type
  10
236085.000
  20
4608408.500
  0
VERTEX
  8
Unknown_Area_Type
  10
237384.500
  20
4607889.500
  0
VERTEX
  8
Unknown_Area_Type
  10
237387.000
  20
4607889.000
  0
VERTEX
  8
Unknown_Area_Type
  10
237399.000
  20
4607893.000
  0
VERTEX
  8
Unknown_Area_Type
  10
238870.000
  20
4608393.500
  0
VERTEX
  8
Unknown_Area_Type
  10
239034.500
  20
4611571.500
  0
VERTEX
  8
Unknown_Area_Type
  10
237372.500
  20
4612126.000
  0
VERTEX
  8
Unknown_Area_Type
  10
237370.000
  20
4612126.000
  0
SEQEND
  8
Unknown_Area_Type
  0
INSERT
  8
FeatureAttribs
  2
FEATURE
  41
1
  42
1
  43
1
  50
0
  10
256276.281
  20
4602044.312
 66
1
  0
ATTRIB
  8
FeatureAttribs
 70
0
  1
PNOA-H_AMS_1956-57_33k_ES_PAN_2
  2
NAME
  10
256276.281
  20
4602044.312
 40
34.47022
  0
SEQEND
  0
POLYLINE
  8
Unknown_Area_Type
  70
1
  66
1
  0
VERTEX
  8
Unknown_Area_Type
  10
255632.000
  20
4604228.000
  0
VERTEX
  8
Unknown_Area_Type
  10
257039.000
  20
4604430.500
  0
VERTEX
  8
Unknown_Area_Type
  10
257783.000
  20
4604072.500
  0
VERTEX
  8
Unknown_Area_Type
  10
257625.000
  20
4599933.500
  0
VERTEX
  8
Unknown_Area_Type
  10
256140.000
  20
4599560.000
  0
VERTEX
  8
Unknown_Area_Type
  10
254830.500
  20
4600056.500
  0
VERTEX
  8
Unknown_Area_Type
  10
254813.000
  20
4604109.500
  0
VERTEX
  8
Unknown_Area_Type
  10
255628.500
  20
4604227.500
  0
VERTEX
  8
Unknown_Area_Type
  10
255632.000
  20
4604228.000
  0
SEQEND
  8
Unknown_Area_Type
  0
INSERT
  8
FeatureAttribs
  2
FEATURE
  41
1
  42
1
  43
1
  50
0
  10
256276.281
  20
4602044.312
 66
1
  0
ATTRIB
  8
FeatureAttribs
 70
0
  1
PNOA-H_AMS_1956-57_33k_ES_PAN_2
  2
NAME
  10
256276.281
  20
4602044.312
 40
34.47022
  0
SEQEND
  0
POLYLINE
  8
Unknown_Area_Type
  70
1
  66
1
  0
VERTEX
  8
Unknown_Area_Type
  10
255632.000
  20
4604228.000
  0
VERTEX
  8
Unknown_Area_Type
  10
255628.500
  20
4604227.500
  0
VERTEX
  8
Unknown_Area_Type
  10
254813.000
  20
4604109.500
  0
VERTEX
  8
Unknown_Area_Type
  10
254830.500
  20
4600056.500
  0
VERTEX
  8
Unknown_Area_Type
  10
256140.000
  20
4599560.000
  0
VERTEX
  8
Unknown_Area_Type
  10
257625.000
  20
4599933.500
  0
VERTEX
  8
Unknown_Area_Type
  10
257783.000
  20
4604072.500
  0
VERTEX
  8
Unknown_Area_Type
  10
257039.000
  20
4604430.500
  0
VERTEX
  8
Unknown_Area_Type
  10
255632.000
  20
4604228.000
  0
SEQEND
  8
Unknown_Area_Type
  0
INSERT
  8
FeatureAttribs
  2
FEATURE
  41
1
  42
1
  43
1
  50
0
  10
250458.928
  20
4602073.665
 66
1
  0
ATTRIB
  8
FeatureAttribs
 70
0
  1
PNOA-H_AMS_1956-57_33k_ES_PAN_2
  2
NAME
  10
250458.928
  20
4602073.665
 40
34.47022
  0
SEQEND
  0
POLYLINE
  8
Unknown_Area_Type
  70
1
  66
1
  0
VERTEX
  8
Unknown_Area_Type
  10
249488.000
  20
4604208.000
  0
VERTEX
  8
Unknown_Area_Type
  10
251432.500
  20
4604371.000
  0
VERTEX
  8
Unknown_Area_Type
  10
251882.500
  20
4604134.500
  0
VERTEX
  8
Unknown_Area_Type
  10
251887.000
  20
4600139.000
  0
VERTEX
  8
Unknown_Area_Type
  10
250595.500
  20
4599663.500
  0
VERTEX
  8
Unknown_Area_Type
  10
248954.500
  20
4600187.000
  0
VERTEX
  8
Unknown_Area_Type
  10
249067.500
  20
4604172.500
  0
VERTEX
  8
Unknown_Area_Type
  10
249482.000
  20
4604207.500
  0
VERTEX
  8
Unknown_Area_Type
  10
249488.000
  20
4604208.000
  0
SEQEND
  8
Unknown_Area_Type
  0
INSERT
  8
FeatureAttribs
  2
FEATURE
  41
1
  42
1
  43
1
  50
0
  10
250458.928
  20
4602073.665
 66
1
  0
ATTRIB
  8
FeatureAttribs
 70
0
  1
PNOA-H_AMS_1956-57_33k_ES_PAN_2
  2
NAME
  10
250458.928
  20
4602073.665
 40
34.47022
  0
SEQEND
  0
POLYLINE
  8
Unknown_Area_Type
  70
1
  66
1
  0
VERTEX
  8
Unknown_Area_Type
  10
249488.000
  20
4604208.000
  0
VERTEX
  8
Unknown_Area_Type
  10
249482.000
  20
4604207.500
  0
VERTEX
  8
Unknown_Area_Type
  10
249067.500
  20
4604172.500
  0
VERTEX
  8
Unknown_Area_Type
  10
248954.500
  20
4600187.000
  0
VERTEX
  8
Unknown_Area_Type
  10
250595.500
  20
4599663.500
  0
VERTEX
  8
Unknown_Area_Type
  10
251887.000
  20
4600139.000
  0
VERTEX
  8
Unknown_Area_Type
  10
251882.500
  20
4604134.500
  0
VERTEX
  8
Unknown_Area_Type
  10
251432.500
  20
4604371.000
  0
VERTEX
  8
Unknown_Area_Type
  10
249488.000
  20
4604208.000
  0
SEQEND
  8
Unknown_Area_Type
  0
INSERT
  8
FeatureAttribs
  2
FEATURE
  41
1
  42
1
  43
1
  50
0
  10
234148.485
  20
4610164.187
 66
1
  0
ATTRIB
  8
FeatureAttribs
 70
0
  1
PNOA-H_AMS_1956-57_33k_ES_PAN_2
  2
NAME
  10
234148.485
  20
4610164.187
 40
34.47022
  0
SEQEND
  0
POLYLINE
  8
Unknown_Area_Type
  70
1
  66
1
  0
VERTEX
  8
Unknown_Area_Type
  10
234429.728
  20
4612278.578
  0
VERTEX
  8
Unknown_Area_Type
  10
234372.731
  20
4610737.502
  0
VERTEX
  8
Unknown_Area_Type
  10
234287.207
  20
4608424.135
  0
VERTEX
  8
Unknown_Area_Type
  10
234273.374
  20
4608049.797
  0
VERTEX
  8
Unknown_Area_Type
  10
233945.434
  20
4608170.497
  0
VERTEX
  8
Unknown_Area_Type
  10
233945.434
  20
4612111.473
  0
VERTEX
  8
Unknown_Area_Type
  10
234429.728
  20
4612278.578
  0
SEQEND
  8
Unknown_Area_Type
  0
INSERT
  8
FeatureAttribs
  2
FEATURE
  41
1
  42
1
  43
1
  50
0
  10
235227.920
  20
4610152.082
 66
1
  0
ATTRIB
  8
FeatureAttribs
 70
0
  1
PNOA-H_AMS_1956-57_33k_ES_PAN_2
  2
NAME
  10
235227.920
  20
4610152.082
 40
34.47022
  0
SEQEND
  0
POLYLINE
  8
Unknown_Area_Type
  70
1
  66
1
  0
VERTEX
  8
Unknown_Area_Type
  10
234429.728
  20
4612278.578
  0
VERTEX
  8
Unknown_Area_Type
  10
234742.500
  20
4612386.500
  0
VERTEX
  8
Unknown_Area_Type
  10
235152.500
  20
4612215.000
  0
VERTEX
  8
Unknown_Area_Type
  10
235154.000
  20
4612214.500
  0
VERTEX
  8
Unknown_Area_Type
  10
236293.000
  20
4611738.000
  0
VERTEX
  8
Unknown_Area_Type
  10
236085.000
  20
4608408.500
  0
VERTEX
  8
Unknown_Area_Type
  10
234525.500
  20
4607957.000
  0
VERTEX
  8
Unknown_Area_Type
  10
234273.374
  20
4608049.797
  0
VERTEX
  8
Unknown_Area_Type
  10
234287.207
  20
4608424.135
  0
VERTEX
  8
Unknown_Area_Type
  10
234372.731
  20
4610737.502
  0
VERTEX
  8
Unknown_Area_Type
  10
234429.728
  20
4612278.578
  0
SEQEND
  8
Unknown_Area_Type
  0
INSERT
  8
FeatureAttribs
  2
FEATURE
  41
1
  42
1
  43
1
  50
0
  10
235227.920
  20
4610152.082
 66
1
  0
ATTRIB
  8
FeatureAttribs
 70
0
  1
PNOA-H_AMS_1956-57_33k_ES_PAN_2
  2
NAME
  10
235227.920
  20
4610152.082
 40
34.47022
  0
SEQEND
  0
POLYLINE
  8
Unknown_Area_Type
  70
1
  66
1
  0
VERTEX
  8
Unknown_Area_Type
  10
234429.728
  20
4612278.578
  0
VERTEX
  8
Unknown_Area_Type
  10
234372.731
  20
4610737.502
  0
VERTEX
  8
Unknown_Area_Type
  10
234287.207
  20
4608424.135
  0
VERTEX
  8
Unknown_Area_Type
  10
234273.374
  20
4608049.797
  0
VERTEX
  8
Unknown_Area_Type
  10
234525.500
  20
4607957.000
  0
VERTEX
  8
Unknown_Area_Type
  10
236085.000
  20
4608408.500
  0
VERTEX
  8
Unknown_Area_Type
  10
236293.000
  20
4611738.000
  0
VERTEX
  8
Unknown_Area_Type
  10
235154.000
  20
4612214.500
  0
VERTEX
  8
Unknown_Area_Type
  10
235152.500
  20
4612215.000
  0
VERTEX
  8
Unknown_Area_Type
  10
234742.500
  20
4612386.500
  0
VERTEX
  8
Unknown_Area_Type
  10
234429.728
  20
4612278.578
  0
SEQEND
  8
Unknown_Area_Type
  0
INSERT
  8
FeatureAttribs
  2
FEATURE
  41
1
  42
1
  43
1
  50
0
  10
250996.450
  20
4609834.008
 66
1
  0
ATTRIB
  8
FeatureAttribs
 70
0
  1
PNOA-H_AMS_1956-57_33k_ES_PAN_2
  2
NAME
  10
250996.450
  20
4609834.008
 40
34.47022
  0
SEQEND
  0
POLYLINE
  8
Unknown_Area_Type
  70
1
  66
1
  0
VERTEX
  8
Unknown_Area_Type
  10
251538.000
  20
4611440.000
  0
VERTEX
  8
Unknown_Area_Type
  10
252329.500
  20
4611202.500
  0
VERTEX
  8
Unknown_Area_Type
  10
252339.000
  20
4608469.500
  0
VERTEX
  8
Unknown_Area_Type
  10
251410.500
  20
4607955.500
  0
VERTEX
  8
Unknown_Area_Type
  10
249670.500
  20
4608450.000
  0
VERTEX
  8
Unknown_Area_Type
  10
249669.500
  20
4608450.500
  0
VERTEX
  8
Unknown_Area_Type
  10
249669.000
  20
4608456.000
  0
VERTEX
  8
Unknown_Area_Type
  10
249650.500
  20
4611201.500
  0
VERTEX
  8
Unknown_Area_Type
  10
250617.000
  20
4611716.500
  0
VERTEX
  8
Unknown_Area_Type
  10
251536.500
  20
4611440.500
  0
VERTEX
  8
Unknown_Area_Type
  10
251538.000
  20
4611440.000
  0
SEQEND
  8
Unknown_Area_Type
  0
INSERT
  8
FeatureAttribs
  2
FEATURE
  41
1
  42
1
  43
1
  50
0
  10
250996.450
  20
4609834.008
 66
1
  0
ATTRIB
  8
FeatureAttribs
 70
0
  1
PNOA-H_AMS_1956-57_33k_ES_PAN_2
  2
NAME
  10
250996.450
  20
4609834.008
 40
34.47022
  0
SEQEND
  0
POLYLINE
  8
Unknown_Area_Type
  70
1
  66
1
  0
VERTEX
  8
Unknown_Area_Type
  10
251538.000
  20
4611440.000
  0
VERTEX
  8
Unknown_Area_Type
  10
251536.500
  20
4611440.500
  0
VERTEX
  8
Unknown_Area_Type
  10
250617.000
  20
4611716.500
  0
VERTEX
  8
Unknown_Area_Type
  10
249650.500
  20
4611201.500
  0
VERTEX
  8
Unknown_Area_Type
  10
249669.000
  20
4608456.000
  0
VERTEX
  8
Unknown_Area_Type
  10
249669.500
  20
4608450.500
  0
VERTEX
  8
Unknown_Area_Type
  10
249670.500
  20
4608450.000
  0
VERTEX
  8
Unknown_Area_Type
  10
251410.500
  20
4607955.500
  0
VERTEX
  8
Unknown_Area_Type
  10
252339.000
  20
4608469.500
  0
VERTEX
  8
Unknown_Area_Type
  10
252329.500
  20
4611202.500
  0
VERTEX
  8
Unknown_Area_Type
  10
251538.000
  20
4611440.000
  0
SEQEND
  8
Unknown_Area_Type
  0
INSERT
  8
FeatureAttribs
  2
FEATURE
  41
1
  42
1
  43
1
  50
0
  10
253693.232
  20
4609856.005
 66
1
  0
ATTRIB
  8
FeatureAttribs
 70
0
  1
PNOA-H_AMS_1956-57_33k_ES_PAN_2
  2
NAME
  10
253693.232
  20
4609856.005
 40
34.47022
  0
SEQEND
  0
POLYLINE
  8
Unknown_Area_Type
  70
1
  66
1
  0
VERTEX
  8
Unknown_Area_Type
  10
253586.000
  20
4611646.000
  0
VERTEX
  8
Unknown_Area_Type
  10
255078.000
  20
4611244.000
  0
VERTEX
  8
Unknown_Area_Type
  10
254990.500
  20
4608406.500
  0
VERTEX
  8
Unknown_Area_Type
  10
254253.500
  20
4607980.000
  0
VERTEX
  8
Unknown_Area_Type
  10
254233.500
  20
4607968.500
  0
VERTEX
  8
Unknown_Area_Type
  10
254230.000
  20
4607967.500
  0
VERTEX
  8
Unknown_Area_Type
  10
252342.000
  20
4608468.500
  0
VERTEX
  8
Unknown_Area_Type
  10
252339.000
  20
4608469.500
  0
VERTEX
  8
Unknown_Area_Type
  10
252329.500
  20
4611203.000
  0
VERTEX
  8
Unknown_Area_Type
  10
253273.500
  20
4611730.500
  0
VERTEX
  8
Unknown_Area_Type
  10
253584.500
  20
4611646.500
  0
VERTEX
  8
Unknown_Area_Type
  10
253586.000
  20
4611646.000
  0
SEQEND
  8
Unknown_Area_Type
  0
INSERT
  8
FeatureAttribs
  2
FEATURE
  41
1
  42
1
  43
1
  50
0
  10
253693.232
  20
4609856.005
 66
1
  0
ATTRIB
  8
FeatureAttribs
 70
0
  1
PNOA-H_AMS_1956-57_33k_ES_PAN_2
  2
NAME
  10
253693.232
  20
4609856.005
 40
34.47022
  0
SEQEND
  0
POLYLINE
  8
Unknown_Area_Type
  70
1
  66
1
  0
VERTEX
  8
Unknown_Area_Type
  10
253586.000
  20
4611646.000
  0
VERTEX
  8
Unknown_Area_Type
  10
253584.500
  20
4611646.500
  0
VERTEX
  8
Unknown_Area_Type
  10
253273.500
  20
4611730.500
  0
VERTEX
  8
Unknown_Area_Type
  10
252329.500
  20
4611203.000
  0
VERTEX
  8
Unknown_Area_Type
  10
252339.000
  20
4608469.500
  0
VERTEX
  8
Unknown_Area_Type
  10
252342.000
  20
4608468.500
  0
VERTEX
  8
Unknown_Area_Type
  10
254230.000
  20
4607967.500
  0
VERTEX
  8
Unknown_Area_Type
  10
254233.500
  20
4607968.500
  0
VERTEX
  8
Unknown_Area_Type
  10
254253.500
  20
4607980.000
  0
VERTEX
  8
Unknown_Area_Type
  10
254990.500
  20
4608406.500
  0
VERTEX
  8
Unknown_Area_Type
  10
255078.000
  20
4611244.000
  0
VERTEX
  8
Unknown_Area_Type
  10
253586.000
  20
4611646.000
  0
SEQEND
  8
Unknown_Area_Type
  0
INSERT
  8
FeatureAttribs
  2
FEATURE
  41
1
  42
1
  43
1
  50
0
  10
259143.752
  20
4601919.020
 66
1
  0
ATTRIB
  8
FeatureAttribs
 70
0
  1
PNOA-H_AMS_1956-57_33k_ES_PAN_2
  2
NAME
  10
259143.752
  20
4601919.020
 40
34.47022
  0
SEQEND
  0
POLYLINE
  8
Unknown_Area_Type
  70
1
  66
1
  0
VERTEX
  8
Unknown_Area_Type
  10
257681.500
  20
4601407.500
  0
VERTEX
  8
Unknown_Area_Type
  10
257681.500
  20
4601420.500
  0
VERTEX
  8
Unknown_Area_Type
  10
257781.500
  20
4604040.500
  0
VERTEX
  8
Unknown_Area_Type
  10
257783.500
  20
4604072.500
  0
VERTEX
  8
Unknown_Area_Type
  10
259837.500
  20
4604364.500
  0
VERTEX
  8
Unknown_Area_Type
  10
260621.000
  20
4603998.000
  0
VERTEX
  8
Unknown_Area_Type
  10
260512.000
  20
4599782.000
  0
VERTEX
  8
Unknown_Area_Type
  10
258907.000
  20
4599442.500
  0
VERTEX
  8
Unknown_Area_Type
  10
257625.000
  20
4599933.500
  0
VERTEX
  8
Unknown_Area_Type
  10
257681.500
  20
4601407.500
  0
SEQEND
  8
Unknown_Area_Type
  0
INSERT
  8
FeatureAttribs
  2
FEATURE
  41
1
  42
1
  43
1
  50
0
  10
259143.752
  20
4601919.020
 66
1
  0
ATTRIB
  8
FeatureAttribs
 70
0
  1
PNOA-H_AMS_1956-57_33k_ES_PAN_2
  2
NAME
  10
259143.752
  20
4601919.020
 40
34.47022
  0
SEQEND
  0
POLYLINE
  8
Unknown_Area_Type
  70
1
  66
1
  0
VERTEX
  8
Unknown_Area_Type
  10
257681.500
  20
4601407.500
  0
VERTEX
  8
Unknown_Area_Type
  10
257625.000
  20
4599933.500
  0
VERTEX
  8
Unknown_Area_Type
  10
258907.000
  20
4599442.500
  0
VERTEX
  8
Unknown_Area_Type
  10
260512.000
  20
4599782.000
  0
VERTEX
  8
Unknown_Area_Type
  10
260621.000
  20
4603998.000
  0
VERTEX
  8
Unknown_Area_Type
  10
259837.500
  20
4604364.500
  0
VERTEX
  8
Unknown_Area_Type
  10
257783.500
  20
4604072.500
  0
VERTEX
  8
Unknown_Area_Type
  10
257781.500
  20
4604040.500
  0
VERTEX
  8
Unknown_Area_Type
  10
257681.500
  20
4601420.500
  0
VERTEX
  8
Unknown_Area_Type
  10
257681.500
  20
4601407.500
  0
SEQEND
  8
Unknown_Area_Type
  0
INSERT
  8
FeatureAttribs
  2
FEATURE
  41
1
  42
1
  43
1
  50
0
  10
259101.806
  20
4609782.618
 66
1
  0
ATTRIB
  8
FeatureAttribs
 70
0
  1
PNOA-H_AMS_1956-57_33k_ES_PAN_2
  2
NAME
  10
259101.806
  20
4609782.618
 40
34.47022
  0
SEQEND
  0
POLYLINE
  8
Unknown_Area_Type
  70
1
  66
1
  0
VERTEX
  8
Unknown_Area_Type
  10
257804.500
  20
4611245.500
  0
VERTEX
  8
Unknown_Area_Type
  10
258594.500
  20
4611677.500
  0
VERTEX
  8
Unknown_Area_Type
  10
260496.000
  20
4611274.000
  0
VERTEX
  8
Unknown_Area_Type
  10
260421.500
  20
4609295.000
  0
VERTEX
  8
Unknown_Area_Type
  10
260421.500
  20
4609288.000
  0
VERTEX
  8
Unknown_Area_Type
  10
260381.500
  20
4608225.500
  0
VERTEX
  8
Unknown_Area_Type
  10
259883.000
  20
4607886.000
  0
VERTEX
  8
Unknown_Area_Type
  10
257673.000
  20
4608331.500
  0
VERTEX
  8
Unknown_Area_Type
  10
257804.500
  20
4611245.500
  0
SEQEND
  8
Unknown_Area_Type
  0
INSERT
  8
FeatureAttribs
  2
FEATURE
  41
1
  42
1
  43
1
  50
0
  10
259101.806
  20
4609782.618
 66
1
  0
ATTRIB
  8
FeatureAttribs
 70
0
  1
PNOA-H_AMS_1956-57_33k_ES_PAN_2
  2
NAME
  10
259101.806
  20
4609782.618
 40
34.47022
  0
SEQEND
  0
POLYLINE
  8
Unknown_Area_Type
  70
1
  66
1
  0
VERTEX
  8
Unknown_Area_Type
  10
257804.500
  20
4611245.500
  0
VERTEX
  8
Unknown_Area_Type
  10
257673.000
  20
4608331.500
  0
VERTEX
  8
Unknown_Area_Type
  10
259883.000
  20
4607886.000
  0
VERTEX
  8
Unknown_Area_Type
  10
260381.500
  20
4608225.500
  0
VERTEX
  8
Unknown_Area_Type
  10
260421.500
  20
4609288.000
  0
VERTEX
  8
Unknown_Area_Type
  10
260421.500
  20
4609295.000
  0
VERTEX
  8
Unknown_Area_Type
  10
260496.000
  20
4611274.000
  0
VERTEX
  8
Unknown_Area_Type
  10
258594.500
  20
4611677.500
  0
VERTEX
  8
Unknown_Area_Type
  10
257804.500
  20
4611245.500
  0
SEQEND
  8
Unknown_Area_Type
  0
INSERT
  8
FeatureAttribs
  2
FEATURE
  41
1
  42
1
  43
1
  50
0
  10
248321.744
  20
4609816.409
 66
1
  0
ATTRIB
  8
FeatureAttribs
 70
0
  1
PNOA-H_AMS_1956-57_33k_ES_PAN_2
  2
NAME
  10
248321.744
  20
4609816.409
 40
34.47022
  0
SEQEND
  0
POLYLINE
  8
Unknown_Area_Type
  70
1
  66
1
  0
VERTEX
  8
Unknown_Area_Type
  10
247441.000
  20
4611439.500
  0
VERTEX
  8
Unknown_Area_Type
  10
247953.500
  20
4611710.000
  0
VERTEX
  8
Unknown_Area_Type
  10
249650.500
  20
4611201.500
  0
VERTEX
  8
Unknown_Area_Type
  10
249669.500
  20
4608450.500
  0
VERTEX
  8
Unknown_Area_Type
  10
248614.500
  20
4607915.000
  0
VERTEX
  8
Unknown_Area_Type
  10
248607.000
  20
4607911.500
  0
VERTEX
  8
Unknown_Area_Type
  10
246992.000
  20
4608449.500
  0
VERTEX
  8
Unknown_Area_Type
  10
246981.000
  20
4611196.000
  0
VERTEX
  8
Unknown_Area_Type
  10
247440.000
  20
4611439.000
  0
VERTEX
  8
Unknown_Area_Type
  10
247441.000
  20
4611439.500
  0
SEQEND
  8
Unknown_Area_Type
  0
INSERT
  8
FeatureAttribs
  2
FEATURE
  41
1
  42
1
  43
1
  50
0
  10
248321.744
  20
4609816.409
 66
1
  0
ATTRIB
  8
FeatureAttribs
 70
0
  1
PNOA-H_AMS_1956-57_33k_ES_PAN_2
  2
NAME
  10
248321.744
  20
4609816.409
 40
34.47022
  0
SEQEND
  0
POLYLINE
  8
Unknown_Area_Type
  70
1
  66
1
  0
VERTEX
  8
Unknown_Area_Type
  10
247441.000
  20
4611439.500
  0
VERTEX
  8
Unknown_Area_Type
  10
247440.000
  20
4611439.000
  0
VERTEX
  8
Unknown_Area_Type
  10
246981.000
  20
4611196.000
  0
VERTEX
  8
Unknown_Area_Type
  10
246992.000
  20
4608449.500
  0
VERTEX
  8
Unknown_Area_Type
  10
248607.000
  20
4607911.500
  0
VERTEX
  8
Unknown_Area_Type
  10
248614.500
  20
4607915.000
  0
VERTEX
  8
Unknown_Area_Type
  10
249669.500
  20
4608450.500
  0
VERTEX
  8
Unknown_Area_Type
  10
249650.500
  20
4611201.500
  0
VERTEX
  8
Unknown_Area_Type
  10
247953.500
  20
4611710.000
  0
VERTEX
  8
Unknown_Area_Type
  10
247441.000
  20
4611439.500
  0
SEQEND
  8
Unknown_Area_Type
  0
INSERT
  8
FeatureAttribs
  2
FEATURE
  41
1
  42
1
  43
1
  50
0
  10
256394.805
  20
4609822.975
 66
1
  0
ATTRIB
  8
FeatureAttribs
 70
0
  1
PNOA-H_AMS_1956-57_33k_ES_PAN_2
  2
NAME
  10
256394.805
  20
4609822.975
 40
34.47022
  0
SEQEND
  0
POLYLINE
  8
Unknown_Area_Type
  70
1
  66
1
  0
VERTEX
  8
Unknown_Area_Type
  10
255633.000
  20
4611549.500
  0
VERTEX
  8
Unknown_Area_Type
  10
255903.500
  20
4611698.500
  0
VERTEX
  8
Unknown_Area_Type
  10
255911.000
  20
4611702.500
  0
VERTEX
  8
Unknown_Area_Type
  10
255913.000
  20
4611702.500
  0
VERTEX
  8
Unknown_Area_Type
  10
257804.500
  20
4611245.500
  0
VERTEX
  8
Unknown_Area_Type
  10
257673.000
  20
4608331.500
  0
VERTEX
  8
Unknown_Area_Type
  10
257050.500
  20
4607935.500
  0
VERTEX
  8
Unknown_Area_Type
  10
254990.500
  20
4608406.500
  0
VERTEX
  8
Unknown_Area_Type
  10
255078.000
  20
4611244.000
  0
VERTEX
  8
Unknown_Area_Type
  10
255632.000
  20
4611549.000
  0
VERTEX
  8
Unknown_Area_Type
  10
255633.000
  20
4611549.500
  0
SEQEND
  8
Unknown_Area_Type
  0
INSERT
  8
FeatureAttribs
  2
FEATURE
  41
1
  42
1
  43
1
  50
0
  10
256394.805
  20
4609822.975
 66
1
  0
ATTRIB
  8
FeatureAttribs
 70
0
  1
PNOA-H_AMS_1956-57_33k_ES_PAN_2
  2
NAME
  10
256394.805
  20
4609822.975
 40
34.47022
  0
SEQEND
  0
POLYLINE
  8
Unknown_Area_Type
  70
1
  66
1
  0
VERTEX
  8
Unknown_Area_Type
  10
255633.000
  20
4611549.500
  0
VERTEX
  8
Unknown_Area_Type
  10
255632.000
  20
4611549.000
  0
VERTEX
  8
Unknown_Area_Type
  10
255078.000
  20
4611244.000
  0
VERTEX
  8
Unknown_Area_Type
  10
254990.500
  20
4608406.500
  0
VERTEX
  8
Unknown_Area_Type
  10
257050.500
  20
4607935.500
  0
VERTEX
  8
Unknown_Area_Type
  10
257673.000
  20
4608331.500
  0
VERTEX
  8
Unknown_Area_Type
  10
257804.500
  20
4611245.500
  0
VERTEX
  8
Unknown_Area_Type
  10
255913.000
  20
4611702.500
  0
VERTEX
  8
Unknown_Area_Type
  10
255911.000
  20
4611702.500
  0
VERTEX
  8
Unknown_Area_Type
  10
255903.500
  20
4611698.500
  0
VERTEX
  8
Unknown_Area_Type
  10
255633.000
  20
4611549.500
  0
SEQEND
  8
Unknown_Area_Type
  0
INSERT
  8
FeatureAttribs
  2
FEATURE
  41
1
  42
1
  43
1
  50
0
  10
262245.800
  20
4609701.970
 66
1
  0
ATTRIB
  8
FeatureAttribs
 70
0
  1
PNOA-H_AMS_1956-57_33k_ES_PAN_2
  2
NAME
  10
262245.800
  20
4609701.970
 40
34.47022
  0
SEQEND
  0
POLYLINE
  8
Unknown_Area_Type
  70
1
  66
1
  0
VERTEX
  8
Unknown_Area_Type
  10
262211.051
  20
4611497.528
  0
VERTEX
  8
Unknown_Area_Type
  10
262340.000
  20
4611476.097
  0
VERTEX
  8
Unknown_Area_Type
  10
262340.000
  20
4607906.411
  0
VERTEX
  8
Unknown_Area_Type
  10
262093.502
  20
4607946.572
  0
VERTEX
  8
Unknown_Area_Type
  10
262153.655
  20
4609764.054
  0
VERTEX
  8
Unknown_Area_Type
  10
262211.051
  20
4611497.528
  0
SEQEND
  8
Unknown_Area_Type
  0
INSERT
  8
FeatureAttribs
  2
FEATURE
  41
1
  42
1
  43
1
  50
0
  10
261317.133
  20
4609805.931
 66
1
  0
ATTRIB
  8
FeatureAttribs
 70
0
  1
PNOA-H_AMS_1956-57_33k_ES_PAN_2
  2
NAME
  10
261317.133
  20
4609805.931
 40
34.47022
  0
SEQEND
  0
POLYLINE
  8
Unknown_Area_Type
  70
1
  66
1
  0
VERTEX
  8
Unknown_Area_Type
  10
262211.051
  20
4611497.528
  0
VERTEX
  8
Unknown_Area_Type
  10
262153.655
  20
4609764.054
  0
VERTEX
  8
Unknown_Area_Type
  10
262093.502
  20
4607946.572
  0
VERTEX
  8
Unknown_Area_Type
  10
260381.500
  20
4608225.500
  0
VERTEX
  8
Unknown_Area_Type
  10
260496.000
  20
4611274.000
  0
VERTEX
  8
Unknown_Area_Type
  10
261242.500
  20
4611658.500
  0
VERTEX
  8
Unknown_Area_Type
  10
261774.500
  20
4611570.000
  0
VERTEX
  8
Unknown_Area_Type
  10
261778.000
  20
4611569.500
  0
VERTEX
  8
Unknown_Area_Type
  10
262211.051
  20
4611497.528
  0
SEQEND
  8
Unknown_Area_Type
  0
INSERT
  8
FeatureAttribs
  2
FEATURE
  41
1
  42
1
  43
1
  50
0
  10
261317.133
  20
4609805.931
 66
1
  0
ATTRIB
  8
FeatureAttribs
 70
0
  1
PNOA-H_AMS_1956-57_33k_ES_PAN_2
  2
NAME
  10
261317.133
  20
4609805.931
 40
34.47022
  0
SEQEND
  0
POLYLINE
  8
Unknown_Area_Type
  70
1
  66
1
  0
VERTEX
  8
Unknown_Area_Type
  10
262211.051
  20
4611497.528
  0
VERTEX
  8
Unknown_Area_Type
  10
261778.000
  20
4611569.500
  0
VERTEX
  8
Unknown_Area_Type
  10
261774.500
  20
4611570.000
  0
VERTEX
  8
Unknown_Area_Type
  10
261242.500
  20
4611658.500
  0
VERTEX
  8
Unknown_Area_Type
  10
260496.000
  20
4611274.000
  0
VERTEX
  8
Unknown_Area_Type
  10
260381.500
  20
4608225.500
  0
VERTEX
  8
Unknown_Area_Type
  10
262093.502
  20
4607946.572
  0
VERTEX
  8
Unknown_Area_Type
  10
262153.655
  20
4609764.054
  0
VERTEX
  8
Unknown_Area_Type
  10
262211.051
  20
4611497.528
  0
SEQEND
  8
Unknown_Area_Type
  0
INSERT
  8
FeatureAttribs
  2
FEATURE
  41
1
  42
1
  43
1
  50
0
  10
240283.603
  20
4609924.393
 66
1
  0
ATTRIB
  8
FeatureAttribs
 70
0
  1
PNOA-H_AMS_1956-57_33k_ES_PAN_2
  2
NAME
  10
240283.603
  20
4609924.393
 40
34.47022
  0
SEQEND
  0
POLYLINE
  8
Unknown_Area_Type
  70
1
  66
1
  0
VERTEX
  8
Unknown_Area_Type
  10
239249.000
  20
4611664.000
  0
VERTEX
  8
Unknown_Area_Type
  10
239960.500
  20
4611970.500
  0
VERTEX
  8
Unknown_Area_Type
  10
239978.000
  20
4611978.000
  0
VERTEX
  8
Unknown_Area_Type
  10
239980.500
  20
4611978.000
  0
VERTEX
  8
Unknown_Area_Type
  10
241707.000
  20
4611418.000
  0
VERTEX
  8
Unknown_Area_Type
  10
241593.000
  20
4608375.500
  0
VERTEX
  8
Unknown_Area_Type
  10
240232.500
  20
4607885.000
  0
VERTEX
  8
Unknown_Area_Type
  10
240229.000
  20
4607885.000
  0
VERTEX
  8
Unknown_Area_Type
  10
238870.000
  20
4608393.500
  0
VERTEX
  8
Unknown_Area_Type
  10
239034.500
  20
4611571.500
  0
VERTEX
  8
Unknown_Area_Type
  10
239247.500
  20
4611663.500
  0
VERTEX
  8
Unknown_Area_Type
  10
239249.000
  20
4611664.000
  0
SEQEND
  8
Unknown_Area_Type
  0
INSERT
  8
FeatureAttribs
  2
FEATURE
  41
1
  42
1
  43
1
  50
0
  10
240283.603
  20
4609924.393
 66
1
  0
ATTRIB
  8
FeatureAttribs
 70
0
  1
PNOA-H_AMS_1956-57_33k_ES_PAN_2
  2
NAME
  10
240283.603
  20
4609924.393
 40
34.47022
  0
SEQEND
  0
POLYLINE
  8
Unknown_Area_Type
  70
1
  66
1
  0
VERTEX
  8
Unknown_Area_Type
  10
239249.000
  20
4611664.000
  0
VERTEX
  8
Unknown_Area_Type
  10
239247.500
  20
4611663.500
  0
VERTEX
  8
Unknown_Area_Type
  10
239034.500
  20
4611571.500
  0
VERTEX
  8
Unknown_Area_Type
  10
238870.000
  20
4608393.500
  0
VERTEX
  8
Unknown_Area_Type
  10
240229.000
  20
4607885.000
  0
VERTEX
  8
Unknown_Area_Type
  10
240232.500
  20
4607885.000
  0
VERTEX
  8
Unknown_Area_Type
  10
241593.000
  20
4608375.500
  0
VERTEX
  8
Unknown_Area_Type
  10
241707.000
  20
4611418.000
  0
VERTEX
  8
Unknown_Area_Type
  10
239980.500
  20
4611978.000
  0
VERTEX
  8
Unknown_Area_Type
  10
239978.000
  20
4611978.000
  0
VERTEX
  8
Unknown_Area_Type
  10
239960.500
  20
4611970.500
  0
VERTEX
  8
Unknown_Area_Type
  10
239249.000
  20
4611664.000
  0
SEQEND
  8
Unknown_Area_Type
  0
INSERT
  8
FeatureAttribs
  2
FEATURE
  41
1
  42
1
  43
1
  50
0
  10
238813.282
  20
4613818.720
 66
1
  0
ATTRIB
  8
FeatureAttribs
 70
0
  1
PNOA-H_AMS_1956-57_33k_ES_PAN_2
  2
NAME
  10
238813.282
  20
4613818.720
 40
34.47022
  0
SEQEND
  0
POLYLINE
  8
Unknown_Area_Type
  70
1
  66
1
  0
VERTEX
  8
Unknown_Area_Type
  10
239250.000
  20
4615803.500
  0
VERTEX
  8
Unknown_Area_Type
  10
240238.500
  20
4615603.500
  0
VERTEX
  8
Unknown_Area_Type
  10
240241.000
  20
4615602.500
  0
VERTEX
  8
Unknown_Area_Type
  10
240241.000
  20
4615598.000
  0
VERTEX
  8
Unknown_Area_Type
  10
239979.500
  20
4611979.500
  0
VERTEX
  8
Unknown_Area_Type
  10
239979.000
  20
4611978.000
  0
VERTEX
  8
Unknown_Area_Type
  10
239957.500
  20
4611968.500
  0
VERTEX
  8
Unknown_Area_Type
  10
239034.000
  20
4611571.500
  0
VERTEX
  8
Unknown_Area_Type
  10
237371.000
  20
4612126.000
  0
VERTEX
  8
Unknown_Area_Type
  10
237371.000
  20
4612128.500
  0
VERTEX
  8
Unknown_Area_Type
  10
237704.500
  20
4615840.000
  0
VERTEX
  8
Unknown_Area_Type
  10
238152.500
  20
4616024.500
  0
VERTEX
  8
Unknown_Area_Type
  10
238158.500
  20
4616025.500
  0
VERTEX
  8
Unknown_Area_Type
  10
239247.500
  20
4615804.000
  0
VERTEX
  8
Unknown_Area_Type
  10
239250.000
  20
4615803.500
  0
SEQEND
  8
Unknown_Area_Type
  0
INSERT
  8
FeatureAttribs
  2
FEATURE
  41
1
  42
1
  43
1
  50
0
  10
238813.282
  20
4613818.720
 66
1
  0
ATTRIB
  8
FeatureAttribs
 70
0
  1
PNOA-H_AMS_1956-57_33k_ES_PAN_2
  2
NAME
  10
238813.282
  20
4613818.720
 40
34.47022
  0
SEQEND
  0
POLYLINE
  8
Unknown_Area_Type
  70
1
  66
1
  0
VERTEX
  8
Unknown_Area_Type
  10
239250.000
  20
4615803.500
  0
VERTEX
  8
Unknown_Area_Type
  10
239247.500
  20
4615804.000
  0
VERTEX
  8
Unknown_Area_Type
  10
238158.500
  20
4616025.500
  0
VERTEX
  8
Unknown_Area_Type
  10
238152.500
  20
4616024.500
  0
VERTEX
  8
Unknown_Area_Type
  10
237704.500
  20
4615840.000
  0
VERTEX
  8
Unknown_Area_Type
  10
237371.000
  20
4612128.500
  0
VERTEX
  8
Unknown_Area_Type
  10
237371.000
  20
4612126.000
  0
VERTEX
  8
Unknown_Area_Type
  10
239034.000
  20
4611571.500
  0
VERTEX
  8
Unknown_Area_Type
  10
239957.500
  20
4611968.500
  0
VERTEX
  8
Unknown_Area_Type
  10
239979.000
  20
4611978.000
  0
VERTEX
  8
Unknown_Area_Type
  10
239979.500
  20
4611979.500
  0
VERTEX
  8
Unknown_Area_Type
  10
240241.000
  20
4615598.000
  0
VERTEX
  8
Unknown_Area_Type
  10
240241.000
  20
4615602.500
  0
VERTEX
  8
Unknown_Area_Type
  10
240238.500
  20
4615603.500
  0
VERTEX
  8
Unknown_Area_Type
  10
239250.000
  20
4615803.500
  0
SEQEND
  8
Unknown_Area_Type
  0
INSERT
  8
FeatureAttribs
  2
FEATURE
  41
1
  42
1
  43
1
  50
0
  10
241417.343
  20
4613682.658
 66
1
  0
ATTRIB
  8
FeatureAttribs
 70
0
  1
PNOA-H_AMS_1956-57_33k_ES_PAN_2
  2
NAME
  10
241417.343
  20
4613682.658
 40
34.47022
  0
SEQEND
  0
POLYLINE
  8
Unknown_Area_Type
  70
1
  66
1
  0
VERTEX
  8
Unknown_Area_Type
  10
241298.000
  20
4615827.000
  0
VERTEX
  8
Unknown_Area_Type
  10
242858.000
  20
4615455.500
  0
VERTEX
  8
Unknown_Area_Type
  10
242593.500
  20
4611813.000
  0
VERTEX
  8
Unknown_Area_Type
  10
241708.500
  20
4611418.000
  0
VERTEX
  8
Unknown_Area_Type
  10
241703.500
  20
4611418.500
  0
VERTEX
  8
Unknown_Area_Type
  10
239979.000
  20
4611978.000
  0
VERTEX
  8
Unknown_Area_Type
  10
240241.000
  20
4615602.500
  0
VERTEX
  8
Unknown_Area_Type
  10
241010.000
  20
4615895.500
  0
VERTEX
  8
Unknown_Area_Type
  10
241296.000
  20
4615827.000
  0
VERTEX
  8
Unknown_Area_Type
  10
241298.000
  20
4615827.000
  0
SEQEND
  8
Unknown_Area_Type
  0
INSERT
  8
FeatureAttribs
  2
FEATURE
  41
1
  42
1
  43
1
  50
0
  10
241417.343
  20
4613682.658
 66
1
  0
ATTRIB
  8
FeatureAttribs
 70
0
  1
PNOA-H_AMS_1956-57_33k_ES_PAN_2
  2
NAME
  10
241417.343
  20
4613682.658
 40
34.47022
  0
SEQEND
  0
POLYLINE
  8
Unknown_Area_Type
  70
1
  66
1
  0
VERTEX
  8
Unknown_Area_Type
  10
241298.000
  20
4615827.000
  0
VERTEX
  8
Unknown_Area_Type
  10
241296.000
  20
4615827.000
  0
VERTEX
  8
Unknown_Area_Type
  10
241010.000
  20
4615895.500
  0
VERTEX
  8
Unknown_Area_Type
  10
240241.000
  20
4615602.500
  0
VERTEX
  8
Unknown_Area_Type
  10
239979.000
  20
4611978.000
  0
VERTEX
  8
Unknown_Area_Type
  10
241703.500
  20
4611418.500
  0
VERTEX
  8
Unknown_Area_Type
  10
241708.500
  20
4611418.000
  0
VERTEX
  8
Unknown_Area_Type
  10
242593.500
  20
4611813.000
  0
VERTEX
  8
Unknown_Area_Type
  10
242858.000
  20
4615455.500
  0
VERTEX
  8
Unknown_Area_Type
  10
241298.000
  20
4615827.000
  0
SEQEND
  8
Unknown_Area_Type
  0
INSERT
  8
FeatureAttribs
  2
FEATURE
  41
1
  42
1
  43
1
  50
0
  10
251941.793
  20
4613505.128
 66
1
  0
ATTRIB
  8
FeatureAttribs
 70
0
  1
PNOA-H_AMS_1956-57_33k_ES_PAN_2
  2
NAME
  10
251941.793
  20
4613505.128
 40
34.47022
  0
SEQEND
  0
POLYLINE
  8
Unknown_Area_Type
  70
1
  66
1
  0
VERTEX
  8
Unknown_Area_Type
  10
252567.500
  20
4611336.000
  0
VERTEX
  8
Unknown_Area_Type
  10
252329.000
  20
4611202.500
  0
VERTEX
  8
Unknown_Area_Type
  10
250617.500
  20
4611716.500
  0
VERTEX
  8
Unknown_Area_Type
  10
250598.000
  20
4615398.000
  0
VERTEX
  8
Unknown_Area_Type
  10
252679.500
  20
4615719.000
  0
VERTEX
  8
Unknown_Area_Type
  10
253190.000
  20
4615512.500
  0
VERTEX
  8
Unknown_Area_Type
  10
253274.000
  20
4611730.500
  0
VERTEX
  8
Unknown_Area_Type
  10
252568.500
  20
4611336.000
  0
VERTEX
  8
Unknown_Area_Type
  10
252567.500
  20
4611336.000
  0
SEQEND
  8
Unknown_Area_Type
  0
INSERT
  8
FeatureAttribs
  2
FEATURE
  41
1
  42
1
  43
1
  50
0
  10
251941.793
  20
4613505.128
 66
1
  0
ATTRIB
  8
FeatureAttribs
 70
0
  1
PNOA-H_AMS_1956-57_33k_ES_PAN_2
  2
NAME
  10
251941.793
  20
4613505.128
 40
34.47022
  0
SEQEND
  0
POLYLINE
  8
Unknown_Area_Type
  70
1
  66
1
  0
VERTEX
  8
Unknown_Area_Type
  10
252567.500
  20
4611336.000
  0
VERTEX
  8
Unknown_Area_Type
  10
252568.500
  20
4611336.000
  0
VERTEX
  8
Unknown_Area_Type
  10
253274.000
  20
4611730.500
  0
VERTEX
  8
Unknown_Area_Type
  10
253190.000
  20
4615512.500
  0
VERTEX
  8
Unknown_Area_Type
  10
252679.500
  20
4615719.000
  0
VERTEX
  8
Unknown_Area_Type
  10
250598.000
  20
4615398.000
  0
VERTEX
  8
Unknown_Area_Type
  10
250617.500
  20
4611716.500
  0
VERTEX
  8
Unknown_Area_Type
  10
252329.000
  20
4611202.500
  0
VERTEX
  8
Unknown_Area_Type
  10
252567.500
  20
4611336.000
  0
SEQEND
  8
Unknown_Area_Type
  0
INSERT
  8
FeatureAttribs
  2
FEATURE
  41
1
  42
1
  43
1
  50
0
  10
257207.358
  20
4613589.445
 66
1
  0
ATTRIB
  8
FeatureAttribs
 70
0
  1
PNOA-H_AMS_1956-57_33k_ES_PAN_2
  2
NAME
  10
257207.358
  20
4613589.445
 40
34.47022
  0
SEQEND
  0
POLYLINE
  8
Unknown_Area_Type
  70
1
  66
1
  0
VERTEX
  8
Unknown_Area_Type
  10
257677.000
  20
4615804.500
  0
VERTEX
  8
Unknown_Area_Type
  10
258055.000
  20
4615842.000
  0
VERTEX
  8
Unknown_Area_Type
  10
258418.000
  20
4615676.500
  0
VERTEX
  8
Unknown_Area_Type
  10
258595.000
  20
4611686.000
  0
VERTEX
  8
Unknown_Area_Type
  10
258595.000
  20
4611677.500
  0
VERTEX
  8
Unknown_Area_Type
  10
258593.000
  20
4611676.000
  0
VERTEX
  8
Unknown_Area_Type
  10
257805.000
  20
4611245.500
  0
VERTEX
  8
Unknown_Area_Type
  10
255921.000
  20
4611700.000
  0
VERTEX
  8
Unknown_Area_Type
  10
255911.500
  20
4611702.500
  0
VERTEX
  8
Unknown_Area_Type
  10
255911.000
  20
4611716.000
  0
VERTEX
  8
Unknown_Area_Type
  10
255813.500
  20
4615617.000
  0
VERTEX
  8
Unknown_Area_Type
  10
257672.000
  20
4615804.000
  0
VERTEX
  8
Unknown_Area_Type
  10
257677.000
  20
4615804.500
  0
SEQEND
  8
Unknown_Area_Type
  0
INSERT
  8
FeatureAttribs
  2
FEATURE
  41
1
  42
1
  43
1
  50
0
  10
257207.358
  20
4613589.445
 66
1
  0
ATTRIB
  8
FeatureAttribs
 70
0
  1
PNOA-H_AMS_1956-57_33k_ES_PAN_2
  2
NAME
  10
257207.358
  20
4613589.445
 40
34.47022
  0
SEQEND
  0
POLYLINE
  8
Unknown_Area_Type
  70
1
  66
1
  0
VERTEX
  8
Unknown_Area_Type
  10
257677.000
  20
4615804.500
  0
VERTEX
  8
Unknown_Area_Type
  10
257672.000
  20
4615804.000
  0
VERTEX
  8
Unknown_Area_Type
  10
255813.500
  20
4615617.000
  0
VERTEX
  8
Unknown_Area_Type
  10
255911.000
  20
4611716.000
  0
VERTEX
  8
Unknown_Area_Type
  10
255911.500
  20
4611702.500
  0
VERTEX
  8
Unknown_Area_Type
  10
255921.000
  20
4611700.000
  0
VERTEX
  8
Unknown_Area_Type
  10
257805.000
  20
4611245.500
  0
VERTEX
  8
Unknown_Area_Type
  10
258593.000
  20
4611676.000
  0
VERTEX
  8
Unknown_Area_Type
  10
258595.000
  20
4611677.500
  0
VERTEX
  8
Unknown_Area_Type
  10
258595.000
  20
4611686.000
  0
VERTEX
  8
Unknown_Area_Type
  10
258418.000
  20
4615676.500
  0
VERTEX
  8
Unknown_Area_Type
  10
258055.000
  20
4615842.000
  0
VERTEX
  8
Unknown_Area_Type
  10
257677.000
  20
4615804.500
  0
SEQEND
  8
Unknown_Area_Type
  0
INSERT
  8
FeatureAttribs
  2
FEATURE
  41
1
  42
1
  43
1
  50
0
  10
236218.215
  20
4614006.846
 66
1
  0
ATTRIB
  8
FeatureAttribs
 70
0
  1
PNOA-H_AMS_1956-57_33k_ES_PAN_2
  2
NAME
  10
236218.215
  20
4614006.846
 40
34.47022
  0
SEQEND
  0
POLYLINE
  8
Unknown_Area_Type
  70
1
  66
1
  0
VERTEX
  8
Unknown_Area_Type
  10
235066.500
  20
4615996.000
  0
VERTEX
  8
Unknown_Area_Type
  10
235067.500
  20
4615998.000
  0
VERTEX
  8
Unknown_Area_Type
  10
235070.500
  20
4615999.500
  0
VERTEX
  8
Unknown_Area_Type
  10
235151.500
  20
4616037.000
  0
VERTEX
  8
Unknown_Area_Type
  10
235152.500
  20
4616037.500
  0
VERTEX
  8
Unknown_Area_Type
  10
235408.000
  20
4616156.000
  0
VERTEX
  8
Unknown_Area_Type
  10
235411.500
  20
4616156.500
  0
VERTEX
  8
Unknown_Area_Type
  10
237704.500
  20
4615840.000
  0
VERTEX
  8
Unknown_Area_Type
  10
237371.000
  20
4612126.000
  0
VERTEX
  8
Unknown_Area_Type
  10
236293.000
  20
4611737.500
  0
VERTEX
  8
Unknown_Area_Type
  10
234743.500
  20
4612386.500
  0
VERTEX
  8
Unknown_Area_Type
  10
235066.500
  20
4615996.000
  0
SEQEND
  8
Unknown_Area_Type
  0
INSERT
  8
FeatureAttribs
  2
FEATURE
  41
1
  42
1
  43
1
  50
0
  10
236218.215
  20
4614006.846
 66
1
  0
ATTRIB
  8
FeatureAttribs
 70
0
  1
PNOA-H_AMS_1956-57_33k_ES_PAN_2
  2
NAME
  10
236218.215
  20
4614006.846
 40
34.47022
  0
SEQEND
  0
POLYLINE
  8
Unknown_Area_Type
  70
1
  66
1
  0
VERTEX
  8
Unknown_Area_Type
  10
235066.500
  20
4615996.000
  0
VERTEX
  8
Unknown_Area_Type
  10
234743.500
  20
4612386.500
  0
VERTEX
  8
Unknown_Area_Type
  10
236293.000
  20
4611737.500
  0
VERTEX
  8
Unknown_Area_Type
  10
237371.000
  20
4612126.000
  0
VERTEX
  8
Unknown_Area_Type
  10
237704.500
  20
4615840.000
  0
VERTEX
  8
Unknown_Area_Type
  10
235411.500
  20
4616156.500
  0
VERTEX
  8
Unknown_Area_Type
  10
235408.000
  20
4616156.000
  0
VERTEX
  8
Unknown_Area_Type
  10
235152.500
  20
4616037.500
  0
VERTEX
  8
Unknown_Area_Type
  10
235151.500
  20
4616037.000
  0
VERTEX
  8
Unknown_Area_Type
  10
235070.500
  20
4615999.500
  0
VERTEX
  8
Unknown_Area_Type
  10
235067.500
  20
4615998.000
  0
VERTEX
  8
Unknown_Area_Type
  10
235066.500
  20
4615996.000
  0
SEQEND
  8
Unknown_Area_Type
  0
INSERT
  8
FeatureAttribs
  2
FEATURE
  41
1
  42
1
  43
1
  50
0
  10
244029.103
  20
4613547.710
 66
1
  0
ATTRIB
  8
FeatureAttribs
 70
0
  1
PNOA-H_AMS_1956-57_33k_ES_PAN_2
  2
NAME
  10
244029.103
  20
4613547.710
 40
34.47022
  0
SEQEND
  0
POLYLINE
  8
Unknown_Area_Type
  70
1
  66
1
  0
VERTEX
  8
Unknown_Area_Type
  10
245394.000
  20
4615341.000
  0
VERTEX
  8
Unknown_Area_Type
  10
245430.000
  20
4615331.500
  0
VERTEX
  8
Unknown_Area_Type
  10
245430.500
  20
4615324.500
  0
VERTEX
  8
Unknown_Area_Type
  10
245241.000
  20
4611746.000
  0
VERTEX
  8
Unknown_Area_Type
  10
244332.500
  20
4611301.000
  0
VERTEX
  8
Unknown_Area_Type
  10
244326.000
  20
4611298.000
  0
VERTEX
  8
Unknown_Area_Type
  10
244323.500
  20
4611298.000
  0
VERTEX
  8
Unknown_Area_Type
  10
242593.500
  20
4611813.000
  0
VERTEX
  8
Unknown_Area_Type
  10
242857.500
  20
4615454.000
  0
VERTEX
  8
Unknown_Area_Type
  10
242858.500
  20
4615456.000
  0
VERTEX
  8
Unknown_Area_Type
  10
242868.000
  20
4615459.000
  0
VERTEX
  8
Unknown_Area_Type
  10
243855.500
  20
4615768.000
  0
VERTEX
  8
Unknown_Area_Type
  10
245392.000
  20
4615341.500
  0
VERTEX
  8
Unknown_Area_Type
  10
245394.000
  20
4615341.000
  0
SEQEND
  8
Unknown_Area_Type
  0
INSERT
  8
FeatureAttribs
  2
FEATURE
  41
1
  42
1
  43
1
  50
0
  10
244029.103
  20
4613547.710
 66
1
  0
ATTRIB
  8
FeatureAttribs
 70
0
  1
PNOA-H_AMS_1956-57_33k_ES_PAN_2
  2
NAME
  10
244029.103
  20
4613547.710
 40
34.47022
  0
SEQEND
  0
POLYLINE
  8
Unknown_Area_Type
  70
1
  66
1
  0
VERTEX
  8
Unknown_Area_Type
  10
245394.000
  20
4615341.000
  0
VERTEX
  8
Unknown_Area_Type
  10
245392.000
  20
4615341.500
  0
VERTEX
  8
Unknown_Area_Type
  10
243855.500
  20
4615768.000
  0
VERTEX
  8
Unknown_Area_Type
  10
242868.000
  20
4615459.000
  0
VERTEX
  8
Unknown_Area_Type
  10
242858.500
  20
4615456.000
  0
VERTEX
  8
Unknown_Area_Type
  10
242857.500
  20
4615454.000
  0
VERTEX
  8
Unknown_Area_Type
  10
242593.500
  20
4611813.000
  0
VERTEX
  8
Unknown_Area_Type
  10
244323.500
  20
4611298.000
  0
VERTEX
  8
Unknown_Area_Type
  10
244326.000
  20
4611298.000
  0
VERTEX
  8
Unknown_Area_Type
  10
244332.500
  20
4611301.000
  0
VERTEX
  8
Unknown_Area_Type
  10
245241.000
  20
4611746.000
  0
VERTEX
  8
Unknown_Area_Type
  10
245430.500
  20
4615324.500
  0
VERTEX
  8
Unknown_Area_Type
  10
245430.000
  20
4615331.500
  0
VERTEX
  8
Unknown_Area_Type
  10
245394.000
  20
4615341.000
  0
SEQEND
  8
Unknown_Area_Type
  0
INSERT
  8
FeatureAttribs
  2
FEATURE
  41
1
  42
1
  43
1
  50
0
  10
259834.254
  20
4613608.643
 66
1
  0
ATTRIB
  8
FeatureAttribs
 70
0
  1
PNOA-H_AMS_1956-57_33k_ES_PAN_2
  2
NAME
  10
259834.254
  20
4613608.643
 40
34.47022
  0
SEQEND
  0
POLYLINE
  8
Unknown_Area_Type
  70
1
  66
1
  0
VERTEX
  8
Unknown_Area_Type
  10
260764.500
  20
4615851.000
  0
VERTEX
  8
Unknown_Area_Type
  10
260994.000
  20
4615735.500
  0
VERTEX
  8
Unknown_Area_Type
  10
260995.000
  20
4615732.000
  0
VERTEX
  8
Unknown_Area_Type
  10
261243.000
  20
4611658.500
  0
VERTEX
  8
Unknown_Area_Type
  10
260617.000
  20
4611336.000
  0
VERTEX
  8
Unknown_Area_Type
  10
260616.000
  20
4611336.000
  0
VERTEX
  8
Unknown_Area_Type
  10
260495.500
  20
4611274.000
  0
VERTEX
  8
Unknown_Area_Type
  10
258595.000
  20
4611677.500
  0
VERTEX
  8
Unknown_Area_Type
  10
258418.000
  20
4615676.500
  0
VERTEX
  8
Unknown_Area_Type
  10
260764.500
  20
4615851.000
  0
SEQEND
  8
Unknown_Area_Type
  0
INSERT
  8
FeatureAttribs
  2
FEATURE
  41
1
  42
1
  43
1
  50
0
  10
259834.254
  20
4613608.643
 66
1
  0
ATTRIB
  8
FeatureAttribs
 70
0
  1
PNOA-H_AMS_1956-57_33k_ES_PAN_2
  2
NAME
  10
259834.254
  20
4613608.643
 40
34.47022
  0
SEQEND
  0
POLYLINE
  8
Unknown_Area_Type
  70
1
  66
1
  0
VERTEX
  8
Unknown_Area_Type
  10
260764.500
  20
4615851.000
  0
VERTEX
  8
Unknown_Area_Type
  10
258418.000
  20
4615676.500
  0
VERTEX
  8
Unknown_Area_Type
  10
258595.000
  20
4611677.500
  0
VERTEX
  8
Unknown_Area_Type
  10
260495.500
  20
4611274.000
  0
VERTEX
  8
Unknown_Area_Type
  10
260616.000
  20
4611336.000
  0
VERTEX
  8
Unknown_Area_Type
  10
260617.000
  20
4611336.000
  0
VERTEX
  8
Unknown_Area_Type
  10
261243.000
  20
4611658.500
  0
VERTEX
  8
Unknown_Area_Type
  10
260995.000
  20
4615732.000
  0
VERTEX
  8
Unknown_Area_Type
  10
260994.000
  20
4615735.500
  0
VERTEX
  8
Unknown_Area_Type
  10
260764.500
  20
4615851.000
  0
SEQEND
  8
Unknown_Area_Type
  0
INSERT
  8
FeatureAttribs
  2
FEATURE
  41
1
  42
1
  43
1
  50
0
  10
248519.750
  20
4614215.000
 66
1
  0
ATTRIB
  8
FeatureAttribs
 70
0
  1
PNOA-H_AMS_1956-57_33k_ES_PAN_2
  2
NAME
  10
248519.750
  20
4614215.000
 40
34.47022
  0
SEQEND
  0
POLYLINE
  8
Unknown_Area_Type
  70
1
  66
1
  0
VERTEX
  8
Unknown_Area_Type
  10
248524.000
  20
4614224.000
  0
VERTEX
  8
Unknown_Area_Type
  10
248525.000
  20
4614223.500
  0
VERTEX
  8
Unknown_Area_Type
  10
248529.000
  20
4614219.000
  0
VERTEX
  8
Unknown_Area_Type
  10
248528.500
  20
4614215.000
  0
VERTEX
  8
Unknown_Area_Type
  10
248523.500
  20
4614211.000
  0
VERTEX
  8
Unknown_Area_Type
  10
248521.000
  20
4614207.000
  0
VERTEX
  8
Unknown_Area_Type
  10
248516.000
  20
4614206.000
  0
VERTEX
  8
Unknown_Area_Type
  10
248514.000
  20
4614207.000
  0
VERTEX
  8
Unknown_Area_Type
  10
248511.000
  20
4614211.000
  0
VERTEX
  8
Unknown_Area_Type
  10
248511.000
  20
4614219.000
  0
VERTEX
  8
Unknown_Area_Type
  10
248512.000
  20
4614221.000
  0
VERTEX
  8
Unknown_Area_Type
  10
248516.000
  20
4614224.000
  0
VERTEX
  8
Unknown_Area_Type
  10
248524.000
  20
4614224.000
  0
SEQEND
  8
Unknown_Area_Type
  0
INSERT
  8
FeatureAttribs
  2
FEATURE
  41
1
  42
1
  43
1
  50
0
  10
248519.750
  20
4614215.000
 66
1
  0
ATTRIB
  8
FeatureAttribs
 70
0
  1
PNOA-H_AMS_1956-57_33k_ES_PAN_2
  2
NAME
  10
248519.750
  20
4614215.000
 40
34.47022
  0
SEQEND
  0
POLYLINE
  8
Unknown_Area_Type
  70
1
  66
1
  0
VERTEX
  8
Unknown_Area_Type
  10
248524.000
  20
4614224.000
  0
VERTEX
  8
Unknown_Area_Type
  10
248516.000
  20
4614224.000
  0
VERTEX
  8
Unknown_Area_Type
  10
248512.000
  20
4614221.000
  0
VERTEX
  8
Unknown_Area_Type
  10
248511.000
  20
4614219.000
  0
VERTEX
  8
Unknown_Area_Type
  10
248511.000
  20
4614211.000
  0
VERTEX
  8
Unknown_Area_Type
  10
248514.000
  20
4614207.000
  0
VERTEX
  8
Unknown_Area_Type
  10
248516.000
  20
4614206.000
  0
VERTEX
  8
Unknown_Area_Type
  10
248521.000
  20
4614207.000
  0
VERTEX
  8
Unknown_Area_Type
  10
248523.500
  20
4614211.000
  0
VERTEX
  8
Unknown_Area_Type
  10
248528.500
  20
4614215.000
  0
VERTEX
  8
Unknown_Area_Type
  10
248529.000
  20
4614219.000
  0
VERTEX
  8
Unknown_Area_Type
  10
248525.000
  20
4614223.500
  0
VERTEX
  8
Unknown_Area_Type
  10
248524.000
  20
4614224.000
  0
SEQEND
  8
Unknown_Area_Type
  0
INSERT
  8
FeatureAttribs
  2
FEATURE
  41
1
  42
1
  43
1
  50
0
  10
249309.855
  20
4613481.471
 66
1
  0
ATTRIB
  8
FeatureAttribs
 70
0
  1
PNOA-H_AMS_1956-57_33k_ES_PAN_2
  2
NAME
  10
249309.855
  20
4613481.471
 40
34.47022
  0
SEQEND
  0
POLYLINE
  8
Unknown_Area_Type
  70
1
  66
1
  0
VERTEX
  8
Unknown_Area_Type
  10
249489.000
  20
4615647.500
  0
VERTEX
  8
Unknown_Area_Type
  10
249767.500
  20
4615708.000
  0
VERTEX
  8
Unknown_Area_Type
  10
250596.000
  20
4615399.000
  0
VERTEX
  8
Unknown_Area_Type
  10
250598.000
  20
4615398.000
  0
VERTEX
  8
Unknown_Area_Type
  10
250598.500
  20
4615391.500
  0
VERTEX
  8
Unknown_Area_Type
  10
250617.500
  20
4611716.500
  0
VERTEX
  8
Unknown_Area_Type
  10
249651.000
  20
4611201.500
  0
VERTEX
  8
Unknown_Area_Type
  10
247952.500
  20
4611710.000
  0
VERTEX
  8
Unknown_Area_Type
  10
248000.500
  20
4615323.500
  0
VERTEX
  8
Unknown_Area_Type
  10
249486.500
  20
4615647.000
  0
VERTEX
  8
Unknown_Area_Type
  10
249489.000
  20
4615647.500
  0
SEQEND
  8
Unknown_Area_Type
  0
INSERT
  8
FeatureAttribs
  2
FEATURE
  41
1
  42
1
  43
1
  50
0
  10
249309.855
  20
4613481.471
 66
1
  0
ATTRIB
  8
FeatureAttribs
 70
0
  1
PNOA-H_AMS_1956-57_33k_ES_PAN_2
  2
NAME
  10
249309.855
  20
4613481.471
 40
34.47022
  0
SEQEND
  0
POLYLINE
  8
Unknown_Area_Type
  70
1
  66
1
  0
VERTEX
  8
Unknown_Area_Type
  10
249489.000
  20
4615647.500
  0
VERTEX
  8
Unknown_Area_Type
  10
249486.500
  20
4615647.000
  0
VERTEX
  8
Unknown_Area_Type
  10
248000.500
  20
4615323.500
  0
VERTEX
  8
Unknown_Area_Type
  10
247952.500
  20
4611710.000
  0
VERTEX
  8
Unknown_Area_Type
  10
249651.000
  20
4611201.500
  0
VERTEX
  8
Unknown_Area_Type
  10
250617.500
  20
4611716.500
  0
VERTEX
  8
Unknown_Area_Type
  10
250598.500
  20
4615391.500
  0
VERTEX
  8
Unknown_Area_Type
  10
250598.000
  20
4615398.000
  0
VERTEX
  8
Unknown_Area_Type
  10
250596.000
  20
4615399.000
  0
VERTEX
  8
Unknown_Area_Type
  10
249767.500
  20
4615708.000
  0
VERTEX
  8
Unknown_Area_Type
  10
249489.000
  20
4615647.500
  0
SEQEND
  8
Unknown_Area_Type
  0
INSERT
  8
FeatureAttribs
  2
FEATURE
  41
1
  42
1
  43
1
  50
0
  10
248519.750
  20
4614215.000
 66
1
  0
ATTRIB
  8
FeatureAttribs
 70
0
  1
PNOA-H_AMS_1956-57_33k_ES_PAN_2
  2
NAME
  10
248519.750
  20
4614215.000
 40
34.47022
  0
SEQEND
  0
POLYLINE
  8
Unknown_Area_Type
  70
1
  66
1
  0
VERTEX
  8
Unknown_Area_Type
  10
248516.000
  20
4614224.000
  0
VERTEX
  8
Unknown_Area_Type
  10
248524.000
  20
4614224.000
  0
VERTEX
  8
Unknown_Area_Type
  10
248529.000
  20
4614219.000
  0
VERTEX
  8
Unknown_Area_Type
  10
248528.500
  20
4614215.000
  0
VERTEX
  8
Unknown_Area_Type
  10
248523.500
  20
4614211.000
  0
VERTEX
  8
Unknown_Area_Type
  10
248521.000
  20
4614207.000
  0
VERTEX
  8
Unknown_Area_Type
  10
248516.000
  20
4614206.000
  0
VERTEX
  8
Unknown_Area_Type
  10
248511.000
  20
4614211.000
  0
VERTEX
  8
Unknown_Area_Type
  10
248511.000
  20
4614219.000
  0
VERTEX
  8
Unknown_Area_Type
  10
248515.000
  20
4614223.500
  0
VERTEX
  8
Unknown_Area_Type
  10
248516.000
  20
4614224.000
  0
SEQEND
  8
Unknown_Area_Type
  0
INSERT
  8
FeatureAttribs
  2
FEATURE
  41
1
  42
1
  43
1
  50
0
  10
248519.750
  20
4614215.000
 66
1
  0
ATTRIB
  8
FeatureAttribs
 70
0
  1
PNOA-H_AMS_1956-57_33k_ES_PAN_2
  2
NAME
  10
248519.750
  20
4614215.000
 40
34.47022
  0
SEQEND
  0
POLYLINE
  8
Unknown_Area_Type
  70
1
  66
1
  0
VERTEX
  8
Unknown_Area_Type
  10
248516.000
  20
4614224.000
  0
VERTEX
  8
Unknown_Area_Type
  10
248515.000
  20
4614223.500
  0
VERTEX
  8
Unknown_Area_Type
  10
248511.000
  20
4614219.000
  0
VERTEX
  8
Unknown_Area_Type
  10
248511.000
  20
4614211.000
  0
VERTEX
  8
Unknown_Area_Type
  10
248516.000
  20
4614206.000
  0
VERTEX
  8
Unknown_Area_Type
  10
248521.000
  20
4614207.000
  0
VERTEX
  8
Unknown_Area_Type
  10
248523.500
  20
4614211.000
  0
VERTEX
  8
Unknown_Area_Type
  10
248528.500
  20
4614215.000
  0
VERTEX
  8
Unknown_Area_Type
  10
248529.000
  20
4614219.000
  0
VERTEX
  8
Unknown_Area_Type
  10
248524.000
  20
4614224.000
  0
VERTEX
  8
Unknown_Area_Type
  10
248516.000
  20
4614224.000
  0
SEQEND
  8
Unknown_Area_Type
  0
INSERT
  8
FeatureAttribs
  2
FEATURE
  41
1
  42
1
  43
1
  50
0
  10
246665.726
  20
4613471.719
 66
1
  0
ATTRIB
  8
FeatureAttribs
 70
0
  1
PNOA-H_AMS_1956-57_33k_ES_PAN_2
  2
NAME
  10
246665.726
  20
4613471.719
 40
34.47022
  0
SEQEND
  0
POLYLINE
  8
Unknown_Area_Type
  70
1
  66
1
  0
VERTEX
  8
Unknown_Area_Type
  10
245393.500
  20
4614635.500
  0
VERTEX
  8
Unknown_Area_Type
  10
245430.500
  20
4615331.000
  0
VERTEX
  8
Unknown_Area_Type
  10
246788.500
  20
4615716.500
  0
VERTEX
  8
Unknown_Area_Type
  10
246792.000
  20
4615716.500
  0
VERTEX
  8
Unknown_Area_Type
  10
246804.500
  20
4615712.500
  0
VERTEX
  8
Unknown_Area_Type
  10
248000.500
  20
4615323.500
  0
VERTEX
  8
Unknown_Area_Type
  10
247952.500
  20
4611709.500
  0
VERTEX
  8
Unknown_Area_Type
  10
246981.500
  20
4611196.000
  0
VERTEX
  8
Unknown_Area_Type
  10
245241.000
  20
4611746.000
  0
VERTEX
  8
Unknown_Area_Type
  10
245393.500
  20
4614626.000
  0
VERTEX
  8
Unknown_Area_Type
  10
245393.500
  20
4614635.500
  0
SEQEND
  8
Unknown_Area_Type
  0
INSERT
  8
FeatureAttribs
  2
FEATURE
  41
1
  42
1
  43
1
  50
0
  10
246665.726
  20
4613471.719
 66
1
  0
ATTRIB
  8
FeatureAttribs
 70
0
  1
PNOA-H_AMS_1956-57_33k_ES_PAN_2
  2
NAME
  10
246665.726
  20
4613471.719
 40
34.47022
  0
SEQEND
  0
POLYLINE
  8
Unknown_Area_Type
  70
1
  66
1
  0
VERTEX
  8
Unknown_Area_Type
  10
245393.500
  20
4614635.500
  0
VERTEX
  8
Unknown_Area_Type
  10
245393.500
  20
4614626.000
  0
VERTEX
  8
Unknown_Area_Type
  10
245241.000
  20
4611746.000
  0
VERTEX
  8
Unknown_Area_Type
  10
246981.500
  20
4611196.000
  0
VERTEX
  8
Unknown_Area_Type
  10
247952.500
  20
4611709.500
  0
VERTEX
  8
Unknown_Area_Type
  10
248000.500
  20
4615323.500
  0
VERTEX
  8
Unknown_Area_Type
  10
246804.500
  20
4615712.500
  0
VERTEX
  8
Unknown_Area_Type
  10
246792.000
  20
4615716.500
  0
VERTEX
  8
Unknown_Area_Type
  10
246788.500
  20
4615716.500
  0
VERTEX
  8
Unknown_Area_Type
  10
245430.500
  20
4615331.000
  0
VERTEX
  8
Unknown_Area_Type
  10
245393.500
  20
4614635.500
  0
SEQEND
  8
Unknown_Area_Type
  0
INSERT
  8
FeatureAttribs
  2
FEATURE
  41
1
  42
1
  43
1
  50
0
  10
261959.983
  20
4601792.706
 66
1
  0
ATTRIB
  8
FeatureAttribs
 70
0
  1
PNOA-H_AMS_1956-57_33k_ES_PAN_2
  2
NAME
  10
261959.983
  20
4601792.706
 40
34.47022
  0
SEQEND
  0
POLYLINE
  8
Unknown_Area_Type
  70
1
  66
1
  0
VERTEX
  8
Unknown_Area_Type
  10
261969.973
  20
4604212.485
  0
VERTEX
  8
Unknown_Area_Type
  10
262180.000
  20
4604245.879
  0
VERTEX
  8
Unknown_Area_Type
  10
262180.000
  20
4602720.000
  0
VERTEX
  8
Unknown_Area_Type
  10
262030.000
  20
4602720.000
  0
VERTEX
  8
Unknown_Area_Type
  10
262030.000
  20
4599385.167
  0
VERTEX
  8
Unknown_Area_Type
  10
261808.889
  20
4599339.532
  0
VERTEX
  8
Unknown_Area_Type
  10
261847.596
  20
4600510.964
  0
VERTEX
  8
Unknown_Area_Type
  10
261924.064
  20
4602824.227
  0
VERTEX
  8
Unknown_Area_Type
  10
261969.973
  20
4604212.485
  0
SEQEND
  8
Unknown_Area_Type
  0
INSERT
  8
FeatureAttribs
  2
FEATURE
  41
1
  42
1
  43
1
  50
0
  10
261244.986
  20
4601817.957
 66
1
  0
ATTRIB
  8
FeatureAttribs
 70
0
  1
PNOA-H_AMS_1956-57_33k_ES_PAN_2
  2
NAME
  10
261244.986
  20
4601817.957
 40
34.47022
  0
SEQEND
  0
POLYLINE
  8
Unknown_Area_Type
  70
1
  66
1
  0
VERTEX
  8
Unknown_Area_Type
  10
261969.973
  20
4604212.485
  0
VERTEX
  8
Unknown_Area_Type
  10
261924.064
  20
4602824.227
  0
VERTEX
  8
Unknown_Area_Type
  10
261847.596
  20
4600510.964
  0
VERTEX
  8
Unknown_Area_Type
  10
261808.889
  20
4599339.532
  0
VERTEX
  8
Unknown_Area_Type
  10
261644.000
  20
4599305.500
  0
VERTEX
  8
Unknown_Area_Type
  10
261640.500
  20
4599306.000
  0
VERTEX
  8
Unknown_Area_Type
  10
260512.000
  20
4599782.000
  0
VERTEX
  8
Unknown_Area_Type
  10
260621.000
  20
4603998.000
  0
VERTEX
  8
Unknown_Area_Type
  10
261969.973
  20
4604212.485
  0
SEQEND
  8
Unknown_Area_Type
  0
INSERT
  8
FeatureAttribs
  2
FEATURE
  41
1
  42
1
  43
1
  50
0
  10
261244.986
  20
4601817.957
 66
1
  0
ATTRIB
  8
FeatureAttribs
 70
0
  1
PNOA-H_AMS_1956-57_33k_ES_PAN_2
  2
NAME
  10
261244.986
  20
4601817.957
 40
34.47022
  0
SEQEND
  0
POLYLINE
  8
Unknown_Area_Type
  70
1
  66
1
  0
VERTEX
  8
Unknown_Area_Type
  10
261969.973
  20
4604212.485
  0
VERTEX
  8
Unknown_Area_Type
  10
260621.000
  20
4603998.000
  0
VERTEX
  8
Unknown_Area_Type
  10
260512.000
  20
4599782.000
  0
VERTEX
  8
Unknown_Area_Type
  10
261640.500
  20
4599306.000
  0
VERTEX
  8
Unknown_Area_Type
  10
261644.000
  20
4599305.500
  0
VERTEX
  8
Unknown_Area_Type
  10
261808.889
  20
4599339.532
  0
VERTEX
  8
Unknown_Area_Type
  10
261847.596
  20
4600510.964
  0
VERTEX
  8
Unknown_Area_Type
  10
261924.064
  20
4602824.227
  0
VERTEX
  8
Unknown_Area_Type
  10
261969.973
  20
4604212.485
  0
SEQEND
  8
Unknown_Area_Type
  0
INSERT
  8
FeatureAttribs
  2
FEATURE
  41
1
  42
1
  43
1
  50
0
  10
254571.216
  20
4613561.247
 66
1
  0
ATTRIB
  8
FeatureAttribs
 70
0
  1
PNOA-H_AMS_1956-57_33k_ES_PAN_2
  2
NAME
  10
254571.216
  20
4613561.247
 40
34.47022
  0
SEQEND
  0
POLYLINE
  8
Unknown_Area_Type
  70
1
  66
1
  0
VERTEX
  8
Unknown_Area_Type
  10
253583.000
  20
4615556.500
  0
VERTEX
  8
Unknown_Area_Type
  10
255447.000
  20
4615765.000
  0
VERTEX
  8
Unknown_Area_Type
  10
255455.000
  20
4615764.000
  0
VERTEX
  8
Unknown_Area_Type
  10
255813.500
  20
4615617.000
  0
VERTEX
  8
Unknown_Area_Type
  10
255911.500
  20
4611702.500
  0
VERTEX
  8
Unknown_Area_Type
  10
255078.500
  20
4611244.000
  0
VERTEX
  8
Unknown_Area_Type
  10
253274.000
  20
4611730.500
  0
VERTEX
  8
Unknown_Area_Type
  10
253190.000
  20
4615512.500
  0
VERTEX
  8
Unknown_Area_Type
  10
253579.000
  20
4615556.000
  0
VERTEX
  8
Unknown_Area_Type
  10
253583.000
  20
4615556.500
  0
SEQEND
  8
Unknown_Area_Type
  0
INSERT
  8
FeatureAttribs
  2
FEATURE
  41
1
  42
1
  43
1
  50
0
  10
254571.216
  20
4613561.247
 66
1
  0
ATTRIB
  8
FeatureAttribs
 70
0
  1
PNOA-H_AMS_1956-57_33k_ES_PAN_2
  2
NAME
  10
254571.216
  20
4613561.247
 40
34.47022
  0
SEQEND
  0
POLYLINE
  8
Unknown_Area_Type
  70
1
  66
1
  0
VERTEX
  8
Unknown_Area_Type
  10
253583.000
  20
4615556.500
  0
VERTEX
  8
Unknown_Area_Type
  10
253579.000
  20
4615556.000
  0
VERTEX
  8
Unknown_Area_Type
  10
253190.000
  20
4615512.500
  0
VERTEX
  8
Unknown_Area_Type
  10
253274.000
  20
4611730.500
  0
VERTEX
  8
Unknown_Area_Type
  10
255078.500
  20
4611244.000
  0
VERTEX
  8
Unknown_Area_Type
  10
255911.500
  20
4611702.500
  0
VERTEX
  8
Unknown_Area_Type
  10
255813.500
  20
4615617.000
  0
VERTEX
  8
Unknown_Area_Type
  10
255455.000
  20
4615764.000
  0
VERTEX
  8
Unknown_Area_Type
  10
255447.000
  20
4615765.000
  0
VERTEX
  8
Unknown_Area_Type
  10
253583.000
  20
4615556.500
  0
SEQEND
  8
Unknown_Area_Type
  0
INSERT
  8
FeatureAttribs
  2
FEATURE
  41
1
  42
1
  43
1
  50
0
  10
262332.527
  20
4613624.483
 66
1
  0
ATTRIB
  8
FeatureAttribs
 70
0
  1
PNOA-H_AMS_1956-57_33k_ES_PAN_2
  2
NAME
  10
262332.527
  20
4613624.483
 40
34.47022
  0
SEQEND
  0
POLYLINE
  8
Unknown_Area_Type
  70
1
  66
1
  0
VERTEX
  8
Unknown_Area_Type
  10
262383.559
  20
4615772.879
  0
VERTEX
  8
Unknown_Area_Type
  10
262383.559
  20
4611970.000
  0
VERTEX
  8
Unknown_Area_Type
  10
262340.000
  20
4611970.000
  0
VERTEX
  8
Unknown_Area_Type
  10
262340.000
  20
4611476.087
  0
VERTEX
  8
Unknown_Area_Type
  10
262211.051
  20
4611497.529
  0
VERTEX
  8
Unknown_Area_Type
  10
262230.249
  20
4612077.342
  0
VERTEX
  8
Unknown_Area_Type
  10
262306.874
  20
4614390.636
  0
VERTEX
  8
Unknown_Area_Type
  10
262352.650
  20
4615772.036
  0
VERTEX
  8
Unknown_Area_Type
  10
262383.559
  20
4615772.879
  0
SEQEND
  8
Unknown_Area_Type
  0
INSERT
  8
FeatureAttribs
  2
FEATURE
  41
1
  42
1
  43
1
  50
0
  10
261703.873
  20
4613783.039
 66
1
  0
ATTRIB
  8
FeatureAttribs
 70
0
  1
PNOA-H_AMS_1956-57_33k_ES_PAN_2
  2
NAME
  10
261703.873
  20
4613783.039
 40
34.47022
  0
SEQEND
  0
POLYLINE
  8
Unknown_Area_Type
  70
1
  66
1
  0
VERTEX
  8
Unknown_Area_Type
  10
262352.650
  20
4615772.036
  0
VERTEX
  8
Unknown_Area_Type
  10
262306.874
  20
4614390.636
  0
VERTEX
  8
Unknown_Area_Type
  10
262230.249
  20
4612077.342
  0
VERTEX
  8
Unknown_Area_Type
  10
262211.051
  20
4611497.529
  0
VERTEX
  8
Unknown_Area_Type
  10
261243.000
  20
4611658.500
  0
VERTEX
  8
Unknown_Area_Type
  10
260994.500
  20
4615735.000
  0
VERTEX
  8
Unknown_Area_Type
  10
262352.650
  20
4615772.036
  0
SEQEND
  8
Unknown_Area_Type
  0
INSERT
  8
FeatureAttribs
  2
FEATURE
  41
1
  42
1
  43
1
  50
0
  10
261703.873
  20
4613783.039
 66
1
  0
ATTRIB
  8
FeatureAttribs
 70
0
  1
PNOA-H_AMS_1956-57_33k_ES_PAN_2
  2
NAME
  10
261703.873
  20
4613783.039
 40
34.47022
  0
SEQEND
  0
POLYLINE
  8
Unknown_Area_Type
  70
1
  66
1
  0
VERTEX
  8
Unknown_Area_Type
  10
262352.650
  20
4615772.036
  0
VERTEX
  8
Unknown_Area_Type
  10
260994.500
  20
4615735.000
  0
VERTEX
  8
Unknown_Area_Type
  10
261243.000
  20
4611658.500
  0
VERTEX
  8
Unknown_Area_Type
  10
262211.051
  20
4611497.529
  0
VERTEX
  8
Unknown_Area_Type
  10
262230.249
  20
4612077.342
  0
VERTEX
  8
Unknown_Area_Type
  10
262306.874
  20
4614390.636
  0
VERTEX
  8
Unknown_Area_Type
  10
262352.650
  20
4615772.036
  0
SEQEND
  8
Unknown_Area_Type
  0
INSERT
  8
FeatureAttribs
  2
FEATURE
  41
1
  42
1
  43
1
  50
0
  10
234074.639
  20
4606168.283
 66
1
  0
ATTRIB
  8
FeatureAttribs
 70
0
  1
PNOA-H_AMS_1956-57_33k_ES_PAN_2
  2
NAME
  10
234074.639
  20
4606168.283
 40
34.47022
  0
SEQEND
  0
POLYLINE
  8
Unknown_Area_Type
  70
1
  66
1
  0
VERTEX
  8
Unknown_Area_Type
  10
234130.164
  20
4604173.715
  0
VERTEX
  8
Unknown_Area_Type
  10
233945.434
  20
4604165.543
  0
VERTEX
  8
Unknown_Area_Type
  10
233945.434
  20
4608171.023
  0
VERTEX
  8
Unknown_Area_Type
  10
234273.392
  20
4608050.301
  0
VERTEX
  8
Unknown_Area_Type
  10
234201.718
  20
4606110.774
  0
VERTEX
  8
Unknown_Area_Type
  10
234130.164
  20
4604173.715
  0
SEQEND
  8
Unknown_Area_Type
  0
INSERT
  8
FeatureAttribs
  2
FEATURE
  41
1
  42
1
  43
1
  50
0
  10
234404.303
  20
4605853.393
 66
1
  0
ATTRIB
  8
FeatureAttribs
 70
0
  1
PNOA-H_AMS_1956-57_33k_ES_PAN_2
  2
NAME
  10
234404.303
  20
4605853.393
 40
34.47022
  0
SEQEND
  0
POLYLINE
  8
Unknown_Area_Type
  70
1
  66
1
  0
VERTEX
  8
Unknown_Area_Type
  10
234273.392
  20
4608050.301
  0
VERTEX
  8
Unknown_Area_Type
  10
234525.500
  20
4607957.500
  0
VERTEX
  8
Unknown_Area_Type
  10
234690.500
  20
4604198.500
  0
VERTEX
  8
Unknown_Area_Type
  10
234130.164
  20
4604173.715
  0
VERTEX
  8
Unknown_Area_Type
  10
234201.718
  20
4606110.774
  0
VERTEX
  8
Unknown_Area_Type
  10
234273.392
  20
4608050.301
  0
SEQEND
  8
Unknown_Area_Type
  0
INSERT
  8
FeatureAttribs
  2
FEATURE
  41
1
  42
1
  43
1
  50
0
  10
234404.303
  20
4605853.393
 66
1
  0
ATTRIB
  8
FeatureAttribs
 70
0
  1
PNOA-H_AMS_1956-57_33k_ES_PAN_2
  2
NAME
  10
234404.303
  20
4605853.393
 40
34.47022
  0
SEQEND
  0
POLYLINE
  8
Unknown_Area_Type
  70
1
  66
1
  0
VERTEX
  8
Unknown_Area_Type
  10
234273.392
  20
4608050.301
  0
VERTEX
  8
Unknown_Area_Type
  10
234201.718
  20
4606110.774
  0
VERTEX
  8
Unknown_Area_Type
  10
234130.164
  20
4604173.715
  0
VERTEX
  8
Unknown_Area_Type
  10
234690.500
  20
4604198.500
  0
VERTEX
  8
Unknown_Area_Type
  10
234525.500
  20
4607957.500
  0
VERTEX
  8
Unknown_Area_Type
  10
234273.392
  20
4608050.301
  0
SEQEND
  8
Unknown_Area_Type
  0
INSERT
  8
FeatureAttribs
  2
FEATURE
  41
1
  42
1
  43
1
  50
0
  10
247218.457
  20
4606231.005
 66
1
  0
ATTRIB
  8
FeatureAttribs
 70
0
  1
PNOA-H_AMS_1956-57_33k_ES_PAN_2
  2
NAME
  10
247218.457
  20
4606231.005
 40
34.47022
  0
SEQEND
  0
POLYLINE
  8
Unknown_Area_Type
  70
1
  66
1
  0
VERTEX
  8
Unknown_Area_Type
  10
247442.000
  20
4608299.500
  0
VERTEX
  8
Unknown_Area_Type
  10
248607.000
  20
4607912.000
  0
VERTEX
  8
Unknown_Area_Type
  10
248656.500
  20
4604395.000
  0
VERTEX
  8
Unknown_Area_Type
  10
246183.500
  20
4604185.000
  0
VERTEX
  8
Unknown_Area_Type
  10
245839.000
  20
4604388.000
  0
VERTEX
  8
Unknown_Area_Type
  10
245830.000
  20
4607895.000
  0
VERTEX
  8
Unknown_Area_Type
  10
246991.000
  20
4608449.500
  0
VERTEX
  8
Unknown_Area_Type
  10
246993.500
  20
4608449.500
  0
VERTEX
  8
Unknown_Area_Type
  10
247440.500
  20
4608300.000
  0
VERTEX
  8
Unknown_Area_Type
  10
247442.000
  20
4608299.500
  0
SEQEND
  8
Unknown_Area_Type
  0
INSERT
  8
FeatureAttribs
  2
FEATURE
  41
1
  42
1
  43
1
  50
0
  10
247218.457
  20
4606231.005
 66
1
  0
ATTRIB
  8
FeatureAttribs
 70
0
  1
PNOA-H_AMS_1956-57_33k_ES_PAN_2
  2
NAME
  10
247218.457
  20
4606231.005
 40
34.47022
  0
SEQEND
  0
POLYLINE
  8
Unknown_Area_Type
  70
1
  66
1
  0
VERTEX
  8
Unknown_Area_Type
  10
247442.000
  20
4608299.500
  0
VERTEX
  8
Unknown_Area_Type
  10
247440.500
  20
4608300.000
  0
VERTEX
  8
Unknown_Area_Type
  10
246993.500
  20
4608449.500
  0
VERTEX
  8
Unknown_Area_Type
  10
246991.000
  20
4608449.500
  0
VERTEX
  8
Unknown_Area_Type
  10
245830.000
  20
4607895.000
  0
VERTEX
  8
Unknown_Area_Type
  10
245839.000
  20
4604388.000
  0
VERTEX
  8
Unknown_Area_Type
  10
246183.500
  20
4604185.000
  0
VERTEX
  8
Unknown_Area_Type
  10
248656.500
  20
4604395.000
  0
VERTEX
  8
Unknown_Area_Type
  10
248607.000
  20
4607912.000
  0
VERTEX
  8
Unknown_Area_Type
  10
247442.000
  20
4608299.500
  0
SEQEND
  8
Unknown_Area_Type
  0
INSERT
  8
FeatureAttribs
  2
FEATURE
  41
1
  42
1
  43
1
  50
0
  10
239970.487
  20
4605332.440
 66
1
  0
ATTRIB
  8
FeatureAttribs
 70
0
  1
PNOA-H_AMS_1956-57_33k_ES_PAN_2
  2
NAME
  10
239970.487
  20
4605332.440
 40
34.47022
  0
SEQEND
  0
POLYLINE
  8
Unknown_Area_Type
  70
1
  66
1
  0
VERTEX
  8
Unknown_Area_Type
  10
239970.000
  20
4605339.000
  0
VERTEX
  8
Unknown_Area_Type
  10
239975.000
  20
4605335.000
  0
VERTEX
  8
Unknown_Area_Type
  10
239975.000
  20
4605330.000
  0
VERTEX
  8
Unknown_Area_Type
  10
239970.500
  20
4605326.000
  0
VERTEX
  8
Unknown_Area_Type
  10
239966.000
  20
4605330.000
  0
VERTEX
  8
Unknown_Area_Type
  10
239966.000
  20
4605335.000
  0
VERTEX
  8
Unknown_Area_Type
  10
239969.500
  20
4605338.000
  0
VERTEX
  8
Unknown_Area_Type
  10
239970.000
  20
4605339.000
  0
SEQEND
  8
Unknown_Area_Type
  0
INSERT
  8
FeatureAttribs
  2
FEATURE
  41
1
  42
1
  43
1
  50
0
  10
239970.487
  20
4605332.440
 66
1
  0
ATTRIB
  8
FeatureAttribs
 70
0
  1
PNOA-H_AMS_1956-57_33k_ES_PAN_2
  2
NAME
  10
239970.487
  20
4605332.440
 40
34.47022
  0
SEQEND
  0
POLYLINE
  8
Unknown_Area_Type
  70
1
  66
1
  0
VERTEX
  8
Unknown_Area_Type
  10
239970.000
  20
4605339.000
  0
VERTEX
  8
Unknown_Area_Type
  10
239969.500
  20
4605338.000
  0
VERTEX
  8
Unknown_Area_Type
  10
239966.000
  20
4605335.000
  0
VERTEX
  8
Unknown_Area_Type
  10
239966.000
  20
4605330.000
  0
VERTEX
  8
Unknown_Area_Type
  10
239970.500
  20
4605326.000
  0
VERTEX
  8
Unknown_Area_Type
  10
239975.000
  20
4605330.000
  0
VERTEX
  8
Unknown_Area_Type
  10
239975.000
  20
4605335.000
  0
VERTEX
  8
Unknown_Area_Type
  10
239970.000
  20
4605339.000
  0
SEQEND
  8
Unknown_Area_Type
  0
INSERT
  8
FeatureAttribs
  2
FEATURE
  41
1
  42
1
  43
1
  50
0
  10
241651.759
  20
4606158.446
 66
1
  0
ATTRIB
  8
FeatureAttribs
 70
0
  1
PNOA-H_AMS_1956-57_33k_ES_PAN_2
  2
NAME
  10
241651.759
  20
4606158.446
 40
34.47022
  0
SEQEND
  0
POLYLINE
  8
Unknown_Area_Type
  70
1
  66
1
  0
VERTEX
  8
Unknown_Area_Type
  10
241592.500
  20
4608375.500
  0
VERTEX
  8
Unknown_Area_Type
  10
242943.500
  20
4607859.000
  0
VERTEX
  8
Unknown_Area_Type
  10
243168.500
  20
4604326.500
  0
VERTEX
  8
Unknown_Area_Type
  10
243169.000
  20
4604318.000
  0
VERTEX
  8
Unknown_Area_Type
  10
243168.000
  20
4604317.500
  0
VERTEX
  8
Unknown_Area_Type
  10
240437.500
  20
4604131.000
  0
VERTEX
  8
Unknown_Area_Type
  10
240429.500
  20
4604131.000
  0
VERTEX
  8
Unknown_Area_Type
  10
240329.000
  20
4604197.500
  0
VERTEX
  8
Unknown_Area_Type
  10
240230.500
  20
4607884.500
  0
VERTEX
  8
Unknown_Area_Type
  10
241591.000
  20
4608375.000
  0
VERTEX
  8
Unknown_Area_Type
  10
241592.500
  20
4608375.500
  0
SEQEND
  8
Unknown_Area_Type
  0
INSERT
  8
FeatureAttribs
  2
FEATURE
  41
1
  42
1
  43
1
  50
0
  10
241651.759
  20
4606158.446
 66
1
  0
ATTRIB
  8
FeatureAttribs
 70
0
  1
PNOA-H_AMS_1956-57_33k_ES_PAN_2
  2
NAME
  10
241651.759
  20
4606158.446
 40
34.47022
  0
SEQEND
  0
POLYLINE
  8
Unknown_Area_Type
  70
1
  66
1
  0
VERTEX
  8
Unknown_Area_Type
  10
241592.500
  20
4608375.500
  0
VERTEX
  8
Unknown_Area_Type
  10
241591.000
  20
4608375.000
  0
VERTEX
  8
Unknown_Area_Type
  10
240230.500
  20
4607884.500
  0
VERTEX
  8
Unknown_Area_Type
  10
240329.000
  20
4604197.500
  0
VERTEX
  8
Unknown_Area_Type
  10
240429.500
  20
4604131.000
  0
VERTEX
  8
Unknown_Area_Type
  10
240437.500
  20
4604131.000
  0
VERTEX
  8
Unknown_Area_Type
  10
243168.000
  20
4604317.500
  0
VERTEX
  8
Unknown_Area_Type
  10
243169.000
  20
4604318.000
  0
VERTEX
  8
Unknown_Area_Type
  10
243168.500
  20
4604326.500
  0
VERTEX
  8
Unknown_Area_Type
  10
242943.500
  20
4607859.000
  0
VERTEX
  8
Unknown_Area_Type
  10
241592.500
  20
4608375.500
  0
SEQEND
  8
Unknown_Area_Type
  0
INSERT
  8
FeatureAttribs
  2
FEATURE
  41
1
  42
1
  43
1
  50
0
  10
244432.886
  20
4606270.380
 66
1
  0
ATTRIB
  8
FeatureAttribs
 70
0
  1
PNOA-H_AMS_1956-57_33k_ES_PAN_2
  2
NAME
  10
244432.886
  20
4606270.380
 40
34.47022
  0
SEQEND
  0
POLYLINE
  8
Unknown_Area_Type
  70
1
  66
1
  0
VERTEX
  8
Unknown_Area_Type
  10
243345.000
  20
4608031.500
  0
VERTEX
  8
Unknown_Area_Type
  10
244291.000
  20
4608437.500
  0
VERTEX
  8
Unknown_Area_Type
  10
244295.500
  20
4608438.500
  0
VERTEX
  8
Unknown_Area_Type
  10
245830.000
  20
4607895.000
  0
VERTEX
  8
Unknown_Area_Type
  10
245839.000
  20
4604388.000
  0
VERTEX
  8
Unknown_Area_Type
  10
243272.500
  20
4604260.000
  0
VERTEX
  8
Unknown_Area_Type
  10
243267.500
  20
4604260.500
  0
VERTEX
  8
Unknown_Area_Type
  10
243169.000
  20
4604317.500
  0
VERTEX
  8
Unknown_Area_Type
  10
242943.500
  20
4607859.000
  0
VERTEX
  8
Unknown_Area_Type
  10
243343.500
  20
4608031.000
  0
VERTEX
  8
Unknown_Area_Type
  10
243345.000
  20
4608031.500
  0
SEQEND
  8
Unknown_Area_Type
  0
INSERT
  8
FeatureAttribs
  2
FEATURE
  41
1
  42
1
  43
1
  50
0
  10
244432.886
  20
4606270.380
 66
1
  0
ATTRIB
  8
FeatureAttribs
 70
0
  1
PNOA-H_AMS_1956-57_33k_ES_PAN_2
  2
NAME
  10
244432.886
  20
4606270.380
 40
34.47022
  0
SEQEND
  0
POLYLINE
  8
Unknown_Area_Type
  70
1
  66
1
  0
VERTEX
  8
Unknown_Area_Type
  10
243345.000
  20
4608031.500
  0
VERTEX
  8
Unknown_Area_Type
  10
243343.500
  20
4608031.000
  0
VERTEX
  8
Unknown_Area_Type
  10
242943.500
  20
4607859.000
  0
VERTEX
  8
Unknown_Area_Type
  10
243169.000
  20
4604317.500
  0
VERTEX
  8
Unknown_Area_Type
  10
243267.500
  20
4604260.500
  0
VERTEX
  8
Unknown_Area_Type
  10
243272.500
  20
4604260.000
  0
VERTEX
  8
Unknown_Area_Type
  10
245839.000
  20
4604388.000
  0
VERTEX
  8
Unknown_Area_Type
  10
245830.000
  20
4607895.000
  0
VERTEX
  8
Unknown_Area_Type
  10
244295.500
  20
4608438.500
  0
VERTEX
  8
Unknown_Area_Type
  10
244291.000
  20
4608437.500
  0
VERTEX
  8
Unknown_Area_Type
  10
243345.000
  20
4608031.500
  0
SEQEND
  8
Unknown_Area_Type
  0
INSERT
  8
FeatureAttribs
  2
FEATURE
  41
1
  42
1
  43
1
  50
0
  10
255604.830
  20
4606221.020
 66
1
  0
ATTRIB
  8
FeatureAttribs
 70
0
  1
PNOA-H_AMS_1956-57_33k_ES_PAN_2
  2
NAME
  10
255604.830
  20
4606221.020
 40
34.47022
  0
SEQEND
  0
POLYLINE
  8
Unknown_Area_Type
  70
1
  66
1
  0
VERTEX
  8
Unknown_Area_Type
  10
255634.000
  20
4608259.500
  0
VERTEX
  8
Unknown_Area_Type
  10
257050.500
  20
4607935.500
  0
VERTEX
  8
Unknown_Area_Type
  10
257038.000
  20
4604430.500
  0
VERTEX
  8
Unknown_Area_Type
  10
254814.000
  20
4604109.500
  0
VERTEX
  8
Unknown_Area_Type
  10
254752.000
  20
4604139.500
  0
VERTEX
  8
Unknown_Area_Type
  10
254203.000
  20
4604414.000
  0
VERTEX
  8
Unknown_Area_Type
  10
254231.000
  20
4607967.500
  0
VERTEX
  8
Unknown_Area_Type
  10
254990.000
  20
4608406.500
  0
VERTEX
  8
Unknown_Area_Type
  10
255633.000
  20
4608259.500
  0
VERTEX
  8
Unknown_Area_Type
  10
255634.000
  20
4608259.500
  0
SEQEND
  8
Unknown_Area_Type
  0
INSERT
  8
FeatureAttribs
  2
FEATURE
  41
1
  42
1
  43
1
  50
0
  10
255604.830
  20
4606221.020
 66
1
  0
ATTRIB
  8
FeatureAttribs
 70
0
  1
PNOA-H_AMS_1956-57_33k_ES_PAN_2
  2
NAME
  10
255604.830
  20
4606221.020
 40
34.47022
  0
SEQEND
  0
POLYLINE
  8
Unknown_Area_Type
  70
1
  66
1
  0
VERTEX
  8
Unknown_Area_Type
  10
255634.000
  20
4608259.500
  0
VERTEX
  8
Unknown_Area_Type
  10
255633.000
  20
4608259.500
  0
VERTEX
  8
Unknown_Area_Type
  10
254990.000
  20
4608406.500
  0
VERTEX
  8
Unknown_Area_Type
  10
254231.000
  20
4607967.500
  0
VERTEX
  8
Unknown_Area_Type
  10
254203.000
  20
4604414.000
  0
VERTEX
  8
Unknown_Area_Type
  10
254752.000
  20
4604139.500
  0
VERTEX
  8
Unknown_Area_Type
  10
254814.000
  20
4604109.500
  0
VERTEX
  8
Unknown_Area_Type
  10
257038.000
  20
4604430.500
  0
VERTEX
  8
Unknown_Area_Type
  10
257050.500
  20
4607935.500
  0
VERTEX
  8
Unknown_Area_Type
  10
255634.000
  20
4608259.500
  0
SEQEND
  8
Unknown_Area_Type
  0
INSERT
  8
FeatureAttribs
  2
FEATURE
  41
1
  42
1
  43
1
  50
0
  10
250012.955
  20
4606240.183
 66
1
  0
ATTRIB
  8
FeatureAttribs
 70
0
  1
PNOA-H_AMS_1956-57_33k_ES_PAN_2
  2
NAME
  10
250012.955
  20
4606240.183
 40
34.47022
  0
SEQEND
  0
POLYLINE
  8
Unknown_Area_Type
  70
1
  66
1
  0
VERTEX
  8
Unknown_Area_Type
  10
249668.500
  20
4608450.500
  0
VERTEX
  8
Unknown_Area_Type
  10
251410.000
  20
4607956.000
  0
VERTEX
  8
Unknown_Area_Type
  10
251431.500
  20
4604371.000
  0
VERTEX
  8
Unknown_Area_Type
  10
249067.000
  20
4604172.500
  0
VERTEX
  8
Unknown_Area_Type
  10
248656.500
  20
4604395.000
  0
VERTEX
  8
Unknown_Area_Type
  10
248607.000
  20
4607911.500
  0
VERTEX
  8
Unknown_Area_Type
  10
249667.500
  20
4608450.000
  0
VERTEX
  8
Unknown_Area_Type
  10
249668.500
  20
4608450.500
  0
SEQEND
  8
Unknown_Area_Type
  0
INSERT
  8
FeatureAttribs
  2
FEATURE
  41
1
  42
1
  43
1
  50
0
  10
250012.955
  20
4606240.183
 66
1
  0
ATTRIB
  8
FeatureAttribs
 70
0
  1
PNOA-H_AMS_1956-57_33k_ES_PAN_2
  2
NAME
  10
250012.955
  20
4606240.183
 40
34.47022
  0
SEQEND
  0
POLYLINE
  8
Unknown_Area_Type
  70
1
  66
1
  0
VERTEX
  8
Unknown_Area_Type
  10
249668.500
  20
4608450.500
  0
VERTEX
  8
Unknown_Area_Type
  10
249667.500
  20
4608450.000
  0
VERTEX
  8
Unknown_Area_Type
  10
248607.000
  20
4607911.500
  0
VERTEX
  8
Unknown_Area_Type
  10
248656.500
  20
4604395.000
  0
VERTEX
  8
Unknown_Area_Type
  10
249067.000
  20
4604172.500
  0
VERTEX
  8
Unknown_Area_Type
  10
251431.500
  20
4604371.000
  0
VERTEX
  8
Unknown_Area_Type
  10
251410.000
  20
4607956.000
  0
VERTEX
  8
Unknown_Area_Type
  10
249668.500
  20
4608450.500
  0
SEQEND
  8
Unknown_Area_Type
  0
INSERT
  8
FeatureAttribs
  2
FEATURE
  41
1
  42
1
  43
1
  50
0
  10
262105.865
  20
4606079.598
 66
1
  0
ATTRIB
  8
FeatureAttribs
 70
0
  1
PNOA-H_AMS_1956-57_33k_ES_PAN_2
  2
NAME
  10
262105.865
  20
4606079.598
 40
34.47022
  0
SEQEND
  0
POLYLINE
  8
Unknown_Area_Type
  70
1
  66
1
  0
VERTEX
  8
Unknown_Area_Type
  10
262093.507
  20
4607946.724
  0
VERTEX
  8
Unknown_Area_Type
  10
262340.000
  20
4607906.664
  0
VERTEX
  8
Unknown_Area_Type
  10
262340.000
  20
4607350.000
  0
VERTEX
  8
Unknown_Area_Type
  10
262180.000
  20
4607350.000
  0
VERTEX
  8
Unknown_Area_Type
  10
262180.000
  20
4604245.852
  0
VERTEX
  8
Unknown_Area_Type
  10
261969.972
  20
4604212.472
  0
VERTEX
  8
Unknown_Area_Type
  10
262000.562
  20
4605137.496
  0
VERTEX
  8
Unknown_Area_Type
  10
262077.093
  20
4607450.772
  0
VERTEX
  8
Unknown_Area_Type
  10
262093.507
  20
4607946.724
  0
SEQEND
  8
Unknown_Area_Type
  0
INSERT
  8
FeatureAttribs
  2
FEATURE
  41
1
  42
1
  43
1
  50
0
  10
260943.886
  20
4606118.180
 66
1
  0
ATTRIB
  8
FeatureAttribs
 70
0
  1
PNOA-H_AMS_1956-57_33k_ES_PAN_2
  2
NAME
  10
260943.886
  20
4606118.180
 40
34.47022
  0
SEQEND
  0
POLYLINE
  8
Unknown_Area_Type
  70
1
  66
1
  0
VERTEX
  8
Unknown_Area_Type
  10
262093.507
  20
4607946.724
  0
VERTEX
  8
Unknown_Area_Type
  10
262077.093
  20
4607450.772
  0
VERTEX
  8
Unknown_Area_Type
  10
262000.562
  20
4605137.496
  0
VERTEX
  8
Unknown_Area_Type
  10
261969.972
  20
4604212.472
  0
VERTEX
  8
Unknown_Area_Type
  10
260620.500
  20
4603998.000
  0
VERTEX
  8
Unknown_Area_Type
  10
259837.000
  20
4604364.500
  0
VERTEX
  8
Unknown_Area_Type
  10
259883.000
  20
4607886.500
  0
VERTEX
  8
Unknown_Area_Type
  10
260381.000
  20
4608225.500
  0
VERTEX
  8
Unknown_Area_Type
  10
261774.500
  20
4607998.500
  0
VERTEX
  8
Unknown_Area_Type
  10
261778.000
  20
4607998.000
  0
VERTEX
  8
Unknown_Area_Type
  10
262093.507
  20
4607946.724
  0
SEQEND
  8
Unknown_Area_Type
  0
INSERT
  8
FeatureAttribs
  2
FEATURE
  41
1
  42
1
  43
1
  50
0
  10
260943.886
  20
4606118.180
 66
1
  0
ATTRIB
  8
FeatureAttribs
 70
0
  1
PNOA-H_AMS_1956-57_33k_ES_PAN_2
  2
NAME
  10
260943.886
  20
4606118.180
 40
34.47022
  0
SEQEND
  0
POLYLINE
  8
Unknown_Area_Type
  70
1
  66
1
  0
VERTEX
  8
Unknown_Area_Type
  10
262093.507
  20
4607946.724
  0
VERTEX
  8
Unknown_Area_Type
  10
261778.000
  20
4607998.000
  0
VERTEX
  8
Unknown_Area_Type
  10
261774.500
  20
4607998.500
  0
VERTEX
  8
Unknown_Area_Type
  10
260381.000
  20
4608225.500
  0
VERTEX
  8
Unknown_Area_Type
  10
259883.000
  20
4607886.500
  0
VERTEX
  8
Unknown_Area_Type
  10
259837.000
  20
4604364.500
  0
VERTEX
  8
Unknown_Area_Type
  10
260620.500
  20
4603998.000
  0
VERTEX
  8
Unknown_Area_Type
  10
261969.972
  20
4604212.472
  0
VERTEX
  8
Unknown_Area_Type
  10
262000.562
  20
4605137.496
  0
VERTEX
  8
Unknown_Area_Type
  10
262077.093
  20
4607450.772
  0
VERTEX
  8
Unknown_Area_Type
  10
262093.507
  20
4607946.724
  0
SEQEND
  8
Unknown_Area_Type
  0
INSERT
  8
FeatureAttribs
  2
FEATURE
  41
1
  42
1
  43
1
  50
0
  10
237405.000
  20
4606812.500
 66
1
  0
ATTRIB
  8
FeatureAttribs
 70
0
  1
PNOA-H_AMS_1956-57_33k_ES_PAN_2
  2
NAME
  10
237405.000
  20
4606812.500
 40
34.47022
  0
SEQEND
  0
POLYLINE
  8
Unknown_Area_Type
  70
1
  66
1
  0
VERTEX
  8
Unknown_Area_Type
  10
237400.000
  20
4606824.500
  0
VERTEX
  8
Unknown_Area_Type
  10
237410.000
  20
4606824.500
  0
VERTEX
  8
Unknown_Area_Type
  10
237413.500
  20
4606821.500
  0
VERTEX
  8
Unknown_Area_Type
  10
237414.500
  20
4606820.000
  0
VERTEX
  8
Unknown_Area_Type
  10
237414.500
  20
4606805.000
  0
VERTEX
  8
Unknown_Area_Type
  10
237410.000
  20
4606800.500
  0
VERTEX
  8
Unknown_Area_Type
  10
237400.000
  20
4606800.500
  0
VERTEX
  8
Unknown_Area_Type
  10
237395.500
  20
4606805.000
  0
VERTEX
  8
Unknown_Area_Type
  10
237395.500
  20
4606820.000
  0
VERTEX
  8
Unknown_Area_Type
  10
237399.500
  20
4606823.500
  0
VERTEX
  8
Unknown_Area_Type
  10
237400.000
  20
4606824.500
  0
SEQEND
  8
Unknown_Area_Type
  0
INSERT
  8
FeatureAttribs
  2
FEATURE
  41
1
  42
1
  43
1
  50
0
  10
237405.000
  20
4606812.500
 66
1
  0
ATTRIB
  8
FeatureAttribs
 70
0
  1
PNOA-H_AMS_1956-57_33k_ES_PAN_2
  2
NAME
  10
237405.000
  20
4606812.500
 40
34.47022
  0
SEQEND
  0
POLYLINE
  8
Unknown_Area_Type
  70
1
  66
1
  0
VERTEX
  8
Unknown_Area_Type
  10
237400.000
  20
4606824.500
  0
VERTEX
  8
Unknown_Area_Type
  10
237399.500
  20
4606823.500
  0
VERTEX
  8
Unknown_Area_Type
  10
237395.500
  20
4606820.000
  0
VERTEX
  8
Unknown_Area_Type
  10
237395.500
  20
4606805.000
  0
VERTEX
  8
Unknown_Area_Type
  10
237400.000
  20
4606800.500
  0
VERTEX
  8
Unknown_Area_Type
  10
237410.000
  20
4606800.500
  0
VERTEX
  8
Unknown_Area_Type
  10
237414.500
  20
4606805.000
  0
VERTEX
  8
Unknown_Area_Type
  10
237414.500
  20
4606820.000
  0
VERTEX
  8
Unknown_Area_Type
  10
237413.500
  20
4606821.500
  0
VERTEX
  8
Unknown_Area_Type
  10
237410.000
  20
4606824.500
  0
VERTEX
  8
Unknown_Area_Type
  10
237400.000
  20
4606824.500
  0
SEQEND
  8
Unknown_Area_Type
  0
INSERT
  8
FeatureAttribs
  2
FEATURE
  41
1
  42
1
  43
1
  50
0
  10
239971.762
  20
4605332.442
 66
1
  0
ATTRIB
  8
FeatureAttribs
 70
0
  1
PNOA-H_AMS_1956-57_33k_ES_PAN_2
  2
NAME
  10
239971.762
  20
4605332.442
 40
34.47022
  0
SEQEND
  0
POLYLINE
  8
Unknown_Area_Type
  70
1
  66
1
  0
VERTEX
  8
Unknown_Area_Type
  10
239970.500
  20
4605339.000
  0
VERTEX
  8
Unknown_Area_Type
  10
239971.000
  20
4605338.000
  0
VERTEX
  8
Unknown_Area_Type
  10
239974.500
  20
4605335.000
  0
VERTEX
  8
Unknown_Area_Type
  10
239978.000
  20
4605335.000
  0
VERTEX
  8
Unknown_Area_Type
  10
239980.000
  20
4605332.000
  0
VERTEX
  8
Unknown_Area_Type
  10
239978.000
  20
4605330.000
  0
VERTEX
  8
Unknown_Area_Type
  10
239974.500
  20
4605330.000
  0
VERTEX
  8
Unknown_Area_Type
  10
239970.500
  20
4605326.000
  0
VERTEX
  8
Unknown_Area_Type
  10
239966.000
  20
4605330.000
  0
VERTEX
  8
Unknown_Area_Type
  10
239966.000
  20
4605335.000
  0
VERTEX
  8
Unknown_Area_Type
  10
239970.500
  20
4605339.000
  0
SEQEND
  8
Unknown_Area_Type
  0
INSERT
  8
FeatureAttribs
  2
FEATURE
  41
1
  42
1
  43
1
  50
0
  10
239971.762
  20
4605332.442
 66
1
  0
ATTRIB
  8
FeatureAttribs
 70
0
  1
PNOA-H_AMS_1956-57_33k_ES_PAN_2
  2
NAME
  10
239971.762
  20
4605332.442
 40
34.47022
  0
SEQEND
  0
POLYLINE
  8
Unknown_Area_Type
  70
1
  66
1
  0
VERTEX
  8
Unknown_Area_Type
  10
239970.500
  20
4605339.000
  0
VERTEX
  8
Unknown_Area_Type
  10
239966.000
  20
4605335.000
  0
VERTEX
  8
Unknown_Area_Type
  10
239966.000
  20
4605330.000
  0
VERTEX
  8
Unknown_Area_Type
  10
239970.500
  20
4605326.000
  0
VERTEX
  8
Unknown_Area_Type
  10
239974.500
  20
4605330.000
  0
VERTEX
  8
Unknown_Area_Type
  10
239978.000
  20
4605330.000
  0
VERTEX
  8
Unknown_Area_Type
  10
239980.000
  20
4605332.000
  0
VERTEX
  8
Unknown_Area_Type
  10
239978.000
  20
4605335.000
  0
VERTEX
  8
Unknown_Area_Type
  10
239974.500
  20
4605335.000
  0
VERTEX
  8
Unknown_Area_Type
  10
239971.000
  20
4605338.000
  0
VERTEX
  8
Unknown_Area_Type
  10
239970.500
  20
4605339.000
  0
SEQEND
  8
Unknown_Area_Type
  0
INSERT
  8
FeatureAttribs
  2
FEATURE
  41
1
  42
1
  43
1
  50
0
  10
238870.903
  20
4606184.714
 66
1
  0
ATTRIB
  8
FeatureAttribs
 70
0
  1
PNOA-H_AMS_1956-57_33k_ES_PAN_2
  2
NAME
  10
238870.903
  20
4606184.714
 40
34.47022
  0
SEQEND
  0
POLYLINE
  8
Unknown_Area_Type
  70
1
  66
1
  0
VERTEX
  8
Unknown_Area_Type
  10
239250.000
  20
4608251.500
  0
VERTEX
  8
Unknown_Area_Type
  10
240228.000
  20
4607886.000
  0
VERTEX
  8
Unknown_Area_Type
  10
240230.500
  20
4607885.000
  0
VERTEX
  8
Unknown_Area_Type
  10
240231.000
  20
4607883.500
  0
VERTEX
  8
Unknown_Area_Type
  10
240329.000
  20
4604198.000
  0
VERTEX
  8
Unknown_Area_Type
  10
237583.500
  20
4604218.500
  0
VERTEX
  8
Unknown_Area_Type
  10
237544.000
  20
4604246.000
  0
VERTEX
  8
Unknown_Area_Type
  10
237386.500
  20
4607889.000
  0
VERTEX
  8
Unknown_Area_Type
  10
238869.000
  20
4608393.500
  0
VERTEX
  8
Unknown_Area_Type
  10
239249.000
  20
4608251.500
  0
VERTEX
  8
Unknown_Area_Type
  10
239250.000
  20
4608251.500
  0
SEQEND
  8
Unknown_Area_Type
  0
INSERT
  8
FeatureAttribs
  2
FEATURE
  41
1
  42
1
  43
1
  50
0
  10
238870.903
  20
4606184.714
 66
1
  0
ATTRIB
  8
FeatureAttribs
 70
0
  1
PNOA-H_AMS_1956-57_33k_ES_PAN_2
  2
NAME
  10
238870.903
  20
4606184.714
 40
34.47022
  0
SEQEND
  0
POLYLINE
  8
Unknown_Area_Type
  70
1
  66
1
  0
VERTEX
  8
Unknown_Area_Type
  10
239250.000
  20
4608251.500
  0
VERTEX
  8
Unknown_Area_Type
  10
239249.000
  20
4608251.500
  0
VERTEX
  8
Unknown_Area_Type
  10
238869.000
  20
4608393.500
  0
VERTEX
  8
Unknown_Area_Type
  10
237386.500
  20
4607889.000
  0
VERTEX
  8
Unknown_Area_Type
  10
237544.000
  20
4604246.000
  0
VERTEX
  8
Unknown_Area_Type
  10
237583.500
  20
4604218.500
  0
VERTEX
  8
Unknown_Area_Type
  10
240329.000
  20
4604198.000
  0
VERTEX
  8
Unknown_Area_Type
  10
240231.000
  20
4607883.500
  0
VERTEX
  8
Unknown_Area_Type
  10
240230.500
  20
4607885.000
  0
VERTEX
  8
Unknown_Area_Type
  10
240228.000
  20
4607886.000
  0
VERTEX
  8
Unknown_Area_Type
  10
239250.000
  20
4608251.500
  0
SEQEND
  8
Unknown_Area_Type
  0
INSERT
  8
FeatureAttribs
  2
FEATURE
  41
1
  42
1
  43
1
  50
0
  10
252797.098
  20
4606251.852
 66
1
  0
ATTRIB
  8
FeatureAttribs
 70
0
  1
PNOA-H_AMS_1956-57_33k_ES_PAN_2
  2
NAME
  10
252797.098
  20
4606251.852
 40
34.47022
  0
SEQEND
  0
POLYLINE
  8
Unknown_Area_Type
  70
1
  66
1
  0
VERTEX
  8
Unknown_Area_Type
  10
251537.000
  20
4608026.000
  0
VERTEX
  8
Unknown_Area_Type
  10
252328.500
  20
4608464.000
  0
VERTEX
  8
Unknown_Area_Type
  10
252338.500
  20
4608469.500
  0
VERTEX
  8
Unknown_Area_Type
  10
252340.500
  20
4608469.500
  0
VERTEX
  8
Unknown_Area_Type
  10
254231.000
  20
4607967.500
  0
VERTEX
  8
Unknown_Area_Type
  10
254203.000
  20
4604413.500
  0
VERTEX
  8
Unknown_Area_Type
  10
251885.000
  20
4604134.500
  0
VERTEX
  8
Unknown_Area_Type
  10
251879.000
  20
4604136.000
  0
VERTEX
  8
Unknown_Area_Type
  10
251431.500
  20
4604371.000
  0
VERTEX
  8
Unknown_Area_Type
  10
251410.000
  20
4607955.500
  0
VERTEX
  8
Unknown_Area_Type
  10
251536.000
  20
4608025.500
  0
VERTEX
  8
Unknown_Area_Type
  10
251537.000
  20
4608026.000
  0
SEQEND
  8
Unknown_Area_Type
  0
INSERT
  8
FeatureAttribs
  2
FEATURE
  41
1
  42
1
  43
1
  50
0
  10
252797.098
  20
4606251.852
 66
1
  0
ATTRIB
  8
FeatureAttribs
 70
0
  1
PNOA-H_AMS_1956-57_33k_ES_PAN_2
  2
NAME
  10
252797.098
  20
4606251.852
 40
34.47022
  0
SEQEND
  0
POLYLINE
  8
Unknown_Area_Type
  70
1
  66
1
  0
VERTEX
  8
Unknown_Area_Type
  10
251537.000
  20
4608026.000
  0
VERTEX
  8
Unknown_Area_Type
  10
251536.000
  20
4608025.500
  0
VERTEX
  8
Unknown_Area_Type
  10
251410.000
  20
4607955.500
  0
VERTEX
  8
Unknown_Area_Type
  10
251431.500
  20
4604371.000
  0
VERTEX
  8
Unknown_Area_Type
  10
251879.000
  20
4604136.000
  0
VERTEX
  8
Unknown_Area_Type
  10
251885.000
  20
4604134.500
  0
VERTEX
  8
Unknown_Area_Type
  10
254203.000
  20
4604413.500
  0
VERTEX
  8
Unknown_Area_Type
  10
254231.000
  20
4607967.500
  0
VERTEX
  8
Unknown_Area_Type
  10
252340.500
  20
4608469.500
  0
VERTEX
  8
Unknown_Area_Type
  10
252338.500
  20
4608469.500
  0
VERTEX
  8
Unknown_Area_Type
  10
252328.500
  20
4608464.000
  0
VERTEX
  8
Unknown_Area_Type
  10
251537.000
  20
4608026.000
  0
SEQEND
  8
Unknown_Area_Type
  0
INSERT
  8
FeatureAttribs
  2
FEATURE
  41
1
  42
1
  43
1
  50
0
  10
237405.000
  20
4606812.500
 66
1
  0
ATTRIB
  8
FeatureAttribs
 70
0
  1
PNOA-H_AMS_1956-57_33k_ES_PAN_2
  2
NAME
  10
237405.000
  20
4606812.500
 40
34.47022
  0
SEQEND
  0
POLYLINE
  8
Unknown_Area_Type
  70
1
  66
1
  0
VERTEX
  8
Unknown_Area_Type
  10
237410.000
  20
4606824.500
  0
VERTEX
  8
Unknown_Area_Type
  10
237410.500
  20
4606823.500
  0
VERTEX
  8
Unknown_Area_Type
  10
237414.500
  20
4606820.000
  0
VERTEX
  8
Unknown_Area_Type
  10
237414.500
  20
4606805.000
  0
VERTEX
  8
Unknown_Area_Type
  10
237413.500
  20
4606803.500
  0
VERTEX
  8
Unknown_Area_Type
  10
237410.000
  20
4606800.500
  0
VERTEX
  8
Unknown_Area_Type
  10
237400.000
  20
4606800.500
  0
VERTEX
  8
Unknown_Area_Type
  10
237395.500
  20
4606805.000
  0
VERTEX
  8
Unknown_Area_Type
  10
237395.500
  20
4606820.000
  0
VERTEX
  8
Unknown_Area_Type
  10
237400.000
  20
4606824.500
  0
VERTEX
  8
Unknown_Area_Type
  10
237410.000
  20
4606824.500
  0
SEQEND
  8
Unknown_Area_Type
  0
INSERT
  8
FeatureAttribs
  2
FEATURE
  41
1
  42
1
  43
1
  50
0
  10
237405.000
  20
4606812.500
 66
1
  0
ATTRIB
  8
FeatureAttribs
 70
0
  1
PNOA-H_AMS_1956-57_33k_ES_PAN_2
  2
NAME
  10
237405.000
  20
4606812.500
 40
34.47022
  0
SEQEND
  0
POLYLINE
  8
Unknown_Area_Type
  70
1
  66
1
  0
VERTEX
  8
Unknown_Area_Type
  10
237410.000
  20
4606824.500
  0
VERTEX
  8
Unknown_Area_Type
  10
237400.000
  20
4606824.500
  0
VERTEX
  8
Unknown_Area_Type
  10
237395.500
  20
4606820.000
  0
VERTEX
  8
Unknown_Area_Type
  10
237395.500
  20
4606805.000
  0
VERTEX
  8
Unknown_Area_Type
  10
237400.000
  20
4606800.500
  0
VERTEX
  8
Unknown_Area_Type
  10
237410.000
  20
4606800.500
  0
VERTEX
  8
Unknown_Area_Type
  10
237413.500
  20
4606803.500
  0
VERTEX
  8
Unknown_Area_Type
  10
237414.500
  20
4606805.000
  0
VERTEX
  8
Unknown_Area_Type
  10
237414.500
  20
4606820.000
  0
VERTEX
  8
Unknown_Area_Type
  10
237410.500
  20
4606823.500
  0
VERTEX
  8
Unknown_Area_Type
  10
237410.000
  20
4606824.500
  0
SEQEND
  8
Unknown_Area_Type
  0
INSERT
  8
FeatureAttribs
  2
FEATURE
  41
1
  42
1
  43
1
  50
0
  10
236024.626
  20
4606182.713
 66
1
  0
ATTRIB
  8
FeatureAttribs
 70
0
  1
PNOA-H_AMS_1956-57_33k_ES_PAN_2
  2
NAME
  10
236024.626
  20
4606182.713
 40
34.47022
  0
SEQEND
  0
POLYLINE
  8
Unknown_Area_Type
  70
1
  66
1
  0
VERTEX
  8
Unknown_Area_Type
  10
235151.000
  20
4608138.500
  0
VERTEX
  8
Unknown_Area_Type
  10
235153.000
  20
4608139.000
  0
VERTEX
  8
Unknown_Area_Type
  10
236086.000
  20
4608408.500
  0
VERTEX
  8
Unknown_Area_Type
  10
237386.500
  20
4607889.000
  0
VERTEX
  8
Unknown_Area_Type
  10
237544.000
  20
4604246.000
  0
VERTEX
  8
Unknown_Area_Type
  10
234784.000
  20
4604140.500
  0
VERTEX
  8
Unknown_Area_Type
  10
234775.500
  20
4604140.500
  0
VERTEX
  8
Unknown_Area_Type
  10
234690.500
  20
4604198.500
  0
VERTEX
  8
Unknown_Area_Type
  10
234525.500
  20
4607957.000
  0
VERTEX
  8
Unknown_Area_Type
  10
235151.000
  20
4608138.500
  0
SEQEND
  8
Unknown_Area_Type
  0
INSERT
  8
FeatureAttribs
  2
FEATURE
  41
1
  42
1
  43
1
  50
0
  10
236024.626
  20
4606182.713
 66
1
  0
ATTRIB
  8
FeatureAttribs
 70
0
  1
PNOA-H_AMS_1956-57_33k_ES_PAN_2
  2
NAME
  10
236024.626
  20
4606182.713
 40
34.47022
  0
SEQEND
  0
POLYLINE
  8
Unknown_Area_Type
  70
1
  66
1
  0
VERTEX
  8
Unknown_Area_Type
  10
235151.000
  20
4608138.500
  0
VERTEX
  8
Unknown_Area_Type
  10
234525.500
  20
4607957.000
  0
VERTEX
  8
Unknown_Area_Type
  10
234690.500
  20
4604198.500
  0
VERTEX
  8
Unknown_Area_Type
  10
234775.500
  20
4604140.500
  0
VERTEX
  8
Unknown_Area_Type
  10
234784.000
  20
4604140.500
  0
VERTEX
  8
Unknown_Area_Type
  10
237544.000
  20
4604246.000
  0
VERTEX
  8
Unknown_Area_Type
  10
237386.500
  20
4607889.000
  0
VERTEX
  8
Unknown_Area_Type
  10
236086.000
  20
4608408.500
  0
VERTEX
  8
Unknown_Area_Type
  10
235153.000
  20
4608139.000
  0
VERTEX
  8
Unknown_Area_Type
  10
235151.000
  20
4608138.500
  0
SEQEND
  8
Unknown_Area_Type
  0
INSERT
  8
FeatureAttribs
  2
FEATURE
  41
1
  42
1
  43
1
  50
0
  10
258429.741
  20
4606175.883
 66
1
  0
ATTRIB
  8
FeatureAttribs
 70
0
  1
PNOA-H_AMS_1956-57_33k_ES_PAN_2
  2
NAME
  10
258429.741
  20
4606175.883
 40
34.47022
  0
SEQEND
  0
POLYLINE
  8
Unknown_Area_Type
  70
1
  66
1
  0
VERTEX
  8
Unknown_Area_Type
  10
257050.000
  20
4607933.500
  0
VERTEX
  8
Unknown_Area_Type
  10
257051.000
  20
4607936.500
  0
VERTEX
  8
Unknown_Area_Type
  10
257671.500
  20
4608331.000
  0
VERTEX
  8
Unknown_Area_Type
  10
257672.500
  20
4608331.500
  0
VERTEX
  8
Unknown_Area_Type
  10
259883.000
  20
4607886.000
  0
VERTEX
  8
Unknown_Area_Type
  10
259837.000
  20
4604364.500
  0
VERTEX
  8
Unknown_Area_Type
  10
257783.000
  20
4604072.000
  0
VERTEX
  8
Unknown_Area_Type
  10
257038.000
  20
4604430.500
  0
VERTEX
  8
Unknown_Area_Type
  10
257050.000
  20
4607933.500
  0
SEQEND
  8
Unknown_Area_Type
  0
INSERT
  8
FeatureAttribs
  2
FEATURE
  41
1
  42
1
  43
1
  50
0
  10
258429.741
  20
4606175.883
 66
1
  0
ATTRIB
  8
FeatureAttribs
 70
0
  1
PNOA-H_AMS_1956-57_33k_ES_PAN_2
  2
NAME
  10
258429.741
  20
4606175.883
 40
34.47022
  0
SEQEND
  0
POLYLINE
  8
Unknown_Area_Type
  70
1
  66
1
  0
VERTEX
  8
Unknown_Area_Type
  10
257050.000
  20
4607933.500
  0
VERTEX
  8
Unknown_Area_Type
  10
257038.000
  20
4604430.500
  0
VERTEX
  8
Unknown_Area_Type
  10
257783.000
  20
4604072.000
  0
VERTEX
  8
Unknown_Area_Type
  10
259837.000
  20
4604364.500
  0
VERTEX
  8
Unknown_Area_Type
  10
259883.000
  20
4607886.000
  0
VERTEX
  8
Unknown_Area_Type
  10
257672.500
  20
4608331.500
  0
VERTEX
  8
Unknown_Area_Type
  10
257671.500
  20
4608331.000
  0
VERTEX
  8
Unknown_Area_Type
  10
257051.000
  20
4607936.500
  0
VERTEX
  8
Unknown_Area_Type
  10
257050.000
  20
4607933.500
  0
SEQEND
  8
Unknown_Area_Type
  0
ENDSEC
  0
EOF
