  0
SECTION
  2
HEADER
  9
$ACADVER
  1
AC1009
  9
$LUNITS
  70
2
  9
$LIMMIN
  10
206843.002
  20
4599170.707
  9
$LIMMAX
  10
234629.544
  20
4618759.074
  9
$EXTMIN
  10
206843.002
  20
4599170.707
  9
$EXTMAX
  10
234629.544
  20
4618759.074
  999
Created by Global Mapper
  999
Projection: UTM
  999
Datum: ETRS89
  999
Ground Units: meters
  999
ZONE: 30
  0
ENDSEC
  0
SECTION
  2
TABLES
  0
ENDSEC
  0
SECTION
  2
BLOCKS
  0
BLOCK
  8
FeatureAttribs
  70
0
  2
FEATURE
  3
FEATURE
  10
0.00000000
  20
0.00000000
  0
ATTDEF
  8
FeatureAttribs
  70
0
  1
 
  2
NAME
  3
NAME
  10
0.00000000
  20
0.00000000
  40
1.00000000
  0
ENDBLK
  0
ENDSEC
  0
SECTION
  2
ENTITIES
  0
INSERT
  8
FeatureAttribs
  2
FEATURE
  41
1
  42
1
  43
1
  50
0
  10
231562.697
  20
4599229.707
 66
1
  0
ATTRIB
  8
FeatureAttribs
 70
0
  1
PNOA-H_AMS_1956-57_33k_ES_PAN_2
  2
NAME
  10
231562.697
  20
4599229.707
 40
33.99700
  0
SEQEND
  0
POLYLINE
  8
Unknown_Area_Type
  70
1
  66
1
  0
VERTEX
  8
Unknown_Area_Type
  10
233621.907
  20
4599182.745
  0
VERTEX
  8
Unknown_Area_Type
  10
233621.899
  20
4599170.707
  0
VERTEX
  8
Unknown_Area_Type
  10
230766.612
  20
4599170.707
  0
VERTEX
  8
Unknown_Area_Type
  10
230769.092
  20
4599288.707
  0
VERTEX
  8
Unknown_Area_Type
  10
233621.907
  20
4599182.745
  0
SEQEND
  8
Unknown_Area_Type
  0
INSERT
  8
FeatureAttribs
  2
FEATURE
  41
1
  42
1
  43
1
  50
0
  10
232208.330
  20
4599754.292
 66
1
  0
ATTRIB
  8
FeatureAttribs
 70
0
  1
PNOA-H_AMS_1956-57_33k_ES_PAN_2
  2
NAME
  10
232208.330
  20
4599754.292
 40
33.99700
  0
SEQEND
  0
POLYLINE
  8
Unknown_Area_Type
  70
1
  66
1
  0
VERTEX
  8
Unknown_Area_Type
  10
233621.907
  20
4599182.745
  0
VERTEX
  8
Unknown_Area_Type
  10
230769.092
  20
4599288.707
  0
VERTEX
  8
Unknown_Area_Type
  10
230784.000
  20
4599998.000
  0
VERTEX
  8
Unknown_Area_Type
  10
231056.000
  20
4600115.000
  0
VERTEX
  8
Unknown_Area_Type
  10
231057.000
  20
4600115.500
  0
VERTEX
  8
Unknown_Area_Type
  10
231960.000
  20
4600503.000
  0
VERTEX
  8
Unknown_Area_Type
  10
233622.500
  20
4600012.000
  0
VERTEX
  8
Unknown_Area_Type
  10
233621.907
  20
4599182.745
  0
SEQEND
  8
Unknown_Area_Type
  0
INSERT
  8
FeatureAttribs
  2
FEATURE
  41
1
  42
1
  43
1
  50
0
  10
232208.330
  20
4599754.292
 66
1
  0
ATTRIB
  8
FeatureAttribs
 70
0
  1
PNOA-H_AMS_1956-57_33k_ES_PAN_2
  2
NAME
  10
232208.330
  20
4599754.292
 40
33.99700
  0
SEQEND
  0
POLYLINE
  8
Unknown_Area_Type
  70
1
  66
1
  0
VERTEX
  8
Unknown_Area_Type
  10
233621.907
  20
4599182.745
  0
VERTEX
  8
Unknown_Area_Type
  10
233622.500
  20
4600012.000
  0
VERTEX
  8
Unknown_Area_Type
  10
231960.000
  20
4600503.000
  0
VERTEX
  8
Unknown_Area_Type
  10
231057.000
  20
4600115.500
  0
VERTEX
  8
Unknown_Area_Type
  10
231056.000
  20
4600115.000
  0
VERTEX
  8
Unknown_Area_Type
  10
230784.000
  20
4599998.000
  0
VERTEX
  8
Unknown_Area_Type
  10
230769.092
  20
4599288.707
  0
VERTEX
  8
Unknown_Area_Type
  10
233621.907
  20
4599182.745
  0
SEQEND
  8
Unknown_Area_Type
  0
INSERT
  8
FeatureAttribs
  2
FEATURE
  41
1
  42
1
  43
1
  50
0
  10
229322.036
  20
4599284.084
 66
1
  0
ATTRIB
  8
FeatureAttribs
 70
0
  1
PNOA-H_AMS_1956-57_33k_ES_PAN_2
  2
NAME
  10
229322.036
  20
4599284.084
 40
33.99700
  0
SEQEND
  0
POLYLINE
  8
Unknown_Area_Type
  70
1
  66
1
  0
VERTEX
  8
Unknown_Area_Type
  10
230769.010
  20
4599288.710
  0
VERTEX
  8
Unknown_Area_Type
  10
230766.516
  20
4599170.707
  0
VERTEX
  8
Unknown_Area_Type
  10
227875.433
  20
4599170.707
  0
VERTEX
  8
Unknown_Area_Type
  10
227874.889
  20
4599397.460
  0
VERTEX
  8
Unknown_Area_Type
  10
230467.175
  20
4599299.922
  0
VERTEX
  8
Unknown_Area_Type
  10
230769.010
  20
4599288.710
  0
SEQEND
  8
Unknown_Area_Type
  0
INSERT
  8
FeatureAttribs
  2
FEATURE
  41
1
  42
1
  43
1
  50
0
  10
229336.196
  20
4599809.508
 66
1
  0
ATTRIB
  8
FeatureAttribs
 70
0
  1
PNOA-H_AMS_1956-57_33k_ES_PAN_2
  2
NAME
  10
229336.196
  20
4599809.508
 40
33.99700
  0
SEQEND
  0
POLYLINE
  8
Unknown_Area_Type
  70
1
  66
1
  0
VERTEX
  8
Unknown_Area_Type
  10
230769.010
  20
4599288.710
  0
VERTEX
  8
Unknown_Area_Type
  10
230467.175
  20
4599299.922
  0
VERTEX
  8
Unknown_Area_Type
  10
227874.889
  20
4599397.460
  0
VERTEX
  8
Unknown_Area_Type
  10
227873.500
  20
4599976.000
  0
VERTEX
  8
Unknown_Area_Type
  10
227937.500
  20
4600005.000
  0
VERTEX
  8
Unknown_Area_Type
  10
227993.000
  20
4600005.000
  0
VERTEX
  8
Unknown_Area_Type
  10
227995.000
  20
4600007.000
  0
VERTEX
  8
Unknown_Area_Type
  10
227995.000
  20
4600030.500
  0
VERTEX
  8
Unknown_Area_Type
  10
227997.500
  20
4600032.000
  0
VERTEX
  8
Unknown_Area_Type
  10
229066.500
  20
4600512.500
  0
VERTEX
  8
Unknown_Area_Type
  10
229067.500
  20
4600513.000
  0
VERTEX
  8
Unknown_Area_Type
  10
230784.000
  20
4599998.000
  0
VERTEX
  8
Unknown_Area_Type
  10
230769.010
  20
4599288.710
  0
SEQEND
  8
Unknown_Area_Type
  0
INSERT
  8
FeatureAttribs
  2
FEATURE
  41
1
  42
1
  43
1
  50
0
  10
229336.196
  20
4599809.508
 66
1
  0
ATTRIB
  8
FeatureAttribs
 70
0
  1
PNOA-H_AMS_1956-57_33k_ES_PAN_2
  2
NAME
  10
229336.196
  20
4599809.508
 40
33.99700
  0
SEQEND
  0
POLYLINE
  8
Unknown_Area_Type
  70
1
  66
1
  0
VERTEX
  8
Unknown_Area_Type
  10
230769.010
  20
4599288.710
  0
VERTEX
  8
Unknown_Area_Type
  10
230784.000
  20
4599998.000
  0
VERTEX
  8
Unknown_Area_Type
  10
229067.500
  20
4600513.000
  0
VERTEX
  8
Unknown_Area_Type
  10
229066.500
  20
4600512.500
  0
VERTEX
  8
Unknown_Area_Type
  10
227997.500
  20
4600032.000
  0
VERTEX
  8
Unknown_Area_Type
  10
227995.000
  20
4600030.500
  0
VERTEX
  8
Unknown_Area_Type
  10
227995.000
  20
4600007.000
  0
VERTEX
  8
Unknown_Area_Type
  10
227993.000
  20
4600005.000
  0
VERTEX
  8
Unknown_Area_Type
  10
227937.500
  20
4600005.000
  0
VERTEX
  8
Unknown_Area_Type
  10
227873.500
  20
4599976.000
  0
VERTEX
  8
Unknown_Area_Type
  10
227874.889
  20
4599397.460
  0
VERTEX
  8
Unknown_Area_Type
  10
230467.175
  20
4599299.922
  0
VERTEX
  8
Unknown_Area_Type
  10
230769.010
  20
4599288.710
  0
SEQEND
  8
Unknown_Area_Type
  0
INSERT
  8
FeatureAttribs
  2
FEATURE
  41
1
  42
1
  43
1
  50
0
  10
233792.998
  20
4599666.033
 66
1
  0
ATTRIB
  8
FeatureAttribs
 70
0
  1
PNOA-H_AMS_1956-57_33k_ES_PAN_2
  2
NAME
  10
233792.998
  20
4599666.033
 40
33.99700
  0
SEQEND
  0
POLYLINE
  8
Unknown_Area_Type
  70
1
  66
1
  0
VERTEX
  8
Unknown_Area_Type
  10
233982.025
  20
4600161.339
  0
VERTEX
  8
Unknown_Area_Type
  10
233945.462
  20
4599170.727
  0
VERTEX
  8
Unknown_Area_Type
  10
233621.907
  20
4599182.745
  0
VERTEX
  8
Unknown_Area_Type
  10
233622.500
  20
4600012.000
  0
VERTEX
  8
Unknown_Area_Type
  10
233982.025
  20
4600161.339
  0
SEQEND
  8
Unknown_Area_Type
  0
INSERT
  8
FeatureAttribs
  2
FEATURE
  41
1
  42
1
  43
1
  50
0
  10
233792.998
  20
4599666.033
 66
1
  0
ATTRIB
  8
FeatureAttribs
 70
0
  1
PNOA-H_AMS_1956-57_33k_ES_PAN_2
  2
NAME
  10
233792.998
  20
4599666.033
 40
33.99700
  0
SEQEND
  0
POLYLINE
  8
Unknown_Area_Type
  70
1
  66
1
  0
VERTEX
  8
Unknown_Area_Type
  10
233982.025
  20
4600161.339
  0
VERTEX
  8
Unknown_Area_Type
  10
233945.462
  20
4599170.727
  0
VERTEX
  8
Unknown_Area_Type
  10
233621.907
  20
4599182.745
  0
VERTEX
  8
Unknown_Area_Type
  10
233622.500
  20
4600012.000
  0
VERTEX
  8
Unknown_Area_Type
  10
233982.025
  20
4600161.339
  0
SEQEND
  8
Unknown_Area_Type
  0
INSERT
  8
FeatureAttribs
  2
FEATURE
  41
1
  42
1
  43
1
  50
0
  10
233702.926
  20
4599176.726
 66
1
  0
ATTRIB
  8
FeatureAttribs
 70
0
  1
PNOA-H_AMS_1956-57_33k_ES_PAN_2
  2
NAME
  10
233702.926
  20
4599176.726
 40
33.99700
  0
SEQEND
  0
POLYLINE
  8
Unknown_Area_Type
  70
1
  66
1
  0
VERTEX
  8
Unknown_Area_Type
  10
233621.907
  20
4599182.745
  0
VERTEX
  8
Unknown_Area_Type
  10
233945.462
  20
4599170.727
  0
VERTEX
  8
Unknown_Area_Type
  10
233945.462
  20
4599170.707
  0
VERTEX
  8
Unknown_Area_Type
  10
233621.899
  20
4599170.707
  0
VERTEX
  8
Unknown_Area_Type
  10
233621.907
  20
4599182.745
  0
SEQEND
  8
Unknown_Area_Type
  0
INSERT
  8
FeatureAttribs
  2
FEATURE
  41
1
  42
1
  43
1
  50
0
  10
233945.596
  20
4599170.717
 66
1
  0
ATTRIB
  8
FeatureAttribs
 70
0
  1
PNOA-H_AMS_1956-57_33k_ES_PAN_2
  2
NAME
  10
233945.596
  20
4599170.717
 40
33.99700
  0
SEQEND
  0
POLYLINE
  8
Unknown_Area_Type
  70
1
  66
1
  0
VERTEX
  8
Unknown_Area_Type
  10
233945.462
  20
4599170.727
  0
VERTEX
  8
Unknown_Area_Type
  10
233945.997
  20
4599170.707
  0
VERTEX
  8
Unknown_Area_Type
  10
233945.462
  20
4599170.707
  0
VERTEX
  8
Unknown_Area_Type
  10
233945.462
  20
4599170.727
  0
SEQEND
  8
Unknown_Area_Type
  0
INSERT
  8
FeatureAttribs
  2
FEATURE
  41
1
  42
1
  43
1
  50
0
  10
234299.126
  20
4599800.506
 66
1
  0
ATTRIB
  8
FeatureAttribs
 70
0
  1
PNOA-H_AMS_1956-57_33k_ES_PAN_2
  2
NAME
  10
234299.126
  20
4599800.506
 40
33.99700
  0
SEQEND
  0
POLYLINE
  8
Unknown_Area_Type
  70
1
  66
1
  0
VERTEX
  8
Unknown_Area_Type
  10
234629.544
  20
4600430.304
  0
VERTEX
  8
Unknown_Area_Type
  10
234629.544
  20
4599170.707
  0
VERTEX
  8
Unknown_Area_Type
  10
233945.997
  20
4599170.707
  0
VERTEX
  8
Unknown_Area_Type
  10
233945.462
  20
4599170.727
  0
VERTEX
  8
Unknown_Area_Type
  10
233982.025
  20
4600161.339
  0
VERTEX
  8
Unknown_Area_Type
  10
234629.544
  20
4600430.304
  0
SEQEND
  8
Unknown_Area_Type
  0
INSERT
  8
FeatureAttribs
  2
FEATURE
  41
1
  42
1
  43
1
  50
0
  10
226936.488
  20
4599319.633
 66
1
  0
ATTRIB
  8
FeatureAttribs
 70
0
  1
PNOA-H_AMS_1956-57_33k_ES_PAN_2
  2
NAME
  10
226936.488
  20
4599319.633
 40
33.99700
  0
SEQEND
  0
POLYLINE
  8
Unknown_Area_Type
  70
1
  66
1
  0
VERTEX
  8
Unknown_Area_Type
  10
227875.433
  20
4599170.707
  0
VERTEX
  8
Unknown_Area_Type
  10
225997.764
  20
4599170.707
  0
VERTEX
  8
Unknown_Area_Type
  10
225998.039
  20
4599468.559
  0
VERTEX
  8
Unknown_Area_Type
  10
226988.870
  20
4599430.798
  0
VERTEX
  8
Unknown_Area_Type
  10
227874.888
  20
4599397.460
  0
VERTEX
  8
Unknown_Area_Type
  10
227875.433
  20
4599170.707
  0
SEQEND
  8
Unknown_Area_Type
  0
INSERT
  8
FeatureAttribs
  2
FEATURE
  41
1
  42
1
  43
1
  50
0
  10
227058.962
  20
4599680.774
 66
1
  0
ATTRIB
  8
FeatureAttribs
 70
0
  1
PNOA-H_AMS_1956-57_33k_ES_PAN_2
  2
NAME
  10
227058.962
  20
4599680.774
 40
33.99700
  0
SEQEND
  0
POLYLINE
  8
Unknown_Area_Type
  70
1
  66
1
  0
VERTEX
  8
Unknown_Area_Type
  10
227874.888
  20
4599397.460
  0
VERTEX
  8
Unknown_Area_Type
  10
226988.870
  20
4599430.798
  0
VERTEX
  8
Unknown_Area_Type
  10
225998.039
  20
4599468.559
  0
VERTEX
  8
Unknown_Area_Type
  10
225998.345
  20
4599800.000
  0
VERTEX
  8
Unknown_Area_Type
  10
226880.000
  20
4599800.000
  0
VERTEX
  8
Unknown_Area_Type
  10
226880.000
  20
4600005.000
  0
VERTEX
  8
Unknown_Area_Type
  10
227774.500
  20
4600005.000
  0
VERTEX
  8
Unknown_Area_Type
  10
227873.500
  20
4599976.000
  0
VERTEX
  8
Unknown_Area_Type
  10
227874.888
  20
4599397.460
  0
SEQEND
  8
Unknown_Area_Type
  0
INSERT
  8
FeatureAttribs
  2
FEATURE
  41
1
  42
1
  43
1
  50
0
  10
227058.962
  20
4599680.774
 66
1
  0
ATTRIB
  8
FeatureAttribs
 70
0
  1
PNOA-H_AMS_1956-57_33k_ES_PAN_2
  2
NAME
  10
227058.962
  20
4599680.774
 40
33.99700
  0
SEQEND
  0
POLYLINE
  8
Unknown_Area_Type
  70
1
  66
1
  0
VERTEX
  8
Unknown_Area_Type
  10
227874.888
  20
4599397.460
  0
VERTEX
  8
Unknown_Area_Type
  10
227873.500
  20
4599976.000
  0
VERTEX
  8
Unknown_Area_Type
  10
227774.500
  20
4600005.000
  0
VERTEX
  8
Unknown_Area_Type
  10
226880.000
  20
4600005.000
  0
VERTEX
  8
Unknown_Area_Type
  10
226880.000
  20
4599800.000
  0
VERTEX
  8
Unknown_Area_Type
  10
225998.345
  20
4599800.000
  0
VERTEX
  8
Unknown_Area_Type
  10
225998.039
  20
4599468.559
  0
VERTEX
  8
Unknown_Area_Type
  10
226988.870
  20
4599430.798
  0
VERTEX
  8
Unknown_Area_Type
  10
227874.888
  20
4599397.460
  0
SEQEND
  8
Unknown_Area_Type
  0
INSERT
  8
FeatureAttribs
  2
FEATURE
  41
1
  42
1
  43
1
  50
0
  10
207231.029
  20
4617991.175
 66
1
  0
ATTRIB
  8
FeatureAttribs
 70
0
  1
PNOA-H_AMS_1956-57_33k_ES_PAN_2
  2
NAME
  10
207231.029
  20
4617991.175
 40
33.99700
  0
SEQEND
  0
POLYLINE
  8
Unknown_Area_Type
  70
1
  66
1
  0
VERTEX
  8
Unknown_Area_Type
  10
206843.111
  20
4617992.673
  0
VERTEX
  8
Unknown_Area_Type
  10
207656.500
  20
4617992.000
  0
VERTEX
  8
Unknown_Area_Type
  10
207660.000
  20
4617990.000
  0
VERTEX
  8
Unknown_Area_Type
  10
206843.002
  20
4617990.000
  0
VERTEX
  8
Unknown_Area_Type
  10
206843.111
  20
4617992.673
  0
SEQEND
  8
Unknown_Area_Type
  0
INSERT
  8
FeatureAttribs
  2
FEATURE
  41
1
  42
1
  43
1
  50
0
  10
207231.029
  20
4617991.175
 66
1
  0
ATTRIB
  8
FeatureAttribs
 70
0
  1
PNOA-H_AMS_1956-57_33k_ES_PAN_2
  2
NAME
  10
207231.029
  20
4617991.175
 40
33.99700
  0
SEQEND
  0
POLYLINE
  8
Unknown_Area_Type
  70
1
  66
1
  0
VERTEX
  8
Unknown_Area_Type
  10
206843.111
  20
4617992.673
  0
VERTEX
  8
Unknown_Area_Type
  10
206843.002
  20
4617990.000
  0
VERTEX
  8
Unknown_Area_Type
  10
207660.000
  20
4617990.000
  0
VERTEX
  8
Unknown_Area_Type
  10
207656.500
  20
4617992.000
  0
VERTEX
  8
Unknown_Area_Type
  10
206843.111
  20
4617992.673
  0
SEQEND
  8
Unknown_Area_Type
  0
INSERT
  8
FeatureAttribs
  2
FEATURE
  41
1
  42
1
  43
1
  50
0
  10
210538.483
  20
4616740.969
 66
1
  0
ATTRIB
  8
FeatureAttribs
 70
0
  1
PNOA-H_AMS_1956-57_33k_ES_PAN_2
  2
NAME
  10
210538.483
  20
4616740.969
 40
33.99700
  0
SEQEND
  0
POLYLINE
  8
Unknown_Area_Type
  70
1
  66
1
  0
VERTEX
  8
Unknown_Area_Type
  10
210400.000
  20
4616741.500
  0
VERTEX
  8
Unknown_Area_Type
  10
210401.000
  20
4616742.000
  0
VERTEX
  8
Unknown_Area_Type
  10
210614.000
  20
4616742.000
  0
VERTEX
  8
Unknown_Area_Type
  10
210683.500
  20
4616741.500
  0
VERTEX
  8
Unknown_Area_Type
  10
210687.500
  20
4616740.000
  0
VERTEX
  8
Unknown_Area_Type
  10
210398.000
  20
4616740.000
  0
VERTEX
  8
Unknown_Area_Type
  10
210400.000
  20
4616741.500
  0
SEQEND
  8
Unknown_Area_Type
  0
INSERT
  8
FeatureAttribs
  2
FEATURE
  41
1
  42
1
  43
1
  50
0
  10
210538.483
  20
4616740.969
 66
1
  0
ATTRIB
  8
FeatureAttribs
 70
0
  1
PNOA-H_AMS_1956-57_33k_ES_PAN_2
  2
NAME
  10
210538.483
  20
4616740.969
 40
33.99700
  0
SEQEND
  0
POLYLINE
  8
Unknown_Area_Type
  70
1
  66
1
  0
VERTEX
  8
Unknown_Area_Type
  10
210400.000
  20
4616741.500
  0
VERTEX
  8
Unknown_Area_Type
  10
210398.000
  20
4616740.000
  0
VERTEX
  8
Unknown_Area_Type
  10
210687.500
  20
4616740.000
  0
VERTEX
  8
Unknown_Area_Type
  10
210683.500
  20
4616741.500
  0
VERTEX
  8
Unknown_Area_Type
  10
210614.000
  20
4616742.000
  0
VERTEX
  8
Unknown_Area_Type
  10
210401.000
  20
4616742.000
  0
VERTEX
  8
Unknown_Area_Type
  10
210400.000
  20
4616741.500
  0
SEQEND
  8
Unknown_Area_Type
  0
INSERT
  8
FeatureAttribs
  2
FEATURE
  41
1
  42
1
  43
1
  50
0
  10
206874.334
  20
4618759.064
 66
1
  0
ATTRIB
  8
FeatureAttribs
 70
0
  1
PNOA-H_AMS_1956-57_33k_ES_PAN_2
  2
NAME
  10
206874.334
  20
4618759.064
 40
33.99700
  0
SEQEND
  0
POLYLINE
  8
Unknown_Area_Type
  70
1
  66
1
  0
VERTEX
  8
Unknown_Area_Type
  10
206874.453
  20
4618759.074
  0
VERTEX
  8
Unknown_Area_Type
  10
206874.452
  20
4618759.054
  0
VERTEX
  8
Unknown_Area_Type
  10
206873.976
  20
4618759.074
  0
VERTEX
  8
Unknown_Area_Type
  10
206874.453
  20
4618759.074
  0
SEQEND
  8
Unknown_Area_Type
  0
INSERT
  8
FeatureAttribs
  2
FEATURE
  41
1
  42
1
  43
1
  50
0
  10
207581.197
  20
4618739.907
 66
1
  0
ATTRIB
  8
FeatureAttribs
 70
0
  1
PNOA-H_AMS_1956-57_33k_ES_PAN_2
  2
NAME
  10
207581.197
  20
4618739.907
 40
33.99700
  0
SEQEND
  0
POLYLINE
  8
Unknown_Area_Type
  70
1
  66
1
  0
VERTEX
  8
Unknown_Area_Type
  10
207817.332
  20
4618759.074
  0
VERTEX
  8
Unknown_Area_Type
  10
207816.742
  20
4618720.740
  0
VERTEX
  8
Unknown_Area_Type
  10
206874.452
  20
4618759.054
  0
VERTEX
  8
Unknown_Area_Type
  10
206874.453
  20
4618759.074
  0
VERTEX
  8
Unknown_Area_Type
  10
207817.332
  20
4618759.074
  0
SEQEND
  8
Unknown_Area_Type
  0
INSERT
  8
FeatureAttribs
  2
FEATURE
  41
1
  42
1
  43
1
  50
0
  10
207331.059
  20
4618364.773
 66
1
  0
ATTRIB
  8
FeatureAttribs
 70
0
  1
PNOA-H_AMS_1956-57_33k_ES_PAN_2
  2
NAME
  10
207331.059
  20
4618364.773
 40
33.99700
  0
SEQEND
  0
POLYLINE
  8
Unknown_Area_Type
  70
1
  66
1
  0
VERTEX
  8
Unknown_Area_Type
  10
207816.742
  20
4618720.740
  0
VERTEX
  8
Unknown_Area_Type
  10
207805.500
  20
4617990.000
  0
VERTEX
  8
Unknown_Area_Type
  10
207660.000
  20
4617990.000
  0
VERTEX
  8
Unknown_Area_Type
  10
207656.500
  20
4617992.000
  0
VERTEX
  8
Unknown_Area_Type
  10
206843.111
  20
4617992.673
  0
VERTEX
  8
Unknown_Area_Type
  10
206874.452
  20
4618759.054
  0
VERTEX
  8
Unknown_Area_Type
  10
207816.742
  20
4618720.740
  0
SEQEND
  8
Unknown_Area_Type
  0
INSERT
  8
FeatureAttribs
  2
FEATURE
  41
1
  42
1
  43
1
  50
0
  10
207331.059
  20
4618364.773
 66
1
  0
ATTRIB
  8
FeatureAttribs
 70
0
  1
PNOA-H_AMS_1956-57_33k_ES_PAN_2
  2
NAME
  10
207331.059
  20
4618364.773
 40
33.99700
  0
SEQEND
  0
POLYLINE
  8
Unknown_Area_Type
  70
1
  66
1
  0
VERTEX
  8
Unknown_Area_Type
  10
207816.742
  20
4618720.740
  0
VERTEX
  8
Unknown_Area_Type
  10
206874.452
  20
4618759.054
  0
VERTEX
  8
Unknown_Area_Type
  10
206843.111
  20
4617992.673
  0
VERTEX
  8
Unknown_Area_Type
  10
207656.500
  20
4617992.000
  0
VERTEX
  8
Unknown_Area_Type
  10
207660.000
  20
4617990.000
  0
VERTEX
  8
Unknown_Area_Type
  10
207805.500
  20
4617990.000
  0
VERTEX
  8
Unknown_Area_Type
  10
207816.742
  20
4618720.740
  0
SEQEND
  8
Unknown_Area_Type
  0
INSERT
  8
FeatureAttribs
  2
FEATURE
  41
1
  42
1
  43
1
  50
0
  10
224024.937
  20
4616280.750
 66
1
  0
ATTRIB
  8
FeatureAttribs
 70
0
  1
PNOA-H_AMS_1956-57_33k_ES_PAN_2
  2
NAME
  10
224024.937
  20
4616280.750
 40
33.99700
  0
SEQEND
  0
POLYLINE
  8
Unknown_Area_Type
  70
1
  66
1
  0
VERTEX
  8
Unknown_Area_Type
  10
224004.500
  20
4616281.000
  0
VERTEX
  8
Unknown_Area_Type
  10
224005.500
  20
4616281.500
  0
VERTEX
  8
Unknown_Area_Type
  10
224044.500
  20
4616281.500
  0
VERTEX
  8
Unknown_Area_Type
  10
224047.000
  20
4616280.000
  0
VERTEX
  8
Unknown_Area_Type
  10
224003.000
  20
4616280.000
  0
VERTEX
  8
Unknown_Area_Type
  10
224004.500
  20
4616281.000
  0
SEQEND
  8
Unknown_Area_Type
  0
INSERT
  8
FeatureAttribs
  2
FEATURE
  41
1
  42
1
  43
1
  50
0
  10
224024.937
  20
4616280.750
 66
1
  0
ATTRIB
  8
FeatureAttribs
 70
0
  1
PNOA-H_AMS_1956-57_33k_ES_PAN_2
  2
NAME
  10
224024.937
  20
4616280.750
 40
33.99700
  0
SEQEND
  0
POLYLINE
  8
Unknown_Area_Type
  70
1
  66
1
  0
VERTEX
  8
Unknown_Area_Type
  10
224004.500
  20
4616281.000
  0
VERTEX
  8
Unknown_Area_Type
  10
224003.000
  20
4616280.000
  0
VERTEX
  8
Unknown_Area_Type
  10
224047.000
  20
4616280.000
  0
VERTEX
  8
Unknown_Area_Type
  10
224044.500
  20
4616281.500
  0
VERTEX
  8
Unknown_Area_Type
  10
224005.500
  20
4616281.500
  0
VERTEX
  8
Unknown_Area_Type
  10
224004.500
  20
4616281.000
  0
SEQEND
  8
Unknown_Area_Type
  0
INSERT
  8
FeatureAttribs
  2
FEATURE
  41
1
  42
1
  43
1
  50
0
  10
221127.850
  20
4617948.675
 66
1
  0
ATTRIB
  8
FeatureAttribs
 70
0
  1
PNOA-H_AMS_1956-57_33k_ES_PAN_2
  2
NAME
  10
221127.850
  20
4617948.675
 40
33.99700
  0
SEQEND
  0
POLYLINE
  8
Unknown_Area_Type
  70
1
  66
1
  0
VERTEX
  8
Unknown_Area_Type
  10
221569.037
  20
4618173.244
  0
VERTEX
  8
Unknown_Area_Type
  10
221536.000
  20
4617617.000
  0
VERTEX
  8
Unknown_Area_Type
  10
220711.000
  20
4617618.000
  0
VERTEX
  8
Unknown_Area_Type
  10
220707.000
  20
4617615.000
  0
VERTEX
  8
Unknown_Area_Type
  10
220700.000
  20
4617622.000
  0
VERTEX
  8
Unknown_Area_Type
  10
220700.000
  20
4617998.000
  0
VERTEX
  8
Unknown_Area_Type
  10
220698.000
  20
4618000.000
  0
VERTEX
  8
Unknown_Area_Type
  10
220470.000
  20
4618000.000
  0
VERTEX
  8
Unknown_Area_Type
  10
220470.000
  20
4618100.000
  0
VERTEX
  8
Unknown_Area_Type
  10
218761.791
  20
4618100.000
  0
VERTEX
  8
Unknown_Area_Type
  10
218775.997
  20
4618282.350
  0
VERTEX
  8
Unknown_Area_Type
  10
220752.122
  20
4618204.875
  0
VERTEX
  8
Unknown_Area_Type
  10
221569.037
  20
4618173.244
  0
SEQEND
  8
Unknown_Area_Type
  0
INSERT
  8
FeatureAttribs
  2
FEATURE
  41
1
  42
1
  43
1
  50
0
  10
221127.850
  20
4617948.675
 66
1
  0
ATTRIB
  8
FeatureAttribs
 70
0
  1
PNOA-H_AMS_1956-57_33k_ES_PAN_2
  2
NAME
  10
221127.850
  20
4617948.675
 40
33.99700
  0
SEQEND
  0
POLYLINE
  8
Unknown_Area_Type
  70
1
  66
1
  0
VERTEX
  8
Unknown_Area_Type
  10
221569.037
  20
4618173.244
  0
VERTEX
  8
Unknown_Area_Type
  10
221536.000
  20
4617617.000
  0
VERTEX
  8
Unknown_Area_Type
  10
220711.000
  20
4617618.000
  0
VERTEX
  8
Unknown_Area_Type
  10
220707.000
  20
4617615.000
  0
VERTEX
  8
Unknown_Area_Type
  10
220700.000
  20
4617622.000
  0
VERTEX
  8
Unknown_Area_Type
  10
220700.000
  20
4617998.000
  0
VERTEX
  8
Unknown_Area_Type
  10
220698.000
  20
4618000.000
  0
VERTEX
  8
Unknown_Area_Type
  10
220470.000
  20
4618000.000
  0
VERTEX
  8
Unknown_Area_Type
  10
220470.000
  20
4618100.000
  0
VERTEX
  8
Unknown_Area_Type
  10
218761.791
  20
4618100.000
  0
VERTEX
  8
Unknown_Area_Type
  10
218775.997
  20
4618282.350
  0
VERTEX
  8
Unknown_Area_Type
  10
220752.122
  20
4618204.875
  0
VERTEX
  8
Unknown_Area_Type
  10
221569.037
  20
4618173.244
  0
SEQEND
  8
Unknown_Area_Type
  0
INSERT
  8
FeatureAttribs
  2
FEATURE
  41
1
  42
1
  43
1
  50
0
  10
220188.376
  20
4618466.159
 66
1
  0
ATTRIB
  8
FeatureAttribs
 70
0
  1
PNOA-H_AMS_1956-57_33k_ES_PAN_2
  2
NAME
  10
220188.376
  20
4618466.159
 40
33.99700
  0
SEQEND
  0
POLYLINE
  8
Unknown_Area_Type
  70
1
  66
1
  0
VERTEX
  8
Unknown_Area_Type
  10
221603.831
  20
4618759.074
  0
VERTEX
  8
Unknown_Area_Type
  10
221569.037
  20
4618173.244
  0
VERTEX
  8
Unknown_Area_Type
  10
220752.122
  20
4618204.875
  0
VERTEX
  8
Unknown_Area_Type
  10
218775.997
  20
4618282.350
  0
VERTEX
  8
Unknown_Area_Type
  10
218813.138
  20
4618759.074
  0
VERTEX
  8
Unknown_Area_Type
  10
221603.831
  20
4618759.074
  0
SEQEND
  8
Unknown_Area_Type
  0
INSERT
  8
FeatureAttribs
  2
FEATURE
  41
1
  42
1
  43
1
  50
0
  10
214686.837
  20
4618574.122
 66
1
  0
ATTRIB
  8
FeatureAttribs
 70
0
  1
PNOA-H_AMS_1956-57_33k_ES_PAN_2
  2
NAME
  10
214686.837
  20
4618574.122
 40
33.99700
  0
SEQEND
  0
POLYLINE
  8
Unknown_Area_Type
  70
1
  66
1
  0
VERTEX
  8
Unknown_Area_Type
  10
216092.507
  20
4618759.074
  0
VERTEX
  8
Unknown_Area_Type
  10
216066.432
  20
4618389.170
  0
VERTEX
  8
Unknown_Area_Type
  10
213813.322
  20
4618478.597
  0
VERTEX
  8
Unknown_Area_Type
  10
213290.096
  20
4618499.618
  0
VERTEX
  8
Unknown_Area_Type
  10
213304.401
  20
4618759.074
  0
VERTEX
  8
Unknown_Area_Type
  10
216092.507
  20
4618759.074
  0
SEQEND
  8
Unknown_Area_Type
  0
INSERT
  8
FeatureAttribs
  2
FEATURE
  41
1
  42
1
  43
1
  50
0
  10
214523.508
  20
4618257.659
 66
1
  0
ATTRIB
  8
FeatureAttribs
 70
0
  1
PNOA-H_AMS_1956-57_33k_ES_PAN_2
  2
NAME
  10
214523.508
  20
4618257.659
 40
33.99700
  0
SEQEND
  0
POLYLINE
  8
Unknown_Area_Type
  70
1
  66
1
  0
VERTEX
  8
Unknown_Area_Type
  10
216066.432
  20
4618389.170
  0
VERTEX
  8
Unknown_Area_Type
  10
216046.049
  20
4618100.000
  0
VERTEX
  8
Unknown_Area_Type
  10
213920.000
  20
4618100.000
  0
VERTEX
  8
Unknown_Area_Type
  10
213920.000
  20
4617990.000
  0
VERTEX
  8
Unknown_Area_Type
  10
213262.000
  20
4617990.000
  0
VERTEX
  8
Unknown_Area_Type
  10
213290.096
  20
4618499.618
  0
VERTEX
  8
Unknown_Area_Type
  10
213813.322
  20
4618478.597
  0
VERTEX
  8
Unknown_Area_Type
  10
216066.432
  20
4618389.170
  0
SEQEND
  8
Unknown_Area_Type
  0
INSERT
  8
FeatureAttribs
  2
FEATURE
  41
1
  42
1
  43
1
  50
0
  10
214523.508
  20
4618257.659
 66
1
  0
ATTRIB
  8
FeatureAttribs
 70
0
  1
PNOA-H_AMS_1956-57_33k_ES_PAN_2
  2
NAME
  10
214523.508
  20
4618257.659
 40
33.99700
  0
SEQEND
  0
POLYLINE
  8
Unknown_Area_Type
  70
1
  66
1
  0
VERTEX
  8
Unknown_Area_Type
  10
216066.432
  20
4618389.170
  0
VERTEX
  8
Unknown_Area_Type
  10
213813.322
  20
4618478.597
  0
VERTEX
  8
Unknown_Area_Type
  10
213290.096
  20
4618499.618
  0
VERTEX
  8
Unknown_Area_Type
  10
213262.000
  20
4617990.000
  0
VERTEX
  8
Unknown_Area_Type
  10
213920.000
  20
4617990.000
  0
VERTEX
  8
Unknown_Area_Type
  10
213920.000
  20
4618100.000
  0
VERTEX
  8
Unknown_Area_Type
  10
216046.049
  20
4618100.000
  0
VERTEX
  8
Unknown_Area_Type
  10
216066.432
  20
4618389.170
  0
SEQEND
  8
Unknown_Area_Type
  0
INSERT
  8
FeatureAttribs
  2
FEATURE
  41
1
  42
1
  43
1
  50
0
  10
222963.699
  20
4617867.121
 66
1
  0
ATTRIB
  8
FeatureAttribs
 70
0
  1
PNOA-H_AMS_1956-57_33k_ES_PAN_2
  2
NAME
  10
222963.699
  20
4617867.121
 40
33.99700
  0
SEQEND
  0
POLYLINE
  8
Unknown_Area_Type
  70
1
  66
1
  0
VERTEX
  8
Unknown_Area_Type
  10
224391.397
  20
4618064.044
  0
VERTEX
  8
Unknown_Area_Type
  10
224357.000
  20
4617483.500
  0
VERTEX
  8
Unknown_Area_Type
  10
224357.000
  20
4617480.000
  0
VERTEX
  8
Unknown_Area_Type
  10
224324.500
  20
4616925.500
  0
VERTEX
  8
Unknown_Area_Type
  10
224318.500
  20
4616921.000
  0
VERTEX
  8
Unknown_Area_Type
  10
223995.000
  20
4616735.500
  0
VERTEX
  8
Unknown_Area_Type
  10
223995.000
  20
4617613.000
  0
VERTEX
  8
Unknown_Area_Type
  10
223993.000
  20
4617615.000
  0
VERTEX
  8
Unknown_Area_Type
  10
221551.000
  20
4617615.000
  0
VERTEX
  8
Unknown_Area_Type
  10
221548.000
  20
4617617.000
  0
VERTEX
  8
Unknown_Area_Type
  10
221536.000
  20
4617617.000
  0
VERTEX
  8
Unknown_Area_Type
  10
221568.989
  20
4618173.246
  0
VERTEX
  8
Unknown_Area_Type
  10
224221.496
  20
4618070.541
  0
VERTEX
  8
Unknown_Area_Type
  10
224391.397
  20
4618064.044
  0
SEQEND
  8
Unknown_Area_Type
  0
INSERT
  8
FeatureAttribs
  2
FEATURE
  41
1
  42
1
  43
1
  50
0
  10
222963.699
  20
4617867.121
 66
1
  0
ATTRIB
  8
FeatureAttribs
 70
0
  1
PNOA-H_AMS_1956-57_33k_ES_PAN_2
  2
NAME
  10
222963.699
  20
4617867.121
 40
33.99700
  0
SEQEND
  0
POLYLINE
  8
Unknown_Area_Type
  70
1
  66
1
  0
VERTEX
  8
Unknown_Area_Type
  10
224391.397
  20
4618064.044
  0
VERTEX
  8
Unknown_Area_Type
  10
224357.000
  20
4617483.500
  0
VERTEX
  8
Unknown_Area_Type
  10
224357.000
  20
4617480.000
  0
VERTEX
  8
Unknown_Area_Type
  10
224324.500
  20
4616925.500
  0
VERTEX
  8
Unknown_Area_Type
  10
224318.500
  20
4616921.000
  0
VERTEX
  8
Unknown_Area_Type
  10
223995.000
  20
4616735.500
  0
VERTEX
  8
Unknown_Area_Type
  10
223995.000
  20
4617613.000
  0
VERTEX
  8
Unknown_Area_Type
  10
223993.000
  20
4617615.000
  0
VERTEX
  8
Unknown_Area_Type
  10
221551.000
  20
4617615.000
  0
VERTEX
  8
Unknown_Area_Type
  10
221548.000
  20
4617617.000
  0
VERTEX
  8
Unknown_Area_Type
  10
221536.000
  20
4617617.000
  0
VERTEX
  8
Unknown_Area_Type
  10
221568.989
  20
4618173.246
  0
VERTEX
  8
Unknown_Area_Type
  10
224221.496
  20
4618070.541
  0
VERTEX
  8
Unknown_Area_Type
  10
224391.397
  20
4618064.044
  0
SEQEND
  8
Unknown_Area_Type
  0
INSERT
  8
FeatureAttribs
  2
FEATURE
  41
1
  42
1
  43
1
  50
0
  10
222997.555
  20
4618411.559
 66
1
  0
ATTRIB
  8
FeatureAttribs
 70
0
  1
PNOA-H_AMS_1956-57_33k_ES_PAN_2
  2
NAME
  10
222997.555
  20
4618411.559
 40
33.99700
  0
SEQEND
  0
POLYLINE
  8
Unknown_Area_Type
  70
1
  66
1
  0
VERTEX
  8
Unknown_Area_Type
  10
224432.578
  20
4618759.074
  0
VERTEX
  8
Unknown_Area_Type
  10
224391.397
  20
4618064.044
  0
VERTEX
  8
Unknown_Area_Type
  10
224221.496
  20
4618070.541
  0
VERTEX
  8
Unknown_Area_Type
  10
221568.989
  20
4618173.246
  0
VERTEX
  8
Unknown_Area_Type
  10
221603.732
  20
4618759.074
  0
VERTEX
  8
Unknown_Area_Type
  10
224432.578
  20
4618759.074
  0
SEQEND
  8
Unknown_Area_Type
  0
INSERT
  8
FeatureAttribs
  2
FEATURE
  41
1
  42
1
  43
1
  50
0
  10
228536.405
  20
4618306.964
 66
1
  0
ATTRIB
  8
FeatureAttribs
 70
0
  1
PNOA-H_AMS_1956-57_33k_ES_PAN_2
  2
NAME
  10
228536.405
  20
4618306.964
 40
33.99700
  0
SEQEND
  0
POLYLINE
  8
Unknown_Area_Type
  70
1
  66
1
  0
VERTEX
  8
Unknown_Area_Type
  10
229983.834
  20
4618759.074
  0
VERTEX
  8
Unknown_Area_Type
  10
229890.461
  20
4617854.854
  0
VERTEX
  8
Unknown_Area_Type
  10
227690.852
  20
4617937.889
  0
VERTEX
  8
Unknown_Area_Type
  10
227112.248
  20
4617960.012
  0
VERTEX
  8
Unknown_Area_Type
  10
227166.176
  20
4618759.074
  0
VERTEX
  8
Unknown_Area_Type
  10
229983.834
  20
4618759.074
  0
SEQEND
  8
Unknown_Area_Type
  0
INSERT
  8
FeatureAttribs
  2
FEATURE
  41
1
  42
1
  43
1
  50
0
  10
228460.221
  20
4617297.726
 66
1
  0
ATTRIB
  8
FeatureAttribs
 70
0
  1
PNOA-H_AMS_1956-57_33k_ES_PAN_2
  2
NAME
  10
228460.221
  20
4617297.726
 40
33.99700
  0
SEQEND
  0
POLYLINE
  8
Unknown_Area_Type
  70
1
  66
1
  0
VERTEX
  8
Unknown_Area_Type
  10
229890.461
  20
4617854.854
  0
VERTEX
  8
Unknown_Area_Type
  10
229761.500
  20
4616606.000
  0
VERTEX
  8
Unknown_Area_Type
  10
227107.500
  20
4616760.500
  0
VERTEX
  8
Unknown_Area_Type
  10
227100.000
  20
4616761.500
  0
VERTEX
  8
Unknown_Area_Type
  10
227034.500
  20
4616808.000
  0
VERTEX
  8
Unknown_Area_Type
  10
227112.248
  20
4617960.012
  0
VERTEX
  8
Unknown_Area_Type
  10
227690.852
  20
4617937.889
  0
VERTEX
  8
Unknown_Area_Type
  10
229890.461
  20
4617854.854
  0
SEQEND
  8
Unknown_Area_Type
  0
INSERT
  8
FeatureAttribs
  2
FEATURE
  41
1
  42
1
  43
1
  50
0
  10
228460.221
  20
4617297.726
 66
1
  0
ATTRIB
  8
FeatureAttribs
 70
0
  1
PNOA-H_AMS_1956-57_33k_ES_PAN_2
  2
NAME
  10
228460.221
  20
4617297.726
 40
33.99700
  0
SEQEND
  0
POLYLINE
  8
Unknown_Area_Type
  70
1
  66
1
  0
VERTEX
  8
Unknown_Area_Type
  10
229890.461
  20
4617854.854
  0
VERTEX
  8
Unknown_Area_Type
  10
227690.852
  20
4617937.889
  0
VERTEX
  8
Unknown_Area_Type
  10
227112.248
  20
4617960.012
  0
VERTEX
  8
Unknown_Area_Type
  10
227034.500
  20
4616808.000
  0
VERTEX
  8
Unknown_Area_Type
  10
227100.000
  20
4616761.500
  0
VERTEX
  8
Unknown_Area_Type
  10
227107.500
  20
4616760.500
  0
VERTEX
  8
Unknown_Area_Type
  10
229761.500
  20
4616606.000
  0
VERTEX
  8
Unknown_Area_Type
  10
229890.461
  20
4617854.854
  0
SEQEND
  8
Unknown_Area_Type
  0
INSERT
  8
FeatureAttribs
  2
FEATURE
  41
1
  42
1
  43
1
  50
0
  10
231357.948
  20
4618253.401
 66
1
  0
ATTRIB
  8
FeatureAttribs
 70
0
  1
PNOA-H_AMS_1956-57_33k_ES_PAN_2
  2
NAME
  10
231357.948
  20
4618253.401
 40
33.99700
  0
SEQEND
  0
POLYLINE
  8
Unknown_Area_Type
  70
1
  66
1
  0
VERTEX
  8
Unknown_Area_Type
  10
232819.955
  20
4618759.074
  0
VERTEX
  8
Unknown_Area_Type
  10
232748.605
  20
4617747.729
  0
VERTEX
  8
Unknown_Area_Type
  10
231160.192
  20
4617806.921
  0
VERTEX
  8
Unknown_Area_Type
  10
229890.461
  20
4617854.854
  0
VERTEX
  8
Unknown_Area_Type
  10
229983.834
  20
4618759.074
  0
VERTEX
  8
Unknown_Area_Type
  10
232819.955
  20
4618759.074
  0
SEQEND
  8
Unknown_Area_Type
  0
INSERT
  8
FeatureAttribs
  2
FEATURE
  41
1
  42
1
  43
1
  50
0
  10
231295.766
  20
4617108.678
 66
1
  0
ATTRIB
  8
FeatureAttribs
 70
0
  1
PNOA-H_AMS_1956-57_33k_ES_PAN_2
  2
NAME
  10
231295.766
  20
4617108.678
 40
33.99700
  0
SEQEND
  0
POLYLINE
  8
Unknown_Area_Type
  70
1
  66
1
  0
VERTEX
  8
Unknown_Area_Type
  10
232748.605
  20
4617747.729
  0
VERTEX
  8
Unknown_Area_Type
  10
232652.500
  20
4616385.500
  0
VERTEX
  8
Unknown_Area_Type
  10
232652.000
  20
4616383.500
  0
VERTEX
  8
Unknown_Area_Type
  10
232646.000
  20
4616380.500
  0
VERTEX
  8
Unknown_Area_Type
  10
232420.000
  20
4616275.000
  0
VERTEX
  8
Unknown_Area_Type
  10
229788.500
  20
4616588.000
  0
VERTEX
  8
Unknown_Area_Type
  10
229782.000
  20
4616589.500
  0
VERTEX
  8
Unknown_Area_Type
  10
229761.500
  20
4616606.000
  0
VERTEX
  8
Unknown_Area_Type
  10
229890.461
  20
4617854.854
  0
VERTEX
  8
Unknown_Area_Type
  10
231160.192
  20
4617806.921
  0
VERTEX
  8
Unknown_Area_Type
  10
232748.605
  20
4617747.729
  0
SEQEND
  8
Unknown_Area_Type
  0
INSERT
  8
FeatureAttribs
  2
FEATURE
  41
1
  42
1
  43
1
  50
0
  10
231295.766
  20
4617108.678
 66
1
  0
ATTRIB
  8
FeatureAttribs
 70
0
  1
PNOA-H_AMS_1956-57_33k_ES_PAN_2
  2
NAME
  10
231295.766
  20
4617108.678
 40
33.99700
  0
SEQEND
  0
POLYLINE
  8
Unknown_Area_Type
  70
1
  66
1
  0
VERTEX
  8
Unknown_Area_Type
  10
232748.605
  20
4617747.729
  0
VERTEX
  8
Unknown_Area_Type
  10
231160.192
  20
4617806.921
  0
VERTEX
  8
Unknown_Area_Type
  10
229890.461
  20
4617854.854
  0
VERTEX
  8
Unknown_Area_Type
  10
229761.500
  20
4616606.000
  0
VERTEX
  8
Unknown_Area_Type
  10
229782.000
  20
4616589.500
  0
VERTEX
  8
Unknown_Area_Type
  10
229788.500
  20
4616588.000
  0
VERTEX
  8
Unknown_Area_Type
  10
232420.000
  20
4616275.000
  0
VERTEX
  8
Unknown_Area_Type
  10
232646.000
  20
4616380.500
  0
VERTEX
  8
Unknown_Area_Type
  10
232652.000
  20
4616383.500
  0
VERTEX
  8
Unknown_Area_Type
  10
232652.500
  20
4616385.500
  0
VERTEX
  8
Unknown_Area_Type
  10
232748.605
  20
4617747.729
  0
SEQEND
  8
Unknown_Area_Type
  0
INSERT
  8
FeatureAttribs
  2
FEATURE
  41
1
  42
1
  43
1
  50
0
  10
209612.265
  20
4618684.924
 66
1
  0
ATTRIB
  8
FeatureAttribs
 70
0
  1
PNOA-H_AMS_1956-57_33k_ES_PAN_2
  2
NAME
  10
209612.265
  20
4618684.924
 40
33.99700
  0
SEQEND
  0
POLYLINE
  8
Unknown_Area_Type
  70
1
  66
1
  0
VERTEX
  8
Unknown_Area_Type
  10
210530.498
  20
4618759.074
  0
VERTEX
  8
Unknown_Area_Type
  10
210523.367
  20
4618610.773
  0
VERTEX
  8
Unknown_Area_Type
  10
210343.896
  20
4618617.983
  0
VERTEX
  8
Unknown_Area_Type
  10
207816.742
  20
4618720.740
  0
VERTEX
  8
Unknown_Area_Type
  10
207817.332
  20
4618759.074
  0
VERTEX
  8
Unknown_Area_Type
  10
210530.498
  20
4618759.074
  0
SEQEND
  8
Unknown_Area_Type
  0
INSERT
  8
FeatureAttribs
  2
FEATURE
  41
1
  42
1
  43
1
  50
0
  10
209195.114
  20
4617744.181
 66
1
  0
ATTRIB
  8
FeatureAttribs
 70
0
  1
PNOA-H_AMS_1956-57_33k_ES_PAN_2
  2
NAME
  10
209195.114
  20
4617744.181
 40
33.99700
  0
SEQEND
  0
POLYLINE
  8
Unknown_Area_Type
  70
1
  66
1
  0
VERTEX
  8
Unknown_Area_Type
  10
210523.367
  20
4618610.773
  0
VERTEX
  8
Unknown_Area_Type
  10
210433.500
  20
4616742.000
  0
VERTEX
  8
Unknown_Area_Type
  10
210401.000
  20
4616742.000
  0
VERTEX
  8
Unknown_Area_Type
  10
210397.000
  20
4616740.000
  0
VERTEX
  8
Unknown_Area_Type
  10
210393.000
  20
4616745.000
  0
VERTEX
  8
Unknown_Area_Type
  10
210342.000
  20
4616745.000
  0
VERTEX
  8
Unknown_Area_Type
  10
210338.000
  20
4616750.000
  0
VERTEX
  8
Unknown_Area_Type
  10
210307.000
  20
4616750.000
  0
VERTEX
  8
Unknown_Area_Type
  10
210303.000
  20
4616755.000
  0
VERTEX
  8
Unknown_Area_Type
  10
210262.000
  20
4616755.000
  0
VERTEX
  8
Unknown_Area_Type
  10
210258.000
  20
4616760.000
  0
VERTEX
  8
Unknown_Area_Type
  10
210132.000
  20
4616760.000
  0
VERTEX
  8
Unknown_Area_Type
  10
210128.000
  20
4616765.000
  0
VERTEX
  8
Unknown_Area_Type
  10
209967.000
  20
4616765.000
  0
VERTEX
  8
Unknown_Area_Type
  10
209962.000
  20
4616760.000
  0
VERTEX
  8
Unknown_Area_Type
  10
209955.000
  20
4616767.000
  0
VERTEX
  8
Unknown_Area_Type
  10
209955.000
  20
4616773.000
  0
VERTEX
  8
Unknown_Area_Type
  10
209953.000
  20
4616775.000
  0
VERTEX
  8
Unknown_Area_Type
  10
208877.000
  20
4616775.000
  0
VERTEX
  8
Unknown_Area_Type
  10
208873.000
  20
4616780.000
  0
VERTEX
  8
Unknown_Area_Type
  10
208772.000
  20
4616780.000
  0
VERTEX
  8
Unknown_Area_Type
  10
208768.000
  20
4616785.000
  0
VERTEX
  8
Unknown_Area_Type
  10
208657.000
  20
4616785.000
  0
VERTEX
  8
Unknown_Area_Type
  10
208653.000
  20
4616790.000
  0
VERTEX
  8
Unknown_Area_Type
  10
208462.000
  20
4616790.000
  0
VERTEX
  8
Unknown_Area_Type
  10
208458.000
  20
4616795.000
  0
VERTEX
  8
Unknown_Area_Type
  10
208437.000
  20
4616795.000
  0
VERTEX
  8
Unknown_Area_Type
  10
208433.000
  20
4616800.000
  0
VERTEX
  8
Unknown_Area_Type
  10
208427.000
  20
4616800.000
  0
VERTEX
  8
Unknown_Area_Type
  10
208423.000
  20
4616805.000
  0
VERTEX
  8
Unknown_Area_Type
  10
208387.000
  20
4616805.000
  0
VERTEX
  8
Unknown_Area_Type
  10
208383.000
  20
4616810.000
  0
VERTEX
  8
Unknown_Area_Type
  10
208047.000
  20
4616810.000
  0
VERTEX
  8
Unknown_Area_Type
  10
208043.000
  20
4616815.000
  0
VERTEX
  8
Unknown_Area_Type
  10
208002.000
  20
4616815.000
  0
VERTEX
  8
Unknown_Area_Type
  10
207995.000
  20
4616822.000
  0
VERTEX
  8
Unknown_Area_Type
  10
207995.000
  20
4617988.000
  0
VERTEX
  8
Unknown_Area_Type
  10
207993.000
  20
4617990.000
  0
VERTEX
  8
Unknown_Area_Type
  10
207805.500
  20
4617990.000
  0
VERTEX
  8
Unknown_Area_Type
  10
207816.742
  20
4618720.740
  0
VERTEX
  8
Unknown_Area_Type
  10
210343.896
  20
4618617.983
  0
VERTEX
  8
Unknown_Area_Type
  10
210523.367
  20
4618610.773
  0
SEQEND
  8
Unknown_Area_Type
  0
INSERT
  8
FeatureAttribs
  2
FEATURE
  41
1
  42
1
  43
1
  50
0
  10
209195.114
  20
4617744.181
 66
1
  0
ATTRIB
  8
FeatureAttribs
 70
0
  1
PNOA-H_AMS_1956-57_33k_ES_PAN_2
  2
NAME
  10
209195.114
  20
4617744.181
 40
33.99700
  0
SEQEND
  0
POLYLINE
  8
Unknown_Area_Type
  70
1
  66
1
  0
VERTEX
  8
Unknown_Area_Type
  10
210523.367
  20
4618610.773
  0
VERTEX
  8
Unknown_Area_Type
  10
210343.896
  20
4618617.983
  0
VERTEX
  8
Unknown_Area_Type
  10
207816.742
  20
4618720.740
  0
VERTEX
  8
Unknown_Area_Type
  10
207805.500
  20
4617990.000
  0
VERTEX
  8
Unknown_Area_Type
  10
207993.000
  20
4617990.000
  0
VERTEX
  8
Unknown_Area_Type
  10
207995.000
  20
4617988.000
  0
VERTEX
  8
Unknown_Area_Type
  10
207995.000
  20
4616822.000
  0
VERTEX
  8
Unknown_Area_Type
  10
208002.000
  20
4616815.000
  0
VERTEX
  8
Unknown_Area_Type
  10
208043.000
  20
4616815.000
  0
VERTEX
  8
Unknown_Area_Type
  10
208047.000
  20
4616810.000
  0
VERTEX
  8
Unknown_Area_Type
  10
208383.000
  20
4616810.000
  0
VERTEX
  8
Unknown_Area_Type
  10
208387.000
  20
4616805.000
  0
VERTEX
  8
Unknown_Area_Type
  10
208423.000
  20
4616805.000
  0
VERTEX
  8
Unknown_Area_Type
  10
208427.000
  20
4616800.000
  0
VERTEX
  8
Unknown_Area_Type
  10
208433.000
  20
4616800.000
  0
VERTEX
  8
Unknown_Area_Type
  10
208437.000
  20
4616795.000
  0
VERTEX
  8
Unknown_Area_Type
  10
208458.000
  20
4616795.000
  0
VERTEX
  8
Unknown_Area_Type
  10
208462.000
  20
4616790.000
  0
VERTEX
  8
Unknown_Area_Type
  10
208653.000
  20
4616790.000
  0
VERTEX
  8
Unknown_Area_Type
  10
208657.000
  20
4616785.000
  0
VERTEX
  8
Unknown_Area_Type
  10
208768.000
  20
4616785.000
  0
VERTEX
  8
Unknown_Area_Type
  10
208772.000
  20
4616780.000
  0
VERTEX
  8
Unknown_Area_Type
  10
208873.000
  20
4616780.000
  0
VERTEX
  8
Unknown_Area_Type
  10
208877.000
  20
4616775.000
  0
VERTEX
  8
Unknown_Area_Type
  10
209953.000
  20
4616775.000
  0
VERTEX
  8
Unknown_Area_Type
  10
209955.000
  20
4616773.000
  0
VERTEX
  8
Unknown_Area_Type
  10
209955.000
  20
4616767.000
  0
VERTEX
  8
Unknown_Area_Type
  10
209962.000
  20
4616760.000
  0
VERTEX
  8
Unknown_Area_Type
  10
209967.000
  20
4616765.000
  0
VERTEX
  8
Unknown_Area_Type
  10
210128.000
  20
4616765.000
  0
VERTEX
  8
Unknown_Area_Type
  10
210132.000
  20
4616760.000
  0
VERTEX
  8
Unknown_Area_Type
  10
210258.000
  20
4616760.000
  0
VERTEX
  8
Unknown_Area_Type
  10
210262.000
  20
4616755.000
  0
VERTEX
  8
Unknown_Area_Type
  10
210303.000
  20
4616755.000
  0
VERTEX
  8
Unknown_Area_Type
  10
210307.000
  20
4616750.000
  0
VERTEX
  8
Unknown_Area_Type
  10
210338.000
  20
4616750.000
  0
VERTEX
  8
Unknown_Area_Type
  10
210342.000
  20
4616745.000
  0
VERTEX
  8
Unknown_Area_Type
  10
210393.000
  20
4616745.000
  0
VERTEX
  8
Unknown_Area_Type
  10
210397.000
  20
4616740.000
  0
VERTEX
  8
Unknown_Area_Type
  10
210401.000
  20
4616742.000
  0
VERTEX
  8
Unknown_Area_Type
  10
210433.500
  20
4616742.000
  0
VERTEX
  8
Unknown_Area_Type
  10
210523.367
  20
4618610.773
  0
SEQEND
  8
Unknown_Area_Type
  0
INSERT
  8
FeatureAttribs
  2
FEATURE
  41
1
  42
1
  43
1
  50
0
  10
221112.470
  20
4617616.359
 66
1
  0
ATTRIB
  8
FeatureAttribs
 70
0
  1
PNOA-H_AMS_1956-57_33k_ES_PAN_2
  2
NAME
  10
221112.470
  20
4617616.359
 40
33.99700
  0
SEQEND
  0
POLYLINE
  8
Unknown_Area_Type
  70
1
  66
1
  0
VERTEX
  8
Unknown_Area_Type
  10
220710.500
  20
4617617.000
  0
VERTEX
  8
Unknown_Area_Type
  10
220711.000
  20
4617618.000
  0
VERTEX
  8
Unknown_Area_Type
  10
221477.500
  20
4617617.500
  0
VERTEX
  8
Unknown_Area_Type
  10
221548.000
  20
4617617.000
  0
VERTEX
  8
Unknown_Area_Type
  10
221551.000
  20
4617615.000
  0
VERTEX
  8
Unknown_Area_Type
  10
220707.500
  20
4617615.000
  0
VERTEX
  8
Unknown_Area_Type
  10
220710.500
  20
4617617.000
  0
SEQEND
  8
Unknown_Area_Type
  0
INSERT
  8
FeatureAttribs
  2
FEATURE
  41
1
  42
1
  43
1
  50
0
  10
221112.470
  20
4617616.359
 66
1
  0
ATTRIB
  8
FeatureAttribs
 70
0
  1
PNOA-H_AMS_1956-57_33k_ES_PAN_2
  2
NAME
  10
221112.470
  20
4617616.359
 40
33.99700
  0
SEQEND
  0
POLYLINE
  8
Unknown_Area_Type
  70
1
  66
1
  0
VERTEX
  8
Unknown_Area_Type
  10
220710.500
  20
4617617.000
  0
VERTEX
  8
Unknown_Area_Type
  10
220707.500
  20
4617615.000
  0
VERTEX
  8
Unknown_Area_Type
  10
221551.000
  20
4617615.000
  0
VERTEX
  8
Unknown_Area_Type
  10
221548.000
  20
4617617.000
  0
VERTEX
  8
Unknown_Area_Type
  10
221477.500
  20
4617617.500
  0
VERTEX
  8
Unknown_Area_Type
  10
220711.000
  20
4617618.000
  0
VERTEX
  8
Unknown_Area_Type
  10
220710.500
  20
4617617.000
  0
SEQEND
  8
Unknown_Area_Type
  0
INSERT
  8
FeatureAttribs
  2
FEATURE
  41
1
  42
1
  43
1
  50
0
  10
217414.634
  20
4618244.586
 66
1
  0
ATTRIB
  8
FeatureAttribs
 70
0
  1
PNOA-H_AMS_1956-57_33k_ES_PAN_2
  2
NAME
  10
217414.634
  20
4618244.586
 40
33.99700
  0
SEQEND
  0
POLYLINE
  8
Unknown_Area_Type
  70
1
  66
1
  0
VERTEX
  8
Unknown_Area_Type
  10
218775.997
  20
4618282.350
  0
VERTEX
  8
Unknown_Area_Type
  10
218761.791
  20
4618100.000
  0
VERTEX
  8
Unknown_Area_Type
  10
216046.038
  20
4618100.000
  0
VERTEX
  8
Unknown_Area_Type
  10
216066.388
  20
4618389.171
  0
VERTEX
  8
Unknown_Area_Type
  10
217282.731
  20
4618340.894
  0
VERTEX
  8
Unknown_Area_Type
  10
218775.997
  20
4618282.350
  0
SEQEND
  8
Unknown_Area_Type
  0
INSERT
  8
FeatureAttribs
  2
FEATURE
  41
1
  42
1
  43
1
  50
0
  10
217414.634
  20
4618244.586
 66
1
  0
ATTRIB
  8
FeatureAttribs
 70
0
  1
PNOA-H_AMS_1956-57_33k_ES_PAN_2
  2
NAME
  10
217414.634
  20
4618244.586
 40
33.99700
  0
SEQEND
  0
POLYLINE
  8
Unknown_Area_Type
  70
1
  66
1
  0
VERTEX
  8
Unknown_Area_Type
  10
218775.997
  20
4618282.350
  0
VERTEX
  8
Unknown_Area_Type
  10
218761.791
  20
4618100.000
  0
VERTEX
  8
Unknown_Area_Type
  10
216046.038
  20
4618100.000
  0
VERTEX
  8
Unknown_Area_Type
  10
216066.388
  20
4618389.171
  0
VERTEX
  8
Unknown_Area_Type
  10
217282.731
  20
4618340.894
  0
VERTEX
  8
Unknown_Area_Type
  10
218775.997
  20
4618282.350
  0
SEQEND
  8
Unknown_Area_Type
  0
INSERT
  8
FeatureAttribs
  2
FEATURE
  41
1
  42
1
  43
1
  50
0
  10
217435.107
  20
4618520.712
 66
1
  0
ATTRIB
  8
FeatureAttribs
 70
0
  1
PNOA-H_AMS_1956-57_33k_ES_PAN_2
  2
NAME
  10
217435.107
  20
4618520.712
 40
33.99700
  0
SEQEND
  0
POLYLINE
  8
Unknown_Area_Type
  70
1
  66
1
  0
VERTEX
  8
Unknown_Area_Type
  10
218813.138
  20
4618759.074
  0
VERTEX
  8
Unknown_Area_Type
  10
218775.997
  20
4618282.350
  0
VERTEX
  8
Unknown_Area_Type
  10
217282.731
  20
4618340.894
  0
VERTEX
  8
Unknown_Area_Type
  10
216066.388
  20
4618389.171
  0
VERTEX
  8
Unknown_Area_Type
  10
216092.421
  20
4618759.074
  0
VERTEX
  8
Unknown_Area_Type
  10
218813.138
  20
4618759.074
  0
SEQEND
  8
Unknown_Area_Type
  0
INSERT
  8
FeatureAttribs
  2
FEATURE
  41
1
  42
1
  43
1
  50
0
  10
211911.002
  20
4618629.337
 66
1
  0
ATTRIB
  8
FeatureAttribs
 70
0
  1
PNOA-H_AMS_1956-57_33k_ES_PAN_2
  2
NAME
  10
211911.002
  20
4618629.337
 40
33.99700
  0
SEQEND
  0
POLYLINE
  8
Unknown_Area_Type
  70
1
  66
1
  0
VERTEX
  8
Unknown_Area_Type
  10
213304.868
  20
4618759.074
  0
VERTEX
  8
Unknown_Area_Type
  10
213290.564
  20
4618499.599
  0
VERTEX
  8
Unknown_Area_Type
  10
210523.396
  20
4618610.772
  0
VERTEX
  8
Unknown_Area_Type
  10
210530.530
  20
4618759.074
  0
VERTEX
  8
Unknown_Area_Type
  10
213304.868
  20
4618759.074
  0
SEQEND
  8
Unknown_Area_Type
  0
INSERT
  8
FeatureAttribs
  2
FEATURE
  41
1
  42
1
  43
1
  50
0
  10
211510.146
  20
4617762.987
 66
1
  0
ATTRIB
  8
FeatureAttribs
 70
0
  1
PNOA-H_AMS_1956-57_33k_ES_PAN_2
  2
NAME
  10
211510.146
  20
4617762.987
 40
33.99700
  0
SEQEND
  0
POLYLINE
  8
Unknown_Area_Type
  70
1
  66
1
  0
VERTEX
  8
Unknown_Area_Type
  10
213290.564
  20
4618499.599
  0
VERTEX
  8
Unknown_Area_Type
  10
213262.500
  20
4617990.500
  0
VERTEX
  8
Unknown_Area_Type
  10
212012.000
  20
4617990.000
  0
VERTEX
  8
Unknown_Area_Type
  10
212010.000
  20
4617988.000
  0
VERTEX
  8
Unknown_Area_Type
  10
212010.000
  20
4616710.500
  0
VERTEX
  8
Unknown_Area_Type
  10
211780.000
  20
4616710.500
  0
VERTEX
  8
Unknown_Area_Type
  10
211780.000
  20
4616713.000
  0
VERTEX
  8
Unknown_Area_Type
  10
211778.000
  20
4616715.000
  0
VERTEX
  8
Unknown_Area_Type
  10
211622.000
  20
4616715.000
  0
VERTEX
  8
Unknown_Area_Type
  10
211618.000
  20
4616720.000
  0
VERTEX
  8
Unknown_Area_Type
  10
211367.000
  20
4616720.000
  0
VERTEX
  8
Unknown_Area_Type
  10
211363.000
  20
4616725.000
  0
VERTEX
  8
Unknown_Area_Type
  10
211192.000
  20
4616725.000
  0
VERTEX
  8
Unknown_Area_Type
  10
211188.000
  20
4616730.000
  0
VERTEX
  8
Unknown_Area_Type
  10
211012.000
  20
4616730.000
  0
VERTEX
  8
Unknown_Area_Type
  10
211008.000
  20
4616725.000
  0
VERTEX
  8
Unknown_Area_Type
  10
210972.000
  20
4616725.000
  0
VERTEX
  8
Unknown_Area_Type
  10
210968.000
  20
4616730.000
  0
VERTEX
  8
Unknown_Area_Type
  10
210887.000
  20
4616730.000
  0
VERTEX
  8
Unknown_Area_Type
  10
210883.000
  20
4616735.000
  0
VERTEX
  8
Unknown_Area_Type
  10
210822.000
  20
4616735.000
  0
VERTEX
  8
Unknown_Area_Type
  10
210818.000
  20
4616740.000
  0
VERTEX
  8
Unknown_Area_Type
  10
210687.500
  20
4616740.000
  0
VERTEX
  8
Unknown_Area_Type
  10
210683.500
  20
4616741.500
  0
VERTEX
  8
Unknown_Area_Type
  10
210614.000
  20
4616742.000
  0
VERTEX
  8
Unknown_Area_Type
  10
210433.500
  20
4616742.000
  0
VERTEX
  8
Unknown_Area_Type
  10
210523.396
  20
4618610.772
  0
VERTEX
  8
Unknown_Area_Type
  10
213290.564
  20
4618499.599
  0
SEQEND
  8
Unknown_Area_Type
  0
INSERT
  8
FeatureAttribs
  2
FEATURE
  41
1
  42
1
  43
1
  50
0
  10
211510.146
  20
4617762.987
 66
1
  0
ATTRIB
  8
FeatureAttribs
 70
0
  1
PNOA-H_AMS_1956-57_33k_ES_PAN_2
  2
NAME
  10
211510.146
  20
4617762.987
 40
33.99700
  0
SEQEND
  0
POLYLINE
  8
Unknown_Area_Type
  70
1
  66
1
  0
VERTEX
  8
Unknown_Area_Type
  10
213290.564
  20
4618499.599
  0
VERTEX
  8
Unknown_Area_Type
  10
210523.396
  20
4618610.772
  0
VERTEX
  8
Unknown_Area_Type
  10
210433.500
  20
4616742.000
  0
VERTEX
  8
Unknown_Area_Type
  10
210614.000
  20
4616742.000
  0
VERTEX
  8
Unknown_Area_Type
  10
210683.500
  20
4616741.500
  0
VERTEX
  8
Unknown_Area_Type
  10
210687.500
  20
4616740.000
  0
VERTEX
  8
Unknown_Area_Type
  10
210818.000
  20
4616740.000
  0
VERTEX
  8
Unknown_Area_Type
  10
210822.000
  20
4616735.000
  0
VERTEX
  8
Unknown_Area_Type
  10
210883.000
  20
4616735.000
  0
VERTEX
  8
Unknown_Area_Type
  10
210887.000
  20
4616730.000
  0
VERTEX
  8
Unknown_Area_Type
  10
210968.000
  20
4616730.000
  0
VERTEX
  8
Unknown_Area_Type
  10
210972.000
  20
4616725.000
  0
VERTEX
  8
Unknown_Area_Type
  10
211008.000
  20
4616725.000
  0
VERTEX
  8
Unknown_Area_Type
  10
211012.000
  20
4616730.000
  0
VERTEX
  8
Unknown_Area_Type
  10
211188.000
  20
4616730.000
  0
VERTEX
  8
Unknown_Area_Type
  10
211192.000
  20
4616725.000
  0
VERTEX
  8
Unknown_Area_Type
  10
211363.000
  20
4616725.000
  0
VERTEX
  8
Unknown_Area_Type
  10
211367.000
  20
4616720.000
  0
VERTEX
  8
Unknown_Area_Type
  10
211618.000
  20
4616720.000
  0
VERTEX
  8
Unknown_Area_Type
  10
211622.000
  20
4616715.000
  0
VERTEX
  8
Unknown_Area_Type
  10
211778.000
  20
4616715.000
  0
VERTEX
  8
Unknown_Area_Type
  10
211780.000
  20
4616713.000
  0
VERTEX
  8
Unknown_Area_Type
  10
211780.000
  20
4616710.500
  0
VERTEX
  8
Unknown_Area_Type
  10
212010.000
  20
4616710.500
  0
VERTEX
  8
Unknown_Area_Type
  10
212010.000
  20
4617988.000
  0
VERTEX
  8
Unknown_Area_Type
  10
212012.000
  20
4617990.000
  0
VERTEX
  8
Unknown_Area_Type
  10
213262.500
  20
4617990.500
  0
VERTEX
  8
Unknown_Area_Type
  10
213290.564
  20
4618499.599
  0
SEQEND
  8
Unknown_Area_Type
  0
INSERT
  8
FeatureAttribs
  2
FEATURE
  41
1
  42
1
  43
1
  50
0
  10
233705.504
  20
4618218.355
 66
1
  0
ATTRIB
  8
FeatureAttribs
 70
0
  1
PNOA-H_AMS_1956-57_33k_ES_PAN_2
  2
NAME
  10
233705.504
  20
4618218.355
 40
33.99700
  0
SEQEND
  0
POLYLINE
  8
Unknown_Area_Type
  70
1
  66
1
  0
VERTEX
  8
Unknown_Area_Type
  10
232819.615
  20
4618759.074
  0
VERTEX
  8
Unknown_Area_Type
  10
234629.544
  20
4618759.074
  0
VERTEX
  8
Unknown_Area_Type
  10
234629.544
  20
4617678.406
  0
VERTEX
  8
Unknown_Area_Type
  10
234629.516
  20
4617677.637
  0
VERTEX
  8
Unknown_Area_Type
  10
232748.257
  20
4617747.742
  0
VERTEX
  8
Unknown_Area_Type
  10
232819.615
  20
4618759.074
  0
SEQEND
  8
Unknown_Area_Type
  0
INSERT
  8
FeatureAttribs
  2
FEATURE
  41
1
  42
1
  43
1
  50
0
  10
234629.530
  20
4617677.829
 66
1
  0
ATTRIB
  8
FeatureAttribs
 70
0
  1
PNOA-H_AMS_1956-57_33k_ES_PAN_2
  2
NAME
  10
234629.530
  20
4617677.829
 40
33.99700
  0
SEQEND
  0
POLYLINE
  8
Unknown_Area_Type
  70
1
  66
1
  0
VERTEX
  8
Unknown_Area_Type
  10
234629.544
  20
4617678.406
  0
VERTEX
  8
Unknown_Area_Type
  10
234629.544
  20
4617677.635
  0
VERTEX
  8
Unknown_Area_Type
  10
234629.516
  20
4617677.637
  0
VERTEX
  8
Unknown_Area_Type
  10
234629.544
  20
4617678.406
  0
SEQEND
  8
Unknown_Area_Type
  0
INSERT
  8
FeatureAttribs
  2
FEATURE
  41
1
  42
1
  43
1
  50
0
  10
234614.627
  20
4616872.398
 66
1
  0
ATTRIB
  8
FeatureAttribs
 70
0
  1
PNOA-H_AMS_1956-57_33k_ES_PAN_2
  2
NAME
  10
234614.627
  20
4616872.398
 40
33.99700
  0
SEQEND
  0
POLYLINE
  8
Unknown_Area_Type
  70
1
  66
1
  0
VERTEX
  8
Unknown_Area_Type
  10
234629.544
  20
4616067.158
  0
VERTEX
  8
Unknown_Area_Type
  10
234570.255
  20
4616076.643
  0
VERTEX
  8
Unknown_Area_Type
  10
234629.516
  20
4617677.637
  0
VERTEX
  8
Unknown_Area_Type
  10
234629.544
  20
4617677.635
  0
VERTEX
  8
Unknown_Area_Type
  10
234629.544
  20
4616067.158
  0
SEQEND
  8
Unknown_Area_Type
  0
INSERT
  8
FeatureAttribs
  2
FEATURE
  41
1
  42
1
  43
1
  50
0
  10
233674.599
  20
4616965.727
 66
1
  0
ATTRIB
  8
FeatureAttribs
 70
0
  1
PNOA-H_AMS_1956-57_33k_ES_PAN_2
  2
NAME
  10
233674.599
  20
4616965.727
 40
33.99700
  0
SEQEND
  0
POLYLINE
  8
Unknown_Area_Type
  70
1
  66
1
  0
VERTEX
  8
Unknown_Area_Type
  10
234570.255
  20
4616076.643
  0
VERTEX
  8
Unknown_Area_Type
  10
232652.000
  20
4616383.500
  0
VERTEX
  8
Unknown_Area_Type
  10
232748.257
  20
4617747.742
  0
VERTEX
  8
Unknown_Area_Type
  10
234629.516
  20
4617677.637
  0
VERTEX
  8
Unknown_Area_Type
  10
234570.255
  20
4616076.643
  0
SEQEND
  8
Unknown_Area_Type
  0
INSERT
  8
FeatureAttribs
  2
FEATURE
  41
1
  42
1
  43
1
  50
0
  10
233674.599
  20
4616965.727
 66
1
  0
ATTRIB
  8
FeatureAttribs
 70
0
  1
PNOA-H_AMS_1956-57_33k_ES_PAN_2
  2
NAME
  10
233674.599
  20
4616965.727
 40
33.99700
  0
SEQEND
  0
POLYLINE
  8
Unknown_Area_Type
  70
1
  66
1
  0
VERTEX
  8
Unknown_Area_Type
  10
234570.255
  20
4616076.643
  0
VERTEX
  8
Unknown_Area_Type
  10
234629.516
  20
4617677.637
  0
VERTEX
  8
Unknown_Area_Type
  10
232748.257
  20
4617747.742
  0
VERTEX
  8
Unknown_Area_Type
  10
232652.000
  20
4616383.500
  0
VERTEX
  8
Unknown_Area_Type
  10
234570.255
  20
4616076.643
  0
SEQEND
  8
Unknown_Area_Type
  0
INSERT
  8
FeatureAttribs
  2
FEATURE
  41
1
  42
1
  43
1
  50
0
  10
225773.926
  20
4618359.547
 66
1
  0
ATTRIB
  8
FeatureAttribs
 70
0
  1
PNOA-H_AMS_1956-57_33k_ES_PAN_2
  2
NAME
  10
225773.926
  20
4618359.547
 40
33.99700
  0
SEQEND
  0
POLYLINE
  8
Unknown_Area_Type
  70
1
  66
1
  0
VERTEX
  8
Unknown_Area_Type
  10
227166.005
  20
4618759.074
  0
VERTEX
  8
Unknown_Area_Type
  10
227112.023
  20
4617960.021
  0
VERTEX
  8
Unknown_Area_Type
  10
224391.368
  20
4618064.045
  0
VERTEX
  8
Unknown_Area_Type
  10
224432.457
  20
4618759.074
  0
VERTEX
  8
Unknown_Area_Type
  10
227166.005
  20
4618759.074
  0
SEQEND
  8
Unknown_Area_Type
  0
INSERT
  8
FeatureAttribs
  2
FEATURE
  41
1
  42
1
  43
1
  50
0
  10
225717.966
  20
4617439.490
 66
1
  0
ATTRIB
  8
FeatureAttribs
 70
0
  1
PNOA-H_AMS_1956-57_33k_ES_PAN_2
  2
NAME
  10
225717.966
  20
4617439.490
 40
33.99700
  0
SEQEND
  0
POLYLINE
  8
Unknown_Area_Type
  70
1
  66
1
  0
VERTEX
  8
Unknown_Area_Type
  10
227112.023
  20
4617960.021
  0
VERTEX
  8
Unknown_Area_Type
  10
227080.000
  20
4617486.000
  0
VERTEX
  8
Unknown_Area_Type
  10
227080.000
  20
4617480.000
  0
VERTEX
  8
Unknown_Area_Type
  10
227034.500
  20
4616808.500
  0
VERTEX
  8
Unknown_Area_Type
  10
224324.000
  20
4616924.500
  0
VERTEX
  8
Unknown_Area_Type
  10
224391.368
  20
4618064.045
  0
VERTEX
  8
Unknown_Area_Type
  10
227112.023
  20
4617960.021
  0
SEQEND
  8
Unknown_Area_Type
  0
INSERT
  8
FeatureAttribs
  2
FEATURE
  41
1
  42
1
  43
1
  50
0
  10
225717.966
  20
4617439.490
 66
1
  0
ATTRIB
  8
FeatureAttribs
 70
0
  1
PNOA-H_AMS_1956-57_33k_ES_PAN_2
  2
NAME
  10
225717.966
  20
4617439.490
 40
33.99700
  0
SEQEND
  0
POLYLINE
  8
Unknown_Area_Type
  70
1
  66
1
  0
VERTEX
  8
Unknown_Area_Type
  10
227112.023
  20
4617960.021
  0
VERTEX
  8
Unknown_Area_Type
  10
224391.368
  20
4618064.045
  0
VERTEX
  8
Unknown_Area_Type
  10
224324.000
  20
4616924.500
  0
VERTEX
  8
Unknown_Area_Type
  10
227034.500
  20
4616808.500
  0
VERTEX
  8
Unknown_Area_Type
  10
227080.000
  20
4617480.000
  0
VERTEX
  8
Unknown_Area_Type
  10
227080.000
  20
4617486.000
  0
VERTEX
  8
Unknown_Area_Type
  10
227112.023
  20
4617960.021
  0
SEQEND
  8
Unknown_Area_Type
  0
INSERT
  8
FeatureAttribs
  2
FEATURE
  41
1
  42
1
  43
1
  50
0
  10
225996.268
  20
4614276.304
 66
1
  0
ATTRIB
  8
FeatureAttribs
 70
0
  1
PNOA-H_AMS_1956-57_33k_ES_PAN_2
  2
NAME
  10
225996.268
  20
4614276.304
 40
33.99700
  0
SEQEND
  0
POLYLINE
  8
Unknown_Area_Type
  70
1
  66
1
  0
VERTEX
  8
Unknown_Area_Type
  10
225995.000
  20
4614599.000
  0
VERTEX
  8
Unknown_Area_Type
  10
225997.000
  20
4614599.000
  0
VERTEX
  8
Unknown_Area_Type
  10
225998.000
  20
4614000.500
  0
VERTEX
  8
Unknown_Area_Type
  10
225998.000
  20
4613996.000
  0
VERTEX
  8
Unknown_Area_Type
  10
225995.000
  20
4613992.500
  0
VERTEX
  8
Unknown_Area_Type
  10
225995.000
  20
4614599.000
  0
SEQEND
  8
Unknown_Area_Type
  0
INSERT
  8
FeatureAttribs
  2
FEATURE
  41
1
  42
1
  43
1
  50
0
  10
225996.268
  20
4614276.304
 66
1
  0
ATTRIB
  8
FeatureAttribs
 70
0
  1
PNOA-H_AMS_1956-57_33k_ES_PAN_2
  2
NAME
  10
225996.268
  20
4614276.304
 40
33.99700
  0
SEQEND
  0
POLYLINE
  8
Unknown_Area_Type
  70
1
  66
1
  0
VERTEX
  8
Unknown_Area_Type
  10
225995.000
  20
4614599.000
  0
VERTEX
  8
Unknown_Area_Type
  10
225995.000
  20
4613992.500
  0
VERTEX
  8
Unknown_Area_Type
  10
225998.000
  20
4613996.000
  0
VERTEX
  8
Unknown_Area_Type
  10
225998.000
  20
4614000.500
  0
VERTEX
  8
Unknown_Area_Type
  10
225997.000
  20
4614599.000
  0
VERTEX
  8
Unknown_Area_Type
  10
225995.000
  20
4614599.000
  0
SEQEND
  8
Unknown_Area_Type
  0
INSERT
  8
FeatureAttribs
  2
FEATURE
  41
1
  42
1
  43
1
  50
0
  10
228191.661
  20
4612288.313
 66
1
  0
ATTRIB
  8
FeatureAttribs
 70
0
  1
PNOA-H_AMS_1956-57_33k_ES_PAN_2
  2
NAME
  10
228191.661
  20
4612288.313
 40
33.99700
  0
SEQEND
  0
POLYLINE
  8
Unknown_Area_Type
  70
1
  66
1
  0
VERTEX
  8
Unknown_Area_Type
  10
228428.000
  20
4612487.000
  0
VERTEX
  8
Unknown_Area_Type
  10
228384.500
  20
4611992.500
  0
VERTEX
  8
Unknown_Area_Type
  10
228005.500
  20
4611992.500
  0
VERTEX
  8
Unknown_Area_Type
  10
228002.500
  20
4611990.000
  0
VERTEX
  8
Unknown_Area_Type
  10
227997.000
  20
4611990.000
  0
VERTEX
  8
Unknown_Area_Type
  10
227995.000
  20
4611992.000
  0
VERTEX
  8
Unknown_Area_Type
  10
227995.000
  20
4612651.000
  0
VERTEX
  8
Unknown_Area_Type
  10
228428.000
  20
4612487.000
  0
SEQEND
  8
Unknown_Area_Type
  0
INSERT
  8
FeatureAttribs
  2
FEATURE
  41
1
  42
1
  43
1
  50
0
  10
228191.661
  20
4612288.313
 66
1
  0
ATTRIB
  8
FeatureAttribs
 70
0
  1
PNOA-H_AMS_1956-57_33k_ES_PAN_2
  2
NAME
  10
228191.661
  20
4612288.313
 40
33.99700
  0
SEQEND
  0
POLYLINE
  8
Unknown_Area_Type
  70
1
  66
1
  0
VERTEX
  8
Unknown_Area_Type
  10
228428.000
  20
4612487.000
  0
VERTEX
  8
Unknown_Area_Type
  10
227995.000
  20
4612651.000
  0
VERTEX
  8
Unknown_Area_Type
  10
227995.000
  20
4611992.000
  0
VERTEX
  8
Unknown_Area_Type
  10
227997.000
  20
4611990.000
  0
VERTEX
  8
Unknown_Area_Type
  10
228002.500
  20
4611990.000
  0
VERTEX
  8
Unknown_Area_Type
  10
228005.500
  20
4611992.500
  0
VERTEX
  8
Unknown_Area_Type
  10
228384.500
  20
4611992.500
  0
VERTEX
  8
Unknown_Area_Type
  10
228428.000
  20
4612487.000
  0
SEQEND
  8
Unknown_Area_Type
  0
INSERT
  8
FeatureAttribs
  2
FEATURE
  41
1
  42
1
  43
1
  50
0
  10
230453.278
  20
4609991.490
 66
1
  0
ATTRIB
  8
FeatureAttribs
 70
0
  1
PNOA-H_AMS_1956-57_33k_ES_PAN_2
  2
NAME
  10
230453.278
  20
4609991.490
 40
33.99700
  0
SEQEND
  0
POLYLINE
  8
Unknown_Area_Type
  70
1
  66
1
  0
VERTEX
  8
Unknown_Area_Type
  10
229999.000
  20
4609992.500
  0
VERTEX
  8
Unknown_Area_Type
  10
230839.000
  20
4609992.500
  0
VERTEX
  8
Unknown_Area_Type
  10
230919.500
  20
4609992.000
  0
VERTEX
  8
Unknown_Area_Type
  10
230921.500
  20
4609990.500
  0
VERTEX
  8
Unknown_Area_Type
  10
229995.000
  20
4609990.500
  0
VERTEX
  8
Unknown_Area_Type
  10
229995.000
  20
4609992.000
  0
VERTEX
  8
Unknown_Area_Type
  10
229998.000
  20
4609992.000
  0
VERTEX
  8
Unknown_Area_Type
  10
229999.000
  20
4609992.500
  0
SEQEND
  8
Unknown_Area_Type
  0
INSERT
  8
FeatureAttribs
  2
FEATURE
  41
1
  42
1
  43
1
  50
0
  10
230453.278
  20
4609991.490
 66
1
  0
ATTRIB
  8
FeatureAttribs
 70
0
  1
PNOA-H_AMS_1956-57_33k_ES_PAN_2
  2
NAME
  10
230453.278
  20
4609991.490
 40
33.99700
  0
SEQEND
  0
POLYLINE
  8
Unknown_Area_Type
  70
1
  66
1
  0
VERTEX
  8
Unknown_Area_Type
  10
229999.000
  20
4609992.500
  0
VERTEX
  8
Unknown_Area_Type
  10
229998.000
  20
4609992.000
  0
VERTEX
  8
Unknown_Area_Type
  10
229995.000
  20
4609992.000
  0
VERTEX
  8
Unknown_Area_Type
  10
229995.000
  20
4609990.500
  0
VERTEX
  8
Unknown_Area_Type
  10
230921.500
  20
4609990.500
  0
VERTEX
  8
Unknown_Area_Type
  10
230919.500
  20
4609992.000
  0
VERTEX
  8
Unknown_Area_Type
  10
230839.000
  20
4609992.500
  0
VERTEX
  8
Unknown_Area_Type
  10
229999.000
  20
4609992.500
  0
SEQEND
  8
Unknown_Area_Type
  0
INSERT
  8
FeatureAttribs
  2
FEATURE
  41
1
  42
1
  43
1
  50
0
  10
227865.072
  20
4599990.500
 66
1
  0
ATTRIB
  8
FeatureAttribs
 70
0
  1
PNOA-H_AMS_1956-57_33k_ES_PAN_2
  2
NAME
  10
227865.072
  20
4599990.500
 40
33.99700
  0
SEQEND
  0
POLYLINE
  8
Unknown_Area_Type
  70
1
  66
1
  0
VERTEX
  8
Unknown_Area_Type
  10
227937.500
  20
4600005.000
  0
VERTEX
  8
Unknown_Area_Type
  10
227874.000
  20
4599976.000
  0
VERTEX
  8
Unknown_Area_Type
  10
227776.500
  20
4600004.500
  0
VERTEX
  8
Unknown_Area_Type
  10
227774.500
  20
4600005.000
  0
VERTEX
  8
Unknown_Area_Type
  10
227937.500
  20
4600005.000
  0
SEQEND
  8
Unknown_Area_Type
  0
INSERT
  8
FeatureAttribs
  2
FEATURE
  41
1
  42
1
  43
1
  50
0
  10
227865.072
  20
4599990.500
 66
1
  0
ATTRIB
  8
FeatureAttribs
 70
0
  1
PNOA-H_AMS_1956-57_33k_ES_PAN_2
  2
NAME
  10
227865.072
  20
4599990.500
 40
33.99700
  0
SEQEND
  0
POLYLINE
  8
Unknown_Area_Type
  70
1
  66
1
  0
VERTEX
  8
Unknown_Area_Type
  10
227937.500
  20
4600005.000
  0
VERTEX
  8
Unknown_Area_Type
  10
227774.500
  20
4600005.000
  0
VERTEX
  8
Unknown_Area_Type
  10
227776.500
  20
4600004.500
  0
VERTEX
  8
Unknown_Area_Type
  10
227874.000
  20
4599976.000
  0
VERTEX
  8
Unknown_Area_Type
  10
227937.500
  20
4600005.000
  0
SEQEND
  8
Unknown_Area_Type
  0
INSERT
  8
FeatureAttribs
  2
FEATURE
  41
1
  42
1
  43
1
  50
0
  10
229998.991
  20
4604036.000
 66
1
  0
ATTRIB
  8
FeatureAttribs
 70
0
  1
PNOA-H_AMS_1956-57_33k_ES_PAN_2
  2
NAME
  10
229998.991
  20
4604036.000
 40
33.99700
  0
SEQEND
  0
POLYLINE
  8
Unknown_Area_Type
  70
1
  66
1
  0
VERTEX
  8
Unknown_Area_Type
  10
229997.000
  20
4604040.000
  0
VERTEX
  8
Unknown_Area_Type
  10
230002.000
  20
4604040.000
  0
VERTEX
  8
Unknown_Area_Type
  10
230003.000
  20
4604035.000
  0
VERTEX
  8
Unknown_Area_Type
  10
230000.000
  20
4604032.000
  0
VERTEX
  8
Unknown_Area_Type
  10
229995.500
  20
4604032.500
  0
VERTEX
  8
Unknown_Area_Type
  10
229995.000
  20
4604038.000
  0
VERTEX
  8
Unknown_Area_Type
  10
229996.500
  20
4604039.000
  0
VERTEX
  8
Unknown_Area_Type
  10
229997.000
  20
4604040.000
  0
SEQEND
  8
Unknown_Area_Type
  0
INSERT
  8
FeatureAttribs
  2
FEATURE
  41
1
  42
1
  43
1
  50
0
  10
229998.991
  20
4604036.000
 66
1
  0
ATTRIB
  8
FeatureAttribs
 70
0
  1
PNOA-H_AMS_1956-57_33k_ES_PAN_2
  2
NAME
  10
229998.991
  20
4604036.000
 40
33.99700
  0
SEQEND
  0
POLYLINE
  8
Unknown_Area_Type
  70
1
  66
1
  0
VERTEX
  8
Unknown_Area_Type
  10
229997.000
  20
4604040.000
  0
VERTEX
  8
Unknown_Area_Type
  10
229996.500
  20
4604039.000
  0
VERTEX
  8
Unknown_Area_Type
  10
229995.000
  20
4604038.000
  0
VERTEX
  8
Unknown_Area_Type
  10
229995.500
  20
4604032.500
  0
VERTEX
  8
Unknown_Area_Type
  10
230000.000
  20
4604032.000
  0
VERTEX
  8
Unknown_Area_Type
  10
230003.000
  20
4604035.000
  0
VERTEX
  8
Unknown_Area_Type
  10
230002.000
  20
4604040.000
  0
VERTEX
  8
Unknown_Area_Type
  10
229997.000
  20
4604040.000
  0
SEQEND
  8
Unknown_Area_Type
  0
INSERT
  8
FeatureAttribs
  2
FEATURE
  41
1
  42
1
  43
1
  50
0
  10
229187.500
  20
4601022.500
 66
1
  0
ATTRIB
  8
FeatureAttribs
 70
0
  1
PNOA-H_AMS_1956-57_33k_ES_PAN_2
  2
NAME
  10
229187.500
  20
4601022.500
 40
33.99700
  0
SEQEND
  0
POLYLINE
  8
Unknown_Area_Type
  70
1
  66
1
  0
VERTEX
  8
Unknown_Area_Type
  10
229185.500
  20
4601029.500
  0
VERTEX
  8
Unknown_Area_Type
  10
229190.500
  20
4601029.000
  0
VERTEX
  8
Unknown_Area_Type
  10
229194.500
  20
4601024.500
  0
VERTEX
  8
Unknown_Area_Type
  10
229194.500
  20
4601020.500
  0
VERTEX
  8
Unknown_Area_Type
  10
229190.500
  20
4601016.000
  0
VERTEX
  8
Unknown_Area_Type
  10
229185.500
  20
4601015.500
  0
VERTEX
  8
Unknown_Area_Type
  10
229180.500
  20
4601020.500
  0
VERTEX
  8
Unknown_Area_Type
  10
229180.500
  20
4601024.500
  0
VERTEX
  8
Unknown_Area_Type
  10
229184.500
  20
4601029.000
  0
VERTEX
  8
Unknown_Area_Type
  10
229185.500
  20
4601029.500
  0
SEQEND
  8
Unknown_Area_Type
  0
INSERT
  8
FeatureAttribs
  2
FEATURE
  41
1
  42
1
  43
1
  50
0
  10
229187.500
  20
4601022.500
 66
1
  0
ATTRIB
  8
FeatureAttribs
 70
0
  1
PNOA-H_AMS_1956-57_33k_ES_PAN_2
  2
NAME
  10
229187.500
  20
4601022.500
 40
33.99700
  0
SEQEND
  0
POLYLINE
  8
Unknown_Area_Type
  70
1
  66
1
  0
VERTEX
  8
Unknown_Area_Type
  10
229185.500
  20
4601029.500
  0
VERTEX
  8
Unknown_Area_Type
  10
229184.500
  20
4601029.000
  0
VERTEX
  8
Unknown_Area_Type
  10
229180.500
  20
4601024.500
  0
VERTEX
  8
Unknown_Area_Type
  10
229180.500
  20
4601020.500
  0
VERTEX
  8
Unknown_Area_Type
  10
229185.500
  20
4601015.500
  0
VERTEX
  8
Unknown_Area_Type
  10
229190.500
  20
4601016.000
  0
VERTEX
  8
Unknown_Area_Type
  10
229194.500
  20
4601020.500
  0
VERTEX
  8
Unknown_Area_Type
  10
229194.500
  20
4601024.500
  0
VERTEX
  8
Unknown_Area_Type
  10
229190.500
  20
4601029.000
  0
VERTEX
  8
Unknown_Area_Type
  10
229185.500
  20
4601029.500
  0
SEQEND
  8
Unknown_Area_Type
  0
INSERT
  8
FeatureAttribs
  2
FEATURE
  41
1
  42
1
  43
1
  50
0
  10
231375.721
  20
4606004.632
 66
1
  0
ATTRIB
  8
FeatureAttribs
 70
0
  1
PNOA-H_AMS_1956-57_33k_ES_PAN_2
  2
NAME
  10
231375.721
  20
4606004.632
 40
33.99700
  0
SEQEND
  0
POLYLINE
  8
Unknown_Area_Type
  70
1
  66
1
  0
VERTEX
  8
Unknown_Area_Type
  10
231199.500
  20
4606005.000
  0
VERTEX
  8
Unknown_Area_Type
  10
231596.000
  20
4606005.000
  0
VERTEX
  8
Unknown_Area_Type
  10
231414.000
  20
4606004.000
  0
VERTEX
  8
Unknown_Area_Type
  10
231202.000
  20
4606004.500
  0
VERTEX
  8
Unknown_Area_Type
  10
231199.500
  20
4606005.000
  0
SEQEND
  8
Unknown_Area_Type
  0
INSERT
  8
FeatureAttribs
  2
FEATURE
  41
1
  42
1
  43
1
  50
0
  10
231375.721
  20
4606004.632
 66
1
  0
ATTRIB
  8
FeatureAttribs
 70
0
  1
PNOA-H_AMS_1956-57_33k_ES_PAN_2
  2
NAME
  10
231375.721
  20
4606004.632
 40
33.99700
  0
SEQEND
  0
POLYLINE
  8
Unknown_Area_Type
  70
1
  66
1
  0
VERTEX
  8
Unknown_Area_Type
  10
231199.500
  20
4606005.000
  0
VERTEX
  8
Unknown_Area_Type
  10
231202.000
  20
4606004.500
  0
VERTEX
  8
Unknown_Area_Type
  10
231414.000
  20
4606004.000
  0
VERTEX
  8
Unknown_Area_Type
  10
231596.000
  20
4606005.000
  0
VERTEX
  8
Unknown_Area_Type
  10
231199.500
  20
4606005.000
  0
SEQEND
  8
Unknown_Area_Type
  0
INSERT
  8
FeatureAttribs
  2
FEATURE
  41
1
  42
1
  43
1
  50
0
  10
225996.549
  20
4599319.688
 66
1
  0
ATTRIB
  8
FeatureAttribs
 70
0
  1
PNOA-H_AMS_1956-57_33k_ES_PAN_2
  2
NAME
  10
225996.549
  20
4599319.688
 40
33.99700
  0
SEQEND
  0
POLYLINE
  8
Unknown_Area_Type
  70
1
  66
1
  0
VERTEX
  8
Unknown_Area_Type
  10
225997.764
  20
4599170.707
  0
VERTEX
  8
Unknown_Area_Type
  10
225995.240
  20
4599170.707
  0
VERTEX
  8
Unknown_Area_Type
  10
225995.154
  20
4599468.669
  0
VERTEX
  8
Unknown_Area_Type
  10
225998.039
  20
4599468.559
  0
VERTEX
  8
Unknown_Area_Type
  10
225997.764
  20
4599170.707
  0
SEQEND
  8
Unknown_Area_Type
  0
INSERT
  8
FeatureAttribs
  2
FEATURE
  41
1
  42
1
  43
1
  50
0
  10
225996.650
  20
4599637.902
 66
1
  0
ATTRIB
  8
FeatureAttribs
 70
0
  1
PNOA-H_AMS_1956-57_33k_ES_PAN_2
  2
NAME
  10
225996.650
  20
4599637.902
 40
33.99700
  0
SEQEND
  0
POLYLINE
  8
Unknown_Area_Type
  70
1
  66
1
  0
VERTEX
  8
Unknown_Area_Type
  10
225998.039
  20
4599468.559
  0
VERTEX
  8
Unknown_Area_Type
  10
225995.154
  20
4599468.669
  0
VERTEX
  8
Unknown_Area_Type
  10
225995.058
  20
4599800.000
  0
VERTEX
  8
Unknown_Area_Type
  10
225998.345
  20
4599800.000
  0
VERTEX
  8
Unknown_Area_Type
  10
225998.039
  20
4599468.559
  0
SEQEND
  8
Unknown_Area_Type
  0
INSERT
  8
FeatureAttribs
  2
FEATURE
  41
1
  42
1
  43
1
  50
0
  10
225996.650
  20
4599637.902
 66
1
  0
ATTRIB
  8
FeatureAttribs
 70
0
  1
PNOA-H_AMS_1956-57_33k_ES_PAN_2
  2
NAME
  10
225996.650
  20
4599637.902
 40
33.99700
  0
SEQEND
  0
POLYLINE
  8
Unknown_Area_Type
  70
1
  66
1
  0
VERTEX
  8
Unknown_Area_Type
  10
225998.039
  20
4599468.559
  0
VERTEX
  8
Unknown_Area_Type
  10
225998.345
  20
4599800.000
  0
VERTEX
  8
Unknown_Area_Type
  10
225995.058
  20
4599800.000
  0
VERTEX
  8
Unknown_Area_Type
  10
225995.154
  20
4599468.669
  0
VERTEX
  8
Unknown_Area_Type
  10
225998.039
  20
4599468.559
  0
SEQEND
  8
Unknown_Area_Type
  0
INSERT
  8
FeatureAttribs
  2
FEATURE
  41
1
  42
1
  43
1
  50
0
  10
228498.524
  20
4601127.423
 66
1
  0
ATTRIB
  8
FeatureAttribs
 70
0
  1
PNOA-H_AMS_1956-57_33k_ES_PAN_2
  2
NAME
  10
228498.524
  20
4601127.423
 40
33.99700
  0
SEQEND
  0
POLYLINE
  8
Unknown_Area_Type
  70
1
  66
1
  0
VERTEX
  8
Unknown_Area_Type
  10
227995.000
  20
4602003.000
  0
VERTEX
  8
Unknown_Area_Type
  10
227996.500
  20
4602004.000
  0
VERTEX
  8
Unknown_Area_Type
  10
227997.000
  20
4602005.000
  0
VERTEX
  8
Unknown_Area_Type
  10
229032.500
  20
4602005.000
  0
VERTEX
  8
Unknown_Area_Type
  10
229057.500
  20
4600957.500
  0
VERTEX
  8
Unknown_Area_Type
  10
229057.500
  20
4600942.500
  0
VERTEX
  8
Unknown_Area_Type
  10
229050.000
  20
4600949.500
  0
VERTEX
  8
Unknown_Area_Type
  10
229045.000
  20
4600949.500
  0
VERTEX
  8
Unknown_Area_Type
  10
229035.500
  20
4600940.000
  0
VERTEX
  8
Unknown_Area_Type
  10
229035.500
  20
4600930.000
  0
VERTEX
  8
Unknown_Area_Type
  10
229045.000
  20
4600920.500
  0
VERTEX
  8
Unknown_Area_Type
  10
229050.000
  20
4600920.500
  0
VERTEX
  8
Unknown_Area_Type
  10
229058.000
  20
4600928.000
  0
VERTEX
  8
Unknown_Area_Type
  10
229068.000
  20
4600513.000
  0
VERTEX
  8
Unknown_Area_Type
  10
227995.000
  20
4600030.500
  0
VERTEX
  8
Unknown_Area_Type
  10
227995.000
  20
4602003.000
  0
SEQEND
  8
Unknown_Area_Type
  0
INSERT
  8
FeatureAttribs
  2
FEATURE
  41
1
  42
1
  43
1
  50
0
  10
228498.524
  20
4601127.423
 66
1
  0
ATTRIB
  8
FeatureAttribs
 70
0
  1
PNOA-H_AMS_1956-57_33k_ES_PAN_2
  2
NAME
  10
228498.524
  20
4601127.423
 40
33.99700
  0
SEQEND
  0
POLYLINE
  8
Unknown_Area_Type
  70
1
  66
1
  0
VERTEX
  8
Unknown_Area_Type
  10
227995.000
  20
4602003.000
  0
VERTEX
  8
Unknown_Area_Type
  10
227995.000
  20
4600030.500
  0
VERTEX
  8
Unknown_Area_Type
  10
229068.000
  20
4600513.000
  0
VERTEX
  8
Unknown_Area_Type
  10
229058.000
  20
4600928.000
  0
VERTEX
  8
Unknown_Area_Type
  10
229050.000
  20
4600920.500
  0
VERTEX
  8
Unknown_Area_Type
  10
229045.000
  20
4600920.500
  0
VERTEX
  8
Unknown_Area_Type
  10
229035.500
  20
4600930.000
  0
VERTEX
  8
Unknown_Area_Type
  10
229035.500
  20
4600940.000
  0
VERTEX
  8
Unknown_Area_Type
  10
229045.000
  20
4600949.500
  0
VERTEX
  8
Unknown_Area_Type
  10
229050.000
  20
4600949.500
  0
VERTEX
  8
Unknown_Area_Type
  10
229057.500
  20
4600942.500
  0
VERTEX
  8
Unknown_Area_Type
  10
229057.500
  20
4600957.500
  0
VERTEX
  8
Unknown_Area_Type
  10
229032.500
  20
4602005.000
  0
VERTEX
  8
Unknown_Area_Type
  10
227997.000
  20
4602005.000
  0
VERTEX
  8
Unknown_Area_Type
  10
227996.500
  20
4602004.000
  0
VERTEX
  8
Unknown_Area_Type
  10
227995.000
  20
4602003.000
  0
SEQEND
  8
Unknown_Area_Type
  0
INSERT
  8
FeatureAttribs
  2
FEATURE
  41
1
  42
1
  43
1
  50
0
  10
230122.840
  20
4611600.471
 66
1
  0
ATTRIB
  8
FeatureAttribs
 70
0
  1
PNOA-H_AMS_1956-57_33k_ES_PAN_2
  2
NAME
  10
230122.840
  20
4611600.471
 40
33.99700
  0
SEQEND
  0
POLYLINE
  8
Unknown_Area_Type
  70
1
  66
1
  0
VERTEX
  8
Unknown_Area_Type
  10
228384.500
  20
4611994.500
  0
VERTEX
  8
Unknown_Area_Type
  10
228428.500
  20
4612487.500
  0
VERTEX
  8
Unknown_Area_Type
  10
229465.500
  20
4612857.500
  0
VERTEX
  8
Unknown_Area_Type
  10
229488.500
  20
4612850.000
  0
VERTEX
  8
Unknown_Area_Type
  10
231057.000
  20
4612277.000
  0
VERTEX
  8
Unknown_Area_Type
  10
231058.000
  20
4612277.000
  0
VERTEX
  8
Unknown_Area_Type
  10
231140.500
  20
4612247.000
  0
VERTEX
  8
Unknown_Area_Type
  10
231140.500
  20
4612243.500
  0
VERTEX
  8
Unknown_Area_Type
  10
230924.500
  20
4609990.000
  0
VERTEX
  8
Unknown_Area_Type
  10
229997.000
  20
4609990.000
  0
VERTEX
  8
Unknown_Area_Type
  10
230921.500
  20
4609990.500
  0
VERTEX
  8
Unknown_Area_Type
  10
230919.500
  20
4609992.000
  0
VERTEX
  8
Unknown_Area_Type
  10
230839.000
  20
4609992.500
  0
VERTEX
  8
Unknown_Area_Type
  10
229995.000
  20
4609992.000
  0
VERTEX
  8
Unknown_Area_Type
  10
229995.000
  20
4611988.000
  0
VERTEX
  8
Unknown_Area_Type
  10
229993.000
  20
4611990.000
  0
VERTEX
  8
Unknown_Area_Type
  10
229471.500
  20
4611990.000
  0
VERTEX
  8
Unknown_Area_Type
  10
229468.500
  20
4611991.500
  0
VERTEX
  8
Unknown_Area_Type
  10
228384.500
  20
4611992.500
  0
VERTEX
  8
Unknown_Area_Type
  10
228384.500
  20
4611994.500
  0
SEQEND
  8
Unknown_Area_Type
  0
INSERT
  8
FeatureAttribs
  2
FEATURE
  41
1
  42
1
  43
1
  50
0
  10
230122.840
  20
4611600.471
 66
1
  0
ATTRIB
  8
FeatureAttribs
 70
0
  1
PNOA-H_AMS_1956-57_33k_ES_PAN_2
  2
NAME
  10
230122.840
  20
4611600.471
 40
33.99700
  0
SEQEND
  0
POLYLINE
  8
Unknown_Area_Type
  70
1
  66
1
  0
VERTEX
  8
Unknown_Area_Type
  10
228384.500
  20
4611994.500
  0
VERTEX
  8
Unknown_Area_Type
  10
228384.500
  20
4611992.500
  0
VERTEX
  8
Unknown_Area_Type
  10
229468.500
  20
4611991.500
  0
VERTEX
  8
Unknown_Area_Type
  10
229471.500
  20
4611990.000
  0
VERTEX
  8
Unknown_Area_Type
  10
229993.000
  20
4611990.000
  0
VERTEX
  8
Unknown_Area_Type
  10
229995.000
  20
4611988.000
  0
VERTEX
  8
Unknown_Area_Type
  10
229995.000
  20
4609992.000
  0
VERTEX
  8
Unknown_Area_Type
  10
230839.000
  20
4609992.500
  0
VERTEX
  8
Unknown_Area_Type
  10
230919.500
  20
4609992.000
  0
VERTEX
  8
Unknown_Area_Type
  10
230921.500
  20
4609990.500
  0
VERTEX
  8
Unknown_Area_Type
  10
229997.000
  20
4609990.000
  0
VERTEX
  8
Unknown_Area_Type
  10
230924.500
  20
4609990.000
  0
VERTEX
  8
Unknown_Area_Type
  10
231140.500
  20
4612243.500
  0
VERTEX
  8
Unknown_Area_Type
  10
231140.500
  20
4612247.000
  0
VERTEX
  8
Unknown_Area_Type
  10
231058.000
  20
4612277.000
  0
VERTEX
  8
Unknown_Area_Type
  10
231057.000
  20
4612277.000
  0
VERTEX
  8
Unknown_Area_Type
  10
229488.500
  20
4612850.000
  0
VERTEX
  8
Unknown_Area_Type
  10
229465.500
  20
4612857.500
  0
VERTEX
  8
Unknown_Area_Type
  10
228428.500
  20
4612487.500
  0
VERTEX
  8
Unknown_Area_Type
  10
228384.500
  20
4611994.500
  0
SEQEND
  8
Unknown_Area_Type
  0
INSERT
  8
FeatureAttribs
  2
FEATURE
  41
1
  42
1
  43
1
  50
0
  10
228675.992
  20
4611991.020
 66
1
  0
ATTRIB
  8
FeatureAttribs
 70
0
  1
PNOA-H_AMS_1956-57_33k_ES_PAN_2
  2
NAME
  10
228675.992
  20
4611991.020
 40
33.99700
  0
SEQEND
  0
POLYLINE
  8
Unknown_Area_Type
  70
1
  66
1
  0
VERTEX
  8
Unknown_Area_Type
  10
228005.000
  20
4611991.500
  0
VERTEX
  8
Unknown_Area_Type
  10
228005.500
  20
4611992.500
  0
VERTEX
  8
Unknown_Area_Type
  10
229468.500
  20
4611991.500
  0
VERTEX
  8
Unknown_Area_Type
  10
229471.500
  20
4611990.000
  0
VERTEX
  8
Unknown_Area_Type
  10
228002.500
  20
4611990.000
  0
VERTEX
  8
Unknown_Area_Type
  10
228005.000
  20
4611991.500
  0
SEQEND
  8
Unknown_Area_Type
  0
INSERT
  8
FeatureAttribs
  2
FEATURE
  41
1
  42
1
  43
1
  50
0
  10
228675.992
  20
4611991.020
 66
1
  0
ATTRIB
  8
FeatureAttribs
 70
0
  1
PNOA-H_AMS_1956-57_33k_ES_PAN_2
  2
NAME
  10
228675.992
  20
4611991.020
 40
33.99700
  0
SEQEND
  0
POLYLINE
  8
Unknown_Area_Type
  70
1
  66
1
  0
VERTEX
  8
Unknown_Area_Type
  10
228005.000
  20
4611991.500
  0
VERTEX
  8
Unknown_Area_Type
  10
228002.500
  20
4611990.000
  0
VERTEX
  8
Unknown_Area_Type
  10
229471.500
  20
4611990.000
  0
VERTEX
  8
Unknown_Area_Type
  10
229468.500
  20
4611991.500
  0
VERTEX
  8
Unknown_Area_Type
  10
228005.500
  20
4611992.500
  0
VERTEX
  8
Unknown_Area_Type
  10
228005.000
  20
4611991.500
  0
SEQEND
  8
Unknown_Area_Type
  0
INSERT
  8
FeatureAttribs
  2
FEATURE
  41
1
  42
1
  43
1
  50
0
  10
226027.955
  20
4615806.017
 66
1
  0
ATTRIB
  8
FeatureAttribs
 70
0
  1
PNOA-H_AMS_1956-57_33k_ES_PAN_2
  2
NAME
  10
226027.955
  20
4615806.017
 40
33.99700
  0
SEQEND
  0
POLYLINE
  8
Unknown_Area_Type
  70
1
  66
1
  0
VERTEX
  8
Unknown_Area_Type
  10
224323.500
  20
4616924.500
  0
VERTEX
  8
Unknown_Area_Type
  10
227034.500
  20
4616808.500
  0
VERTEX
  8
Unknown_Area_Type
  10
227101.000
  20
4616761.500
  0
VERTEX
  8
Unknown_Area_Type
  10
227101.000
  20
4616757.000
  0
VERTEX
  8
Unknown_Area_Type
  10
227013.000
  20
4615438.500
  0
VERTEX
  8
Unknown_Area_Type
  10
227013.000
  20
4615432.000
  0
VERTEX
  8
Unknown_Area_Type
  10
226917.000
  20
4613990.000
  0
VERTEX
  8
Unknown_Area_Type
  10
225997.000
  20
4613990.000
  0
VERTEX
  8
Unknown_Area_Type
  10
225995.000
  20
4613992.000
  0
VERTEX
  8
Unknown_Area_Type
  10
225998.000
  20
4613996.000
  0
VERTEX
  8
Unknown_Area_Type
  10
225997.000
  20
4614599.000
  0
VERTEX
  8
Unknown_Area_Type
  10
225995.000
  20
4614599.000
  0
VERTEX
  8
Unknown_Area_Type
  10
225995.000
  20
4615988.000
  0
VERTEX
  8
Unknown_Area_Type
  10
225993.000
  20
4615990.000
  0
VERTEX
  8
Unknown_Area_Type
  10
225097.000
  20
4615990.000
  0
VERTEX
  8
Unknown_Area_Type
  10
225095.000
  20
4615992.000
  0
VERTEX
  8
Unknown_Area_Type
  10
225095.000
  20
4616008.000
  0
VERTEX
  8
Unknown_Area_Type
  10
225100.000
  20
4616012.000
  0
VERTEX
  8
Unknown_Area_Type
  10
225100.000
  20
4616028.000
  0
VERTEX
  8
Unknown_Area_Type
  10
225105.000
  20
4616032.000
  0
VERTEX
  8
Unknown_Area_Type
  10
225105.000
  20
4616048.000
  0
VERTEX
  8
Unknown_Area_Type
  10
225110.000
  20
4616052.000
  0
VERTEX
  8
Unknown_Area_Type
  10
225110.000
  20
4616073.000
  0
VERTEX
  8
Unknown_Area_Type
  10
225115.000
  20
4616077.000
  0
VERTEX
  8
Unknown_Area_Type
  10
225115.000
  20
4616088.000
  0
VERTEX
  8
Unknown_Area_Type
  10
225120.000
  20
4616092.000
  0
VERTEX
  8
Unknown_Area_Type
  10
225120.000
  20
4616258.000
  0
VERTEX
  8
Unknown_Area_Type
  10
225118.000
  20
4616260.000
  0
VERTEX
  8
Unknown_Area_Type
  10
225092.000
  20
4616260.000
  0
VERTEX
  8
Unknown_Area_Type
  10
225088.000
  20
4616265.000
  0
VERTEX
  8
Unknown_Area_Type
  10
224772.000
  20
4616265.000
  0
VERTEX
  8
Unknown_Area_Type
  10
224768.000
  20
4616270.000
  0
VERTEX
  8
Unknown_Area_Type
  10
224682.000
  20
4616270.000
  0
VERTEX
  8
Unknown_Area_Type
  10
224678.000
  20
4616275.000
  0
VERTEX
  8
Unknown_Area_Type
  10
224082.000
  20
4616275.000
  0
VERTEX
  8
Unknown_Area_Type
  10
224078.000
  20
4616280.000
  0
VERTEX
  8
Unknown_Area_Type
  10
224047.000
  20
4616280.000
  0
VERTEX
  8
Unknown_Area_Type
  10
224044.500
  20
4616281.500
  0
VERTEX
  8
Unknown_Area_Type
  10
224005.500
  20
4616281.500
  0
VERTEX
  8
Unknown_Area_Type
  10
224003.000
  20
4616280.000
  0
VERTEX
  8
Unknown_Area_Type
  10
223997.000
  20
4616280.000
  0
VERTEX
  8
Unknown_Area_Type
  10
223995.000
  20
4616282.000
  0
VERTEX
  8
Unknown_Area_Type
  10
223995.000
  20
4616735.500
  0
VERTEX
  8
Unknown_Area_Type
  10
224323.500
  20
4616924.500
  0
SEQEND
  8
Unknown_Area_Type
  0
INSERT
  8
FeatureAttribs
  2
FEATURE
  41
1
  42
1
  43
1
  50
0
  10
226027.955
  20
4615806.017
 66
1
  0
ATTRIB
  8
FeatureAttribs
 70
0
  1
PNOA-H_AMS_1956-57_33k_ES_PAN_2
  2
NAME
  10
226027.955
  20
4615806.017
 40
33.99700
  0
SEQEND
  0
POLYLINE
  8
Unknown_Area_Type
  70
1
  66
1
  0
VERTEX
  8
Unknown_Area_Type
  10
224323.500
  20
4616924.500
  0
VERTEX
  8
Unknown_Area_Type
  10
223995.000
  20
4616735.500
  0
VERTEX
  8
Unknown_Area_Type
  10
223995.000
  20
4616282.000
  0
VERTEX
  8
Unknown_Area_Type
  10
223997.000
  20
4616280.000
  0
VERTEX
  8
Unknown_Area_Type
  10
224003.000
  20
4616280.000
  0
VERTEX
  8
Unknown_Area_Type
  10
224005.500
  20
4616281.500
  0
VERTEX
  8
Unknown_Area_Type
  10
224044.500
  20
4616281.500
  0
VERTEX
  8
Unknown_Area_Type
  10
224047.000
  20
4616280.000
  0
VERTEX
  8
Unknown_Area_Type
  10
224078.000
  20
4616280.000
  0
VERTEX
  8
Unknown_Area_Type
  10
224082.000
  20
4616275.000
  0
VERTEX
  8
Unknown_Area_Type
  10
224678.000
  20
4616275.000
  0
VERTEX
  8
Unknown_Area_Type
  10
224682.000
  20
4616270.000
  0
VERTEX
  8
Unknown_Area_Type
  10
224768.000
  20
4616270.000
  0
VERTEX
  8
Unknown_Area_Type
  10
224772.000
  20
4616265.000
  0
VERTEX
  8
Unknown_Area_Type
  10
225088.000
  20
4616265.000
  0
VERTEX
  8
Unknown_Area_Type
  10
225092.000
  20
4616260.000
  0
VERTEX
  8
Unknown_Area_Type
  10
225118.000
  20
4616260.000
  0
VERTEX
  8
Unknown_Area_Type
  10
225120.000
  20
4616258.000
  0
VERTEX
  8
Unknown_Area_Type
  10
225120.000
  20
4616092.000
  0
VERTEX
  8
Unknown_Area_Type
  10
225115.000
  20
4616088.000
  0
VERTEX
  8
Unknown_Area_Type
  10
225115.000
  20
4616077.000
  0
VERTEX
  8
Unknown_Area_Type
  10
225110.000
  20
4616073.000
  0
VERTEX
  8
Unknown_Area_Type
  10
225110.000
  20
4616052.000
  0
VERTEX
  8
Unknown_Area_Type
  10
225105.000
  20
4616048.000
  0
VERTEX
  8
Unknown_Area_Type
  10
225105.000
  20
4616032.000
  0
VERTEX
  8
Unknown_Area_Type
  10
225100.000
  20
4616028.000
  0
VERTEX
  8
Unknown_Area_Type
  10
225100.000
  20
4616012.000
  0
VERTEX
  8
Unknown_Area_Type
  10
225095.000
  20
4616008.000
  0
VERTEX
  8
Unknown_Area_Type
  10
225095.000
  20
4615992.000
  0
VERTEX
  8
Unknown_Area_Type
  10
225097.000
  20
4615990.000
  0
VERTEX
  8
Unknown_Area_Type
  10
225993.000
  20
4615990.000
  0
VERTEX
  8
Unknown_Area_Type
  10
225995.000
  20
4615988.000
  0
VERTEX
  8
Unknown_Area_Type
  10
225995.000
  20
4614599.000
  0
VERTEX
  8
Unknown_Area_Type
  10
225997.000
  20
4614599.000
  0
VERTEX
  8
Unknown_Area_Type
  10
225998.000
  20
4613996.000
  0
VERTEX
  8
Unknown_Area_Type
  10
225995.000
  20
4613992.000
  0
VERTEX
  8
Unknown_Area_Type
  10
225997.000
  20
4613990.000
  0
VERTEX
  8
Unknown_Area_Type
  10
226917.000
  20
4613990.000
  0
VERTEX
  8
Unknown_Area_Type
  10
227013.000
  20
4615432.000
  0
VERTEX
  8
Unknown_Area_Type
  10
227013.000
  20
4615438.500
  0
VERTEX
  8
Unknown_Area_Type
  10
227101.000
  20
4616757.000
  0
VERTEX
  8
Unknown_Area_Type
  10
227101.000
  20
4616761.500
  0
VERTEX
  8
Unknown_Area_Type
  10
227034.500
  20
4616808.500
  0
VERTEX
  8
Unknown_Area_Type
  10
224323.500
  20
4616924.500
  0
SEQEND
  8
Unknown_Area_Type
  0
INSERT
  8
FeatureAttribs
  2
FEATURE
  41
1
  42
1
  43
1
  50
0
  10
232425.490
  20
4610580.736
 66
1
  0
ATTRIB
  8
FeatureAttribs
 70
0
  1
PNOA-H_AMS_1956-57_33k_ES_PAN_2
  2
NAME
  10
232425.490
  20
4610580.736
 40
33.99700
  0
SEQEND
  0
POLYLINE
  8
Unknown_Area_Type
  70
1
  66
1
  0
VERTEX
  8
Unknown_Area_Type
  10
231057.500
  20
4611377.500
  0
VERTEX
  8
Unknown_Area_Type
  10
231057.500
  20
4611382.500
  0
VERTEX
  8
Unknown_Area_Type
  10
231140.500
  20
4612247.000
  0
VERTEX
  8
Unknown_Area_Type
  10
232039.500
  20
4612587.500
  0
VERTEX
  8
Unknown_Area_Type
  10
233732.500
  20
4612038.500
  0
VERTEX
  8
Unknown_Area_Type
  10
233373.500
  20
4608381.000
  0
VERTEX
  8
Unknown_Area_Type
  10
231995.000
  20
4608119.500
  0
VERTEX
  8
Unknown_Area_Type
  10
231995.000
  20
4609988.000
  0
VERTEX
  8
Unknown_Area_Type
  10
231993.000
  20
4609990.000
  0
VERTEX
  8
Unknown_Area_Type
  10
230924.500
  20
4609990.000
  0
VERTEX
  8
Unknown_Area_Type
  10
231057.500
  20
4611377.500
  0
SEQEND
  8
Unknown_Area_Type
  0
INSERT
  8
FeatureAttribs
  2
FEATURE
  41
1
  42
1
  43
1
  50
0
  10
232425.490
  20
4610580.736
 66
1
  0
ATTRIB
  8
FeatureAttribs
 70
0
  1
PNOA-H_AMS_1956-57_33k_ES_PAN_2
  2
NAME
  10
232425.490
  20
4610580.736
 40
33.99700
  0
SEQEND
  0
POLYLINE
  8
Unknown_Area_Type
  70
1
  66
1
  0
VERTEX
  8
Unknown_Area_Type
  10
231057.500
  20
4611377.500
  0
VERTEX
  8
Unknown_Area_Type
  10
230924.500
  20
4609990.000
  0
VERTEX
  8
Unknown_Area_Type
  10
231993.000
  20
4609990.000
  0
VERTEX
  8
Unknown_Area_Type
  10
231995.000
  20
4609988.000
  0
VERTEX
  8
Unknown_Area_Type
  10
231995.000
  20
4608119.500
  0
VERTEX
  8
Unknown_Area_Type
  10
233373.500
  20
4608381.000
  0
VERTEX
  8
Unknown_Area_Type
  10
233732.500
  20
4612038.500
  0
VERTEX
  8
Unknown_Area_Type
  10
232039.500
  20
4612587.500
  0
VERTEX
  8
Unknown_Area_Type
  10
231140.500
  20
4612247.000
  0
VERTEX
  8
Unknown_Area_Type
  10
231057.500
  20
4611382.500
  0
VERTEX
  8
Unknown_Area_Type
  10
231057.500
  20
4611377.500
  0
SEQEND
  8
Unknown_Area_Type
  0
INSERT
  8
FeatureAttribs
  2
FEATURE
  41
1
  42
1
  43
1
  50
0
  10
234343.016
  20
4602178.548
 66
1
  0
ATTRIB
  8
FeatureAttribs
 70
0
  1
PNOA-H_AMS_1956-57_33k_ES_PAN_2
  2
NAME
  10
234343.016
  20
4602178.548
 40
33.99700
  0
SEQEND
  0
POLYLINE
  8
Unknown_Area_Type
  70
1
  66
1
  0
VERTEX
  8
Unknown_Area_Type
  10
234629.544
  20
4600429.813
  0
VERTEX
  8
Unknown_Area_Type
  10
233982.008
  20
4600160.890
  0
VERTEX
  8
Unknown_Area_Type
  10
234030.846
  20
4601484.070
  0
VERTEX
  8
Unknown_Area_Type
  10
234116.264
  20
4603797.420
  0
VERTEX
  8
Unknown_Area_Type
  10
234130.178
  20
4604174.074
  0
VERTEX
  8
Unknown_Area_Type
  10
234629.544
  20
4604196.207
  0
VERTEX
  8
Unknown_Area_Type
  10
234629.544
  20
4600429.813
  0
SEQEND
  8
Unknown_Area_Type
  0
INSERT
  8
FeatureAttribs
  2
FEATURE
  41
1
  42
1
  43
1
  50
0
  10
233018.849
  20
4602205.029
 66
1
  0
ATTRIB
  8
FeatureAttribs
 70
0
  1
PNOA-H_AMS_1956-57_33k_ES_PAN_2
  2
NAME
  10
233018.849
  20
4602205.029
 40
33.99700
  0
SEQEND
  0
POLYLINE
  8
Unknown_Area_Type
  70
1
  66
1
  0
VERTEX
  8
Unknown_Area_Type
  10
233982.008
  20
4600160.890
  0
VERTEX
  8
Unknown_Area_Type
  10
233623.500
  20
4600012.000
  0
VERTEX
  8
Unknown_Area_Type
  10
231959.500
  20
4600503.000
  0
VERTEX
  8
Unknown_Area_Type
  10
231900.000
  20
4604034.000
  0
VERTEX
  8
Unknown_Area_Type
  10
231953.500
  20
4604076.500
  0
VERTEX
  8
Unknown_Area_Type
  10
231962.500
  20
4604078.000
  0
VERTEX
  8
Unknown_Area_Type
  10
234130.178
  20
4604174.074
  0
VERTEX
  8
Unknown_Area_Type
  10
234116.264
  20
4603797.420
  0
VERTEX
  8
Unknown_Area_Type
  10
234030.846
  20
4601484.070
  0
VERTEX
  8
Unknown_Area_Type
  10
233982.008
  20
4600160.890
  0
SEQEND
  8
Unknown_Area_Type
  0
INSERT
  8
FeatureAttribs
  2
FEATURE
  41
1
  42
1
  43
1
  50
0
  10
233018.849
  20
4602205.029
 66
1
  0
ATTRIB
  8
FeatureAttribs
 70
0
  1
PNOA-H_AMS_1956-57_33k_ES_PAN_2
  2
NAME
  10
233018.849
  20
4602205.029
 40
33.99700
  0
SEQEND
  0
POLYLINE
  8
Unknown_Area_Type
  70
1
  66
1
  0
VERTEX
  8
Unknown_Area_Type
  10
233982.008
  20
4600160.890
  0
VERTEX
  8
Unknown_Area_Type
  10
234030.846
  20
4601484.070
  0
VERTEX
  8
Unknown_Area_Type
  10
234116.264
  20
4603797.420
  0
VERTEX
  8
Unknown_Area_Type
  10
234130.178
  20
4604174.074
  0
VERTEX
  8
Unknown_Area_Type
  10
231962.500
  20
4604078.000
  0
VERTEX
  8
Unknown_Area_Type
  10
231953.500
  20
4604076.500
  0
VERTEX
  8
Unknown_Area_Type
  10
231900.000
  20
4604034.000
  0
VERTEX
  8
Unknown_Area_Type
  10
231959.500
  20
4600503.000
  0
VERTEX
  8
Unknown_Area_Type
  10
233623.500
  20
4600012.000
  0
VERTEX
  8
Unknown_Area_Type
  10
233982.008
  20
4600160.890
  0
SEQEND
  8
Unknown_Area_Type
  0
INSERT
  8
FeatureAttribs
  2
FEATURE
  41
1
  42
1
  43
1
  50
0
  10
228416.251
  20
4614894.684
 66
1
  0
ATTRIB
  8
FeatureAttribs
 70
0
  1
PNOA-H_AMS_1956-57_33k_ES_PAN_2
  2
NAME
  10
228416.251
  20
4614894.684
 40
33.99700
  0
SEQEND
  0
POLYLINE
  8
Unknown_Area_Type
  70
1
  66
1
  0
VERTEX
  8
Unknown_Area_Type
  10
227101.000
  20
4616761.000
  0
VERTEX
  8
Unknown_Area_Type
  10
229762.000
  20
4616606.000
  0
VERTEX
  8
Unknown_Area_Type
  10
229783.000
  20
4616589.500
  0
VERTEX
  8
Unknown_Area_Type
  10
229783.000
  20
4616583.000
  0
VERTEX
  8
Unknown_Area_Type
  10
229511.000
  20
4613385.000
  0
VERTEX
  8
Unknown_Area_Type
  10
229511.000
  20
4613384.000
  0
VERTEX
  8
Unknown_Area_Type
  10
229466.500
  20
4612857.500
  0
VERTEX
  8
Unknown_Area_Type
  10
228427.500
  20
4612487.000
  0
VERTEX
  8
Unknown_Area_Type
  10
227995.000
  20
4612651.000
  0
VERTEX
  8
Unknown_Area_Type
  10
227995.000
  20
4613988.000
  0
VERTEX
  8
Unknown_Area_Type
  10
227993.000
  20
4613990.000
  0
VERTEX
  8
Unknown_Area_Type
  10
226917.000
  20
4613990.000
  0
VERTEX
  8
Unknown_Area_Type
  10
227101.000
  20
4616761.000
  0
SEQEND
  8
Unknown_Area_Type
  0
INSERT
  8
FeatureAttribs
  2
FEATURE
  41
1
  42
1
  43
1
  50
0
  10
228416.251
  20
4614894.684
 66
1
  0
ATTRIB
  8
FeatureAttribs
 70
0
  1
PNOA-H_AMS_1956-57_33k_ES_PAN_2
  2
NAME
  10
228416.251
  20
4614894.684
 40
33.99700
  0
SEQEND
  0
POLYLINE
  8
Unknown_Area_Type
  70
1
  66
1
  0
VERTEX
  8
Unknown_Area_Type
  10
227101.000
  20
4616761.000
  0
VERTEX
  8
Unknown_Area_Type
  10
226917.000
  20
4613990.000
  0
VERTEX
  8
Unknown_Area_Type
  10
227993.000
  20
4613990.000
  0
VERTEX
  8
Unknown_Area_Type
  10
227995.000
  20
4613988.000
  0
VERTEX
  8
Unknown_Area_Type
  10
227995.000
  20
4612651.000
  0
VERTEX
  8
Unknown_Area_Type
  10
228427.500
  20
4612487.000
  0
VERTEX
  8
Unknown_Area_Type
  10
229466.500
  20
4612857.500
  0
VERTEX
  8
Unknown_Area_Type
  10
229511.000
  20
4613384.000
  0
VERTEX
  8
Unknown_Area_Type
  10
229511.000
  20
4613385.000
  0
VERTEX
  8
Unknown_Area_Type
  10
229783.000
  20
4616583.000
  0
VERTEX
  8
Unknown_Area_Type
  10
229783.000
  20
4616589.500
  0
VERTEX
  8
Unknown_Area_Type
  10
229762.000
  20
4616606.000
  0
VERTEX
  8
Unknown_Area_Type
  10
227101.000
  20
4616761.000
  0
SEQEND
  8
Unknown_Area_Type
  0
INSERT
  8
FeatureAttribs
  2
FEATURE
  41
1
  42
1
  43
1
  50
0
  10
230923.606
  20
4614475.547
 66
1
  0
ATTRIB
  8
FeatureAttribs
 70
0
  1
PNOA-H_AMS_1956-57_33k_ES_PAN_2
  2
NAME
  10
230923.606
  20
4614475.547
 40
33.99700
  0
SEQEND
  0
POLYLINE
  8
Unknown_Area_Type
  70
1
  66
1
  0
VERTEX
  8
Unknown_Area_Type
  10
229783.000
  20
4616589.000
  0
VERTEX
  8
Unknown_Area_Type
  10
231057.000
  20
4616437.000
  0
VERTEX
  8
Unknown_Area_Type
  10
231058.000
  20
4616437.000
  0
VERTEX
  8
Unknown_Area_Type
  10
232419.500
  20
4616275.000
  0
VERTEX
  8
Unknown_Area_Type
  10
232040.500
  20
4612587.500
  0
VERTEX
  8
Unknown_Area_Type
  10
231142.000
  20
4612247.000
  0
VERTEX
  8
Unknown_Area_Type
  10
231139.000
  20
4612247.000
  0
VERTEX
  8
Unknown_Area_Type
  10
229466.500
  20
4612857.500
  0
VERTEX
  8
Unknown_Area_Type
  10
229783.000
  20
4616589.000
  0
SEQEND
  8
Unknown_Area_Type
  0
INSERT
  8
FeatureAttribs
  2
FEATURE
  41
1
  42
1
  43
1
  50
0
  10
230923.606
  20
4614475.547
 66
1
  0
ATTRIB
  8
FeatureAttribs
 70
0
  1
PNOA-H_AMS_1956-57_33k_ES_PAN_2
  2
NAME
  10
230923.606
  20
4614475.547
 40
33.99700
  0
SEQEND
  0
POLYLINE
  8
Unknown_Area_Type
  70
1
  66
1
  0
VERTEX
  8
Unknown_Area_Type
  10
229783.000
  20
4616589.000
  0
VERTEX
  8
Unknown_Area_Type
  10
229466.500
  20
4612857.500
  0
VERTEX
  8
Unknown_Area_Type
  10
231139.000
  20
4612247.000
  0
VERTEX
  8
Unknown_Area_Type
  10
231142.000
  20
4612247.000
  0
VERTEX
  8
Unknown_Area_Type
  10
232040.500
  20
4612587.500
  0
VERTEX
  8
Unknown_Area_Type
  10
232419.500
  20
4616275.000
  0
VERTEX
  8
Unknown_Area_Type
  10
231058.000
  20
4616437.000
  0
VERTEX
  8
Unknown_Area_Type
  10
231057.000
  20
4616437.000
  0
VERTEX
  8
Unknown_Area_Type
  10
229783.000
  20
4616589.000
  0
SEQEND
  8
Unknown_Area_Type
  0
INSERT
  8
FeatureAttribs
  2
FEATURE
  41
1
  42
1
  43
1
  50
0
  10
234564.762
  20
4614177.597
 66
1
  0
ATTRIB
  8
FeatureAttribs
 70
0
  1
PNOA-H_AMS_1956-57_33k_ES_PAN_2
  2
NAME
  10
234564.762
  20
4614177.597
 40
33.99700
  0
SEQEND
  0
POLYLINE
  8
Unknown_Area_Type
  70
1
  66
1
  0
VERTEX
  8
Unknown_Area_Type
  10
234629.544
  20
4616067.435
  0
VERTEX
  8
Unknown_Area_Type
  10
234629.544
  20
4612347.199
  0
VERTEX
  8
Unknown_Area_Type
  10
234429.717
  20
4612278.283
  0
VERTEX
  8
Unknown_Area_Type
  10
234458.291
  20
4613050.874
  0
VERTEX
  8
Unknown_Area_Type
  10
234543.886
  20
4615364.252
  0
VERTEX
  8
Unknown_Area_Type
  10
234570.265
  20
4616076.912
  0
VERTEX
  8
Unknown_Area_Type
  10
234629.544
  20
4616067.435
  0
SEQEND
  8
Unknown_Area_Type
  0
INSERT
  8
FeatureAttribs
  2
FEATURE
  41
1
  42
1
  43
1
  50
0
  10
233366.031
  20
4614215.272
 66
1
  0
ATTRIB
  8
FeatureAttribs
 70
0
  1
PNOA-H_AMS_1956-57_33k_ES_PAN_2
  2
NAME
  10
233366.031
  20
4614215.272
 40
33.99700
  0
SEQEND
  0
POLYLINE
  8
Unknown_Area_Type
  70
1
  66
1
  0
VERTEX
  8
Unknown_Area_Type
  10
234570.265
  20
4616076.912
  0
VERTEX
  8
Unknown_Area_Type
  10
234543.886
  20
4615364.252
  0
VERTEX
  8
Unknown_Area_Type
  10
234458.291
  20
4613050.874
  0
VERTEX
  8
Unknown_Area_Type
  10
234429.717
  20
4612278.283
  0
VERTEX
  8
Unknown_Area_Type
  10
233733.000
  20
4612038.000
  0
VERTEX
  8
Unknown_Area_Type
  10
232040.500
  20
4612587.500
  0
VERTEX
  8
Unknown_Area_Type
  10
232419.500
  20
4616275.000
  0
VERTEX
  8
Unknown_Area_Type
  10
232651.000
  20
4616383.500
  0
VERTEX
  8
Unknown_Area_Type
  10
233105.000
  20
4616311.000
  0
VERTEX
  8
Unknown_Area_Type
  10
233106.000
  20
4616311.000
  0
VERTEX
  8
Unknown_Area_Type
  10
234570.265
  20
4616076.912
  0
SEQEND
  8
Unknown_Area_Type
  0
INSERT
  8
FeatureAttribs
  2
FEATURE
  41
1
  42
1
  43
1
  50
0
  10
233366.031
  20
4614215.272
 66
1
  0
ATTRIB
  8
FeatureAttribs
 70
0
  1
PNOA-H_AMS_1956-57_33k_ES_PAN_2
  2
NAME
  10
233366.031
  20
4614215.272
 40
33.99700
  0
SEQEND
  0
POLYLINE
  8
Unknown_Area_Type
  70
1
  66
1
  0
VERTEX
  8
Unknown_Area_Type
  10
234570.265
  20
4616076.912
  0
VERTEX
  8
Unknown_Area_Type
  10
233106.000
  20
4616311.000
  0
VERTEX
  8
Unknown_Area_Type
  10
233105.000
  20
4616311.000
  0
VERTEX
  8
Unknown_Area_Type
  10
232651.000
  20
4616383.500
  0
VERTEX
  8
Unknown_Area_Type
  10
232419.500
  20
4616275.000
  0
VERTEX
  8
Unknown_Area_Type
  10
232040.500
  20
4612587.500
  0
VERTEX
  8
Unknown_Area_Type
  10
233733.000
  20
4612038.000
  0
VERTEX
  8
Unknown_Area_Type
  10
234429.717
  20
4612278.283
  0
VERTEX
  8
Unknown_Area_Type
  10
234458.291
  20
4613050.874
  0
VERTEX
  8
Unknown_Area_Type
  10
234543.886
  20
4615364.252
  0
VERTEX
  8
Unknown_Area_Type
  10
234570.265
  20
4616076.912
  0
SEQEND
  8
Unknown_Area_Type
  0
INSERT
  8
FeatureAttribs
  2
FEATURE
  41
1
  42
1
  43
1
  50
0
  10
229187.500
  20
4601022.500
 66
1
  0
ATTRIB
  8
FeatureAttribs
 70
0
  1
PNOA-H_AMS_1956-57_33k_ES_PAN_2
  2
NAME
  10
229187.500
  20
4601022.500
 40
33.99700
  0
SEQEND
  0
POLYLINE
  8
Unknown_Area_Type
  70
1
  66
1
  0
VERTEX
  8
Unknown_Area_Type
  10
229189.500
  20
4601029.500
  0
VERTEX
  8
Unknown_Area_Type
  10
229190.500
  20
4601029.000
  0
VERTEX
  8
Unknown_Area_Type
  10
229194.500
  20
4601024.500
  0
VERTEX
  8
Unknown_Area_Type
  10
229194.500
  20
4601020.500
  0
VERTEX
  8
Unknown_Area_Type
  10
229189.500
  20
4601015.500
  0
VERTEX
  8
Unknown_Area_Type
  10
229184.500
  20
4601016.000
  0
VERTEX
  8
Unknown_Area_Type
  10
229180.500
  20
4601020.500
  0
VERTEX
  8
Unknown_Area_Type
  10
229180.500
  20
4601024.500
  0
VERTEX
  8
Unknown_Area_Type
  10
229184.500
  20
4601029.000
  0
VERTEX
  8
Unknown_Area_Type
  10
229189.500
  20
4601029.500
  0
SEQEND
  8
Unknown_Area_Type
  0
INSERT
  8
FeatureAttribs
  2
FEATURE
  41
1
  42
1
  43
1
  50
0
  10
229187.500
  20
4601022.500
 66
1
  0
ATTRIB
  8
FeatureAttribs
 70
0
  1
PNOA-H_AMS_1956-57_33k_ES_PAN_2
  2
NAME
  10
229187.500
  20
4601022.500
 40
33.99700
  0
SEQEND
  0
POLYLINE
  8
Unknown_Area_Type
  70
1
  66
1
  0
VERTEX
  8
Unknown_Area_Type
  10
229189.500
  20
4601029.500
  0
VERTEX
  8
Unknown_Area_Type
  10
229184.500
  20
4601029.000
  0
VERTEX
  8
Unknown_Area_Type
  10
229180.500
  20
4601024.500
  0
VERTEX
  8
Unknown_Area_Type
  10
229180.500
  20
4601020.500
  0
VERTEX
  8
Unknown_Area_Type
  10
229184.500
  20
4601016.000
  0
VERTEX
  8
Unknown_Area_Type
  10
229189.500
  20
4601015.500
  0
VERTEX
  8
Unknown_Area_Type
  10
229194.500
  20
4601020.500
  0
VERTEX
  8
Unknown_Area_Type
  10
229194.500
  20
4601024.500
  0
VERTEX
  8
Unknown_Area_Type
  10
229190.500
  20
4601029.000
  0
VERTEX
  8
Unknown_Area_Type
  10
229189.500
  20
4601029.500
  0
SEQEND
  8
Unknown_Area_Type
  0
INSERT
  8
FeatureAttribs
  2
FEATURE
  41
1
  42
1
  43
1
  50
0
  10
230706.960
  20
4601950.323
 66
1
  0
ATTRIB
  8
FeatureAttribs
 70
0
  1
PNOA-H_AMS_1956-57_33k_ES_PAN_2
  2
NAME
  10
230706.960
  20
4601950.323
 40
33.99700
  0
SEQEND
  0
POLYLINE
  8
Unknown_Area_Type
  70
1
  66
1
  0
VERTEX
  8
Unknown_Area_Type
  10
229993.000
  20
4602005.000
  0
VERTEX
  8
Unknown_Area_Type
  10
229995.000
  20
4602007.000
  0
VERTEX
  8
Unknown_Area_Type
  10
229995.000
  20
4602231.000
  0
VERTEX
  8
Unknown_Area_Type
  10
229997.000
  20
4602234.500
  0
VERTEX
  8
Unknown_Area_Type
  10
229997.500
  20
4602366.500
  0
VERTEX
  8
Unknown_Area_Type
  10
229999.500
  20
4603795.500
  0
VERTEX
  8
Unknown_Area_Type
  10
229999.500
  20
4604031.000
  0
VERTEX
  8
Unknown_Area_Type
  10
229996.000
  20
4604032.000
  0
VERTEX
  8
Unknown_Area_Type
  10
229996.000
  20
4604033.000
  0
VERTEX
  8
Unknown_Area_Type
  10
230000.000
  20
4604032.000
  0
VERTEX
  8
Unknown_Area_Type
  10
230003.000
  20
4604035.000
  0
VERTEX
  8
Unknown_Area_Type
  10
230002.000
  20
4604040.000
  0
VERTEX
  8
Unknown_Area_Type
  10
230005.000
  20
4604042.000
  0
VERTEX
  8
Unknown_Area_Type
  10
230005.000
  20
4604056.000
  0
VERTEX
  8
Unknown_Area_Type
  10
231554.500
  20
4604037.500
  0
VERTEX
  8
Unknown_Area_Type
  10
231578.000
  20
4604037.500
  0
VERTEX
  8
Unknown_Area_Type
  10
231585.500
  20
4604044.500
  0
VERTEX
  8
Unknown_Area_Type
  10
231585.500
  20
4604075.000
  0
VERTEX
  8
Unknown_Area_Type
  10
231589.500
  20
4604079.000
  0
VERTEX
  8
Unknown_Area_Type
  10
231590.500
  20
4604079.500
  0
VERTEX
  8
Unknown_Area_Type
  10
231604.500
  20
4604079.500
  0
VERTEX
  8
Unknown_Area_Type
  10
231614.500
  20
4604055.000
  0
VERTEX
  8
Unknown_Area_Type
  10
231609.500
  20
4604050.500
  0
VERTEX
  8
Unknown_Area_Type
  10
231609.500
  20
4604037.000
  0
VERTEX
  8
Unknown_Area_Type
  10
231900.000
  20
4604033.500
  0
VERTEX
  8
Unknown_Area_Type
  10
231959.000
  20
4600502.500
  0
VERTEX
  8
Unknown_Area_Type
  10
230783.000
  20
4599998.000
  0
VERTEX
  8
Unknown_Area_Type
  10
229071.500
  20
4600511.500
  0
VERTEX
  8
Unknown_Area_Type
  10
229068.500
  20
4600512.500
  0
VERTEX
  8
Unknown_Area_Type
  10
229067.500
  20
4600515.500
  0
VERTEX
  8
Unknown_Area_Type
  10
229058.000
  20
4600928.000
  0
VERTEX
  8
Unknown_Area_Type
  10
229050.000
  20
4600920.500
  0
VERTEX
  8
Unknown_Area_Type
  10
229045.000
  20
4600920.500
  0
VERTEX
  8
Unknown_Area_Type
  10
229035.500
  20
4600930.000
  0
VERTEX
  8
Unknown_Area_Type
  10
229035.500
  20
4600940.000
  0
VERTEX
  8
Unknown_Area_Type
  10
229045.000
  20
4600949.500
  0
VERTEX
  8
Unknown_Area_Type
  10
229050.000
  20
4600949.500
  0
VERTEX
  8
Unknown_Area_Type
  10
229057.500
  20
4600942.500
  0
VERTEX
  8
Unknown_Area_Type
  10
229057.500
  20
4600957.500
  0
VERTEX
  8
Unknown_Area_Type
  10
229032.500
  20
4602005.000
  0
VERTEX
  8
Unknown_Area_Type
  10
229993.000
  20
4602005.000
  0
SEQEND
  8
Unknown_Area_Type
  0
INSERT
  8
FeatureAttribs
  2
FEATURE
  41
1
  42
1
  43
1
  50
0
  10
230706.960
  20
4601950.323
 66
1
  0
ATTRIB
  8
FeatureAttribs
 70
0
  1
PNOA-H_AMS_1956-57_33k_ES_PAN_2
  2
NAME
  10
230706.960
  20
4601950.323
 40
33.99700
  0
SEQEND
  0
POLYLINE
  8
Unknown_Area_Type
  70
1
  66
1
  0
VERTEX
  8
Unknown_Area_Type
  10
229993.000
  20
4602005.000
  0
VERTEX
  8
Unknown_Area_Type
  10
229032.500
  20
4602005.000
  0
VERTEX
  8
Unknown_Area_Type
  10
229057.500
  20
4600957.500
  0
VERTEX
  8
Unknown_Area_Type
  10
229057.500
  20
4600942.500
  0
VERTEX
  8
Unknown_Area_Type
  10
229050.000
  20
4600949.500
  0
VERTEX
  8
Unknown_Area_Type
  10
229045.000
  20
4600949.500
  0
VERTEX
  8
Unknown_Area_Type
  10
229035.500
  20
4600940.000
  0
VERTEX
  8
Unknown_Area_Type
  10
229035.500
  20
4600930.000
  0
VERTEX
  8
Unknown_Area_Type
  10
229045.000
  20
4600920.500
  0
VERTEX
  8
Unknown_Area_Type
  10
229050.000
  20
4600920.500
  0
VERTEX
  8
Unknown_Area_Type
  10
229058.000
  20
4600928.000
  0
VERTEX
  8
Unknown_Area_Type
  10
229067.500
  20
4600515.500
  0
VERTEX
  8
Unknown_Area_Type
  10
229068.500
  20
4600512.500
  0
VERTEX
  8
Unknown_Area_Type
  10
229071.500
  20
4600511.500
  0
VERTEX
  8
Unknown_Area_Type
  10
230783.000
  20
4599998.000
  0
VERTEX
  8
Unknown_Area_Type
  10
231959.000
  20
4600502.500
  0
VERTEX
  8
Unknown_Area_Type
  10
231900.000
  20
4604033.500
  0
VERTEX
  8
Unknown_Area_Type
  10
231609.500
  20
4604037.000
  0
VERTEX
  8
Unknown_Area_Type
  10
231609.500
  20
4604050.500
  0
VERTEX
  8
Unknown_Area_Type
  10
231614.500
  20
4604055.000
  0
VERTEX
  8
Unknown_Area_Type
  10
231604.500
  20
4604079.500
  0
VERTEX
  8
Unknown_Area_Type
  10
231590.500
  20
4604079.500
  0
VERTEX
  8
Unknown_Area_Type
  10
231589.500
  20
4604079.000
  0
VERTEX
  8
Unknown_Area_Type
  10
231585.500
  20
4604075.000
  0
VERTEX
  8
Unknown_Area_Type
  10
231585.500
  20
4604044.500
  0
VERTEX
  8
Unknown_Area_Type
  10
231578.000
  20
4604037.500
  0
VERTEX
  8
Unknown_Area_Type
  10
231554.500
  20
4604037.500
  0
VERTEX
  8
Unknown_Area_Type
  10
230005.000
  20
4604056.000
  0
VERTEX
  8
Unknown_Area_Type
  10
230005.000
  20
4604042.000
  0
VERTEX
  8
Unknown_Area_Type
  10
230002.000
  20
4604040.000
  0
VERTEX
  8
Unknown_Area_Type
  10
230003.000
  20
4604035.000
  0
VERTEX
  8
Unknown_Area_Type
  10
230000.000
  20
4604032.000
  0
VERTEX
  8
Unknown_Area_Type
  10
229996.000
  20
4604033.000
  0
VERTEX
  8
Unknown_Area_Type
  10
229996.000
  20
4604032.000
  0
VERTEX
  8
Unknown_Area_Type
  10
229999.500
  20
4604031.000
  0
VERTEX
  8
Unknown_Area_Type
  10
229999.500
  20
4603795.500
  0
VERTEX
  8
Unknown_Area_Type
  10
229997.500
  20
4602366.500
  0
VERTEX
  8
Unknown_Area_Type
  10
229997.000
  20
4602234.500
  0
VERTEX
  8
Unknown_Area_Type
  10
229995.000
  20
4602231.000
  0
VERTEX
  8
Unknown_Area_Type
  10
229995.000
  20
4602007.000
  0
VERTEX
  8
Unknown_Area_Type
  10
229993.000
  20
4602005.000
  0
SEQEND
  8
Unknown_Area_Type
  0
INSERT
  8
FeatureAttribs
  2
FEATURE
  41
1
  42
1
  43
1
  50
0
  10
234490.320
  20
4610152.262
 66
1
  0
ATTRIB
  8
FeatureAttribs
 70
0
  1
PNOA-H_AMS_1956-57_33k_ES_PAN_2
  2
NAME
  10
234490.320
  20
4610152.262
 40
33.99700
  0
SEQEND
  0
POLYLINE
  8
Unknown_Area_Type
  70
1
  66
1
  0
VERTEX
  8
Unknown_Area_Type
  10
234629.544
  20
4607987.122
  0
VERTEX
  8
Unknown_Area_Type
  10
234525.500
  20
4607957.000
  0
VERTEX
  8
Unknown_Area_Type
  10
234273.374
  20
4608049.797
  0
VERTEX
  8
Unknown_Area_Type
  10
234287.207
  20
4608424.135
  0
VERTEX
  8
Unknown_Area_Type
  10
234372.731
  20
4610737.502
  0
VERTEX
  8
Unknown_Area_Type
  10
234429.728
  20
4612278.578
  0
VERTEX
  8
Unknown_Area_Type
  10
234629.544
  20
4612347.525
  0
VERTEX
  8
Unknown_Area_Type
  10
234629.544
  20
4607987.122
  0
SEQEND
  8
Unknown_Area_Type
  0
INSERT
  8
FeatureAttribs
  2
FEATURE
  41
1
  42
1
  43
1
  50
0
  10
233955.261
  20
4610087.916
 66
1
  0
ATTRIB
  8
FeatureAttribs
 70
0
  1
PNOA-H_AMS_1956-57_33k_ES_PAN_2
  2
NAME
  10
233955.261
  20
4610087.916
 40
33.99700
  0
SEQEND
  0
POLYLINE
  8
Unknown_Area_Type
  70
1
  66
1
  0
VERTEX
  8
Unknown_Area_Type
  10
234429.728
  20
4612278.578
  0
VERTEX
  8
Unknown_Area_Type
  10
234372.731
  20
4610737.502
  0
VERTEX
  8
Unknown_Area_Type
  10
234287.207
  20
4608424.135
  0
VERTEX
  8
Unknown_Area_Type
  10
234273.374
  20
4608049.797
  0
VERTEX
  8
Unknown_Area_Type
  10
233373.500
  20
4608381.000
  0
VERTEX
  8
Unknown_Area_Type
  10
233732.500
  20
4612038.000
  0
VERTEX
  8
Unknown_Area_Type
  10
234429.728
  20
4612278.578
  0
SEQEND
  8
Unknown_Area_Type
  0
INSERT
  8
FeatureAttribs
  2
FEATURE
  41
1
  42
1
  43
1
  50
0
  10
233955.261
  20
4610087.916
 66
1
  0
ATTRIB
  8
FeatureAttribs
 70
0
  1
PNOA-H_AMS_1956-57_33k_ES_PAN_2
  2
NAME
  10
233955.261
  20
4610087.916
 40
33.99700
  0
SEQEND
  0
POLYLINE
  8
Unknown_Area_Type
  70
1
  66
1
  0
VERTEX
  8
Unknown_Area_Type
  10
234429.728
  20
4612278.578
  0
VERTEX
  8
Unknown_Area_Type
  10
233732.500
  20
4612038.000
  0
VERTEX
  8
Unknown_Area_Type
  10
233373.500
  20
4608381.000
  0
VERTEX
  8
Unknown_Area_Type
  10
234273.374
  20
4608049.797
  0
VERTEX
  8
Unknown_Area_Type
  10
234287.207
  20
4608424.135
  0
VERTEX
  8
Unknown_Area_Type
  10
234372.731
  20
4610737.502
  0
VERTEX
  8
Unknown_Area_Type
  10
234429.728
  20
4612278.578
  0
SEQEND
  8
Unknown_Area_Type
  0
INSERT
  8
FeatureAttribs
  2
FEATURE
  41
1
  42
1
  43
1
  50
0
  10
229996.764
  20
4603230.585
 66
1
  0
ATTRIB
  8
FeatureAttribs
 70
0
  1
PNOA-H_AMS_1956-57_33k_ES_PAN_2
  2
NAME
  10
229996.764
  20
4603230.585
 40
33.99700
  0
SEQEND
  0
POLYLINE
  8
Unknown_Area_Type
  70
1
  66
1
  0
VERTEX
  8
Unknown_Area_Type
  10
229995.000
  20
4604032.500
  0
VERTEX
  8
Unknown_Area_Type
  10
229999.500
  20
4604031.000
  0
VERTEX
  8
Unknown_Area_Type
  10
229997.500
  20
4602366.500
  0
VERTEX
  8
Unknown_Area_Type
  10
229997.000
  20
4602234.500
  0
VERTEX
  8
Unknown_Area_Type
  10
229995.000
  20
4602231.000
  0
VERTEX
  8
Unknown_Area_Type
  10
229995.000
  20
4604032.500
  0
SEQEND
  8
Unknown_Area_Type
  0
INSERT
  8
FeatureAttribs
  2
FEATURE
  41
1
  42
1
  43
1
  50
0
  10
229996.764
  20
4603230.585
 66
1
  0
ATTRIB
  8
FeatureAttribs
 70
0
  1
PNOA-H_AMS_1956-57_33k_ES_PAN_2
  2
NAME
  10
229996.764
  20
4603230.585
 40
33.99700
  0
SEQEND
  0
POLYLINE
  8
Unknown_Area_Type
  70
1
  66
1
  0
VERTEX
  8
Unknown_Area_Type
  10
229995.000
  20
4604032.500
  0
VERTEX
  8
Unknown_Area_Type
  10
229995.000
  20
4602231.000
  0
VERTEX
  8
Unknown_Area_Type
  10
229997.000
  20
4602234.500
  0
VERTEX
  8
Unknown_Area_Type
  10
229997.500
  20
4602366.500
  0
VERTEX
  8
Unknown_Area_Type
  10
229999.500
  20
4604031.000
  0
VERTEX
  8
Unknown_Area_Type
  10
229995.000
  20
4604032.500
  0
SEQEND
  8
Unknown_Area_Type
  0
INSERT
  8
FeatureAttribs
  2
FEATURE
  41
1
  42
1
  43
1
  50
0
  10
230959.904
  20
4605017.209
 66
1
  0
ATTRIB
  8
FeatureAttribs
 70
0
  1
PNOA-H_AMS_1956-57_33k_ES_PAN_2
  2
NAME
  10
230959.904
  20
4605017.209
 40
33.99700
  0
SEQEND
  0
POLYLINE
  8
Unknown_Area_Type
  70
1
  66
1
  0
VERTEX
  8
Unknown_Area_Type
  10
230012.000
  20
4606005.000
  0
VERTEX
  8
Unknown_Area_Type
  10
231199.500
  20
4606005.000
  0
VERTEX
  8
Unknown_Area_Type
  10
231202.000
  20
4606004.000
  0
VERTEX
  8
Unknown_Area_Type
  10
231866.000
  20
4606005.000
  0
VERTEX
  8
Unknown_Area_Type
  10
231955.000
  20
4604077.000
  0
VERTEX
  8
Unknown_Area_Type
  10
231900.000
  20
4604033.500
  0
VERTEX
  8
Unknown_Area_Type
  10
231609.500
  20
4604037.000
  0
VERTEX
  8
Unknown_Area_Type
  10
231578.000
  20
4604037.500
  0
VERTEX
  8
Unknown_Area_Type
  10
230005.000
  20
4604056.000
  0
VERTEX
  8
Unknown_Area_Type
  10
230005.000
  20
4605998.000
  0
VERTEX
  8
Unknown_Area_Type
  10
230011.500
  20
4606004.000
  0
VERTEX
  8
Unknown_Area_Type
  10
230012.000
  20
4606005.000
  0
SEQEND
  8
Unknown_Area_Type
  0
INSERT
  8
FeatureAttribs
  2
FEATURE
  41
1
  42
1
  43
1
  50
0
  10
230959.904
  20
4605017.209
 66
1
  0
ATTRIB
  8
FeatureAttribs
 70
0
  1
PNOA-H_AMS_1956-57_33k_ES_PAN_2
  2
NAME
  10
230959.904
  20
4605017.209
 40
33.99700
  0
SEQEND
  0
POLYLINE
  8
Unknown_Area_Type
  70
1
  66
1
  0
VERTEX
  8
Unknown_Area_Type
  10
230012.000
  20
4606005.000
  0
VERTEX
  8
Unknown_Area_Type
  10
230011.500
  20
4606004.000
  0
VERTEX
  8
Unknown_Area_Type
  10
230005.000
  20
4605998.000
  0
VERTEX
  8
Unknown_Area_Type
  10
230005.000
  20
4604056.000
  0
VERTEX
  8
Unknown_Area_Type
  10
231578.000
  20
4604037.500
  0
VERTEX
  8
Unknown_Area_Type
  10
231609.500
  20
4604037.000
  0
VERTEX
  8
Unknown_Area_Type
  10
231900.000
  20
4604033.500
  0
VERTEX
  8
Unknown_Area_Type
  10
231955.000
  20
4604077.000
  0
VERTEX
  8
Unknown_Area_Type
  10
231866.000
  20
4606005.000
  0
VERTEX
  8
Unknown_Area_Type
  10
231202.000
  20
4606004.000
  0
VERTEX
  8
Unknown_Area_Type
  10
231199.500
  20
4606005.000
  0
VERTEX
  8
Unknown_Area_Type
  10
230012.000
  20
4606005.000
  0
SEQEND
  8
Unknown_Area_Type
  0
INSERT
  8
FeatureAttribs
  2
FEATURE
  41
1
  42
1
  43
1
  50
0
  10
234404.135
  20
4606112.008
 66
1
  0
ATTRIB
  8
FeatureAttribs
 70
0
  1
PNOA-H_AMS_1956-57_33k_ES_PAN_2
  2
NAME
  10
234404.135
  20
4606112.008
 40
33.99700
  0
SEQEND
  0
POLYLINE
  8
Unknown_Area_Type
  70
1
  66
1
  0
VERTEX
  8
Unknown_Area_Type
  10
234629.544
  20
4605587.182
  0
VERTEX
  8
Unknown_Area_Type
  10
234629.544
  20
4604195.804
  0
VERTEX
  8
Unknown_Area_Type
  10
234130.164
  20
4604173.715
  0
VERTEX
  8
Unknown_Area_Type
  10
234201.718
  20
4606110.774
  0
VERTEX
  8
Unknown_Area_Type
  10
234273.392
  20
4608050.301
  0
VERTEX
  8
Unknown_Area_Type
  10
234525.500
  20
4607957.500
  0
VERTEX
  8
Unknown_Area_Type
  10
234629.544
  20
4605587.182
  0
SEQEND
  8
Unknown_Area_Type
  0
INSERT
  8
FeatureAttribs
  2
FEATURE
  41
1
  42
1
  43
1
  50
0
  10
233075.616
  20
4606188.374
 66
1
  0
ATTRIB
  8
FeatureAttribs
 70
0
  1
PNOA-H_AMS_1956-57_33k_ES_PAN_2
  2
NAME
  10
233075.616
  20
4606188.374
 40
33.99700
  0
SEQEND
  0
POLYLINE
  8
Unknown_Area_Type
  70
1
  66
1
  0
VERTEX
  8
Unknown_Area_Type
  10
234130.164
  20
4604173.715
  0
VERTEX
  8
Unknown_Area_Type
  10
231955.000
  20
4604077.500
  0
VERTEX
  8
Unknown_Area_Type
  10
231866.000
  20
4606005.000
  0
VERTEX
  8
Unknown_Area_Type
  10
231993.000
  20
4606005.000
  0
VERTEX
  8
Unknown_Area_Type
  10
231995.000
  20
4606007.000
  0
VERTEX
  8
Unknown_Area_Type
  10
231995.000
  20
4608119.500
  0
VERTEX
  8
Unknown_Area_Type
  10
233368.000
  20
4608380.500
  0
VERTEX
  8
Unknown_Area_Type
  10
233370.500
  20
4608381.000
  0
VERTEX
  8
Unknown_Area_Type
  10
233375.000
  20
4608381.000
  0
VERTEX
  8
Unknown_Area_Type
  10
234273.392
  20
4608050.301
  0
VERTEX
  8
Unknown_Area_Type
  10
234201.718
  20
4606110.774
  0
VERTEX
  8
Unknown_Area_Type
  10
234130.164
  20
4604173.715
  0
SEQEND
  8
Unknown_Area_Type
  0
INSERT
  8
FeatureAttribs
  2
FEATURE
  41
1
  42
1
  43
1
  50
0
  10
233075.616
  20
4606188.374
 66
1
  0
ATTRIB
  8
FeatureAttribs
 70
0
  1
PNOA-H_AMS_1956-57_33k_ES_PAN_2
  2
NAME
  10
233075.616
  20
4606188.374
 40
33.99700
  0
SEQEND
  0
POLYLINE
  8
Unknown_Area_Type
  70
1
  66
1
  0
VERTEX
  8
Unknown_Area_Type
  10
234130.164
  20
4604173.715
  0
VERTEX
  8
Unknown_Area_Type
  10
234201.718
  20
4606110.774
  0
VERTEX
  8
Unknown_Area_Type
  10
234273.392
  20
4608050.301
  0
VERTEX
  8
Unknown_Area_Type
  10
233375.000
  20
4608381.000
  0
VERTEX
  8
Unknown_Area_Type
  10
233370.500
  20
4608381.000
  0
VERTEX
  8
Unknown_Area_Type
  10
233368.000
  20
4608380.500
  0
VERTEX
  8
Unknown_Area_Type
  10
231995.000
  20
4608119.500
  0
VERTEX
  8
Unknown_Area_Type
  10
231995.000
  20
4606007.000
  0
VERTEX
  8
Unknown_Area_Type
  10
231993.000
  20
4606005.000
  0
VERTEX
  8
Unknown_Area_Type
  10
231866.000
  20
4606005.000
  0
VERTEX
  8
Unknown_Area_Type
  10
231955.000
  20
4604077.500
  0
VERTEX
  8
Unknown_Area_Type
  10
234130.164
  20
4604173.715
  0
SEQEND
  8
Unknown_Area_Type
  0
INSERT
  8
FeatureAttribs
  2
FEATURE
  41
1
  42
1
  43
1
  50
0
  10
234603.202
  20
4606787.094
 66
1
  0
ATTRIB
  8
FeatureAttribs
 70
0
  1
PNOA-H_AMS_1956-57_33k_ES_PAN_2
  2
NAME
  10
234603.202
  20
4606787.094
 40
33.99700
  0
SEQEND
  0
POLYLINE
  8
Unknown_Area_Type
  70
1
  66
1
  0
VERTEX
  8
Unknown_Area_Type
  10
234629.544
  20
4607987.190
  0
VERTEX
  8
Unknown_Area_Type
  10
234629.544
  20
4605586.997
  0
VERTEX
  8
Unknown_Area_Type
  10
234525.500
  20
4607957.000
  0
VERTEX
  8
Unknown_Area_Type
  10
234629.544
  20
4607987.190
  0
SEQEND
  8
Unknown_Area_Type
  0
ENDSEC
  0
EOF
