  0
SECTION
  2
HEADER
  9
$ACADVER
  1
AC1009
  9
$LUNITS
  70
2
  9
$LIMMIN
  10
567464.873
  20
4613086.527
  9
$LIMMAX
  10
595389.575
  20
4631906.257
  9
$EXTMIN
  10
567464.873
  20
4613086.527
  9
$EXTMAX
  10
595389.575
  20
4631906.257
  999
Created by Global Mapper
  999
Projection: UTM
  999
Datum: ETRS89
  999
Ground Units: meters
  999
ZONE: 30
  0
ENDSEC
  0
SECTION
  2
TABLES
  0
ENDSEC
  0
SECTION
  2
BLOCKS
  0
BLOCK
  8
FeatureAttribs
  70
0
  2
FEATURE
  3
FEATURE
  10
0.00000000
  20
0.00000000
  0
ATTDEF
  8
FeatureAttribs
  70
0
  1
 
  2
NAME
  3
NAME
  10
0.00000000
  20
0.00000000
  40
1.00000000
  0
ENDBLK
  0
ENDSEC
  0
SECTION
  2
ENTITIES
  0
INSERT
  8
FeatureAttribs
  2
FEATURE
  41
1
  42
1
  43
1
  50
0
  10
568708.101
  20
4627644.000
 66
1
  0
ATTRIB
  8
FeatureAttribs
 70
0
  1
PNOA-H_AMS_1956-57_33k_ES_PAN_21mic_H50_0351_fot_34C-40414_E.tif
  2
NAME
  10
568708.101
  20
4627644.000
 40
33.67449
  0
SEQEND
  0
POLYLINE
  8
PNOA-H_AMS_1956-57_33k_ES_PAN_21mic_H50_0351_fot_34C-40414_E_tif
  70
9
  66
1
  0
VERTEX
  8
PNOA-H_AMS_1956-57_33k_ES_PAN_21mic_H50_0351_fot_34C-40414_E_tif
  70
32
  10
569904.500
  20
4625499.000
  30
1022.552
  0
VERTEX
  8
PNOA-H_AMS_1956-57_33k_ES_PAN_21mic_H50_0351_fot_34C-40414_E_tif
  70
32
  10
567592.000
  20
4625237.000
  30
1036.874
  0
VERTEX
  8
PNOA-H_AMS_1956-57_33k_ES_PAN_21mic_H50_0351_fot_34C-40414_E_tif
  70
32
  10
567591.513
  20
4625237.257
  30
1036.869
  0
VERTEX
  8
PNOA-H_AMS_1956-57_33k_ES_PAN_21mic_H50_0351_fot_34C-40414_E_tif
  70
32
  10
567573.984
  20
4625246.504
  30
1036.67
  0
VERTEX
  8
PNOA-H_AMS_1956-57_33k_ES_PAN_21mic_H50_0351_fot_34C-40414_E_tif
  70
32
  10
567524.602
  20
4625272.555
  30
1036.111
  0
VERTEX
  8
PNOA-H_AMS_1956-57_33k_ES_PAN_21mic_H50_0351_fot_34C-40414_E_tif
  70
32
  10
567524.601
  20
4625272.635
  30
0
  0
VERTEX
  8
PNOA-H_AMS_1956-57_33k_ES_PAN_21mic_H50_0351_fot_34C-40414_E_tif
  70
32
  10
567508.613
  20
4626964.638
  30
0
  0
VERTEX
  8
PNOA-H_AMS_1956-57_33k_ES_PAN_21mic_H50_0351_fot_34C-40414_E_tif
  70
32
  10
567486.748
  20
4629277.686
  30
0
  0
VERTEX
  8
PNOA-H_AMS_1956-57_33k_ES_PAN_21mic_H50_0351_fot_34C-40414_E_tif
  70
32
  10
567481.594
  20
4629822.652
  30
0
  0
VERTEX
  8
PNOA-H_AMS_1956-57_33k_ES_PAN_21mic_H50_0351_fot_34C-40414_E_tif
  70
32
  10
567481.591
  20
4629822.959
  30
1208.798
  0
VERTEX
  8
PNOA-H_AMS_1956-57_33k_ES_PAN_21mic_H50_0351_fot_34C-40414_E_tif
  70
32
  10
567749.000
  20
4629859.000
  30
1174.484
  0
VERTEX
  8
PNOA-H_AMS_1956-57_33k_ES_PAN_21mic_H50_0351_fot_34C-40414_E_tif
  70
32
  10
567752.500
  20
4629859.500
  30
1175.16
  0
VERTEX
  8
PNOA-H_AMS_1956-57_33k_ES_PAN_21mic_H50_0351_fot_34C-40414_E_tif
  70
32
  10
568897.672
  20
4630012.483
  30
1079.38
  0
VERTEX
  8
PNOA-H_AMS_1956-57_33k_ES_PAN_21mic_H50_0351_fot_34C-40414_E_tif
  70
32
  10
569185.262
  20
4630050.901
  30
1055.326
  0
VERTEX
  8
PNOA-H_AMS_1956-57_33k_ES_PAN_21mic_H50_0351_fot_34C-40414_E_tif
  70
32
  10
569186.000
  20
4630051.000
  30
1055.264
  0
VERTEX
  8
PNOA-H_AMS_1956-57_33k_ES_PAN_21mic_H50_0351_fot_34C-40414_E_tif
  70
32
  10
569918.767
  20
4629775.651
  30
1070.782
  0
VERTEX
  8
PNOA-H_AMS_1956-57_33k_ES_PAN_21mic_H50_0351_fot_34C-40414_E_tif
  70
32
  10
569920.500
  20
4629775.000
  30
1070.819
  0
VERTEX
  8
PNOA-H_AMS_1956-57_33k_ES_PAN_21mic_H50_0351_fot_34C-40414_E_tif
  70
32
  10
569907.500
  20
4625506.000
  30
1022.52
  0
VERTEX
  8
PNOA-H_AMS_1956-57_33k_ES_PAN_21mic_H50_0351_fot_34C-40414_E_tif
  70
32
  10
569907.000
  20
4625499.500
  30
1022.542
  0
VERTEX
  8
PNOA-H_AMS_1956-57_33k_ES_PAN_21mic_H50_0351_fot_34C-40414_E_tif
  70
32
  10
569904.500
  20
4625499.000
  30
1022.552
  0
SEQEND
  8
PNOA-H_AMS_1956-57_33k_ES_PAN_21mic_H50_0351_fot_34C-40414_E_tif
  0
INSERT
  8
FeatureAttribs
  2
FEATURE
  41
1
  42
1
  43
1
  50
0
  10
567618.472
  20
4623103.415
 66
1
  0
ATTRIB
  8
FeatureAttribs
 70
0
  1
PNOA-H_AMS_1956-57_33k_ES_PAN_21mic_H50_0350_fot_40478.tif
  2
NAME
  10
567618.472
  20
4623103.415
 40
33.67449
  0
SEQEND
  0
POLYLINE
  8
PNOA-H_AMS_1956-57_33k_ES_PAN_21mic_H50_0350_fot_40478_tif
  70
9
  66
1
  0
VERTEX
  8
PNOA-H_AMS_1956-57_33k_ES_PAN_21mic_H50_0350_fot_40478_tif
  70
32
  10
567787.186
  20
4621035.669
  30
1097.631
  0
VERTEX
  8
PNOA-H_AMS_1956-57_33k_ES_PAN_21mic_H50_0350_fot_40478_tif
  70
32
  10
567565.576
  20
4620934.195
  30
1095.835
  0
VERTEX
  8
PNOA-H_AMS_1956-57_33k_ES_PAN_21mic_H50_0350_fot_40478_tif
  70
32
  10
567565.573
  20
4620934.528
  30
0
  0
VERTEX
  8
PNOA-H_AMS_1956-57_33k_ES_PAN_21mic_H50_0350_fot_40478_tif
  70
32
  10
567552.316
  20
4622338.568
  30
0
  0
VERTEX
  8
PNOA-H_AMS_1956-57_33k_ES_PAN_21mic_H50_0350_fot_40478_tif
  70
32
  10
567530.469
  20
4624651.599
  30
0
  0
VERTEX
  8
PNOA-H_AMS_1956-57_33k_ES_PAN_21mic_H50_0350_fot_40478_tif
  70
32
  10
567524.602
  20
4625272.555
  30
0
  0
VERTEX
  8
PNOA-H_AMS_1956-57_33k_ES_PAN_21mic_H50_0350_fot_40478_tif
  70
32
  10
567524.601
  20
4625272.635
  30
1036.125
  0
VERTEX
  8
PNOA-H_AMS_1956-57_33k_ES_PAN_21mic_H50_0350_fot_40478_tif
  70
32
  10
567573.984
  20
4625246.504
  30
1036.687
  0
VERTEX
  8
PNOA-H_AMS_1956-57_33k_ES_PAN_21mic_H50_0350_fot_40478_tif
  70
32
  10
567591.000
  20
4625237.500
  30
1036.88
  0
VERTEX
  8
PNOA-H_AMS_1956-57_33k_ES_PAN_21mic_H50_0350_fot_40478_tif
  70
32
  10
567591.023
  20
4625237.012
  30
1036.901
  0
VERTEX
  8
PNOA-H_AMS_1956-57_33k_ES_PAN_21mic_H50_0350_fot_40478_tif
  70
32
  10
567756.000
  20
4621746.000
  30
1188.397
  0
VERTEX
  8
PNOA-H_AMS_1956-57_33k_ES_PAN_21mic_H50_0350_fot_40478_tif
  70
32
  10
567756.000
  20
4621735.667
  30
1185.414
  0
VERTEX
  8
PNOA-H_AMS_1956-57_33k_ES_PAN_21mic_H50_0350_fot_40478_tif
  70
32
  10
567756.000
  20
4621735.500
  30
1185.366
  0
VERTEX
  8
PNOA-H_AMS_1956-57_33k_ES_PAN_21mic_H50_0350_fot_40478_tif
  70
32
  10
567789.000
  20
4621036.500
  30
1097.646
  0
VERTEX
  8
PNOA-H_AMS_1956-57_33k_ES_PAN_21mic_H50_0350_fot_40478_tif
  70
32
  10
567787.186
  20
4621035.669
  30
1097.631
  0
SEQEND
  8
PNOA-H_AMS_1956-57_33k_ES_PAN_21mic_H50_0350_fot_40478_tif
  0
INSERT
  8
FeatureAttribs
  2
FEATURE
  41
1
  42
1
  43
1
  50
0
  10
569031.563
  20
4623150.750
 66
1
  0
ATTRIB
  8
FeatureAttribs
 70
0
  1
PNOA-H_AMS_1956-57_33k_ES_PAN_21mic_H50_0351_fot_40477.tif
  2
NAME
  10
569031.563
  20
4623150.750
 40
33.67449
  0
SEQEND
  0
POLYLINE
  8
PNOA-H_AMS_1956-57_33k_ES_PAN_21mic_H50_0351_fot_40477_tif
  70
9
  66
1
  0
VERTEX
  8
PNOA-H_AMS_1956-57_33k_ES_PAN_21mic_H50_0351_fot_40477_tif
  70
32
  10
570516.000
  20
4621092.000
  30
1050.457
  0
VERTEX
  8
PNOA-H_AMS_1956-57_33k_ES_PAN_21mic_H50_0351_fot_40477_tif
  70
32
  10
569993.000
  20
4620802.000
  30
1180.285
  0
VERTEX
  8
PNOA-H_AMS_1956-57_33k_ES_PAN_21mic_H50_0351_fot_40477_tif
  70
32
  10
569992.580
  20
4620802.045
  30
1180.269
  0
VERTEX
  8
PNOA-H_AMS_1956-57_33k_ES_PAN_21mic_H50_0351_fot_40477_tif
  70
32
  10
569988.980
  20
4620802.428
  30
1180.134
  0
VERTEX
  8
PNOA-H_AMS_1956-57_33k_ES_PAN_21mic_H50_0351_fot_40477_tif
  70
32
  10
567791.293
  20
4621036.256
  30
1097.732
  0
VERTEX
  8
PNOA-H_AMS_1956-57_33k_ES_PAN_21mic_H50_0351_fot_40477_tif
  70
32
  10
567789.000
  20
4621036.500
  30
1097.646
  0
VERTEX
  8
PNOA-H_AMS_1956-57_33k_ES_PAN_21mic_H50_0351_fot_40477_tif
  70
32
  10
567756.000
  20
4621735.667
  30
1087.533
  0
VERTEX
  8
PNOA-H_AMS_1956-57_33k_ES_PAN_21mic_H50_0351_fot_40477_tif
  70
32
  10
567591.000
  20
4625231.500
  30
1036.968
  0
VERTEX
  8
PNOA-H_AMS_1956-57_33k_ES_PAN_21mic_H50_0351_fot_40477_tif
  70
32
  10
567591.000
  20
4625237.000
  30
1036.888
  0
VERTEX
  8
PNOA-H_AMS_1956-57_33k_ES_PAN_21mic_H50_0351_fot_40477_tif
  70
32
  10
567591.023
  20
4625237.012
  30
1036.888
  0
VERTEX
  8
PNOA-H_AMS_1956-57_33k_ES_PAN_21mic_H50_0351_fot_40477_tif
  70
32
  10
567591.513
  20
4625237.257
  30
1036.877
  0
VERTEX
  8
PNOA-H_AMS_1956-57_33k_ES_PAN_21mic_H50_0351_fot_40477_tif
  70
32
  10
567592.000
  20
4625237.500
  30
1036.865
  0
VERTEX
  8
PNOA-H_AMS_1956-57_33k_ES_PAN_21mic_H50_0351_fot_40477_tif
  70
32
  10
567751.000
  20
4625255.500
  30
1034.544
  0
VERTEX
  8
PNOA-H_AMS_1956-57_33k_ES_PAN_21mic_H50_0351_fot_40477_tif
  70
32
  10
567755.000
  20
4625256.000
  30
1034.509
  0
VERTEX
  8
PNOA-H_AMS_1956-57_33k_ES_PAN_21mic_H50_0351_fot_40477_tif
  70
32
  10
569904.500
  20
4625499.500
  30
1022.551
  0
VERTEX
  8
PNOA-H_AMS_1956-57_33k_ES_PAN_21mic_H50_0351_fot_40477_tif
  70
32
  10
569907.000
  20
4625499.500
  30
1022.542
  0
VERTEX
  8
PNOA-H_AMS_1956-57_33k_ES_PAN_21mic_H50_0351_fot_40477_tif
  70
32
  10
569907.500
  20
4625499.500
  30
1022.54
  0
VERTEX
  8
PNOA-H_AMS_1956-57_33k_ES_PAN_21mic_H50_0351_fot_40477_tif
  70
32
  10
569911.500
  20
4625497.500
  30
1022.532
  0
VERTEX
  8
PNOA-H_AMS_1956-57_33k_ES_PAN_21mic_H50_0351_fot_40477_tif
  70
32
  10
570223.442
  20
4625323.312
  30
1023.711
  0
VERTEX
  8
PNOA-H_AMS_1956-57_33k_ES_PAN_21mic_H50_0351_fot_40477_tif
  70
32
  10
570224.000
  20
4625323.000
  30
1023.713
  0
VERTEX
  8
PNOA-H_AMS_1956-57_33k_ES_PAN_21mic_H50_0351_fot_40477_tif
  70
32
  10
570515.967
  20
4621092.482
  30
1050.454
  0
VERTEX
  8
PNOA-H_AMS_1956-57_33k_ES_PAN_21mic_H50_0351_fot_40477_tif
  70
32
  10
570516.000
  20
4621092.000
  30
1050.457
  0
SEQEND
  8
PNOA-H_AMS_1956-57_33k_ES_PAN_21mic_H50_0351_fot_40477_tif
  0
INSERT
  8
FeatureAttribs
  2
FEATURE
  41
1
  42
1
  43
1
  50
0
  10
568827.922
  20
4618598.250
 66
1
  0
ATTRIB
  8
FeatureAttribs
 70
0
  1
PNOA-H_AMS_1956-57_33k_ES_PAN_21mic_H50_0351_fot_37227.tif
  2
NAME
  10
568827.922
  20
4618598.250
 40
33.67449
  0
SEQEND
  0
POLYLINE
  8
PNOA-H_AMS_1956-57_33k_ES_PAN_21mic_H50_0351_fot_37227_tif
  70
9
  66
1
  0
VERTEX
  8
PNOA-H_AMS_1956-57_33k_ES_PAN_21mic_H50_0351_fot_37227_tif
  70
32
  10
570134.000
  20
4616671.500
  30
1040.556
  0
VERTEX
  8
PNOA-H_AMS_1956-57_33k_ES_PAN_21mic_H50_0351_fot_37227_tif
  70
32
  10
568680.500
  20
4616160.000
  30
1039.526
  0
VERTEX
  8
PNOA-H_AMS_1956-57_33k_ES_PAN_21mic_H50_0351_fot_37227_tif
  70
32
  10
568680.218
  20
4616160.077
  30
1039.529
  0
VERTEX
  8
PNOA-H_AMS_1956-57_33k_ES_PAN_21mic_H50_0351_fot_37227_tif
  70
32
  10
568252.905
  20
4616276.018
  30
1044.528
  0
VERTEX
  8
PNOA-H_AMS_1956-57_33k_ES_PAN_21mic_H50_0351_fot_37227_tif
  70
32
  10
567755.418
  20
4616411.000
  30
1050.348
  0
VERTEX
  8
PNOA-H_AMS_1956-57_33k_ES_PAN_21mic_H50_0351_fot_37227_tif
  70
32
  10
567607.885
  20
4616451.030
  30
1052.074
  0
VERTEX
  8
PNOA-H_AMS_1956-57_33k_ES_PAN_21mic_H50_0351_fot_37227_tif
  70
32
  10
567595.984
  20
4617712.531
  30
0
  0
VERTEX
  8
PNOA-H_AMS_1956-57_33k_ES_PAN_21mic_H50_0351_fot_37227_tif
  70
32
  10
567574.155
  20
4620025.545
  30
0
  0
VERTEX
  8
PNOA-H_AMS_1956-57_33k_ES_PAN_21mic_H50_0351_fot_37227_tif
  70
32
  10
567565.576
  20
4620934.195
  30
0
  0
VERTEX
  8
PNOA-H_AMS_1956-57_33k_ES_PAN_21mic_H50_0351_fot_37227_tif
  70
32
  10
567565.573
  20
4620934.528
  30
1094.956
  0
VERTEX
  8
PNOA-H_AMS_1956-57_33k_ES_PAN_21mic_H50_0351_fot_37227_tif
  70
32
  10
567754.500
  20
4621021.000
  30
1096.208
  0
VERTEX
  8
PNOA-H_AMS_1956-57_33k_ES_PAN_21mic_H50_0351_fot_37227_tif
  70
32
  10
567755.500
  20
4621021.500
  30
1096.251
  0
VERTEX
  8
PNOA-H_AMS_1956-57_33k_ES_PAN_21mic_H50_0351_fot_37227_tif
  70
32
  10
567786.000
  20
4621035.500
  30
1097.549
  0
VERTEX
  8
PNOA-H_AMS_1956-57_33k_ES_PAN_21mic_H50_0351_fot_37227_tif
  70
32
  10
567787.186
  20
4621035.669
  30
1097.58
  0
VERTEX
  8
PNOA-H_AMS_1956-57_33k_ES_PAN_21mic_H50_0351_fot_37227_tif
  70
32
  10
567791.293
  20
4621036.256
  30
1097.689
  0
VERTEX
  8
PNOA-H_AMS_1956-57_33k_ES_PAN_21mic_H50_0351_fot_37227_tif
  70
32
  10
567793.000
  20
4621036.500
  30
1097.734
  0
VERTEX
  8
PNOA-H_AMS_1956-57_33k_ES_PAN_21mic_H50_0351_fot_37227_tif
  70
32
  10
569986.500
  20
4620803.000
  30
1181.776
  0
VERTEX
  8
PNOA-H_AMS_1956-57_33k_ES_PAN_21mic_H50_0351_fot_37227_tif
  70
32
  10
569988.980
  20
4620802.428
  30
1181.259
  0
VERTEX
  8
PNOA-H_AMS_1956-57_33k_ES_PAN_21mic_H50_0351_fot_37227_tif
  70
32
  10
569992.513
  20
4620801.612
  30
1180.521
  0
VERTEX
  8
PNOA-H_AMS_1956-57_33k_ES_PAN_21mic_H50_0351_fot_37227_tif
  70
32
  10
569993.000
  20
4620801.500
  30
1180.42
  0
VERTEX
  8
PNOA-H_AMS_1956-57_33k_ES_PAN_21mic_H50_0351_fot_37227_tif
  70
32
  10
570061.076
  20
4618807.500
  30
1112.892
  0
VERTEX
  8
PNOA-H_AMS_1956-57_33k_ES_PAN_21mic_H50_0351_fot_37227_tif
  70
32
  10
570133.983
  20
4616671.994
  30
1040.573
  0
VERTEX
  8
PNOA-H_AMS_1956-57_33k_ES_PAN_21mic_H50_0351_fot_37227_tif
  70
32
  10
570134.000
  20
4616671.500
  30
1040.556
  0
SEQEND
  8
PNOA-H_AMS_1956-57_33k_ES_PAN_21mic_H50_0351_fot_37227_tif
  0
INSERT
  8
FeatureAttribs
  2
FEATURE
  41
1
  42
1
  43
1
  50
0
  10
571210.322
  20
4627701.250
 66
1
  0
ATTRIB
  8
FeatureAttribs
 70
0
  1
PNOA-H_AMS_1956-57_33k_ES_PAN_21mic_H50_0351_fot_34C-40415_E.tif
  2
NAME
  10
571210.322
  20
4627701.250
 40
33.67449
  0
SEQEND
  0
POLYLINE
  8
PNOA-H_AMS_1956-57_33k_ES_PAN_21mic_H50_0351_fot_34C-40415_E_tif
  70
9
  66
1
  0
VERTEX
  8
PNOA-H_AMS_1956-57_33k_ES_PAN_21mic_H50_0351_fot_34C-40415_E_tif
  70
32
  10
572517.000
  20
4625574.500
  30
1045.449
  0
VERTEX
  8
PNOA-H_AMS_1956-57_33k_ES_PAN_21mic_H50_0351_fot_34C-40415_E_tif
  70
32
  10
570225.000
  20
4625323.000
  30
1023.723
  0
VERTEX
  8
PNOA-H_AMS_1956-57_33k_ES_PAN_21mic_H50_0351_fot_34C-40415_E_tif
  70
32
  10
570224.645
  20
4625323.071
  30
1023.721
  0
VERTEX
  8
PNOA-H_AMS_1956-57_33k_ES_PAN_21mic_H50_0351_fot_34C-40415_E_tif
  70
32
  10
570223.442
  20
4625323.312
  30
1023.712
  0
VERTEX
  8
PNOA-H_AMS_1956-57_33k_ES_PAN_21mic_H50_0351_fot_34C-40415_E_tif
  70
32
  10
570222.500
  20
4625323.500
  30
1023.705
  0
VERTEX
  8
PNOA-H_AMS_1956-57_33k_ES_PAN_21mic_H50_0351_fot_34C-40415_E_tif
  70
32
  10
569907.000
  20
4625499.500
  30
1022.542
  0
VERTEX
  8
PNOA-H_AMS_1956-57_33k_ES_PAN_21mic_H50_0351_fot_34C-40415_E_tif
  70
32
  10
569920.500
  20
4629775.000
  30
1070.819
  0
VERTEX
  8
PNOA-H_AMS_1956-57_33k_ES_PAN_21mic_H50_0351_fot_34C-40415_E_tif
  70
32
  10
569921.729
  20
4629775.196
  30
1070.875
  0
VERTEX
  8
PNOA-H_AMS_1956-57_33k_ES_PAN_21mic_H50_0351_fot_34C-40415_E_tif
  70
32
  10
571831.500
  20
4630079.000
  30
1158.843
  0
VERTEX
  8
PNOA-H_AMS_1956-57_33k_ES_PAN_21mic_H50_0351_fot_34C-40415_E_tif
  70
32
  10
571834.500
  20
4630079.500
  30
1158.776
  0
VERTEX
  8
PNOA-H_AMS_1956-57_33k_ES_PAN_21mic_H50_0351_fot_34C-40415_E_tif
  70
32
  10
571836.469
  20
4630079.336
  30
1158.629
  0
VERTEX
  8
PNOA-H_AMS_1956-57_33k_ES_PAN_21mic_H50_0351_fot_34C-40415_E_tif
  70
32
  10
571838.390
  20
4630079.176
  30
1158.486
  0
VERTEX
  8
PNOA-H_AMS_1956-57_33k_ES_PAN_21mic_H50_0351_fot_34C-40415_E_tif
  70
32
  10
571840.500
  20
4630079.000
  30
1158.328
  0
VERTEX
  8
PNOA-H_AMS_1956-57_33k_ES_PAN_21mic_H50_0351_fot_34C-40415_E_tif
  70
32
  10
572494.627
  20
4629840.636
  30
1151.312
  0
VERTEX
  8
PNOA-H_AMS_1956-57_33k_ES_PAN_21mic_H50_0351_fot_34C-40415_E_tif
  70
32
  10
572495.000
  20
4629840.500
  30
1151.307
  0
VERTEX
  8
PNOA-H_AMS_1956-57_33k_ES_PAN_21mic_H50_0351_fot_34C-40415_E_tif
  70
32
  10
572518.000
  20
4625632.000
  30
1046.522
  0
VERTEX
  8
PNOA-H_AMS_1956-57_33k_ES_PAN_21mic_H50_0351_fot_34C-40415_E_tif
  70
32
  10
572518.000
  20
4625575.000
  30
1045.476
  0
VERTEX
  8
PNOA-H_AMS_1956-57_33k_ES_PAN_21mic_H50_0351_fot_34C-40415_E_tif
  70
32
  10
572517.997
  20
4625574.999
  30
1045.476
  0
VERTEX
  8
PNOA-H_AMS_1956-57_33k_ES_PAN_21mic_H50_0351_fot_34C-40415_E_tif
  70
32
  10
572517.485
  20
4625574.743
  30
1045.462
  0
VERTEX
  8
PNOA-H_AMS_1956-57_33k_ES_PAN_21mic_H50_0351_fot_34C-40415_E_tif
  70
32
  10
572517.000
  20
4625574.500
  30
1045.449
  0
SEQEND
  8
PNOA-H_AMS_1956-57_33k_ES_PAN_21mic_H50_0351_fot_34C-40415_E_tif
  0
INSERT
  8
FeatureAttribs
  2
FEATURE
  41
1
  42
1
  43
1
  50
0
  10
573780.160
  20
4627722.000
 66
1
  0
ATTRIB
  8
FeatureAttribs
 70
0
  1
PNOA-H_AMS_1956-57_33k_ES_PAN_21mic_H50_0351_fot_34C-40416_E.tif
  2
NAME
  10
573780.160
  20
4627722.000
 40
33.67449
  0
SEQEND
  0
POLYLINE
  8
PNOA-H_AMS_1956-57_33k_ES_PAN_21mic_H50_0351_fot_34C-40416_E_tif
  70
9
  66
1
  0
VERTEX
  8
PNOA-H_AMS_1956-57_33k_ES_PAN_21mic_H50_0351_fot_34C-40416_E_tif
  70
32
  10
575013.233
  20
4625701.874
  30
1073.972
  0
VERTEX
  8
PNOA-H_AMS_1956-57_33k_ES_PAN_21mic_H50_0351_fot_34C-40416_E_tif
  70
32
  10
572925.000
  20
4625359.000
  30
1064.845
  0
VERTEX
  8
PNOA-H_AMS_1956-57_33k_ES_PAN_21mic_H50_0351_fot_34C-40416_E_tif
  70
32
  10
572924.739
  20
4625359.121
  30
1064.826
  0
VERTEX
  8
PNOA-H_AMS_1956-57_33k_ES_PAN_21mic_H50_0351_fot_34C-40416_E_tif
  70
32
  10
572917.011
  20
4625362.709
  30
1064.253
  0
VERTEX
  8
PNOA-H_AMS_1956-57_33k_ES_PAN_21mic_H50_0351_fot_34C-40416_E_tif
  70
32
  10
572911.000
  20
4625365.500
  30
1063.808
  0
VERTEX
  8
PNOA-H_AMS_1956-57_33k_ES_PAN_21mic_H50_0351_fot_34C-40416_E_tif
  70
32
  10
572546.071
  20
4625559.571
  30
1046.778
  0
VERTEX
  8
PNOA-H_AMS_1956-57_33k_ES_PAN_21mic_H50_0351_fot_34C-40416_E_tif
  70
32
  10
572518.000
  20
4625574.500
  30
1045.469
  0
VERTEX
  8
PNOA-H_AMS_1956-57_33k_ES_PAN_21mic_H50_0351_fot_34C-40416_E_tif
  70
32
  10
572517.997
  20
4625574.999
  30
1045.481
  0
VERTEX
  8
PNOA-H_AMS_1956-57_33k_ES_PAN_21mic_H50_0351_fot_34C-40416_E_tif
  70
32
  10
572495.000
  20
4629840.500
  30
1151.307
  0
VERTEX
  8
PNOA-H_AMS_1956-57_33k_ES_PAN_21mic_H50_0351_fot_34C-40416_E_tif
  70
32
  10
574257.269
  20
4630053.000
  30
1234.503
  0
VERTEX
  8
PNOA-H_AMS_1956-57_33k_ES_PAN_21mic_H50_0351_fot_34C-40416_E_tif
  70
32
  10
574518.500
  20
4630084.500
  30
1246.835
  0
VERTEX
  8
PNOA-H_AMS_1956-57_33k_ES_PAN_21mic_H50_0351_fot_34C-40416_E_tif
  70
32
  10
574522.500
  20
4630085.000
  30
1247.454
  0
VERTEX
  8
PNOA-H_AMS_1956-57_33k_ES_PAN_21mic_H50_0351_fot_34C-40416_E_tif
  70
32
  10
574524.500
  20
4630085.000
  30
1247.754
  0
VERTEX
  8
PNOA-H_AMS_1956-57_33k_ES_PAN_21mic_H50_0351_fot_34C-40416_E_tif
  70
32
  10
574525.000
  20
4630085.000
  30
1247.829
  0
VERTEX
  8
PNOA-H_AMS_1956-57_33k_ES_PAN_21mic_H50_0351_fot_34C-40416_E_tif
  70
32
  10
574542.500
  20
4630078.000
  30
1249.869
  0
VERTEX
  8
PNOA-H_AMS_1956-57_33k_ES_PAN_21mic_H50_0351_fot_34C-40416_E_tif
  70
32
  10
575096.000
  20
4629853.500
  30
1235.875
  0
VERTEX
  8
PNOA-H_AMS_1956-57_33k_ES_PAN_21mic_H50_0351_fot_34C-40416_E_tif
  70
32
  10
575014.000
  20
4625702.000
  30
1073.975
  0
VERTEX
  8
PNOA-H_AMS_1956-57_33k_ES_PAN_21mic_H50_0351_fot_34C-40416_E_tif
  70
32
  10
575013.233
  20
4625701.874
  30
1073.972
  0
SEQEND
  8
PNOA-H_AMS_1956-57_33k_ES_PAN_21mic_H50_0351_fot_34C-40416_E_tif
  0
INSERT
  8
FeatureAttribs
  2
FEATURE
  41
1
  42
1
  43
1
  50
0
  10
574381.548
  20
4623377.500
 66
1
  0
ATTRIB
  8
FeatureAttribs
 70
0
  1
PNOA-H_AMS_1956-57_33k_ES_PAN_21mic_H50_0351_fot_40475.tif
  2
NAME
  10
574381.548
  20
4623377.500
 40
33.67449
  0
SEQEND
  0
POLYLINE
  8
PNOA-H_AMS_1956-57_33k_ES_PAN_21mic_H50_0351_fot_40475_tif
  70
9
  66
1
  0
VERTEX
  8
PNOA-H_AMS_1956-57_33k_ES_PAN_21mic_H50_0351_fot_40475_tif
  70
32
  10
573189.000
  20
4621053.000
  30
1022.658
  0
VERTEX
  8
PNOA-H_AMS_1956-57_33k_ES_PAN_21mic_H50_0351_fot_40475_tif
  70
32
  10
573188.000
  20
4621053.000
  30
1022.65
  0
VERTEX
  8
PNOA-H_AMS_1956-57_33k_ES_PAN_21mic_H50_0351_fot_40475_tif
  70
32
  10
573171.000
  20
4621062.500
  30
1022.406
  0
VERTEX
  8
PNOA-H_AMS_1956-57_33k_ES_PAN_21mic_H50_0351_fot_40475_tif
  70
32
  10
573170.999
  20
4621062.511
  30
1022.406
  0
VERTEX
  8
PNOA-H_AMS_1956-57_33k_ES_PAN_21mic_H50_0351_fot_40475_tif
  70
32
  10
572924.000
  20
4625359.000
  30
1064.73
  0
VERTEX
  8
PNOA-H_AMS_1956-57_33k_ES_PAN_21mic_H50_0351_fot_40475_tif
  70
32
  10
572924.739
  20
4625359.121
  30
1064.733
  0
VERTEX
  8
PNOA-H_AMS_1956-57_33k_ES_PAN_21mic_H50_0351_fot_40475_tif
  70
32
  10
575010.000
  20
4625701.500
  30
1073.592
  0
VERTEX
  8
PNOA-H_AMS_1956-57_33k_ES_PAN_21mic_H50_0351_fot_40475_tif
  70
32
  10
575013.000
  20
4625702.000
  30
1073.897
  0
VERTEX
  8
PNOA-H_AMS_1956-57_33k_ES_PAN_21mic_H50_0351_fot_40475_tif
  70
32
  10
575013.233
  20
4625701.874
  30
1073.909
  0
VERTEX
  8
PNOA-H_AMS_1956-57_33k_ES_PAN_21mic_H50_0351_fot_40475_tif
  70
32
  10
575056.194
  20
4625678.609
  30
1076.198
  0
VERTEX
  8
PNOA-H_AMS_1956-57_33k_ES_PAN_21mic_H50_0351_fot_40475_tif
  70
32
  10
575591.000
  20
4625389.000
  30
1104.693
  0
VERTEX
  8
PNOA-H_AMS_1956-57_33k_ES_PAN_21mic_H50_0351_fot_40475_tif
  70
32
  10
575862.000
  20
4621326.500
  30
1046.005
  0
VERTEX
  8
PNOA-H_AMS_1956-57_33k_ES_PAN_21mic_H50_0351_fot_40475_tif
  70
32
  10
575861.786
  20
4621323.716
  30
1046.036
  0
VERTEX
  8
PNOA-H_AMS_1956-57_33k_ES_PAN_21mic_H50_0351_fot_40475_tif
  70
32
  10
575861.537
  20
4621320.484
  30
1046.07
  0
VERTEX
  8
PNOA-H_AMS_1956-57_33k_ES_PAN_21mic_H50_0351_fot_40475_tif
  70
32
  10
575861.500
  20
4621320.000
  30
1046.076
  0
VERTEX
  8
PNOA-H_AMS_1956-57_33k_ES_PAN_21mic_H50_0351_fot_40475_tif
  70
32
  10
573193.000
  20
4621053.000
  30
1022.69
  0
VERTEX
  8
PNOA-H_AMS_1956-57_33k_ES_PAN_21mic_H50_0351_fot_40475_tif
  70
32
  10
573189.000
  20
4621053.000
  30
1022.658
  0
SEQEND
  8
PNOA-H_AMS_1956-57_33k_ES_PAN_21mic_H50_0351_fot_40475_tif
  0
INSERT
  8
FeatureAttribs
  2
FEATURE
  41
1
  42
1
  43
1
  50
0
  10
571701.815
  20
4623318.750
 66
1
  0
ATTRIB
  8
FeatureAttribs
 70
0
  1
PNOA-H_AMS_1956-57_33k_ES_PAN_21mic_H50_0351_fot_40476.tif
  2
NAME
  10
571701.815
  20
4623318.750
 40
33.67449
  0
SEQEND
  0
POLYLINE
  8
PNOA-H_AMS_1956-57_33k_ES_PAN_21mic_H50_0351_fot_40476_tif
  70
9
  66
1
  0
VERTEX
  8
PNOA-H_AMS_1956-57_33k_ES_PAN_21mic_H50_0351_fot_40476_tif
  70
32
  10
573170.999
  20
4621062.511
  30
1022.406
  0
VERTEX
  8
PNOA-H_AMS_1956-57_33k_ES_PAN_21mic_H50_0351_fot_40476_tif
  70
32
  10
573171.000
  20
4621062.500
  30
1022.406
  0
VERTEX
  8
PNOA-H_AMS_1956-57_33k_ES_PAN_21mic_H50_0351_fot_40476_tif
  70
32
  10
571843.500
  20
4621077.500
  30
1036.424
  0
VERTEX
  8
PNOA-H_AMS_1956-57_33k_ES_PAN_21mic_H50_0351_fot_40476_tif
  70
32
  10
570516.000
  20
4621092.500
  30
1050.442
  0
VERTEX
  8
PNOA-H_AMS_1956-57_33k_ES_PAN_21mic_H50_0351_fot_40476_tif
  70
32
  10
570224.000
  20
4625323.000
  30
1023.713
  0
VERTEX
  8
PNOA-H_AMS_1956-57_33k_ES_PAN_21mic_H50_0351_fot_40476_tif
  70
32
  10
570224.645
  20
4625323.071
  30
1023.719
  0
VERTEX
  8
PNOA-H_AMS_1956-57_33k_ES_PAN_21mic_H50_0351_fot_40476_tif
  70
32
  10
572512.500
  20
4625574.500
  30
1045.369
  0
VERTEX
  8
PNOA-H_AMS_1956-57_33k_ES_PAN_21mic_H50_0351_fot_40476_tif
  70
32
  10
572517.000
  20
4625575.000
  30
1045.457
  0
VERTEX
  8
PNOA-H_AMS_1956-57_33k_ES_PAN_21mic_H50_0351_fot_40476_tif
  70
32
  10
572517.485
  20
4625574.743
  30
1045.48
  0
VERTEX
  8
PNOA-H_AMS_1956-57_33k_ES_PAN_21mic_H50_0351_fot_40476_tif
  70
32
  10
572546.071
  20
4625559.571
  30
1046.833
  0
VERTEX
  8
PNOA-H_AMS_1956-57_33k_ES_PAN_21mic_H50_0351_fot_40476_tif
  70
32
  10
572917.011
  20
4625362.709
  30
1064.399
  0
VERTEX
  8
PNOA-H_AMS_1956-57_33k_ES_PAN_21mic_H50_0351_fot_40476_tif
  70
32
  10
572924.000
  20
4625359.000
  30
1064.73
  0
VERTEX
  8
PNOA-H_AMS_1956-57_33k_ES_PAN_21mic_H50_0351_fot_40476_tif
  70
32
  10
573170.999
  20
4621062.511
  30
1022.406
  0
SEQEND
  8
PNOA-H_AMS_1956-57_33k_ES_PAN_21mic_H50_0351_fot_40476_tif
  0
INSERT
  8
FeatureAttribs
  2
FEATURE
  41
1
  42
1
  43
1
  50
0
  10
571656.186
  20
4618661.500
 66
1
  0
ATTRIB
  8
FeatureAttribs
 70
0
  1
PNOA-H_AMS_1956-57_33k_ES_PAN_21mic_H50_0351_fot_37228.tif
  2
NAME
  10
571656.186
  20
4618661.500
 40
33.67449
  0
SEQEND
  0
POLYLINE
  8
PNOA-H_AMS_1956-57_33k_ES_PAN_21mic_H50_0351_fot_37228_tif
  70
9
  66
1
  0
VERTEX
  8
PNOA-H_AMS_1956-57_33k_ES_PAN_21mic_H50_0351_fot_37228_tif
  70
32
  10
571813.500
  20
4621077.500
  30
1019.342
  0
VERTEX
  8
PNOA-H_AMS_1956-57_33k_ES_PAN_21mic_H50_0351_fot_37228_tif
  70
32
  10
571843.500
  20
4621077.500
  30
1018.896
  0
VERTEX
  8
PNOA-H_AMS_1956-57_33k_ES_PAN_21mic_H50_0351_fot_37228_tif
  70
32
  10
571852.000
  20
4621077.500
  30
1018.77
  0
VERTEX
  8
PNOA-H_AMS_1956-57_33k_ES_PAN_21mic_H50_0351_fot_37228_tif
  70
32
  10
573149.500
  20
4621063.000
  30
1022.091
  0
VERTEX
  8
PNOA-H_AMS_1956-57_33k_ES_PAN_21mic_H50_0351_fot_37228_tif
  70
32
  10
573170.999
  20
4621062.511
  30
1022.405
  0
VERTEX
  8
PNOA-H_AMS_1956-57_33k_ES_PAN_21mic_H50_0351_fot_37228_tif
  70
32
  10
573171.500
  20
4621062.500
  30
1022.412
  0
VERTEX
  8
PNOA-H_AMS_1956-57_33k_ES_PAN_21mic_H50_0351_fot_37228_tif
  70
32
  10
573189.000
  20
4621053.000
  30
1022.658
  0
VERTEX
  8
PNOA-H_AMS_1956-57_33k_ES_PAN_21mic_H50_0351_fot_37228_tif
  70
32
  10
573292.500
  20
4616731.500
  30
1012.14
  0
VERTEX
  8
PNOA-H_AMS_1956-57_33k_ES_PAN_21mic_H50_0351_fot_37228_tif
  70
32
  10
573291.886
  20
4616731.343
  30
1012.159
  0
VERTEX
  8
PNOA-H_AMS_1956-57_33k_ES_PAN_21mic_H50_0351_fot_37228_tif
  70
32
  10
571340.500
  20
4616230.500
  30
1074.114
  0
VERTEX
  8
PNOA-H_AMS_1956-57_33k_ES_PAN_21mic_H50_0351_fot_37228_tif
  70
32
  10
571340.049
  20
4616230.641
  30
1074.142
  0
VERTEX
  8
PNOA-H_AMS_1956-57_33k_ES_PAN_21mic_H50_0351_fot_37228_tif
  70
32
  10
571333.685
  20
4616232.630
  30
1074.533
  0
VERTEX
  8
PNOA-H_AMS_1956-57_33k_ES_PAN_21mic_H50_0351_fot_37228_tif
  70
32
  10
571324.500
  20
4616235.500
  30
1075.097
  0
VERTEX
  8
PNOA-H_AMS_1956-57_33k_ES_PAN_21mic_H50_0351_fot_37228_tif
  70
32
  10
570456.526
  20
4616553.879
  30
1049.916
  0
VERTEX
  8
PNOA-H_AMS_1956-57_33k_ES_PAN_21mic_H50_0351_fot_37228_tif
  70
32
  10
570134.500
  20
4616672.000
  30
1040.573
  0
VERTEX
  8
PNOA-H_AMS_1956-57_33k_ES_PAN_21mic_H50_0351_fot_37228_tif
  70
32
  10
570061.076
  20
4618807.500
  30
1112.888
  0
VERTEX
  8
PNOA-H_AMS_1956-57_33k_ES_PAN_21mic_H50_0351_fot_37228_tif
  70
32
  10
569992.513
  20
4620801.612
  30
1180.415
  0
VERTEX
  8
PNOA-H_AMS_1956-57_33k_ES_PAN_21mic_H50_0351_fot_37228_tif
  70
32
  10
569992.500
  20
4620802.000
  30
1180.428
  0
VERTEX
  8
PNOA-H_AMS_1956-57_33k_ES_PAN_21mic_H50_0351_fot_37228_tif
  70
32
  10
569992.580
  20
4620802.045
  30
1180.408
  0
VERTEX
  8
PNOA-H_AMS_1956-57_33k_ES_PAN_21mic_H50_0351_fot_37228_tif
  70
32
  10
570515.967
  20
4621092.482
  30
1050.45
  0
VERTEX
  8
PNOA-H_AMS_1956-57_33k_ES_PAN_21mic_H50_0351_fot_37228_tif
  70
32
  10
570516.000
  20
4621092.500
  30
1050.442
  0
VERTEX
  8
PNOA-H_AMS_1956-57_33k_ES_PAN_21mic_H50_0351_fot_37228_tif
  70
32
  10
571813.500
  20
4621077.500
  30
1019.342
  0
SEQEND
  8
PNOA-H_AMS_1956-57_33k_ES_PAN_21mic_H50_0351_fot_37228_tif
  0
INSERT
  8
FeatureAttribs
  2
FEATURE
  41
1
  42
1
  43
1
  50
0
  10
574795.982
  20
4618852.500
 66
1
  0
ATTRIB
  8
FeatureAttribs
 70
0
  1
PNOA-H_AMS_1956-57_33k_ES_PAN_21mic_H50_0351_fot_37229.tif
  2
NAME
  10
574795.982
  20
4618852.500
 40
33.67449
  0
SEQEND
  0
POLYLINE
  8
PNOA-H_AMS_1956-57_33k_ES_PAN_21mic_H50_0351_fot_37229_tif
  70
9
  66
1
  0
VERTEX
  8
PNOA-H_AMS_1956-57_33k_ES_PAN_21mic_H50_0351_fot_37229_tif
  70
32
  10
574023.500
  20
4616384.500
  30
1025.165
  0
VERTEX
  8
PNOA-H_AMS_1956-57_33k_ES_PAN_21mic_H50_0351_fot_37229_tif
  70
32
  10
574022.500
  20
4616384.500
  30
1025.148
  0
VERTEX
  8
PNOA-H_AMS_1956-57_33k_ES_PAN_21mic_H50_0351_fot_37229_tif
  70
32
  10
574016.000
  20
4616387.500
  30
1024.997
  0
VERTEX
  8
PNOA-H_AMS_1956-57_33k_ES_PAN_21mic_H50_0351_fot_37229_tif
  70
32
  10
573294.274
  20
4616730.370
  30
1012.15
  0
VERTEX
  8
PNOA-H_AMS_1956-57_33k_ES_PAN_21mic_H50_0351_fot_37229_tif
  70
32
  10
573294.000
  20
4616730.500
  30
1012.145
  0
VERTEX
  8
PNOA-H_AMS_1956-57_33k_ES_PAN_21mic_H50_0351_fot_37229_tif
  70
32
  10
573292.500
  20
4616731.500
  30
1012.14
  0
VERTEX
  8
PNOA-H_AMS_1956-57_33k_ES_PAN_21mic_H50_0351_fot_37229_tif
  70
32
  10
573292.000
  20
4616745.000
  30
1012.179
  0
VERTEX
  8
PNOA-H_AMS_1956-57_33k_ES_PAN_21mic_H50_0351_fot_37229_tif
  70
32
  10
573189.000
  20
4621053.000
  30
1022.658
  0
VERTEX
  8
PNOA-H_AMS_1956-57_33k_ES_PAN_21mic_H50_0351_fot_37229_tif
  70
32
  10
573892.500
  20
4621123.500
  30
1022.233
  0
VERTEX
  8
PNOA-H_AMS_1956-57_33k_ES_PAN_21mic_H50_0351_fot_37229_tif
  70
32
  10
573897.500
  20
4621124.000
  30
1022.259
  0
VERTEX
  8
PNOA-H_AMS_1956-57_33k_ES_PAN_21mic_H50_0351_fot_37229_tif
  70
32
  10
575861.500
  20
4621320.500
  30
1046.07
  0
VERTEX
  8
PNOA-H_AMS_1956-57_33k_ES_PAN_21mic_H50_0351_fot_37229_tif
  70
32
  10
575861.537
  20
4621320.484
  30
1046.071
  0
VERTEX
  8
PNOA-H_AMS_1956-57_33k_ES_PAN_21mic_H50_0351_fot_37229_tif
  70
32
  10
575999.727
  20
4621262.131
  30
1052.07
  0
VERTEX
  8
PNOA-H_AMS_1956-57_33k_ES_PAN_21mic_H50_0351_fot_37229_tif
  70
32
  10
576313.488
  20
4621129.639
  30
1065.692
  0
VERTEX
  8
PNOA-H_AMS_1956-57_33k_ES_PAN_21mic_H50_0351_fot_37229_tif
  70
32
  10
576315.000
  20
4621129.000
  30
1065.757
  0
VERTEX
  8
PNOA-H_AMS_1956-57_33k_ES_PAN_21mic_H50_0351_fot_37229_tif
  70
32
  10
576383.500
  20
4616718.000
  30
1043.349
  0
VERTEX
  8
PNOA-H_AMS_1956-57_33k_ES_PAN_21mic_H50_0351_fot_37229_tif
  70
32
  10
576382.036
  20
4616717.793
  30
1043.337
  0
VERTEX
  8
PNOA-H_AMS_1956-57_33k_ES_PAN_21mic_H50_0351_fot_37229_tif
  70
32
  10
574027.500
  20
4616384.500
  30
1025.232
  0
VERTEX
  8
PNOA-H_AMS_1956-57_33k_ES_PAN_21mic_H50_0351_fot_37229_tif
  70
32
  10
574023.500
  20
4616384.500
  30
1025.165
  0
SEQEND
  8
PNOA-H_AMS_1956-57_33k_ES_PAN_21mic_H50_0351_fot_37229_tif
  0
INSERT
  8
FeatureAttribs
  2
FEATURE
  41
1
  42
1
  43
1
  50
0
  10
568327.199
  20
4630714.998
 66
1
  0
ATTRIB
  8
FeatureAttribs
 70
0
  1
PNOA-H_AMS_1956-57_33k_ES_PAN_21mic_H50_0319_fot_33B-38745_E.tif
  2
NAME
  10
568327.199
  20
4630714.998
 40
33.67449
  0
SEQEND
  0
POLYLINE
  8
PNOA-H_AMS_1956-57_33k_ES_PAN_21mic_H50_0319_fot_33B-38745_E_tif
  70
9
  66
1
  0
VERTEX
  8
PNOA-H_AMS_1956-57_33k_ES_PAN_21mic_H50_0319_fot_33B-38745_E_tif
  70
32
  10
568897.672
  20
4630012.483
  30
1082.048
  0
VERTEX
  8
PNOA-H_AMS_1956-57_33k_ES_PAN_21mic_H50_0319_fot_33B-38745_E_tif
  70
32
  10
567481.594
  20
4629822.652
  30
1213.932
  0
VERTEX
  8
PNOA-H_AMS_1956-57_33k_ES_PAN_21mic_H50_0319_fot_33B-38745_E_tif
  70
32
  10
567481.591
  20
4629822.959
  30
0
  0
VERTEX
  8
PNOA-H_AMS_1956-57_33k_ES_PAN_21mic_H50_0319_fot_33B-38745_E_tif
  70
32
  10
567464.873
  20
4631590.742
  30
0
  0
VERTEX
  8
PNOA-H_AMS_1956-57_33k_ES_PAN_21mic_H50_0319_fot_33B-38745_E_tif
  70
32
  10
569176.196
  20
4631607.344
  30
1104.99
  0
VERTEX
  8
PNOA-H_AMS_1956-57_33k_ES_PAN_21mic_H50_0319_fot_33B-38745_E_tif
  70
32
  10
569185.000
  20
4630051.000
  30
1055.288
  0
VERTEX
  8
PNOA-H_AMS_1956-57_33k_ES_PAN_21mic_H50_0319_fot_33B-38745_E_tif
  70
32
  10
568897.672
  20
4630012.483
  30
1082.048
  0
SEQEND
  8
PNOA-H_AMS_1956-57_33k_ES_PAN_21mic_H50_0319_fot_33B-38745_E_tif
  0
INSERT
  8
FeatureAttribs
  2
FEATURE
  41
1
  42
1
  43
1
  50
0
  10
570504.145
  20
4630704.169
 66
1
  0
ATTRIB
  8
FeatureAttribs
 70
0
  1
PNOA-H_AMS_1956-57_33k_ES_PAN_21mic_H50_0319_fot_33B-38746_E.tif
  2
NAME
  10
570504.145
  20
4630704.169
 40
33.67449
  0
SEQEND
  0
POLYLINE
  8
PNOA-H_AMS_1956-57_33k_ES_PAN_21mic_H50_0319_fot_33B-38746_E_tif
  70
9
  66
1
  0
VERTEX
  8
PNOA-H_AMS_1956-57_33k_ES_PAN_21mic_H50_0319_fot_33B-38746_E_tif
  70
32
  10
571836.469
  20
4630079.336
  30
1158.578
  0
VERTEX
  8
PNOA-H_AMS_1956-57_33k_ES_PAN_21mic_H50_0319_fot_33B-38746_E_tif
  70
32
  10
569923.000
  20
4629775.000
  30
1071.237
  0
VERTEX
  8
PNOA-H_AMS_1956-57_33k_ES_PAN_21mic_H50_0319_fot_33B-38746_E_tif
  70
32
  10
569921.729
  20
4629775.196
  30
1071.021
  0
VERTEX
  8
PNOA-H_AMS_1956-57_33k_ES_PAN_21mic_H50_0319_fot_33B-38746_E_tif
  70
32
  10
569918.767
  20
4629775.651
  30
1070.517
  0
VERTEX
  8
PNOA-H_AMS_1956-57_33k_ES_PAN_21mic_H50_0319_fot_33B-38746_E_tif
  70
32
  10
569916.500
  20
4629776.000
  30
1070.132
  0
VERTEX
  8
PNOA-H_AMS_1956-57_33k_ES_PAN_21mic_H50_0319_fot_33B-38746_E_tif
  70
32
  10
569185.262
  20
4630050.901
  30
1055.293
  0
VERTEX
  8
PNOA-H_AMS_1956-57_33k_ES_PAN_21mic_H50_0319_fot_33B-38746_E_tif
  70
32
  10
569185.000
  20
4630051.000
  30
1055.288
  0
VERTEX
  8
PNOA-H_AMS_1956-57_33k_ES_PAN_21mic_H50_0319_fot_33B-38746_E_tif
  70
32
  10
569176.196
  20
4631607.344
  30
1104.99
  0
VERTEX
  8
PNOA-H_AMS_1956-57_33k_ES_PAN_21mic_H50_0319_fot_33B-38746_E_tif
  70
32
  10
570924.639
  20
4631624.306
  30
0
  0
VERTEX
  8
PNOA-H_AMS_1956-57_33k_ES_PAN_21mic_H50_0319_fot_33B-38746_E_tif
  70
32
  10
571811.347
  20
4631633.338
  30
1158.691
  0
VERTEX
  8
PNOA-H_AMS_1956-57_33k_ES_PAN_21mic_H50_0319_fot_33B-38746_E_tif
  70
32
  10
571837.500
  20
4630079.500
  30
1158.626
  0
VERTEX
  8
PNOA-H_AMS_1956-57_33k_ES_PAN_21mic_H50_0319_fot_33B-38746_E_tif
  70
32
  10
571836.469
  20
4630079.336
  30
1158.578
  0
SEQEND
  8
PNOA-H_AMS_1956-57_33k_ES_PAN_21mic_H50_0319_fot_33B-38746_E_tif
  0
INSERT
  8
FeatureAttribs
  2
FEATURE
  41
1
  42
1
  43
1
  50
0
  10
575875.034
  20
4630771.698
 66
1
  0
ATTRIB
  8
FeatureAttribs
 70
0
  1
PNOA-H_AMS_1956-57_33k_ES_PAN_21mic_H50_0319_fot_33B-38748_E.tif
  2
NAME
  10
575875.034
  20
4630771.698
 40
33.67449
  0
SEQEND
  0
POLYLINE
  8
PNOA-H_AMS_1956-57_33k_ES_PAN_21mic_H50_0319_fot_33B-38748_E_tif
  70
9
  66
1
  0
VERTEX
  8
PNOA-H_AMS_1956-57_33k_ES_PAN_21mic_H50_0319_fot_33B-38748_E_tif
  70
32
  10
577241.476
  20
4630063.302
  30
1043.936
  0
VERTEX
  8
PNOA-H_AMS_1956-57_33k_ES_PAN_21mic_H50_0319_fot_33B-38748_E_tif
  70
32
  10
575100.500
  20
4629853.500
  30
1233.702
  0
VERTEX
  8
PNOA-H_AMS_1956-57_33k_ES_PAN_21mic_H50_0319_fot_33B-38748_E_tif
  70
32
  10
575096.000
  20
4629853.500
  30
1235.796
  0
VERTEX
  8
PNOA-H_AMS_1956-57_33k_ES_PAN_21mic_H50_0319_fot_33B-38748_E_tif
  70
32
  10
575095.000
  20
4629853.500
  30
1236.261
  0
VERTEX
  8
PNOA-H_AMS_1956-57_33k_ES_PAN_21mic_H50_0319_fot_33B-38748_E_tif
  70
32
  10
575078.500
  20
4629860.000
  30
1239.697
  0
VERTEX
  8
PNOA-H_AMS_1956-57_33k_ES_PAN_21mic_H50_0319_fot_33B-38748_E_tif
  70
32
  10
574524.500
  20
4630085.000
  30
1247.754
  0
VERTEX
  8
PNOA-H_AMS_1956-57_33k_ES_PAN_21mic_H50_0319_fot_33B-38748_E_tif
  70
32
  10
574498.659
  20
4631660.768
  30
1203.74
  0
VERTEX
  8
PNOA-H_AMS_1956-57_33k_ES_PAN_21mic_H50_0319_fot_33B-38748_E_tif
  70
32
  10
577228.178
  20
4631689.896
  30
1026.281
  0
VERTEX
  8
PNOA-H_AMS_1956-57_33k_ES_PAN_21mic_H50_0319_fot_33B-38748_E_tif
  70
32
  10
577243.500
  20
4630063.500
  30
1043.757
  0
VERTEX
  8
PNOA-H_AMS_1956-57_33k_ES_PAN_21mic_H50_0319_fot_33B-38748_E_tif
  70
32
  10
577241.476
  20
4630063.302
  30
1043.936
  0
SEQEND
  8
PNOA-H_AMS_1956-57_33k_ES_PAN_21mic_H50_0319_fot_33B-38748_E_tif
  0
INSERT
  8
FeatureAttribs
  2
FEATURE
  41
1
  42
1
  43
1
  50
0
  10
573169.894
  20
4630750.634
 66
1
  0
ATTRIB
  8
FeatureAttribs
 70
0
  1
PNOA-H_AMS_1956-57_33k_ES_PAN_21mic_H50_0319_fot_33B-38747_E.tif
  2
NAME
  10
573169.894
  20
4630750.634
 40
33.67449
  0
SEQEND
  0
POLYLINE
  8
PNOA-H_AMS_1956-57_33k_ES_PAN_21mic_H50_0319_fot_33B-38747_E_tif
  70
9
  66
1
  0
VERTEX
  8
PNOA-H_AMS_1956-57_33k_ES_PAN_21mic_H50_0319_fot_33B-38747_E_tif
  70
32
  10
572494.627
  20
4629840.636
  30
1151.165
  0
VERTEX
  8
PNOA-H_AMS_1956-57_33k_ES_PAN_21mic_H50_0319_fot_33B-38747_E_tif
  70
32
  10
572493.500
  20
4629840.500
  30
1151.112
  0
VERTEX
  8
PNOA-H_AMS_1956-57_33k_ES_PAN_21mic_H50_0319_fot_33B-38747_E_tif
  70
32
  10
571838.390
  20
4630079.176
  30
1158.615
  0
VERTEX
  8
PNOA-H_AMS_1956-57_33k_ES_PAN_21mic_H50_0319_fot_33B-38747_E_tif
  70
32
  10
571837.500
  20
4630079.500
  30
1158.626
  0
VERTEX
  8
PNOA-H_AMS_1956-57_33k_ES_PAN_21mic_H50_0319_fot_33B-38747_E_tif
  70
32
  10
571811.347
  20
4631633.338
  30
1158.691
  0
VERTEX
  8
PNOA-H_AMS_1956-57_33k_ES_PAN_21mic_H50_0319_fot_33B-38747_E_tif
  70
32
  10
574384.408
  20
4631659.549
  30
0
  0
VERTEX
  8
PNOA-H_AMS_1956-57_33k_ES_PAN_21mic_H50_0319_fot_33B-38747_E_tif
  70
32
  10
574498.659
  20
4631660.768
  30
1203.74
  0
VERTEX
  8
PNOA-H_AMS_1956-57_33k_ES_PAN_21mic_H50_0319_fot_33B-38747_E_tif
  70
32
  10
574524.500
  20
4630085.000
  30
1247.754
  0
VERTEX
  8
PNOA-H_AMS_1956-57_33k_ES_PAN_21mic_H50_0319_fot_33B-38747_E_tif
  70
32
  10
574261.500
  20
4630053.000
  30
1234.747
  0
VERTEX
  8
PNOA-H_AMS_1956-57_33k_ES_PAN_21mic_H50_0319_fot_33B-38747_E_tif
  70
32
  10
574257.269
  20
4630053.000
  30
1234.797
  0
VERTEX
  8
PNOA-H_AMS_1956-57_33k_ES_PAN_21mic_H50_0319_fot_33B-38747_E_tif
  70
32
  10
574257.000
  20
4630053.000
  30
1234.8
  0
VERTEX
  8
PNOA-H_AMS_1956-57_33k_ES_PAN_21mic_H50_0319_fot_33B-38747_E_tif
  70
32
  10
572494.627
  20
4629840.636
  30
1151.165
  0
SEQEND
  8
PNOA-H_AMS_1956-57_33k_ES_PAN_21mic_H50_0319_fot_33B-38747_E_tif
  0
INSERT
  8
FeatureAttribs
  2
FEATURE
  41
1
  42
1
  43
1
  50
0
  10
578605.210
  20
4630787.120
 66
1
  0
ATTRIB
  8
FeatureAttribs
 70
0
  1
PNOA-H_AMS_1956-57_33k_ES_PAN_21mic_H50_0319_fot_33B-38749_E.tif
  2
NAME
  10
578605.210
  20
4630787.120
 40
33.67449
  0
SEQEND
  0
POLYLINE
  8
PNOA-H_AMS_1956-57_33k_ES_PAN_21mic_H50_0319_fot_33B-38749_E_tif
  70
9
  66
1
  0
VERTEX
  8
PNOA-H_AMS_1956-57_33k_ES_PAN_21mic_H50_0319_fot_33B-38749_E_tif
  70
32
  10
579707.411
  20
4630001.676
  30
982.573
  0
VERTEX
  8
PNOA-H_AMS_1956-57_33k_ES_PAN_21mic_H50_0319_fot_33B-38749_E_tif
  70
32
  10
577729.000
  20
4629854.000
  30
1003.748
  0
VERTEX
  8
PNOA-H_AMS_1956-57_33k_ES_PAN_21mic_H50_0319_fot_33B-38749_E_tif
  70
32
  10
577728.916
  20
4629854.036
  30
1003.755
  0
VERTEX
  8
PNOA-H_AMS_1956-57_33k_ES_PAN_21mic_H50_0319_fot_33B-38749_E_tif
  70
32
  10
577597.478
  20
4629910.754
  30
1014.586
  0
VERTEX
  8
PNOA-H_AMS_1956-57_33k_ES_PAN_21mic_H50_0319_fot_33B-38749_E_tif
  70
32
  10
577244.414
  20
4630063.106
  30
1043.682
  0
VERTEX
  8
PNOA-H_AMS_1956-57_33k_ES_PAN_21mic_H50_0319_fot_33B-38749_E_tif
  70
32
  10
577243.500
  20
4630063.500
  30
1043.757
  0
VERTEX
  8
PNOA-H_AMS_1956-57_33k_ES_PAN_21mic_H50_0319_fot_33B-38749_E_tif
  70
32
  10
577228.178
  20
4631689.896
  30
1026.281
  0
VERTEX
  8
PNOA-H_AMS_1956-57_33k_ES_PAN_21mic_H50_0319_fot_33B-38749_E_tif
  70
32
  10
577844.182
  20
4631696.470
  30
0
  0
VERTEX
  8
PNOA-H_AMS_1956-57_33k_ES_PAN_21mic_H50_0319_fot_33B-38749_E_tif
  70
32
  10
579974.635
  20
4631720.239
  30
975.215
  0
VERTEX
  8
PNOA-H_AMS_1956-57_33k_ES_PAN_21mic_H50_0319_fot_33B-38749_E_tif
  70
32
  10
579973.000
  20
4630021.500
  30
979.73
  0
VERTEX
  8
PNOA-H_AMS_1956-57_33k_ES_PAN_21mic_H50_0319_fot_33B-38749_E_tif
  70
32
  10
579707.411
  20
4630001.676
  30
982.573
  0
SEQEND
  8
PNOA-H_AMS_1956-57_33k_ES_PAN_21mic_H50_0319_fot_33B-38749_E_tif
  0
INSERT
  8
FeatureAttribs
  2
FEATURE
  41
1
  42
1
  43
1
  50
0
  10
581366.542
  20
4630805.506
 66
1
  0
ATTRIB
  8
FeatureAttribs
 70
0
  1
PNOA-H_AMS_1956-57_33k_ES_PAN_21mic_H50_0319_fot_33B-38750_E.tif
  2
NAME
  10
581366.542
  20
4630805.506
 40
33.67449
  0
SEQEND
  0
POLYLINE
  8
PNOA-H_AMS_1956-57_33k_ES_PAN_21mic_H50_0319_fot_33B-38750_E_tif
  70
9
  66
1
  0
VERTEX
  8
PNOA-H_AMS_1956-57_33k_ES_PAN_21mic_H50_0319_fot_33B-38750_E_tif
  70
32
  10
582759.500
  20
4630009.500
  30
1020.519
  0
VERTEX
  8
PNOA-H_AMS_1956-57_33k_ES_PAN_21mic_H50_0319_fot_33B-38750_E_tif
  70
32
  10
580346.500
  20
4629859.000
  30
994.268
  0
VERTEX
  8
PNOA-H_AMS_1956-57_33k_ES_PAN_21mic_H50_0319_fot_33B-38750_E_tif
  70
32
  10
580342.707
  20
4629859.200
  30
994.226
  0
VERTEX
  8
PNOA-H_AMS_1956-57_33k_ES_PAN_21mic_H50_0319_fot_33B-38750_E_tif
  70
32
  10
580338.560
  20
4629859.418
  30
994.179
  0
VERTEX
  8
PNOA-H_AMS_1956-57_33k_ES_PAN_21mic_H50_0319_fot_33B-38750_E_tif
  70
32
  10
580337.000
  20
4629859.500
  30
994.161
  0
VERTEX
  8
PNOA-H_AMS_1956-57_33k_ES_PAN_21mic_H50_0319_fot_33B-38750_E_tif
  70
32
  10
579973.143
  20
4630021.436
  30
979.736
  0
VERTEX
  8
PNOA-H_AMS_1956-57_33k_ES_PAN_21mic_H50_0319_fot_33B-38750_E_tif
  70
32
  10
579973.000
  20
4630021.500
  30
979.73
  0
VERTEX
  8
PNOA-H_AMS_1956-57_33k_ES_PAN_21mic_H50_0319_fot_33B-38750_E_tif
  70
32
  10
579974.635
  20
4631720.239
  30
975.217
  0
VERTEX
  8
PNOA-H_AMS_1956-57_33k_ES_PAN_21mic_H50_0319_fot_33B-38750_E_tif
  70
32
  10
581303.960
  20
4631735.070
  30
0
  0
VERTEX
  8
PNOA-H_AMS_1956-57_33k_ES_PAN_21mic_H50_0319_fot_33B-38750_E_tif
  70
32
  10
582759.127
  20
4631752.011
  30
997.007
  0
VERTEX
  8
PNOA-H_AMS_1956-57_33k_ES_PAN_21mic_H50_0319_fot_33B-38750_E_tif
  70
32
  10
582759.500
  20
4630009.500
  30
1020.519
  0
SEQEND
  8
PNOA-H_AMS_1956-57_33k_ES_PAN_21mic_H50_0319_fot_33B-38750_E_tif
  0
INSERT
  8
FeatureAttribs
  2
FEATURE
  41
1
  42
1
  43
1
  50
0
  10
584156.382
  20
4630849.853
 66
1
  0
ATTRIB
  8
FeatureAttribs
 70
0
  1
PNOA-H_AMS_1956-57_33k_ES_PAN_21mic_H50_0319_fot_33B-38751_E.tif
  2
NAME
  10
584156.382
  20
4630849.853
 40
33.67449
  0
SEQEND
  0
POLYLINE
  8
PNOA-H_AMS_1956-57_33k_ES_PAN_21mic_H50_0319_fot_33B-38751_E_tif
  70
9
  66
1
  0
VERTEX
  8
PNOA-H_AMS_1956-57_33k_ES_PAN_21mic_H50_0319_fot_33B-38751_E_tif
  70
32
  10
582960.962
  20
4629914.518
  30
1028.771
  0
VERTEX
  8
PNOA-H_AMS_1956-57_33k_ES_PAN_21mic_H50_0319_fot_33B-38751_E_tif
  70
32
  10
582960.000
  20
4629914.500
  30
1028.787
  0
VERTEX
  8
PNOA-H_AMS_1956-57_33k_ES_PAN_21mic_H50_0319_fot_33B-38751_E_tif
  70
32
  10
582759.500
  20
4630009.500
  30
1020.519
  0
VERTEX
  8
PNOA-H_AMS_1956-57_33k_ES_PAN_21mic_H50_0319_fot_33B-38751_E_tif
  70
32
  10
582759.127
  20
4631752.011
  30
997.004
  0
VERTEX
  8
PNOA-H_AMS_1956-57_33k_ES_PAN_21mic_H50_0319_fot_33B-38751_E_tif
  70
32
  10
584763.744
  20
4631775.349
  30
0
  0
VERTEX
  8
PNOA-H_AMS_1956-57_33k_ES_PAN_21mic_H50_0319_fot_33B-38751_E_tif
  70
32
  10
585576.291
  20
4631785.203
  30
0
  0
VERTEX
  8
PNOA-H_AMS_1956-57_33k_ES_PAN_21mic_H50_0319_fot_33B-38751_E_tif
  70
32
  10
585576.587
  20
4631785.206
  30
1050.866
  0
VERTEX
  8
PNOA-H_AMS_1956-57_33k_ES_PAN_21mic_H50_0319_fot_33B-38751_E_tif
  70
32
  10
585531.500
  20
4629963.000
  30
985.085
  0
VERTEX
  8
PNOA-H_AMS_1956-57_33k_ES_PAN_21mic_H50_0319_fot_33B-38751_E_tif
  70
32
  10
583172.265
  20
4629918.503
  30
1025.18
  0
VERTEX
  8
PNOA-H_AMS_1956-57_33k_ES_PAN_21mic_H50_0319_fot_33B-38751_E_tif
  70
32
  10
582960.962
  20
4629914.518
  30
1028.771
  0
SEQEND
  8
PNOA-H_AMS_1956-57_33k_ES_PAN_21mic_H50_0319_fot_33B-38751_E_tif
  0
INSERT
  8
FeatureAttribs
  2
FEATURE
  41
1
  42
1
  43
1
  50
0
  10
586984.400
  20
4630829.874
 66
1
  0
ATTRIB
  8
FeatureAttribs
 70
0
  1
PNOA-H_AMS_1956-57_33k_ES_PAN_21mic_H50_0319_fot_33B-38752_E.tif
  2
NAME
  10
586984.400
  20
4630829.874
 40
33.67449
  0
SEQEND
  0
POLYLINE
  8
PNOA-H_AMS_1956-57_33k_ES_PAN_21mic_H50_0319_fot_33B-38752_E_tif
  70
9
  66
1
  0
VERTEX
  8
PNOA-H_AMS_1956-57_33k_ES_PAN_21mic_H50_0319_fot_33B-38752_E_tif
  70
32
  10
588415.500
  20
4629957.500
  30
1019.425
  0
VERTEX
  8
PNOA-H_AMS_1956-57_33k_ES_PAN_21mic_H50_0319_fot_33B-38752_E_tif
  70
32
  10
588159.000
  20
4629840.000
  30
1025.375
  0
VERTEX
  8
PNOA-H_AMS_1956-57_33k_ES_PAN_21mic_H50_0319_fot_33B-38752_E_tif
  70
32
  10
588158.531
  20
4629840.014
  30
1025.367
  0
VERTEX
  8
PNOA-H_AMS_1956-57_33k_ES_PAN_21mic_H50_0319_fot_33B-38752_E_tif
  70
32
  10
588054.789
  20
4629843.158
  30
1023.768
  0
VERTEX
  8
PNOA-H_AMS_1956-57_33k_ES_PAN_21mic_H50_0319_fot_33B-38752_E_tif
  70
32
  10
586179.000
  20
4629900.000
  30
994.855
  0
VERTEX
  8
PNOA-H_AMS_1956-57_33k_ES_PAN_21mic_H50_0319_fot_33B-38752_E_tif
  70
32
  10
586132.250
  20
4629901.417
  30
994.134
  0
VERTEX
  8
PNOA-H_AMS_1956-57_33k_ES_PAN_21mic_H50_0319_fot_33B-38752_E_tif
  70
32
  10
585626.127
  20
4629916.754
  30
986.333
  0
VERTEX
  8
PNOA-H_AMS_1956-57_33k_ES_PAN_21mic_H50_0319_fot_33B-38752_E_tif
  70
32
  10
585618.000
  20
4629917.000
  30
986.208
  0
VERTEX
  8
PNOA-H_AMS_1956-57_33k_ES_PAN_21mic_H50_0319_fot_33B-38752_E_tif
  70
32
  10
585617.990
  20
4629917.005
  30
986.207
  0
VERTEX
  8
PNOA-H_AMS_1956-57_33k_ES_PAN_21mic_H50_0319_fot_33B-38752_E_tif
  70
32
  10
585531.500
  20
4629962.500
  30
985.066
  0
VERTEX
  8
PNOA-H_AMS_1956-57_33k_ES_PAN_21mic_H50_0319_fot_33B-38752_E_tif
  70
32
  10
585531.500
  20
4629963.000
  30
985.088
  0
VERTEX
  8
PNOA-H_AMS_1956-57_33k_ES_PAN_21mic_H50_0319_fot_33B-38752_E_tif
  70
32
  10
585531.500
  20
4629982.500
  30
985.941
  0
VERTEX
  8
PNOA-H_AMS_1956-57_33k_ES_PAN_21mic_H50_0319_fot_33B-38752_E_tif
  70
32
  10
585576.291
  20
4631785.203
  30
1050.959
  0
VERTEX
  8
PNOA-H_AMS_1956-57_33k_ES_PAN_21mic_H50_0319_fot_33B-38752_E_tif
  70
32
  10
585576.587
  20
4631785.206
  30
1050.867
  0
VERTEX
  8
PNOA-H_AMS_1956-57_33k_ES_PAN_21mic_H50_0319_fot_33B-38752_E_tif
  70
32
  10
588223.532
  20
4631817.306
  30
0
  0
VERTEX
  8
PNOA-H_AMS_1956-57_33k_ES_PAN_21mic_H50_0319_fot_33B-38752_E_tif
  70
32
  10
588417.090
  20
4631819.747
  30
999.739
  0
VERTEX
  8
PNOA-H_AMS_1956-57_33k_ES_PAN_21mic_H50_0319_fot_33B-38752_E_tif
  70
32
  10
588415.500
  20
4629958.000
  30
1019.42
  0
VERTEX
  8
PNOA-H_AMS_1956-57_33k_ES_PAN_21mic_H50_0319_fot_33B-38752_E_tif
  70
32
  10
588415.500
  20
4629957.772
  30
1019.422
  0
VERTEX
  8
PNOA-H_AMS_1956-57_33k_ES_PAN_21mic_H50_0319_fot_33B-38752_E_tif
  70
32
  10
588415.500
  20
4629957.500
  30
1019.425
  0
SEQEND
  8
PNOA-H_AMS_1956-57_33k_ES_PAN_21mic_H50_0319_fot_33B-38752_E_tif
  0
INSERT
  8
FeatureAttribs
  2
FEATURE
  41
1
  42
1
  43
1
  50
0
  10
589756.027
  20
4630825.591
 66
1
  0
ATTRIB
  8
FeatureAttribs
 70
0
  1
PNOA-H_AMS_1956-57_33k_ES_PAN_21mic_H50_0319_fot_33B-38753_E.tif
  2
NAME
  10
589756.027
  20
4630825.591
 40
33.67449
  0
SEQEND
  0
POLYLINE
  8
PNOA-H_AMS_1956-57_33k_ES_PAN_21mic_H50_0319_fot_33B-38753_E_tif
  70
9
  66
1
  0
VERTEX
  8
PNOA-H_AMS_1956-57_33k_ES_PAN_21mic_H50_0319_fot_33B-38753_E_tif
  70
32
  10
590617.005
  20
4629797.502
  30
1126.283
  0
VERTEX
  8
PNOA-H_AMS_1956-57_33k_ES_PAN_21mic_H50_0319_fot_33B-38753_E_tif
  70
32
  10
590617.000
  20
4629797.500
  30
1126.283
  0
VERTEX
  8
PNOA-H_AMS_1956-57_33k_ES_PAN_21mic_H50_0319_fot_33B-38753_E_tif
  70
32
  10
588415.931
  20
4629957.969
  30
1019.431
  0
VERTEX
  8
PNOA-H_AMS_1956-57_33k_ES_PAN_21mic_H50_0319_fot_33B-38753_E_tif
  70
32
  10
588415.500
  20
4629958.000
  30
1019.41
  0
VERTEX
  8
PNOA-H_AMS_1956-57_33k_ES_PAN_21mic_H50_0319_fot_33B-38753_E_tif
  70
32
  10
588417.090
  20
4631819.747
  30
999.732
  0
VERTEX
  8
PNOA-H_AMS_1956-57_33k_ES_PAN_21mic_H50_0319_fot_33B-38753_E_tif
  70
32
  10
591107.745
  20
4631853.683
  30
1076.663
  0
VERTEX
  8
PNOA-H_AMS_1956-57_33k_ES_PAN_21mic_H50_0319_fot_33B-38753_E_tif
  70
32
  10
591086.000
  20
4629980.000
  30
1170.694
  0
VERTEX
  8
PNOA-H_AMS_1956-57_33k_ES_PAN_21mic_H50_0319_fot_33B-38753_E_tif
  70
32
  10
591085.891
  20
4629979.958
  30
1170.684
  0
VERTEX
  8
PNOA-H_AMS_1956-57_33k_ES_PAN_21mic_H50_0319_fot_33B-38753_E_tif
  70
32
  10
590617.005
  20
4629797.502
  30
1126.283
  0
SEQEND
  8
PNOA-H_AMS_1956-57_33k_ES_PAN_21mic_H50_0319_fot_33B-38753_E_tif
  0
INSERT
  8
FeatureAttribs
  2
FEATURE
  41
1
  42
1
  43
1
  50
0
  10
592386.517
  20
4630829.349
 66
1
  0
ATTRIB
  8
FeatureAttribs
 70
0
  1
PNOA-H_AMS_1956-57_33k_ES_PAN_21mic_H50_0319_fot_33B-38754_E.tif
  2
NAME
  10
592386.517
  20
4630829.349
 40
33.67449
  0
SEQEND
  0
POLYLINE
  8
PNOA-H_AMS_1956-57_33k_ES_PAN_21mic_H50_0319_fot_33B-38754_E_tif
  70
9
  66
1
  0
VERTEX
  8
PNOA-H_AMS_1956-57_33k_ES_PAN_21mic_H50_0319_fot_33B-38754_E_tif
  70
32
  10
593667.993
  20
4629979.336
  30
1336.175
  0
VERTEX
  8
PNOA-H_AMS_1956-57_33k_ES_PAN_21mic_H50_0319_fot_33B-38754_E_tif
  70
32
  10
593025.500
  20
4629771.500
  30
1445.128
  0
VERTEX
  8
PNOA-H_AMS_1956-57_33k_ES_PAN_21mic_H50_0319_fot_33B-38754_E_tif
  70
32
  10
593024.374
  20
4629771.621
  30
1444.969
  0
VERTEX
  8
PNOA-H_AMS_1956-57_33k_ES_PAN_21mic_H50_0319_fot_33B-38754_E_tif
  70
32
  10
591086.000
  20
4629980.000
  30
1170.694
  0
VERTEX
  8
PNOA-H_AMS_1956-57_33k_ES_PAN_21mic_H50_0319_fot_33B-38754_E_tif
  70
32
  10
591107.745
  20
4631853.683
  30
1076.663
  0
VERTEX
  8
PNOA-H_AMS_1956-57_33k_ES_PAN_21mic_H50_0319_fot_33B-38754_E_tif
  70
32
  10
591683.325
  20
4631860.942
  30
0
  0
VERTEX
  8
PNOA-H_AMS_1956-57_33k_ES_PAN_21mic_H50_0319_fot_33B-38754_E_tif
  70
32
  10
593687.878
  20
4631887.197
  30
0
  0
VERTEX
  8
PNOA-H_AMS_1956-57_33k_ES_PAN_21mic_H50_0319_fot_33B-38754_E_tif
  70
32
  10
593687.979
  20
4631887.198
  30
1174.379
  0
VERTEX
  8
PNOA-H_AMS_1956-57_33k_ES_PAN_21mic_H50_0319_fot_33B-38754_E_tif
  70
32
  10
593668.500
  20
4629979.500
  30
1336.089
  0
VERTEX
  8
PNOA-H_AMS_1956-57_33k_ES_PAN_21mic_H50_0319_fot_33B-38754_E_tif
  70
32
  10
593667.993
  20
4629979.336
  30
1336.175
  0
SEQEND
  8
PNOA-H_AMS_1956-57_33k_ES_PAN_21mic_H50_0319_fot_33B-38754_E_tif
  0
INSERT
  8
FeatureAttribs
  2
FEATURE
  41
1
  42
1
  43
1
  50
0
  10
594417.326
  20
4630819.628
 66
1
  0
ATTRIB
  8
FeatureAttribs
 70
0
  1
PNOA-H_AMS_1956-57_33k_ES_PAN_21mic_H50_0320_fot_33B-38755_E.tif
  2
NAME
  10
594417.326
  20
4630819.628
 40
33.67449
  0
SEQEND
  0
POLYLINE
  8
PNOA-H_AMS_1956-57_33k_ES_PAN_21mic_H50_0320_fot_33B-38755_E_tif
  70
9
  66
1
  0
VERTEX
  8
PNOA-H_AMS_1956-57_33k_ES_PAN_21mic_H50_0320_fot_33B-38755_E_tif
  70
32
  10
595172.075
  20
4629735.654
  30
1485.914
  0
VERTEX
  8
PNOA-H_AMS_1956-57_33k_ES_PAN_21mic_H50_0320_fot_33B-38755_E_tif
  70
32
  10
595160.000
  20
4629733.000
  30
1489.216
  0
VERTEX
  8
PNOA-H_AMS_1956-57_33k_ES_PAN_21mic_H50_0320_fot_33B-38755_E_tif
  70
32
  10
595159.429
  20
4629733.094
  30
1489.157
  0
VERTEX
  8
PNOA-H_AMS_1956-57_33k_ES_PAN_21mic_H50_0320_fot_33B-38755_E_tif
  70
32
  10
594653.675
  20
4629816.680
  30
1437.233
  0
VERTEX
  8
PNOA-H_AMS_1956-57_33k_ES_PAN_21mic_H50_0320_fot_33B-38755_E_tif
  70
32
  10
594379.458
  20
4629862.000
  30
1409.081
  0
VERTEX
  8
PNOA-H_AMS_1956-57_33k_ES_PAN_21mic_H50_0320_fot_33B-38755_E_tif
  70
32
  10
593668.500
  20
4629979.500
  30
1336.089
  0
VERTEX
  8
PNOA-H_AMS_1956-57_33k_ES_PAN_21mic_H50_0320_fot_33B-38755_E_tif
  70
32
  10
593687.878
  20
4631887.197
  30
1173.462
  0
VERTEX
  8
PNOA-H_AMS_1956-57_33k_ES_PAN_21mic_H50_0320_fot_33B-38755_E_tif
  70
32
  10
593687.979
  20
4631887.198
  30
1174.379
  0
VERTEX
  8
PNOA-H_AMS_1956-57_33k_ES_PAN_21mic_H50_0320_fot_33B-38755_E_tif
  70
32
  10
595143.124
  20
4631906.257
  30
0
  0
VERTEX
  8
PNOA-H_AMS_1956-57_33k_ES_PAN_21mic_H50_0320_fot_33B-38755_E_tif
  70
32
  10
595172.072
  20
4629735.874
  30
0
  0
VERTEX
  8
PNOA-H_AMS_1956-57_33k_ES_PAN_21mic_H50_0320_fot_33B-38755_E_tif
  70
32
  10
595172.075
  20
4629735.654
  30
1485.914
  0
SEQEND
  8
PNOA-H_AMS_1956-57_33k_ES_PAN_21mic_H50_0320_fot_33B-38755_E_tif
  0
INSERT
  8
FeatureAttribs
  2
FEATURE
  41
1
  42
1
  43
1
  50
0
  10
581654.419
  20
4627754.000
 66
1
  0
ATTRIB
  8
FeatureAttribs
 70
0
  1
PNOA-H_AMS_1956-57_33k_ES_PAN_21mic_H50_0351_fot_34C-40419_E.tif
  2
NAME
  10
581654.419
  20
4627754.000
 40
33.67449
  0
SEQEND
  0
POLYLINE
  8
PNOA-H_AMS_1956-57_33k_ES_PAN_21mic_H50_0351_fot_34C-40419_E_tif
  70
9
  66
1
  0
VERTEX
  8
PNOA-H_AMS_1956-57_33k_ES_PAN_21mic_H50_0351_fot_34C-40419_E_tif
  70
32
  10
582980.500
  20
4625765.500
  30
1053.324
  0
VERTEX
  8
PNOA-H_AMS_1956-57_33k_ES_PAN_21mic_H50_0351_fot_34C-40419_E_tif
  70
32
  10
580809.000
  20
4625498.500
  30
1143.524
  0
VERTEX
  8
PNOA-H_AMS_1956-57_33k_ES_PAN_21mic_H50_0351_fot_34C-40419_E_tif
  70
32
  10
580807.760
  20
4625498.655
  30
1143.725
  0
VERTEX
  8
PNOA-H_AMS_1956-57_33k_ES_PAN_21mic_H50_0351_fot_34C-40419_E_tif
  70
32
  10
580805.904
  20
4625498.887
  30
1144.026
  0
VERTEX
  8
PNOA-H_AMS_1956-57_33k_ES_PAN_21mic_H50_0351_fot_34C-40419_E_tif
  70
32
  10
580805.000
  20
4625499.000
  30
1144.173
  0
VERTEX
  8
PNOA-H_AMS_1956-57_33k_ES_PAN_21mic_H50_0351_fot_34C-40419_E_tif
  70
32
  10
580336.000
  20
4625804.000
  30
1120.528
  0
VERTEX
  8
PNOA-H_AMS_1956-57_33k_ES_PAN_21mic_H50_0351_fot_34C-40419_E_tif
  70
32
  10
580336.000
  20
4625804.175
  30
1120.522
  0
VERTEX
  8
PNOA-H_AMS_1956-57_33k_ES_PAN_21mic_H50_0351_fot_34C-40419_E_tif
  70
32
  10
580336.000
  20
4625804.500
  30
1120.512
  0
VERTEX
  8
PNOA-H_AMS_1956-57_33k_ES_PAN_21mic_H50_0351_fot_34C-40419_E_tif
  70
32
  10
580339.500
  20
4629859.000
  30
994.206
  0
VERTEX
  8
PNOA-H_AMS_1956-57_33k_ES_PAN_21mic_H50_0351_fot_34C-40419_E_tif
  70
32
  10
580342.707
  20
4629859.200
  30
994.242
  0
VERTEX
  8
PNOA-H_AMS_1956-57_33k_ES_PAN_21mic_H50_0351_fot_34C-40419_E_tif
  70
32
  10
582749.000
  20
4630009.000
  30
1020.847
  0
VERTEX
  8
PNOA-H_AMS_1956-57_33k_ES_PAN_21mic_H50_0351_fot_34C-40419_E_tif
  70
32
  10
582757.000
  20
4630009.500
  30
1020.575
  0
VERTEX
  8
PNOA-H_AMS_1956-57_33k_ES_PAN_21mic_H50_0351_fot_34C-40419_E_tif
  70
32
  10
582759.500
  20
4630009.500
  30
1020.52
  0
VERTEX
  8
PNOA-H_AMS_1956-57_33k_ES_PAN_21mic_H50_0351_fot_34C-40419_E_tif
  70
32
  10
582760.000
  20
4630009.500
  30
1020.509
  0
VERTEX
  8
PNOA-H_AMS_1956-57_33k_ES_PAN_21mic_H50_0351_fot_34C-40419_E_tif
  70
32
  10
582764.500
  20
4630007.500
  30
1020.482
  0
VERTEX
  8
PNOA-H_AMS_1956-57_33k_ES_PAN_21mic_H50_0351_fot_34C-40419_E_tif
  70
32
  10
582960.962
  20
4629914.518
  30
1028.567
  0
VERTEX
  8
PNOA-H_AMS_1956-57_33k_ES_PAN_21mic_H50_0351_fot_34C-40419_E_tif
  70
32
  10
582961.000
  20
4629914.500
  30
1028.568
  0
VERTEX
  8
PNOA-H_AMS_1956-57_33k_ES_PAN_21mic_H50_0351_fot_34C-40419_E_tif
  70
32
  10
582980.500
  20
4625765.500
  30
1053.324
  0
SEQEND
  8
PNOA-H_AMS_1956-57_33k_ES_PAN_21mic_H50_0351_fot_34C-40419_E_tif
  0
INSERT
  8
FeatureAttribs
  2
FEATURE
  41
1
  42
1
  43
1
  50
0
  10
576367.518
  20
4627726.250
 66
1
  0
ATTRIB
  8
FeatureAttribs
 70
0
  1
PNOA-H_AMS_1956-57_33k_ES_PAN_21mic_H50_0351_fot_34C-40417_E.tif
  2
NAME
  10
576367.518
  20
4627726.250
 40
33.67449
  0
SEQEND
  0
POLYLINE
  8
PNOA-H_AMS_1956-57_33k_ES_PAN_21mic_H50_0351_fot_34C-40417_E_tif
  70
9
  66
1
  0
VERTEX
  8
PNOA-H_AMS_1956-57_33k_ES_PAN_21mic_H50_0351_fot_34C-40417_E_tif
  70
32
  10
577636.806
  20
4625795.762
  30
1134.391
  0
VERTEX
  8
PNOA-H_AMS_1956-57_33k_ES_PAN_21mic_H50_0351_fot_34C-40417_E_tif
  70
32
  10
575593.000
  20
4625389.000
  30
1104.885
  0
VERTEX
  8
PNOA-H_AMS_1956-57_33k_ES_PAN_21mic_H50_0351_fot_34C-40417_E_tif
  70
32
  10
575591.000
  20
4625389.000
  30
1104.693
  0
VERTEX
  8
PNOA-H_AMS_1956-57_33k_ES_PAN_21mic_H50_0351_fot_34C-40417_E_tif
  70
32
  10
575590.500
  20
4625389.000
  30
1104.646
  0
VERTEX
  8
PNOA-H_AMS_1956-57_33k_ES_PAN_21mic_H50_0351_fot_34C-40417_E_tif
  70
32
  10
575584.500
  20
4625392.000
  30
1104.318
  0
VERTEX
  8
PNOA-H_AMS_1956-57_33k_ES_PAN_21mic_H50_0351_fot_34C-40417_E_tif
  70
32
  10
575056.194
  20
4625678.609
  30
1076.155
  0
VERTEX
  8
PNOA-H_AMS_1956-57_33k_ES_PAN_21mic_H50_0351_fot_34C-40417_E_tif
  70
32
  10
575014.000
  20
4625701.500
  30
1073.906
  0
VERTEX
  8
PNOA-H_AMS_1956-57_33k_ES_PAN_21mic_H50_0351_fot_34C-40417_E_tif
  70
32
  10
575096.000
  20
4629853.500
  30
1235.875
  0
VERTEX
  8
PNOA-H_AMS_1956-57_33k_ES_PAN_21mic_H50_0351_fot_34C-40417_E_tif
  70
32
  10
577233.500
  20
4630063.000
  30
1045.415
  0
VERTEX
  8
PNOA-H_AMS_1956-57_33k_ES_PAN_21mic_H50_0351_fot_34C-40417_E_tif
  70
32
  10
577238.500
  20
4630063.500
  30
1044.63
  0
VERTEX
  8
PNOA-H_AMS_1956-57_33k_ES_PAN_21mic_H50_0351_fot_34C-40417_E_tif
  70
32
  10
577241.476
  20
4630063.302
  30
1044.103
  0
VERTEX
  8
PNOA-H_AMS_1956-57_33k_ES_PAN_21mic_H50_0351_fot_34C-40417_E_tif
  70
32
  10
577244.414
  20
4630063.106
  30
1043.582
  0
VERTEX
  8
PNOA-H_AMS_1956-57_33k_ES_PAN_21mic_H50_0351_fot_34C-40417_E_tif
  70
32
  10
577246.000
  20
4630063.000
  30
1043.301
  0
VERTEX
  8
PNOA-H_AMS_1956-57_33k_ES_PAN_21mic_H50_0351_fot_34C-40417_E_tif
  70
32
  10
577597.478
  20
4629910.754
  30
1014.492
  0
VERTEX
  8
PNOA-H_AMS_1956-57_33k_ES_PAN_21mic_H50_0351_fot_34C-40417_E_tif
  70
32
  10
577728.500
  20
4629854.000
  30
1003.753
  0
VERTEX
  8
PNOA-H_AMS_1956-57_33k_ES_PAN_21mic_H50_0351_fot_34C-40417_E_tif
  70
32
  10
577728.443
  20
4629851.435
  30
1003.836
  0
VERTEX
  8
PNOA-H_AMS_1956-57_33k_ES_PAN_21mic_H50_0351_fot_34C-40417_E_tif
  70
32
  10
577638.000
  20
4625796.000
  30
1134.409
  0
VERTEX
  8
PNOA-H_AMS_1956-57_33k_ES_PAN_21mic_H50_0351_fot_34C-40417_E_tif
  70
32
  10
577636.806
  20
4625795.762
  30
1134.391
  0
SEQEND
  8
PNOA-H_AMS_1956-57_33k_ES_PAN_21mic_H50_0351_fot_34C-40417_E_tif
  0
INSERT
  8
FeatureAttribs
  2
FEATURE
  41
1
  42
1
  43
1
  50
0
  10
579009.477
  20
4627745.000
 66
1
  0
ATTRIB
  8
FeatureAttribs
 70
0
  1
PNOA-H_AMS_1956-57_33k_ES_PAN_21mic_H50_0351_fot_34C-40418_E.tif
  2
NAME
  10
579009.477
  20
4627745.000
 40
33.67449
  0
SEQEND
  0
POLYLINE
  8
PNOA-H_AMS_1956-57_33k_ES_PAN_21mic_H50_0351_fot_34C-40418_E_tif
  70
9
  66
1
  0
VERTEX
  8
PNOA-H_AMS_1956-57_33k_ES_PAN_21mic_H50_0351_fot_34C-40418_E_tif
  70
32
  10
580335.598
  20
4625804.436
  30
1120.506
  0
VERTEX
  8
PNOA-H_AMS_1956-57_33k_ES_PAN_21mic_H50_0351_fot_34C-40418_E_tif
  70
32
  10
578214.000
  20
4625468.500
  30
1164.755
  0
VERTEX
  8
PNOA-H_AMS_1956-57_33k_ES_PAN_21mic_H50_0351_fot_34C-40418_E_tif
  70
32
  10
578213.031
  20
4625468.742
  30
1164.905
  0
VERTEX
  8
PNOA-H_AMS_1956-57_33k_ES_PAN_21mic_H50_0351_fot_34C-40418_E_tif
  70
32
  10
578209.561
  20
4625469.610
  30
1165.443
  0
VERTEX
  8
PNOA-H_AMS_1956-57_33k_ES_PAN_21mic_H50_0351_fot_34C-40418_E_tif
  70
32
  10
578208.000
  20
4625470.000
  30
1165.684
  0
VERTEX
  8
PNOA-H_AMS_1956-57_33k_ES_PAN_21mic_H50_0351_fot_34C-40418_E_tif
  70
32
  10
577639.165
  20
4625795.334
  30
1134.473
  0
VERTEX
  8
PNOA-H_AMS_1956-57_33k_ES_PAN_21mic_H50_0351_fot_34C-40418_E_tif
  70
32
  10
577638.000
  20
4625796.000
  30
1134.409
  0
VERTEX
  8
PNOA-H_AMS_1956-57_33k_ES_PAN_21mic_H50_0351_fot_34C-40418_E_tif
  70
32
  10
577728.000
  20
4629849.000
  30
1003.561
  0
VERTEX
  8
PNOA-H_AMS_1956-57_33k_ES_PAN_21mic_H50_0351_fot_34C-40418_E_tif
  70
32
  10
577728.443
  20
4629851.435
  30
1003.652
  0
VERTEX
  8
PNOA-H_AMS_1956-57_33k_ES_PAN_21mic_H50_0351_fot_34C-40418_E_tif
  70
32
  10
577728.916
  20
4629854.036
  30
1003.749
  0
VERTEX
  8
PNOA-H_AMS_1956-57_33k_ES_PAN_21mic_H50_0351_fot_34C-40418_E_tif
  70
32
  10
577729.000
  20
4629854.500
  30
1003.766
  0
VERTEX
  8
PNOA-H_AMS_1956-57_33k_ES_PAN_21mic_H50_0351_fot_34C-40418_E_tif
  70
32
  10
577983.500
  20
4629873.500
  30
998.292
  0
VERTEX
  8
PNOA-H_AMS_1956-57_33k_ES_PAN_21mic_H50_0351_fot_34C-40418_E_tif
  70
32
  10
577990.500
  20
4629874.000
  30
998.333
  0
VERTEX
  8
PNOA-H_AMS_1956-57_33k_ES_PAN_21mic_H50_0351_fot_34C-40418_E_tif
  70
32
  10
579707.411
  20
4630001.676
  30
982.248
  0
VERTEX
  8
PNOA-H_AMS_1956-57_33k_ES_PAN_21mic_H50_0351_fot_34C-40418_E_tif
  70
32
  10
579973.143
  20
4630021.436
  30
979.758
  0
VERTEX
  8
PNOA-H_AMS_1956-57_33k_ES_PAN_21mic_H50_0351_fot_34C-40418_E_tif
  70
32
  10
579974.000
  20
4630021.500
  30
979.75
  0
VERTEX
  8
PNOA-H_AMS_1956-57_33k_ES_PAN_21mic_H50_0351_fot_34C-40418_E_tif
  70
32
  10
580338.560
  20
4629859.418
  30
994.169
  0
VERTEX
  8
PNOA-H_AMS_1956-57_33k_ES_PAN_21mic_H50_0351_fot_34C-40418_E_tif
  70
32
  10
580339.500
  20
4629859.000
  30
994.206
  0
VERTEX
  8
PNOA-H_AMS_1956-57_33k_ES_PAN_21mic_H50_0351_fot_34C-40418_E_tif
  70
32
  10
580336.000
  20
4625804.500
  30
1120.497
  0
VERTEX
  8
PNOA-H_AMS_1956-57_33k_ES_PAN_21mic_H50_0351_fot_34C-40418_E_tif
  70
32
  10
580335.598
  20
4625804.436
  30
1120.506
  0
SEQEND
  8
PNOA-H_AMS_1956-57_33k_ES_PAN_21mic_H50_0351_fot_34C-40418_E_tif
  0
INSERT
  8
FeatureAttribs
  2
FEATURE
  41
1
  42
1
  43
1
  50
0
  10
584272.601
  20
4627719.000
 66
1
  0
ATTRIB
  8
FeatureAttribs
 70
0
  1
PNOA-H_AMS_1956-57_33k_ES_PAN_21mic_H50_0351_fot_34C-40420_E.tif
  2
NAME
  10
584272.601
  20
4627719.000
 40
33.67449
  0
SEQEND
  0
POLYLINE
  8
PNOA-H_AMS_1956-57_33k_ES_PAN_21mic_H50_0351_fot_34C-40420_E_tif
  70
9
  66
1
  0
VERTEX
  8
PNOA-H_AMS_1956-57_33k_ES_PAN_21mic_H50_0351_fot_34C-40420_E_tif
  70
32
  10
585536.500
  20
4625856.000
  30
1023.758
  0
VERTEX
  8
PNOA-H_AMS_1956-57_33k_ES_PAN_21mic_H50_0351_fot_34C-40420_E_tif
  70
32
  10
583423.500
  20
4625475.000
  30
1073.529
  0
VERTEX
  8
PNOA-H_AMS_1956-57_33k_ES_PAN_21mic_H50_0351_fot_34C-40420_E_tif
  70
32
  10
583423.392
  20
4625475.071
  30
1073.524
  0
VERTEX
  8
PNOA-H_AMS_1956-57_33k_ES_PAN_21mic_H50_0351_fot_34C-40420_E_tif
  70
32
  10
583423.006
  20
4625475.324
  30
1073.506
  0
VERTEX
  8
PNOA-H_AMS_1956-57_33k_ES_PAN_21mic_H50_0351_fot_34C-40420_E_tif
  70
32
  10
582980.500
  20
4625765.500
  30
1053.324
  0
VERTEX
  8
PNOA-H_AMS_1956-57_33k_ES_PAN_21mic_H50_0351_fot_34C-40420_E_tif
  70
32
  10
582961.000
  20
4629914.500
  30
1028.568
  0
VERTEX
  8
PNOA-H_AMS_1956-57_33k_ES_PAN_21mic_H50_0351_fot_34C-40420_E_tif
  70
32
  10
583172.265
  20
4629918.503
  30
1024.835
  0
VERTEX
  8
PNOA-H_AMS_1956-57_33k_ES_PAN_21mic_H50_0351_fot_34C-40420_E_tif
  70
32
  10
585494.000
  20
4629962.500
  30
983.803
  0
VERTEX
  8
PNOA-H_AMS_1956-57_33k_ES_PAN_21mic_H50_0351_fot_34C-40420_E_tif
  70
32
  10
585520.500
  20
4629963.000
  30
984.677
  0
VERTEX
  8
PNOA-H_AMS_1956-57_33k_ES_PAN_21mic_H50_0351_fot_34C-40420_E_tif
  70
32
  10
585531.500
  20
4629963.000
  30
985.085
  0
VERTEX
  8
PNOA-H_AMS_1956-57_33k_ES_PAN_21mic_H50_0351_fot_34C-40420_E_tif
  70
32
  10
585618.000
  20
4629917.500
  30
986.242
  0
VERTEX
  8
PNOA-H_AMS_1956-57_33k_ES_PAN_21mic_H50_0351_fot_34C-40420_E_tif
  70
32
  10
585617.990
  20
4629917.005
  30
986.247
  0
VERTEX
  8
PNOA-H_AMS_1956-57_33k_ES_PAN_21mic_H50_0351_fot_34C-40420_E_tif
  70
32
  10
585617.980
  20
4629916.514
  30
986.251
  0
VERTEX
  8
PNOA-H_AMS_1956-57_33k_ES_PAN_21mic_H50_0351_fot_34C-40420_E_tif
  70
32
  10
585536.500
  20
4625856.000
  30
1023.758
  0
SEQEND
  8
PNOA-H_AMS_1956-57_33k_ES_PAN_21mic_H50_0351_fot_34C-40420_E_tif
  0
INSERT
  8
FeatureAttribs
  2
FEATURE
  41
1
  42
1
  43
1
  50
0
  10
586860.900
  20
4627700.000
 66
1
  0
ATTRIB
  8
FeatureAttribs
 70
0
  1
PNOA-H_AMS_1956-57_33k_ES_PAN_21mic_H50_0351_fot_34C-40421_E.tif
  2
NAME
  10
586860.900
  20
4627700.000
 40
33.67449
  0
SEQEND
  0
POLYLINE
  8
PNOA-H_AMS_1956-57_33k_ES_PAN_21mic_H50_0351_fot_34C-40421_E_tif
  70
9
  66
1
  0
VERTEX
  8
PNOA-H_AMS_1956-57_33k_ES_PAN_21mic_H50_0351_fot_34C-40421_E_tif
  70
32
  10
586132.250
  20
4629901.417
  30
974.372
  0
VERTEX
  8
PNOA-H_AMS_1956-57_33k_ES_PAN_21mic_H50_0351_fot_34C-40421_E_tif
  70
32
  10
586177.500
  20
4629900.000
  30
973.267
  0
VERTEX
  8
PNOA-H_AMS_1956-57_33k_ES_PAN_21mic_H50_0351_fot_34C-40421_E_tif
  70
32
  10
586179.000
  20
4629900.000
  30
973.236
  0
VERTEX
  8
PNOA-H_AMS_1956-57_33k_ES_PAN_21mic_H50_0351_fot_34C-40421_E_tif
  70
32
  10
586188.000
  20
4629900.000
  30
973.052
  0
VERTEX
  8
PNOA-H_AMS_1956-57_33k_ES_PAN_21mic_H50_0351_fot_34C-40421_E_tif
  70
32
  10
588054.789
  20
4629843.158
  30
1022.611
  0
VERTEX
  8
PNOA-H_AMS_1956-57_33k_ES_PAN_21mic_H50_0351_fot_34C-40421_E_tif
  70
32
  10
588158.500
  20
4629840.000
  30
1025.364
  0
VERTEX
  8
PNOA-H_AMS_1956-57_33k_ES_PAN_21mic_H50_0351_fot_34C-40421_E_tif
  70
32
  10
588140.000
  20
4625866.000
  30
1126.329
  0
VERTEX
  8
PNOA-H_AMS_1956-57_33k_ES_PAN_21mic_H50_0351_fot_34C-40421_E_tif
  70
32
  10
588139.500
  20
4625828.000
  30
1129.205
  0
VERTEX
  8
PNOA-H_AMS_1956-57_33k_ES_PAN_21mic_H50_0351_fot_34C-40421_E_tif
  70
32
  10
588138.407
  20
4625827.727
  30
1129.306
  0
VERTEX
  8
PNOA-H_AMS_1956-57_33k_ES_PAN_21mic_H50_0351_fot_34C-40421_E_tif
  70
32
  10
588135.500
  20
4625827.000
  30
1129.576
  0
VERTEX
  8
PNOA-H_AMS_1956-57_33k_ES_PAN_21mic_H50_0351_fot_34C-40421_E_tif
  70
32
  10
586131.500
  20
4625483.000
  30
1055.758
  0
VERTEX
  8
PNOA-H_AMS_1956-57_33k_ES_PAN_21mic_H50_0351_fot_34C-40421_E_tif
  70
32
  10
586131.279
  20
4625483.138
  30
1055.746
  0
VERTEX
  8
PNOA-H_AMS_1956-57_33k_ES_PAN_21mic_H50_0351_fot_34C-40421_E_tif
  70
32
  10
586050.332
  20
4625533.868
  30
1051.366
  0
VERTEX
  8
PNOA-H_AMS_1956-57_33k_ES_PAN_21mic_H50_0351_fot_34C-40421_E_tif
  70
32
  10
585543.500
  20
4625851.500
  30
1023.942
  0
VERTEX
  8
PNOA-H_AMS_1956-57_33k_ES_PAN_21mic_H50_0351_fot_34C-40421_E_tif
  70
32
  10
585536.500
  20
4625856.000
  30
1023.758
  0
VERTEX
  8
PNOA-H_AMS_1956-57_33k_ES_PAN_21mic_H50_0351_fot_34C-40421_E_tif
  70
32
  10
585536.500
  20
4625858.000
  30
1023.797
  0
VERTEX
  8
PNOA-H_AMS_1956-57_33k_ES_PAN_21mic_H50_0351_fot_34C-40421_E_tif
  70
32
  10
585617.500
  20
4629916.500
  30
986.15
  0
VERTEX
  8
PNOA-H_AMS_1956-57_33k_ES_PAN_21mic_H50_0351_fot_34C-40421_E_tif
  70
32
  10
585617.980
  20
4629916.514
  30
986.161
  0
VERTEX
  8
PNOA-H_AMS_1956-57_33k_ES_PAN_21mic_H50_0351_fot_34C-40421_E_tif
  70
32
  10
585626.127
  20
4629916.754
  30
986.343
  0
VERTEX
  8
PNOA-H_AMS_1956-57_33k_ES_PAN_21mic_H50_0351_fot_34C-40421_E_tif
  70
32
  10
585634.500
  20
4629917.000
  30
986.531
  0
VERTEX
  8
PNOA-H_AMS_1956-57_33k_ES_PAN_21mic_H50_0351_fot_34C-40421_E_tif
  70
32
  10
586132.250
  20
4629901.417
  30
974.372
  0
SEQEND
  8
PNOA-H_AMS_1956-57_33k_ES_PAN_21mic_H50_0351_fot_34C-40421_E_tif
  0
INSERT
  8
FeatureAttribs
  2
FEATURE
  41
1
  42
1
  43
1
  50
0
  10
589393.298
  20
4627718.500
 66
1
  0
ATTRIB
  8
FeatureAttribs
 70
0
  1
PNOA-H_AMS_1956-57_33k_ES_PAN_21mic_H50_0351_fot_34C-40422_E.tif
  2
NAME
  10
589393.298
  20
4627718.500
 40
33.67449
  0
SEQEND
  0
POLYLINE
  8
PNOA-H_AMS_1956-57_33k_ES_PAN_21mic_H50_0351_fot_34C-40422_E_tif
  70
9
  66
1
  0
VERTEX
  8
PNOA-H_AMS_1956-57_33k_ES_PAN_21mic_H50_0351_fot_34C-40422_E_tif
  70
32
  10
588686.895
  20
4625479.067
  30
1193.019
  0
VERTEX
  8
PNOA-H_AMS_1956-57_33k_ES_PAN_21mic_H50_0351_fot_34C-40422_E_tif
  70
32
  10
588686.500
  20
4625479.000
  30
1192.956
  0
VERTEX
  8
PNOA-H_AMS_1956-57_33k_ES_PAN_21mic_H50_0351_fot_34C-40422_E_tif
  70
32
  10
588139.606
  20
4625827.932
  30
1129.217
  0
VERTEX
  8
PNOA-H_AMS_1956-57_33k_ES_PAN_21mic_H50_0351_fot_34C-40422_E_tif
  70
32
  10
588139.500
  20
4625828.000
  30
1129.205
  0
VERTEX
  8
PNOA-H_AMS_1956-57_33k_ES_PAN_21mic_H50_0351_fot_34C-40422_E_tif
  70
32
  10
588158.500
  20
4629840.000
  30
1025.364
  0
VERTEX
  8
PNOA-H_AMS_1956-57_33k_ES_PAN_21mic_H50_0351_fot_34C-40422_E_tif
  70
32
  10
588158.531
  20
4629840.014
  30
1025.364
  0
VERTEX
  8
PNOA-H_AMS_1956-57_33k_ES_PAN_21mic_H50_0351_fot_34C-40422_E_tif
  70
32
  10
588234.500
  20
4629875.000
  30
1024.489
  0
VERTEX
  8
PNOA-H_AMS_1956-57_33k_ES_PAN_21mic_H50_0351_fot_34C-40422_E_tif
  70
32
  10
588235.500
  20
4629875.500
  30
1024.381
  0
VERTEX
  8
PNOA-H_AMS_1956-57_33k_ES_PAN_21mic_H50_0351_fot_34C-40422_E_tif
  70
32
  10
588415.500
  20
4629957.772
  30
1019.432
  0
VERTEX
  8
PNOA-H_AMS_1956-57_33k_ES_PAN_21mic_H50_0351_fot_34C-40422_E_tif
  70
32
  10
588415.931
  20
4629957.969
  30
1019.42
  0
VERTEX
  8
PNOA-H_AMS_1956-57_33k_ES_PAN_21mic_H50_0351_fot_34C-40422_E_tif
  70
32
  10
588416.000
  20
4629958.000
  30
1019.418
  0
VERTEX
  8
PNOA-H_AMS_1956-57_33k_ES_PAN_21mic_H50_0351_fot_34C-40422_E_tif
  70
32
  10
590617.000
  20
4629797.500
  30
1126.283
  0
VERTEX
  8
PNOA-H_AMS_1956-57_33k_ES_PAN_21mic_H50_0351_fot_34C-40422_E_tif
  70
32
  10
590657.495
  20
4625815.499
  30
1507.075
  0
VERTEX
  8
PNOA-H_AMS_1956-57_33k_ES_PAN_21mic_H50_0351_fot_34C-40422_E_tif
  70
32
  10
590657.500
  20
4625815.000
  30
1507.123
  0
VERTEX
  8
PNOA-H_AMS_1956-57_33k_ES_PAN_21mic_H50_0351_fot_34C-40422_E_tif
  70
32
  10
588968.071
  20
4625527.000
  30
1237.837
  0
VERTEX
  8
PNOA-H_AMS_1956-57_33k_ES_PAN_21mic_H50_0351_fot_34C-40422_E_tif
  70
32
  10
588686.895
  20
4625479.067
  30
1193.019
  0
SEQEND
  8
PNOA-H_AMS_1956-57_33k_ES_PAN_21mic_H50_0351_fot_34C-40422_E_tif
  0
INSERT
  8
FeatureAttribs
  2
FEATURE
  41
1
  42
1
  43
1
  50
0
  10
594059.216
  20
4627767.500
 66
1
  0
ATTRIB
  8
FeatureAttribs
 70
0
  1
PNOA-H_AMS_1956-57_33k_ES_PAN_21mic_H50_0351_fot_34C-40424_E.tif
  2
NAME
  10
594059.216
  20
4627767.500
 40
33.67449
  0
SEQEND
  0
POLYLINE
  8
PNOA-H_AMS_1956-57_33k_ES_PAN_21mic_H50_0351_fot_34C-40424_E_tif
  70
9
  66
1
  0
VERTEX
  8
PNOA-H_AMS_1956-57_33k_ES_PAN_21mic_H50_0351_fot_34C-40424_E_tif
  70
32
  10
593667.993
  20
4629979.336
  30
1335.831
  0
VERTEX
  8
PNOA-H_AMS_1956-57_33k_ES_PAN_21mic_H50_0351_fot_34C-40424_E_tif
  70
32
  10
594378.500
  20
4629862.000
  30
1578.61
  0
VERTEX
  8
PNOA-H_AMS_1956-57_33k_ES_PAN_21mic_H50_0351_fot_34C-40424_E_tif
  70
32
  10
594379.458
  20
4629862.000
  30
1578.615
  0
VERTEX
  8
PNOA-H_AMS_1956-57_33k_ES_PAN_21mic_H50_0351_fot_34C-40424_E_tif
  70
32
  10
594380.000
  20
4629862.000
  30
1578.617
  0
VERTEX
  8
PNOA-H_AMS_1956-57_33k_ES_PAN_21mic_H50_0351_fot_34C-40424_E_tif
  70
32
  10
594653.675
  20
4629816.680
  30
1547.322
  0
VERTEX
  8
PNOA-H_AMS_1956-57_33k_ES_PAN_21mic_H50_0351_fot_34C-40424_E_tif
  70
32
  10
595159.000
  20
4629733.000
  30
1489.537
  0
VERTEX
  8
PNOA-H_AMS_1956-57_33k_ES_PAN_21mic_H50_0351_fot_34C-40424_E_tif
  70
32
  10
595097.000
  20
4625814.000
  30
1768.501
  0
VERTEX
  8
PNOA-H_AMS_1956-57_33k_ES_PAN_21mic_H50_0351_fot_34C-40424_E_tif
  70
32
  10
593482.000
  20
4625555.500
  30
1520.355
  0
VERTEX
  8
PNOA-H_AMS_1956-57_33k_ES_PAN_21mic_H50_0351_fot_34C-40424_E_tif
  70
32
  10
593481.889
  20
4625555.562
  30
1520.342
  0
VERTEX
  8
PNOA-H_AMS_1956-57_33k_ES_PAN_21mic_H50_0351_fot_34C-40424_E_tif
  70
32
  10
593481.501
  20
4625555.780
  30
1520.297
  0
VERTEX
  8
PNOA-H_AMS_1956-57_33k_ES_PAN_21mic_H50_0351_fot_34C-40424_E_tif
  70
32
  10
592958.500
  20
4625850.000
  30
1459.013
  0
VERTEX
  8
PNOA-H_AMS_1956-57_33k_ES_PAN_21mic_H50_0351_fot_34C-40424_E_tif
  70
32
  10
593024.000
  20
4629771.500
  30
1444.842
  0
VERTEX
  8
PNOA-H_AMS_1956-57_33k_ES_PAN_21mic_H50_0351_fot_34C-40424_E_tif
  70
32
  10
593024.374
  20
4629771.621
  30
1444.778
  0
VERTEX
  8
PNOA-H_AMS_1956-57_33k_ES_PAN_21mic_H50_0351_fot_34C-40424_E_tif
  70
32
  10
593667.000
  20
4629979.500
  30
1335.492
  0
VERTEX
  8
PNOA-H_AMS_1956-57_33k_ES_PAN_21mic_H50_0351_fot_34C-40424_E_tif
  70
32
  10
593667.993
  20
4629979.336
  30
1335.831
  0
SEQEND
  8
PNOA-H_AMS_1956-57_33k_ES_PAN_21mic_H50_0351_fot_34C-40424_E_tif
  0
INSERT
  8
FeatureAttribs
  2
FEATURE
  41
1
  42
1
  43
1
  50
0
  10
591814.190
  20
4627759.750
 66
1
  0
ATTRIB
  8
FeatureAttribs
 70
0
  1
PNOA-H_AMS_1956-57_33k_ES_PAN_21mic_H50_0351_fot_34C-40423_E.tif
  2
NAME
  10
591814.190
  20
4627759.750
 40
33.67449
  0
SEQEND
  0
POLYLINE
  8
PNOA-H_AMS_1956-57_33k_ES_PAN_21mic_H50_0351_fot_34C-40423_E_tif
  70
9
  66
1
  0
VERTEX
  8
PNOA-H_AMS_1956-57_33k_ES_PAN_21mic_H50_0351_fot_34C-40423_E_tif
  70
32
  10
591085.891
  20
4629979.958
  30
1170.697
  0
VERTEX
  8
PNOA-H_AMS_1956-57_33k_ES_PAN_21mic_H50_0351_fot_34C-40423_E_tif
  70
32
  10
592327.500
  20
4629846.000
  30
1342.626
  0
VERTEX
  8
PNOA-H_AMS_1956-57_33k_ES_PAN_21mic_H50_0351_fot_34C-40423_E_tif
  70
32
  10
592332.000
  20
4629846.000
  30
1343.114
  0
VERTEX
  8
PNOA-H_AMS_1956-57_33k_ES_PAN_21mic_H50_0351_fot_34C-40423_E_tif
  70
32
  10
593024.000
  20
4629771.500
  30
1444.842
  0
VERTEX
  8
PNOA-H_AMS_1956-57_33k_ES_PAN_21mic_H50_0351_fot_34C-40423_E_tif
  70
32
  10
592958.500
  20
4625850.000
  30
1459.013
  0
VERTEX
  8
PNOA-H_AMS_1956-57_33k_ES_PAN_21mic_H50_0351_fot_34C-40423_E_tif
  70
32
  10
591130.500
  20
4625539.500
  30
1374.852
  0
VERTEX
  8
PNOA-H_AMS_1956-57_33k_ES_PAN_21mic_H50_0351_fot_34C-40423_E_tif
  70
32
  10
591127.500
  20
4625539.500
  30
1374.915
  0
VERTEX
  8
PNOA-H_AMS_1956-57_33k_ES_PAN_21mic_H50_0351_fot_34C-40423_E_tif
  70
32
  10
591127.000
  20
4625539.500
  30
1374.925
  0
VERTEX
  8
PNOA-H_AMS_1956-57_33k_ES_PAN_21mic_H50_0351_fot_34C-40423_E_tif
  70
32
  10
591124.000
  20
4625541.000
  30
1375.383
  0
VERTEX
  8
PNOA-H_AMS_1956-57_33k_ES_PAN_21mic_H50_0351_fot_34C-40423_E_tif
  70
32
  10
590658.000
  20
4625815.000
  30
1507.048
  0
VERTEX
  8
PNOA-H_AMS_1956-57_33k_ES_PAN_21mic_H50_0351_fot_34C-40423_E_tif
  70
32
  10
590657.998
  20
4625815.208
  30
1507.029
  0
VERTEX
  8
PNOA-H_AMS_1956-57_33k_ES_PAN_21mic_H50_0351_fot_34C-40423_E_tif
  70
32
  10
590617.005
  20
4629797.502
  30
1126.27
  0
VERTEX
  8
PNOA-H_AMS_1956-57_33k_ES_PAN_21mic_H50_0351_fot_34C-40423_E_tif
  70
32
  10
590617.000
  20
4629798.000
  30
1126.222
  0
VERTEX
  8
PNOA-H_AMS_1956-57_33k_ES_PAN_21mic_H50_0351_fot_34C-40423_E_tif
  70
32
  10
591085.500
  20
4629980.000
  30
1170.642
  0
VERTEX
  8
PNOA-H_AMS_1956-57_33k_ES_PAN_21mic_H50_0351_fot_34C-40423_E_tif
  70
32
  10
591085.891
  20
4629979.958
  30
1170.697
  0
SEQEND
  8
PNOA-H_AMS_1956-57_33k_ES_PAN_21mic_H50_0351_fot_34C-40423_E_tif
  0
INSERT
  8
FeatureAttribs
  2
FEATURE
  41
1
  42
1
  43
1
  50
0
  10
595163.079
  20
4627742.544
 66
1
  0
ATTRIB
  8
FeatureAttribs
 70
0
  1
PNOA-H_AMS_1956-57_33k_ES_PAN_21mic_H50_0352_fot_34C-40425_E.tif
  2
NAME
  10
595163.079
  20
4627742.544
 40
33.67449
  0
SEQEND
  0
POLYLINE
  8
PNOA-H_AMS_1956-57_33k_ES_PAN_21mic_H50_0352_fot_34C-40425_E_tif
  70
9
  66
1
  0
VERTEX
  8
PNOA-H_AMS_1956-57_33k_ES_PAN_21mic_H50_0352_fot_34C-40425_E_tif
  70
32
  10
595225.208
  20
4625749.679
  30
0
  0
VERTEX
  8
PNOA-H_AMS_1956-57_33k_ES_PAN_21mic_H50_0352_fot_34C-40425_E_tif
  70
32
  10
595225.215
  20
4625749.214
  30
1826.424
  0
VERTEX
  8
PNOA-H_AMS_1956-57_33k_ES_PAN_21mic_H50_0352_fot_34C-40425_E_tif
  70
32
  10
595097.000
  20
4625814.000
  30
1768.501
  0
VERTEX
  8
PNOA-H_AMS_1956-57_33k_ES_PAN_21mic_H50_0352_fot_34C-40425_E_tif
  70
32
  10
595159.000
  20
4629733.000
  30
1489.537
  0
VERTEX
  8
PNOA-H_AMS_1956-57_33k_ES_PAN_21mic_H50_0352_fot_34C-40425_E_tif
  70
32
  10
595159.429
  20
4629733.094
  30
1489.419
  0
VERTEX
  8
PNOA-H_AMS_1956-57_33k_ES_PAN_21mic_H50_0352_fot_34C-40425_E_tif
  70
32
  10
595172.072
  20
4629735.874
  30
1485.96
  0
VERTEX
  8
PNOA-H_AMS_1956-57_33k_ES_PAN_21mic_H50_0352_fot_34C-40425_E_tif
  70
32
  10
595172.075
  20
4629735.654
  30
0
  0
VERTEX
  8
PNOA-H_AMS_1956-57_33k_ES_PAN_21mic_H50_0352_fot_34C-40425_E_tif
  70
32
  10
595173.975
  20
4629593.175
  30
0
  0
VERTEX
  8
PNOA-H_AMS_1956-57_33k_ES_PAN_21mic_H50_0352_fot_34C-40425_E_tif
  70
32
  10
595204.813
  20
4627280.102
  30
0
  0
VERTEX
  8
PNOA-H_AMS_1956-57_33k_ES_PAN_21mic_H50_0352_fot_34C-40425_E_tif
  70
32
  10
595225.208
  20
4625749.679
  30
0
  0
SEQEND
  8
PNOA-H_AMS_1956-57_33k_ES_PAN_21mic_H50_0352_fot_34C-40425_E_tif
  0
INSERT
  8
FeatureAttribs
  2
FEATURE
  41
1
  42
1
  43
1
  50
0
  10
568150.615
  20
4614768.665
 66
1
  0
ATTRIB
  8
FeatureAttribs
 70
0
  1
PNOA-H_AMS_1956-57_33k_ES_PAN_21mic_H50_0350_fot_39008.tif
  2
NAME
  10
568150.615
  20
4614768.665
 40
33.67449
  0
SEQEND
  0
POLYLINE
  8
PNOA-H_AMS_1956-57_33k_ES_PAN_21mic_H50_0350_fot_39008_tif
  70
9
  66
1
  0
VERTEX
  8
PNOA-H_AMS_1956-57_33k_ES_PAN_21mic_H50_0350_fot_39008_tif
  70
32
  10
567607.887
  20
4616450.804
  30
1067.827
  0
VERTEX
  8
PNOA-H_AMS_1956-57_33k_ES_PAN_21mic_H50_0350_fot_39008_tif
  70
32
  10
567754.500
  20
4616411.000
  30
1070.301
  0
VERTEX
  8
PNOA-H_AMS_1956-57_33k_ES_PAN_21mic_H50_0350_fot_39008_tif
  70
32
  10
567755.418
  20
4616411.000
  30
1070.323
  0
VERTEX
  8
PNOA-H_AMS_1956-57_33k_ES_PAN_21mic_H50_0350_fot_39008_tif
  70
32
  10
567756.000
  20
4616411.000
  30
1070.337
  0
VERTEX
  8
PNOA-H_AMS_1956-57_33k_ES_PAN_21mic_H50_0350_fot_39008_tif
  70
32
  10
568252.905
  20
4616276.018
  30
1053.783
  0
VERTEX
  8
PNOA-H_AMS_1956-57_33k_ES_PAN_21mic_H50_0350_fot_39008_tif
  70
32
  10
568680.000
  20
4616160.000
  30
1039.554
  0
VERTEX
  8
PNOA-H_AMS_1956-57_33k_ES_PAN_21mic_H50_0350_fot_39008_tif
  70
32
  10
568674.443
  20
4613096.533
  30
1010.79
  0
VERTEX
  8
PNOA-H_AMS_1956-57_33k_ES_PAN_21mic_H50_0350_fot_39008_tif
  70
32
  10
567639.616
  20
4613086.527
  30
0
  0
VERTEX
  8
PNOA-H_AMS_1956-57_33k_ES_PAN_21mic_H50_0350_fot_39008_tif
  70
32
  10
567617.804
  20
4615399.525
  30
0
  0
VERTEX
  8
PNOA-H_AMS_1956-57_33k_ES_PAN_21mic_H50_0350_fot_39008_tif
  70
32
  10
567607.887
  20
4616450.804
  30
1067.827
  0
SEQEND
  8
PNOA-H_AMS_1956-57_33k_ES_PAN_21mic_H50_0350_fot_39008_tif
  0
INSERT
  8
FeatureAttribs
  2
FEATURE
  41
1
  42
1
  43
1
  50
0
  10
575447.991
  20
4614934.522
 66
1
  0
ATTRIB
  8
FeatureAttribs
 70
0
  1
PNOA-H_AMS_1956-57_33k_ES_PAN_21mic_H50_0351_fot_39011.tif
  2
NAME
  10
575447.991
  20
4614934.522
 40
33.67449
  0
SEQEND
  0
POLYLINE
  8
PNOA-H_AMS_1956-57_33k_ES_PAN_21mic_H50_0351_fot_39011_tif
  70
9
  66
1
  0
VERTEX
  8
PNOA-H_AMS_1956-57_33k_ES_PAN_21mic_H50_0351_fot_39011_tif
  70
32
  10
574159.315
  20
4613151.046
  30
1055.469
  0
VERTEX
  8
PNOA-H_AMS_1956-57_33k_ES_PAN_21mic_H50_0351_fot_39011_tif
  70
32
  10
574159.048
  20
4613151.043
  30
1055.572
  0
VERTEX
  8
PNOA-H_AMS_1956-57_33k_ES_PAN_21mic_H50_0351_fot_39011_tif
  70
32
  10
574023.500
  20
4616384.500
  30
1025.165
  0
VERTEX
  8
PNOA-H_AMS_1956-57_33k_ES_PAN_21mic_H50_0351_fot_39011_tif
  70
32
  10
576377.000
  20
4616717.500
  30
1043.284
  0
VERTEX
  8
PNOA-H_AMS_1956-57_33k_ES_PAN_21mic_H50_0351_fot_39011_tif
  70
32
  10
576381.000
  20
4616718.000
  30
1043.336
  0
VERTEX
  8
PNOA-H_AMS_1956-57_33k_ES_PAN_21mic_H50_0351_fot_39011_tif
  70
32
  10
576382.036
  20
4616717.793
  30
1043.332
  0
VERTEX
  8
PNOA-H_AMS_1956-57_33k_ES_PAN_21mic_H50_0351_fot_39011_tif
  70
32
  10
576384.941
  20
4616717.212
  30
1043.322
  0
VERTEX
  8
PNOA-H_AMS_1956-57_33k_ES_PAN_21mic_H50_0351_fot_39011_tif
  70
32
  10
576386.000
  20
4616717.000
  30
1043.318
  0
VERTEX
  8
PNOA-H_AMS_1956-57_33k_ES_PAN_21mic_H50_0351_fot_39011_tif
  70
32
  10
576725.906
  20
4616531.098
  30
1037.092
  0
VERTEX
  8
PNOA-H_AMS_1956-57_33k_ES_PAN_21mic_H50_0351_fot_39011_tif
  70
32
  10
576727.000
  20
4616530.500
  30
1037.072
  0
VERTEX
  8
PNOA-H_AMS_1956-57_33k_ES_PAN_21mic_H50_0351_fot_39011_tif
  70
32
  10
576904.809
  20
4613180.047
  30
1046.675
  0
VERTEX
  8
PNOA-H_AMS_1956-57_33k_ES_PAN_21mic_H50_0351_fot_39011_tif
  70
32
  10
576904.465
  20
4613180.044
  30
1046.706
  0
VERTEX
  8
PNOA-H_AMS_1956-57_33k_ES_PAN_21mic_H50_0351_fot_39011_tif
  70
32
  10
574577.076
  20
4613155.287
  30
0
  0
VERTEX
  8
PNOA-H_AMS_1956-57_33k_ES_PAN_21mic_H50_0351_fot_39011_tif
  70
32
  10
574159.315
  20
4613151.046
  30
1055.469
  0
SEQEND
  8
PNOA-H_AMS_1956-57_33k_ES_PAN_21mic_H50_0351_fot_39011_tif
  0
INSERT
  8
FeatureAttribs
  2
FEATURE
  41
1
  42
1
  43
1
  50
0
  10
570024.159
  20
4614884.267
 66
1
  0
ATTRIB
  8
FeatureAttribs
 70
0
  1
PNOA-H_AMS_1956-57_33k_ES_PAN_21mic_H50_0351_fot_39009.tif
  2
NAME
  10
570024.159
  20
4614884.267
 40
33.67449
  0
SEQEND
  0
POLYLINE
  8
PNOA-H_AMS_1956-57_33k_ES_PAN_21mic_H50_0351_fot_39009_tif
  70
9
  66
1
  0
VERTEX
  8
PNOA-H_AMS_1956-57_33k_ES_PAN_21mic_H50_0351_fot_39009_tif
  70
32
  10
571108.343
  20
4613120.068
  30
0
  0
VERTEX
  8
PNOA-H_AMS_1956-57_33k_ES_PAN_21mic_H50_0351_fot_39009_tif
  70
32
  10
568674.443
  20
4613096.533
  30
1010.79
  0
VERTEX
  8
PNOA-H_AMS_1956-57_33k_ES_PAN_21mic_H50_0351_fot_39009_tif
  70
32
  10
568680.000
  20
4616160.000
  30
1039.554
  0
VERTEX
  8
PNOA-H_AMS_1956-57_33k_ES_PAN_21mic_H50_0351_fot_39009_tif
  70
32
  10
568680.218
  20
4616160.077
  30
1039.554
  0
VERTEX
  8
PNOA-H_AMS_1956-57_33k_ES_PAN_21mic_H50_0351_fot_39009_tif
  70
32
  10
570132.500
  20
4616671.500
  30
1040.555
  0
VERTEX
  8
PNOA-H_AMS_1956-57_33k_ES_PAN_21mic_H50_0351_fot_39009_tif
  70
32
  10
570133.983
  20
4616671.994
  30
1040.573
  0
VERTEX
  8
PNOA-H_AMS_1956-57_33k_ES_PAN_21mic_H50_0351_fot_39009_tif
  70
32
  10
570134.000
  20
4616672.000
  30
1040.574
  0
VERTEX
  8
PNOA-H_AMS_1956-57_33k_ES_PAN_21mic_H50_0351_fot_39009_tif
  70
32
  10
570456.526
  20
4616553.879
  30
1049.562
  0
VERTEX
  8
PNOA-H_AMS_1956-57_33k_ES_PAN_21mic_H50_0351_fot_39009_tif
  70
32
  10
571333.685
  20
4616232.630
  30
1074.006
  0
VERTEX
  8
PNOA-H_AMS_1956-57_33k_ES_PAN_21mic_H50_0351_fot_39009_tif
  70
32
  10
571339.500
  20
4616230.500
  30
1074.168
  0
VERTEX
  8
PNOA-H_AMS_1956-57_33k_ES_PAN_21mic_H50_0351_fot_39009_tif
  70
32
  10
571411.359
  20
4613123.145
  30
1098.787
  0
VERTEX
  8
PNOA-H_AMS_1956-57_33k_ES_PAN_21mic_H50_0351_fot_39009_tif
  70
32
  10
571411.351
  20
4613123.145
  30
1098.786
  0
VERTEX
  8
PNOA-H_AMS_1956-57_33k_ES_PAN_21mic_H50_0351_fot_39009_tif
  70
32
  10
571108.343
  20
4613120.068
  30
0
  0
SEQEND
  8
PNOA-H_AMS_1956-57_33k_ES_PAN_21mic_H50_0351_fot_39009_tif
  0
INSERT
  8
FeatureAttribs
  2
FEATURE
  41
1
  42
1
  43
1
  50
0
  10
572727.169
  20
4614927.322
 66
1
  0
ATTRIB
  8
FeatureAttribs
 70
0
  1
PNOA-H_AMS_1956-57_33k_ES_PAN_21mic_H50_0351_fot_39010.tif
  2
NAME
  10
572727.169
  20
4614927.322
 40
33.67449
  0
SEQEND
  0
POLYLINE
  8
PNOA-H_AMS_1956-57_33k_ES_PAN_21mic_H50_0351_fot_39010_tif
  70
9
  66
1
  0
VERTEX
  8
PNOA-H_AMS_1956-57_33k_ES_PAN_21mic_H50_0351_fot_39010_tif
  70
32
  10
571411.359
  20
4613123.145
  30
0
  0
VERTEX
  8
PNOA-H_AMS_1956-57_33k_ES_PAN_21mic_H50_0351_fot_39010_tif
  70
32
  10
571411.351
  20
4613123.145
  30
1098.749
  0
VERTEX
  8
PNOA-H_AMS_1956-57_33k_ES_PAN_21mic_H50_0351_fot_39010_tif
  70
32
  10
571339.500
  20
4616230.500
  30
1074.168
  0
VERTEX
  8
PNOA-H_AMS_1956-57_33k_ES_PAN_21mic_H50_0351_fot_39010_tif
  70
32
  10
571340.049
  20
4616230.641
  30
1074.227
  0
VERTEX
  8
PNOA-H_AMS_1956-57_33k_ES_PAN_21mic_H50_0351_fot_39010_tif
  70
32
  10
571849.500
  20
4616361.500
  30
1128.956
  0
VERTEX
  8
PNOA-H_AMS_1956-57_33k_ES_PAN_21mic_H50_0351_fot_39010_tif
  70
32
  10
571851.500
  20
4616362.000
  30
1128.883
  0
VERTEX
  8
PNOA-H_AMS_1956-57_33k_ES_PAN_21mic_H50_0351_fot_39010_tif
  70
32
  10
573291.500
  20
4616731.500
  30
1012.144
  0
VERTEX
  8
PNOA-H_AMS_1956-57_33k_ES_PAN_21mic_H50_0351_fot_39010_tif
  70
32
  10
573291.886
  20
4616731.343
  30
1012.144
  0
VERTEX
  8
PNOA-H_AMS_1956-57_33k_ES_PAN_21mic_H50_0351_fot_39010_tif
  70
32
  10
573294.274
  20
4616730.370
  30
1012.15
  0
VERTEX
  8
PNOA-H_AMS_1956-57_33k_ES_PAN_21mic_H50_0351_fot_39010_tif
  70
32
  10
573305.000
  20
4616726.000
  30
1012.174
  0
VERTEX
  8
PNOA-H_AMS_1956-57_33k_ES_PAN_21mic_H50_0351_fot_39010_tif
  70
32
  10
574023.500
  20
4616384.500
  30
1025.165
  0
VERTEX
  8
PNOA-H_AMS_1956-57_33k_ES_PAN_21mic_H50_0351_fot_39010_tif
  70
32
  10
574159.315
  20
4613151.046
  30
1055.384
  0
VERTEX
  8
PNOA-H_AMS_1956-57_33k_ES_PAN_21mic_H50_0351_fot_39010_tif
  70
32
  10
574159.048
  20
4613151.043
  30
0
  0
VERTEX
  8
PNOA-H_AMS_1956-57_33k_ES_PAN_21mic_H50_0351_fot_39010_tif
  70
32
  10
571411.359
  20
4613123.145
  30
0
  0
SEQEND
  8
PNOA-H_AMS_1956-57_33k_ES_PAN_21mic_H50_0351_fot_39010_tif
  0
INSERT
  8
FeatureAttribs
  2
FEATURE
  41
1
  42
1
  43
1
  50
0
  10
577802.218
  20
4618993.750
 66
1
  0
ATTRIB
  8
FeatureAttribs
 70
0
  1
PNOA-H_AMS_1956-57_33k_ES_PAN_21mic_H50_0351_fot_37230.tif
  2
NAME
  10
577802.218
  20
4618993.750
 40
33.67449
  0
SEQEND
  0
POLYLINE
  8
PNOA-H_AMS_1956-57_33k_ES_PAN_21mic_H50_0351_fot_37230_tif
  70
9
  66
1
  0
VERTEX
  8
PNOA-H_AMS_1956-57_33k_ES_PAN_21mic_H50_0351_fot_37230_tif
  70
32
  10
579308.000
  20
4616750.000
  30
1056.249
  0
VERTEX
  8
PNOA-H_AMS_1956-57_33k_ES_PAN_21mic_H50_0351_fot_37230_tif
  70
32
  10
576728.000
  20
4616530.500
  30
1037.093
  0
VERTEX
  8
PNOA-H_AMS_1956-57_33k_ES_PAN_21mic_H50_0351_fot_37230_tif
  70
32
  10
576727.770
  20
4616530.566
  30
1037.089
  0
VERTEX
  8
PNOA-H_AMS_1956-57_33k_ES_PAN_21mic_H50_0351_fot_37230_tif
  70
32
  10
576725.906
  20
4616531.098
  30
1037.058
  0
VERTEX
  8
PNOA-H_AMS_1956-57_33k_ES_PAN_21mic_H50_0351_fot_37230_tif
  70
32
  10
576724.500
  20
4616531.500
  30
1037.034
  0
VERTEX
  8
PNOA-H_AMS_1956-57_33k_ES_PAN_21mic_H50_0351_fot_37230_tif
  70
32
  10
576384.941
  20
4616717.212
  30
1043.322
  0
VERTEX
  8
PNOA-H_AMS_1956-57_33k_ES_PAN_21mic_H50_0351_fot_37230_tif
  70
32
  10
576383.500
  20
4616718.000
  30
1043.349
  0
VERTEX
  8
PNOA-H_AMS_1956-57_33k_ES_PAN_21mic_H50_0351_fot_37230_tif
  70
32
  10
576315.000
  20
4621129.000
  30
1065.757
  0
VERTEX
  8
PNOA-H_AMS_1956-57_33k_ES_PAN_21mic_H50_0351_fot_37230_tif
  70
32
  10
576316.070
  20
4621129.169
  30
1065.76
  0
VERTEX
  8
PNOA-H_AMS_1956-57_33k_ES_PAN_21mic_H50_0351_fot_37230_tif
  70
32
  10
578386.000
  20
4621456.500
  30
1069.885
  0
VERTEX
  8
PNOA-H_AMS_1956-57_33k_ES_PAN_21mic_H50_0351_fot_37230_tif
  70
32
  10
578389.000
  20
4621457.000
  30
1069.949
  0
VERTEX
  8
PNOA-H_AMS_1956-57_33k_ES_PAN_21mic_H50_0351_fot_37230_tif
  70
32
  10
578391.500
  20
4621457.000
  30
1069.997
  0
VERTEX
  8
PNOA-H_AMS_1956-57_33k_ES_PAN_21mic_H50_0351_fot_37230_tif
  70
32
  10
578393.000
  20
4621457.000
  30
1070.026
  0
VERTEX
  8
PNOA-H_AMS_1956-57_33k_ES_PAN_21mic_H50_0351_fot_37230_tif
  70
32
  10
578404.000
  20
4621453.500
  30
1070.216
  0
VERTEX
  8
PNOA-H_AMS_1956-57_33k_ES_PAN_21mic_H50_0351_fot_37230_tif
  70
32
  10
579204.705
  20
4621196.755
  30
1087.141
  0
VERTEX
  8
PNOA-H_AMS_1956-57_33k_ES_PAN_21mic_H50_0351_fot_37230_tif
  70
32
  10
579205.500
  20
4621196.500
  30
1087.158
  0
VERTEX
  8
PNOA-H_AMS_1956-57_33k_ES_PAN_21mic_H50_0351_fot_37230_tif
  70
32
  10
579308.000
  20
4616750.000
  30
1056.249
  0
SEQEND
  8
PNOA-H_AMS_1956-57_33k_ES_PAN_21mic_H50_0351_fot_37230_tif
  0
INSERT
  8
FeatureAttribs
  2
FEATURE
  41
1
  42
1
  43
1
  50
0
  10
580677.361
  20
4619126.750
 66
1
  0
ATTRIB
  8
FeatureAttribs
 70
0
  1
PNOA-H_AMS_1956-57_33k_ES_PAN_21mic_H50_0351_fot_37231.tif
  2
NAME
  10
580677.361
  20
4619126.750
 40
33.67449
  0
SEQEND
  0
POLYLINE
  8
PNOA-H_AMS_1956-57_33k_ES_PAN_21mic_H50_0351_fot_37231_tif
  70
9
  66
1
  0
VERTEX
  8
PNOA-H_AMS_1956-57_33k_ES_PAN_21mic_H50_0351_fot_37231_tif
  70
32
  10
582042.500
  20
4616816.978
  30
1092.341
  0
VERTEX
  8
PNOA-H_AMS_1956-57_33k_ES_PAN_21mic_H50_0351_fot_37231_tif
  70
32
  10
579394.500
  20
4616702.000
  30
1056.987
  0
VERTEX
  8
PNOA-H_AMS_1956-57_33k_ES_PAN_21mic_H50_0351_fot_37231_tif
  70
32
  10
579393.651
  20
4616702.094
  30
1056.977
  0
VERTEX
  8
PNOA-H_AMS_1956-57_33k_ES_PAN_21mic_H50_0351_fot_37231_tif
  70
32
  10
579390.978
  20
4616702.391
  30
1056.946
  0
VERTEX
  8
PNOA-H_AMS_1956-57_33k_ES_PAN_21mic_H50_0351_fot_37231_tif
  70
32
  10
579390.000
  20
4616702.500
  30
1056.935
  0
VERTEX
  8
PNOA-H_AMS_1956-57_33k_ES_PAN_21mic_H50_0351_fot_37231_tif
  70
32
  10
579308.000
  20
4616750.000
  30
1056.249
  0
VERTEX
  8
PNOA-H_AMS_1956-57_33k_ES_PAN_21mic_H50_0351_fot_37231_tif
  70
32
  10
579205.500
  20
4621196.500
  30
1087.158
  0
VERTEX
  8
PNOA-H_AMS_1956-57_33k_ES_PAN_21mic_H50_0351_fot_37231_tif
  70
32
  10
579205.998
  20
4621196.611
  30
1087.176
  0
VERTEX
  8
PNOA-H_AMS_1956-57_33k_ES_PAN_21mic_H50_0351_fot_37231_tif
  70
32
  10
580040.500
  20
4621383.000
  30
1117.319
  0
VERTEX
  8
PNOA-H_AMS_1956-57_33k_ES_PAN_21mic_H50_0351_fot_37231_tif
  70
32
  10
580042.500
  20
4621383.500
  30
1117.655
  0
VERTEX
  8
PNOA-H_AMS_1956-57_33k_ES_PAN_21mic_H50_0351_fot_37231_tif
  70
32
  10
580795.500
  20
4621551.500
  30
1171.903
  0
VERTEX
  8
PNOA-H_AMS_1956-57_33k_ES_PAN_21mic_H50_0351_fot_37231_tif
  70
32
  10
580798.000
  20
4621551.500
  30
1171.75
  0
VERTEX
  8
PNOA-H_AMS_1956-57_33k_ES_PAN_21mic_H50_0351_fot_37231_tif
  70
32
  10
580800.000
  20
4621551.500
  30
1171.627
  0
VERTEX
  8
PNOA-H_AMS_1956-57_33k_ES_PAN_21mic_H50_0351_fot_37231_tif
  70
32
  10
581987.500
  20
4621227.000
  30
1169.271
  0
VERTEX
  8
PNOA-H_AMS_1956-57_33k_ES_PAN_21mic_H50_0351_fot_37231_tif
  70
32
  10
581987.520
  20
4621226.631
  30
1169.265
  0
VERTEX
  8
PNOA-H_AMS_1956-57_33k_ES_PAN_21mic_H50_0351_fot_37231_tif
  70
32
  10
581987.526
  20
4621226.513
  30
1169.263
  0
VERTEX
  8
PNOA-H_AMS_1956-57_33k_ES_PAN_21mic_H50_0351_fot_37231_tif
  70
32
  10
582220.000
  20
4616944.000
  30
1097.032
  0
VERTEX
  8
PNOA-H_AMS_1956-57_33k_ES_PAN_21mic_H50_0351_fot_37231_tif
  70
32
  10
582219.953
  20
4616943.860
  30
1097.051
  0
VERTEX
  8
PNOA-H_AMS_1956-57_33k_ES_PAN_21mic_H50_0351_fot_37231_tif
  70
32
  10
582219.666
  20
4616942.997
  30
1097.163
  0
VERTEX
  8
PNOA-H_AMS_1956-57_33k_ES_PAN_21mic_H50_0351_fot_37231_tif
  70
32
  10
582219.500
  20
4616942.500
  30
1097.229
  0
VERTEX
  8
PNOA-H_AMS_1956-57_33k_ES_PAN_21mic_H50_0351_fot_37231_tif
  70
32
  10
582043.000
  20
4616817.000
  30
1092.347
  0
VERTEX
  8
PNOA-H_AMS_1956-57_33k_ES_PAN_21mic_H50_0351_fot_37231_tif
  70
32
  10
582042.500
  20
4616816.978
  30
1092.341
  0
SEQEND
  8
PNOA-H_AMS_1956-57_33k_ES_PAN_21mic_H50_0351_fot_37231_tif
  0
INSERT
  8
FeatureAttribs
  2
FEATURE
  41
1
  42
1
  43
1
  50
0
  10
579551.002
  20
4623500.500
 66
1
  0
ATTRIB
  8
FeatureAttribs
 70
0
  1
PNOA-H_AMS_1956-57_33k_ES_PAN_21mic_H50_0351_fot_40473.tif
  2
NAME
  10
579551.002
  20
4623500.500
 40
33.67449
  0
SEQEND
  0
POLYLINE
  8
PNOA-H_AMS_1956-57_33k_ES_PAN_21mic_H50_0351_fot_40473_tif
  70
9
  66
1
  0
VERTEX
  8
PNOA-H_AMS_1956-57_33k_ES_PAN_21mic_H50_0351_fot_40473_tif
  70
32
  10
580798.000
  20
4621551.500
  30
1171.749
  0
VERTEX
  8
PNOA-H_AMS_1956-57_33k_ES_PAN_21mic_H50_0351_fot_40473_tif
  70
32
  10
579207.000
  20
4621196.500
  30
1087.189
  0
VERTEX
  8
PNOA-H_AMS_1956-57_33k_ES_PAN_21mic_H50_0351_fot_40473_tif
  70
32
  10
579205.998
  20
4621196.611
  30
1087.169
  0
VERTEX
  8
PNOA-H_AMS_1956-57_33k_ES_PAN_21mic_H50_0351_fot_40473_tif
  70
32
  10
579204.705
  20
4621196.755
  30
1087.144
  0
VERTEX
  8
PNOA-H_AMS_1956-57_33k_ES_PAN_21mic_H50_0351_fot_40473_tif
  70
32
  10
579202.500
  20
4621197.000
  30
1087.101
  0
VERTEX
  8
PNOA-H_AMS_1956-57_33k_ES_PAN_21mic_H50_0351_fot_40473_tif
  70
32
  10
578391.500
  20
4621457.000
  30
1069.997
  0
VERTEX
  8
PNOA-H_AMS_1956-57_33k_ES_PAN_21mic_H50_0351_fot_40473_tif
  70
32
  10
578211.500
  20
4625468.500
  30
1165.065
  0
VERTEX
  8
PNOA-H_AMS_1956-57_33k_ES_PAN_21mic_H50_0351_fot_40473_tif
  70
32
  10
578213.031
  20
4625468.742
  30
1165.034
  0
VERTEX
  8
PNOA-H_AMS_1956-57_33k_ES_PAN_21mic_H50_0351_fot_40473_tif
  70
32
  10
580332.500
  20
4625804.000
  30
1121.409
  0
VERTEX
  8
PNOA-H_AMS_1956-57_33k_ES_PAN_21mic_H50_0351_fot_40473_tif
  70
32
  10
580335.500
  20
4625804.500
  30
1120.625
  0
VERTEX
  8
PNOA-H_AMS_1956-57_33k_ES_PAN_21mic_H50_0351_fot_40473_tif
  70
32
  10
580335.598
  20
4625804.436
  30
1120.63
  0
VERTEX
  8
PNOA-H_AMS_1956-57_33k_ES_PAN_21mic_H50_0351_fot_40473_tif
  70
32
  10
580336.000
  20
4625804.175
  30
1120.65
  0
VERTEX
  8
PNOA-H_AMS_1956-57_33k_ES_PAN_21mic_H50_0351_fot_40473_tif
  70
32
  10
580805.904
  20
4625498.887
  30
1143.948
  0
VERTEX
  8
PNOA-H_AMS_1956-57_33k_ES_PAN_21mic_H50_0351_fot_40473_tif
  70
32
  10
580806.500
  20
4625498.500
  30
1143.978
  0
VERTEX
  8
PNOA-H_AMS_1956-57_33k_ES_PAN_21mic_H50_0351_fot_40473_tif
  70
32
  10
580798.000
  20
4621551.500
  30
1171.749
  0
SEQEND
  8
PNOA-H_AMS_1956-57_33k_ES_PAN_21mic_H50_0351_fot_40473_tif
  0
INSERT
  8
FeatureAttribs
  2
FEATURE
  41
1
  42
1
  43
1
  50
0
  10
582144.050
  20
4623496.000
 66
1
  0
ATTRIB
  8
FeatureAttribs
 70
0
  1
PNOA-H_AMS_1956-57_33k_ES_PAN_21mic_H50_0351_fot_40472.tif
  2
NAME
  10
582144.050
  20
4623496.000
 40
33.67449
  0
SEQEND
  0
POLYLINE
  8
PNOA-H_AMS_1956-57_33k_ES_PAN_21mic_H50_0351_fot_40472_tif
  70
9
  66
1
  0
VERTEX
  8
PNOA-H_AMS_1956-57_33k_ES_PAN_21mic_H50_0351_fot_40472_tif
  70
32
  10
583543.035
  20
4621683.863
  30
1328.947
  0
VERTEX
  8
PNOA-H_AMS_1956-57_33k_ES_PAN_21mic_H50_0351_fot_40472_tif
  70
32
  10
581988.000
  20
4621226.500
  30
1169.19
  0
VERTEX
  8
PNOA-H_AMS_1956-57_33k_ES_PAN_21mic_H50_0351_fot_40472_tif
  70
32
  10
581987.677
  20
4621226.588
  30
1169.191
  0
VERTEX
  8
PNOA-H_AMS_1956-57_33k_ES_PAN_21mic_H50_0351_fot_40472_tif
  70
32
  10
581987.520
  20
4621226.631
  30
1169.191
  0
VERTEX
  8
PNOA-H_AMS_1956-57_33k_ES_PAN_21mic_H50_0351_fot_40472_tif
  70
32
  10
580798.000
  20
4621551.500
  30
1171.749
  0
VERTEX
  8
PNOA-H_AMS_1956-57_33k_ES_PAN_21mic_H50_0351_fot_40472_tif
  70
32
  10
580806.500
  20
4625498.500
  30
1143.978
  0
VERTEX
  8
PNOA-H_AMS_1956-57_33k_ES_PAN_21mic_H50_0351_fot_40472_tif
  70
32
  10
580807.760
  20
4625498.655
  30
1143.925
  0
VERTEX
  8
PNOA-H_AMS_1956-57_33k_ES_PAN_21mic_H50_0351_fot_40472_tif
  70
32
  10
582972.500
  20
4625765.000
  30
1053.38
  0
VERTEX
  8
PNOA-H_AMS_1956-57_33k_ES_PAN_21mic_H50_0351_fot_40472_tif
  70
32
  10
582976.500
  20
4625765.500
  30
1053.358
  0
VERTEX
  8
PNOA-H_AMS_1956-57_33k_ES_PAN_21mic_H50_0351_fot_40472_tif
  70
32
  10
582980.500
  20
4625765.500
  30
1053.323
  0
VERTEX
  8
PNOA-H_AMS_1956-57_33k_ES_PAN_21mic_H50_0351_fot_40472_tif
  70
32
  10
582981.500
  20
4625765.500
  30
1053.315
  0
VERTEX
  8
PNOA-H_AMS_1956-57_33k_ES_PAN_21mic_H50_0351_fot_40472_tif
  70
32
  10
583423.000
  20
4625475.500
  30
1073.526
  0
VERTEX
  8
PNOA-H_AMS_1956-57_33k_ES_PAN_21mic_H50_0351_fot_40472_tif
  70
32
  10
583423.006
  20
4625475.324
  30
1073.538
  0
VERTEX
  8
PNOA-H_AMS_1956-57_33k_ES_PAN_21mic_H50_0351_fot_40472_tif
  70
32
  10
583423.016
  20
4625475.003
  30
1073.559
  0
VERTEX
  8
PNOA-H_AMS_1956-57_33k_ES_PAN_21mic_H50_0351_fot_40472_tif
  70
32
  10
583543.500
  20
4621684.000
  30
1328.995
  0
VERTEX
  8
PNOA-H_AMS_1956-57_33k_ES_PAN_21mic_H50_0351_fot_40472_tif
  70
32
  10
583543.035
  20
4621683.863
  30
1328.947
  0
SEQEND
  8
PNOA-H_AMS_1956-57_33k_ES_PAN_21mic_H50_0351_fot_40472_tif
  0
INSERT
  8
FeatureAttribs
  2
FEATURE
  41
1
  42
1
  43
1
  50
0
  10
577010.417
  20
4623462.500
 66
1
  0
ATTRIB
  8
FeatureAttribs
 70
0
  1
PNOA-H_AMS_1956-57_33k_ES_PAN_21mic_H50_0351_fot_40474.tif
  2
NAME
  10
577010.417
  20
4623462.500
 40
33.67449
  0
SEQEND
  0
POLYLINE
  8
PNOA-H_AMS_1956-57_33k_ES_PAN_21mic_H50_0351_fot_40474_tif
  70
9
  66
1
  0
VERTEX
  8
PNOA-H_AMS_1956-57_33k_ES_PAN_21mic_H50_0351_fot_40474_tif
  70
32
  10
578391.500
  20
4621457.000
  30
1069.997
  0
VERTEX
  8
PNOA-H_AMS_1956-57_33k_ES_PAN_21mic_H50_0351_fot_40474_tif
  70
32
  10
576317.000
  20
4621129.000
  30
1065.801
  0
VERTEX
  8
PNOA-H_AMS_1956-57_33k_ES_PAN_21mic_H50_0351_fot_40474_tif
  70
32
  10
576316.070
  20
4621129.169
  30
1065.794
  0
VERTEX
  8
PNOA-H_AMS_1956-57_33k_ES_PAN_21mic_H50_0351_fot_40474_tif
  70
32
  10
576313.488
  20
4621129.639
  30
1065.776
  0
VERTEX
  8
PNOA-H_AMS_1956-57_33k_ES_PAN_21mic_H50_0351_fot_40474_tif
  70
32
  10
576311.500
  20
4621130.000
  30
1065.762
  0
VERTEX
  8
PNOA-H_AMS_1956-57_33k_ES_PAN_21mic_H50_0351_fot_40474_tif
  70
32
  10
575999.727
  20
4621262.131
  30
1052.113
  0
VERTEX
  8
PNOA-H_AMS_1956-57_33k_ES_PAN_21mic_H50_0351_fot_40474_tif
  70
32
  10
575862.000
  20
4621320.500
  30
1046.084
  0
VERTEX
  8
PNOA-H_AMS_1956-57_33k_ES_PAN_21mic_H50_0351_fot_40474_tif
  70
32
  10
575861.786
  20
4621323.716
  30
1046.13
  0
VERTEX
  8
PNOA-H_AMS_1956-57_33k_ES_PAN_21mic_H50_0351_fot_40474_tif
  70
32
  10
575591.000
  20
4625389.000
  30
1104.693
  0
VERTEX
  8
PNOA-H_AMS_1956-57_33k_ES_PAN_21mic_H50_0351_fot_40474_tif
  70
32
  10
575945.000
  20
4625459.500
  30
1165.817
  0
VERTEX
  8
PNOA-H_AMS_1956-57_33k_ES_PAN_21mic_H50_0351_fot_40474_tif
  70
32
  10
575947.500
  20
4625460.000
  30
1166.307
  0
VERTEX
  8
PNOA-H_AMS_1956-57_33k_ES_PAN_21mic_H50_0351_fot_40474_tif
  70
32
  10
577635.500
  20
4625796.000
  30
1134.339
  0
VERTEX
  8
PNOA-H_AMS_1956-57_33k_ES_PAN_21mic_H50_0351_fot_40474_tif
  70
32
  10
577636.806
  20
4625795.762
  30
1134.345
  0
VERTEX
  8
PNOA-H_AMS_1956-57_33k_ES_PAN_21mic_H50_0351_fot_40474_tif
  70
32
  10
577639.165
  20
4625795.334
  30
1134.356
  0
VERTEX
  8
PNOA-H_AMS_1956-57_33k_ES_PAN_21mic_H50_0351_fot_40474_tif
  70
32
  10
577641.000
  20
4625795.000
  30
1134.365
  0
VERTEX
  8
PNOA-H_AMS_1956-57_33k_ES_PAN_21mic_H50_0351_fot_40474_tif
  70
32
  10
578209.561
  20
4625469.610
  30
1164.961
  0
VERTEX
  8
PNOA-H_AMS_1956-57_33k_ES_PAN_21mic_H50_0351_fot_40474_tif
  70
32
  10
578211.500
  20
4625468.500
  30
1165.065
  0
VERTEX
  8
PNOA-H_AMS_1956-57_33k_ES_PAN_21mic_H50_0351_fot_40474_tif
  70
32
  10
578391.500
  20
4621457.000
  30
1069.997
  0
SEQEND
  8
PNOA-H_AMS_1956-57_33k_ES_PAN_21mic_H50_0351_fot_40474_tif
  0
INSERT
  8
FeatureAttribs
  2
FEATURE
  41
1
  42
1
  43
1
  50
0
  10
578158.231
  20
4614965.022
 66
1
  0
ATTRIB
  8
FeatureAttribs
 70
0
  1
PNOA-H_AMS_1956-57_33k_ES_PAN_21mic_H50_0351_fot_39012.tif
  2
NAME
  10
578158.231
  20
4614965.022
 40
33.67449
  0
SEQEND
  0
POLYLINE
  8
PNOA-H_AMS_1956-57_33k_ES_PAN_21mic_H50_0351_fot_39012_tif
  70
9
  66
1
  0
VERTEX
  8
PNOA-H_AMS_1956-57_33k_ES_PAN_21mic_H50_0351_fot_39012_tif
  70
32
  10
576904.809
  20
4613180.047
  30
0
  0
VERTEX
  8
PNOA-H_AMS_1956-57_33k_ES_PAN_21mic_H50_0351_fot_39012_tif
  70
32
  10
576904.465
  20
4613180.044
  30
1046.706
  0
VERTEX
  8
PNOA-H_AMS_1956-57_33k_ES_PAN_21mic_H50_0351_fot_39012_tif
  70
32
  10
576727.000
  20
4616530.500
  30
1037.072
  0
VERTEX
  8
PNOA-H_AMS_1956-57_33k_ES_PAN_21mic_H50_0351_fot_39012_tif
  70
32
  10
576727.770
  20
4616530.566
  30
1037.078
  0
VERTEX
  8
PNOA-H_AMS_1956-57_33k_ES_PAN_21mic_H50_0351_fot_39012_tif
  70
32
  10
579298.500
  20
4616749.500
  30
1056.218
  0
VERTEX
  8
PNOA-H_AMS_1956-57_33k_ES_PAN_21mic_H50_0351_fot_39012_tif
  70
32
  10
579304.500
  20
4616750.000
  30
1056.209
  0
VERTEX
  8
PNOA-H_AMS_1956-57_33k_ES_PAN_21mic_H50_0351_fot_39012_tif
  70
32
  10
579308.000
  20
4616750.000
  30
1056.25
  0
VERTEX
  8
PNOA-H_AMS_1956-57_33k_ES_PAN_21mic_H50_0351_fot_39012_tif
  70
32
  10
579308.500
  20
4616750.000
  30
1056.256
  0
VERTEX
  8
PNOA-H_AMS_1956-57_33k_ES_PAN_21mic_H50_0351_fot_39012_tif
  70
32
  10
579311.500
  20
4616748.500
  30
1056.292
  0
VERTEX
  8
PNOA-H_AMS_1956-57_33k_ES_PAN_21mic_H50_0351_fot_39012_tif
  70
32
  10
579389.500
  20
4616703.500
  30
1056.926
  0
VERTEX
  8
PNOA-H_AMS_1956-57_33k_ES_PAN_21mic_H50_0351_fot_39012_tif
  70
32
  10
579390.978
  20
4616702.391
  30
1056.946
  0
VERTEX
  8
PNOA-H_AMS_1956-57_33k_ES_PAN_21mic_H50_0351_fot_39012_tif
  70
32
  10
579391.500
  20
4616702.000
  30
1056.952
  0
VERTEX
  8
PNOA-H_AMS_1956-57_33k_ES_PAN_21mic_H50_0351_fot_39012_tif
  70
32
  10
579392.000
  20
4616696.500
  30
1056.987
  0
VERTEX
  8
PNOA-H_AMS_1956-57_33k_ES_PAN_21mic_H50_0351_fot_39012_tif
  70
32
  10
579622.660
  20
4613209.719
  30
1061.066
  0
VERTEX
  8
PNOA-H_AMS_1956-57_33k_ES_PAN_21mic_H50_0351_fot_39012_tif
  70
32
  10
579622.498
  20
4613209.717
  30
0
  0
VERTEX
  8
PNOA-H_AMS_1956-57_33k_ES_PAN_21mic_H50_0351_fot_39012_tif
  70
32
  10
578045.813
  20
4613192.184
  30
0
  0
VERTEX
  8
PNOA-H_AMS_1956-57_33k_ES_PAN_21mic_H50_0351_fot_39012_tif
  70
32
  10
576904.809
  20
4613180.047
  30
0
  0
SEQEND
  8
PNOA-H_AMS_1956-57_33k_ES_PAN_21mic_H50_0351_fot_39012_tif
  0
INSERT
  8
FeatureAttribs
  2
FEATURE
  41
1
  42
1
  43
1
  50
0
  10
580828.237
  20
4615013.359
 66
1
  0
ATTRIB
  8
FeatureAttribs
 70
0
  1
PNOA-H_AMS_1956-57_33k_ES_PAN_21mic_H50_0351_fot_39013.tif
  2
NAME
  10
580828.237
  20
4615013.359
 40
33.67449
  0
SEQEND
  0
POLYLINE
  8
PNOA-H_AMS_1956-57_33k_ES_PAN_21mic_H50_0351_fot_39013_tif
  70
9
  66
1
  0
VERTEX
  8
PNOA-H_AMS_1956-57_33k_ES_PAN_21mic_H50_0351_fot_39013_tif
  70
32
  10
579622.660
  20
4613209.719
  30
0
  0
VERTEX
  8
PNOA-H_AMS_1956-57_33k_ES_PAN_21mic_H50_0351_fot_39013_tif
  70
32
  10
579622.498
  20
4613209.717
  30
1061.086
  0
VERTEX
  8
PNOA-H_AMS_1956-57_33k_ES_PAN_21mic_H50_0351_fot_39013_tif
  70
32
  10
579391.500
  20
4616702.000
  30
1056.952
  0
VERTEX
  8
PNOA-H_AMS_1956-57_33k_ES_PAN_21mic_H50_0351_fot_39013_tif
  70
32
  10
579393.651
  20
4616702.094
  30
1056.983
  0
VERTEX
  8
PNOA-H_AMS_1956-57_33k_ES_PAN_21mic_H50_0351_fot_39013_tif
  70
32
  10
580030.000
  20
4616730.000
  30
1065.92
  0
VERTEX
  8
PNOA-H_AMS_1956-57_33k_ES_PAN_21mic_H50_0351_fot_39013_tif
  70
32
  10
580042.000
  20
4616730.500
  30
1067.013
  0
VERTEX
  8
PNOA-H_AMS_1956-57_33k_ES_PAN_21mic_H50_0351_fot_39013_tif
  70
32
  10
582042.500
  20
4616817.000
  30
1092.307
  0
VERTEX
  8
PNOA-H_AMS_1956-57_33k_ES_PAN_21mic_H50_0351_fot_39013_tif
  70
32
  10
582042.500
  20
4616816.978
  30
1092.307
  0
VERTEX
  8
PNOA-H_AMS_1956-57_33k_ES_PAN_21mic_H50_0351_fot_39013_tif
  70
32
  10
582262.231
  20
4613239.434
  30
1101.915
  0
VERTEX
  8
PNOA-H_AMS_1956-57_33k_ES_PAN_21mic_H50_0351_fot_39013_tif
  70
32
  10
582262.147
  20
4613239.433
  30
0
  0
VERTEX
  8
PNOA-H_AMS_1956-57_33k_ES_PAN_21mic_H50_0351_fot_39013_tif
  70
32
  10
581514.555
  20
4613230.758
  30
0
  0
VERTEX
  8
PNOA-H_AMS_1956-57_33k_ES_PAN_21mic_H50_0351_fot_39013_tif
  70
32
  10
579622.660
  20
4613209.719
  30
0
  0
SEQEND
  8
PNOA-H_AMS_1956-57_33k_ES_PAN_21mic_H50_0351_fot_39013_tif
  0
INSERT
  8
FeatureAttribs
  2
FEATURE
  41
1
  42
1
  43
1
  50
0
  10
586475.478
  20
4619417.250
 66
1
  0
ATTRIB
  8
FeatureAttribs
 70
0
  1
PNOA-H_AMS_1956-57_33k_ES_PAN_21mic_H50_0351_fot_37233.tif
  2
NAME
  10
586475.478
  20
4619417.250
 40
33.67449
  0
SEQEND
  0
POLYLINE
  8
PNOA-H_AMS_1956-57_33k_ES_PAN_21mic_H50_0351_fot_37233_tif
  70
9
  66
1
  0
VERTEX
  8
PNOA-H_AMS_1956-57_33k_ES_PAN_21mic_H50_0351_fot_37233_tif
  70
32
  10
586131.157
  20
4621787.382
  30
1429.262
  0
VERTEX
  8
PNOA-H_AMS_1956-57_33k_ES_PAN_21mic_H50_0351_fot_37233_tif
  70
32
  10
586186.000
  20
4621777.500
  30
1429.798
  0
VERTEX
  8
PNOA-H_AMS_1956-57_33k_ES_PAN_21mic_H50_0351_fot_37233_tif
  70
32
  10
586186.614
  20
4621777.500
  30
1429.885
  0
VERTEX
  8
PNOA-H_AMS_1956-57_33k_ES_PAN_21mic_H50_0351_fot_37233_tif
  70
32
  10
586188.000
  20
4621777.500
  30
1430.082
  0
VERTEX
  8
PNOA-H_AMS_1956-57_33k_ES_PAN_21mic_H50_0351_fot_37233_tif
  70
32
  10
587818.000
  20
4621481.500
  30
1172.872
  0
VERTEX
  8
PNOA-H_AMS_1956-57_33k_ES_PAN_21mic_H50_0351_fot_37233_tif
  70
32
  10
587831.313
  20
4621250.500
  30
1175.862
  0
VERTEX
  8
PNOA-H_AMS_1956-57_33k_ES_PAN_21mic_H50_0351_fot_37233_tif
  70
32
  10
588049.475
  20
4617464.935
  30
1224.867
  0
VERTEX
  8
PNOA-H_AMS_1956-57_33k_ES_PAN_21mic_H50_0351_fot_37233_tif
  70
32
  10
588049.500
  20
4617464.500
  30
1224.873
  0
VERTEX
  8
PNOA-H_AMS_1956-57_33k_ES_PAN_21mic_H50_0351_fot_37233_tif
  70
32
  10
588049.310
  20
4617464.390
  30
1224.859
  0
VERTEX
  8
PNOA-H_AMS_1956-57_33k_ES_PAN_21mic_H50_0351_fot_37233_tif
  70
32
  10
587326.500
  20
4617047.000
  30
1171.734
  0
VERTEX
  8
PNOA-H_AMS_1956-57_33k_ES_PAN_21mic_H50_0351_fot_37233_tif
  70
32
  10
585190.963
  20
4617238.958
  30
1144.509
  0
VERTEX
  8
PNOA-H_AMS_1956-57_33k_ES_PAN_21mic_H50_0351_fot_37233_tif
  70
32
  10
585190.500
  20
4617239.000
  30
1144.503
  0
VERTEX
  8
PNOA-H_AMS_1956-57_33k_ES_PAN_21mic_H50_0351_fot_37233_tif
  70
32
  10
584884.524
  20
4621015.000
  30
1296.828
  0
VERTEX
  8
PNOA-H_AMS_1956-57_33k_ES_PAN_21mic_H50_0351_fot_37233_tif
  70
32
  10
584857.539
  20
4621348.014
  30
1310.262
  0
VERTEX
  8
PNOA-H_AMS_1956-57_33k_ES_PAN_21mic_H50_0351_fot_37233_tif
  70
32
  10
584857.500
  20
4621348.500
  30
1310.281
  0
VERTEX
  8
PNOA-H_AMS_1956-57_33k_ES_PAN_21mic_H50_0351_fot_37233_tif
  70
32
  10
586130.500
  20
4621787.500
  30
1429.255
  0
VERTEX
  8
PNOA-H_AMS_1956-57_33k_ES_PAN_21mic_H50_0351_fot_37233_tif
  70
32
  10
586131.157
  20
4621787.382
  30
1429.262
  0
SEQEND
  8
PNOA-H_AMS_1956-57_33k_ES_PAN_21mic_H50_0351_fot_37233_tif
  0
INSERT
  8
FeatureAttribs
  2
FEATURE
  41
1
  42
1
  43
1
  50
0
  10
583558.396
  20
4619292.000
 66
1
  0
ATTRIB
  8
FeatureAttribs
 70
0
  1
PNOA-H_AMS_1956-57_33k_ES_PAN_21mic_H50_0351_fot_37232.tif
  2
NAME
  10
583558.396
  20
4619292.000
 40
33.67449
  0
SEQEND
  0
POLYLINE
  8
PNOA-H_AMS_1956-57_33k_ES_PAN_21mic_H50_0351_fot_37232_tif
  70
9
  66
1
  0
VERTEX
  8
PNOA-H_AMS_1956-57_33k_ES_PAN_21mic_H50_0351_fot_37232_tif
  70
32
  10
585190.881
  20
4617238.421
  30
1144.493
  0
VERTEX
  8
PNOA-H_AMS_1956-57_33k_ES_PAN_21mic_H50_0351_fot_37232_tif
  70
32
  10
584682.000
  20
4616900.000
  30
1141.821
  0
VERTEX
  8
PNOA-H_AMS_1956-57_33k_ES_PAN_21mic_H50_0351_fot_37232_tif
  70
32
  10
584681.513
  20
4616900.009
  30
1141.812
  0
VERTEX
  8
PNOA-H_AMS_1956-57_33k_ES_PAN_21mic_H50_0351_fot_37232_tif
  70
32
  10
582220.000
  20
4616943.000
  30
1097.179
  0
VERTEX
  8
PNOA-H_AMS_1956-57_33k_ES_PAN_21mic_H50_0351_fot_37232_tif
  70
32
  10
582219.953
  20
4616943.860
  30
1097.194
  0
VERTEX
  8
PNOA-H_AMS_1956-57_33k_ES_PAN_21mic_H50_0351_fot_37232_tif
  70
32
  10
581987.500
  20
4621224.500
  30
1168.669
  0
VERTEX
  8
PNOA-H_AMS_1956-57_33k_ES_PAN_21mic_H50_0351_fot_37232_tif
  70
32
  10
581987.500
  20
4621226.500
  30
1169.151
  0
VERTEX
  8
PNOA-H_AMS_1956-57_33k_ES_PAN_21mic_H50_0351_fot_37232_tif
  70
32
  10
581987.526
  20
4621226.513
  30
1169.156
  0
VERTEX
  8
PNOA-H_AMS_1956-57_33k_ES_PAN_21mic_H50_0351_fot_37232_tif
  70
32
  10
581987.677
  20
4621226.588
  30
1169.184
  0
VERTEX
  8
PNOA-H_AMS_1956-57_33k_ES_PAN_21mic_H50_0351_fot_37232_tif
  70
32
  10
581989.500
  20
4621227.500
  30
1169.528
  0
VERTEX
  8
PNOA-H_AMS_1956-57_33k_ES_PAN_21mic_H50_0351_fot_37232_tif
  70
32
  10
582090.000
  20
4621257.000
  30
1180.139
  0
VERTEX
  8
PNOA-H_AMS_1956-57_33k_ES_PAN_21mic_H50_0351_fot_37232_tif
  70
32
  10
582091.500
  20
4621257.500
  30
1180.534
  0
VERTEX
  8
PNOA-H_AMS_1956-57_33k_ES_PAN_21mic_H50_0351_fot_37232_tif
  70
32
  10
583542.500
  20
4621684.000
  30
1328.848
  0
VERTEX
  8
PNOA-H_AMS_1956-57_33k_ES_PAN_21mic_H50_0351_fot_37232_tif
  70
32
  10
583543.035
  20
4621683.863
  30
1328.84
  0
VERTEX
  8
PNOA-H_AMS_1956-57_33k_ES_PAN_21mic_H50_0351_fot_37232_tif
  70
32
  10
584857.500
  20
4621348.000
  30
1310.177
  0
VERTEX
  8
PNOA-H_AMS_1956-57_33k_ES_PAN_21mic_H50_0351_fot_37232_tif
  70
32
  10
584884.524
  20
4621015.000
  30
1296.751
  0
VERTEX
  8
PNOA-H_AMS_1956-57_33k_ES_PAN_21mic_H50_0351_fot_37232_tif
  70
32
  10
585190.963
  20
4617238.958
  30
1144.512
  0
VERTEX
  8
PNOA-H_AMS_1956-57_33k_ES_PAN_21mic_H50_0351_fot_37232_tif
  70
32
  10
585191.000
  20
4617238.500
  30
1144.493
  0
VERTEX
  8
PNOA-H_AMS_1956-57_33k_ES_PAN_21mic_H50_0351_fot_37232_tif
  70
32
  10
585190.881
  20
4617238.421
  30
1144.493
  0
SEQEND
  8
PNOA-H_AMS_1956-57_33k_ES_PAN_21mic_H50_0351_fot_37232_tif
  0
INSERT
  8
FeatureAttribs
  2
FEATURE
  41
1
  42
1
  43
1
  50
0
  10
589325.858
  20
4619525.500
 66
1
  0
ATTRIB
  8
FeatureAttribs
 70
0
  1
PNOA-H_AMS_1956-57_33k_ES_PAN_21mic_H50_0351_fot_37234.tif
  2
NAME
  10
589325.858
  20
4619525.500
 40
33.67449
  0
SEQEND
  0
POLYLINE
  8
PNOA-H_AMS_1956-57_33k_ES_PAN_21mic_H50_0351_fot_37234_tif
  70
9
  66
1
  0
VERTEX
  8
PNOA-H_AMS_1956-57_33k_ES_PAN_21mic_H50_0351_fot_37234_tif
  70
32
  10
590745.570
  20
4617604.412
  30
1284.29
  0
VERTEX
  8
PNOA-H_AMS_1956-57_33k_ES_PAN_21mic_H50_0351_fot_37234_tif
  70
32
  10
589974.000
  20
4617203.000
  30
1346.575
  0
VERTEX
  8
PNOA-H_AMS_1956-57_33k_ES_PAN_21mic_H50_0351_fot_37234_tif
  70
32
  10
589973.185
  20
4617203.111
  30
1346.523
  0
VERTEX
  8
PNOA-H_AMS_1956-57_33k_ES_PAN_21mic_H50_0351_fot_37234_tif
  70
32
  10
588049.475
  20
4617464.935
  30
1224.876
  0
VERTEX
  8
PNOA-H_AMS_1956-57_33k_ES_PAN_21mic_H50_0351_fot_37234_tif
  70
32
  10
588049.000
  20
4617465.000
  30
1224.846
  0
VERTEX
  8
PNOA-H_AMS_1956-57_33k_ES_PAN_21mic_H50_0351_fot_37234_tif
  70
32
  10
587831.313
  20
4621250.500
  30
1175.906
  0
VERTEX
  8
PNOA-H_AMS_1956-57_33k_ES_PAN_21mic_H50_0351_fot_37234_tif
  70
32
  10
587818.028
  20
4621481.512
  30
1172.92
  0
VERTEX
  8
PNOA-H_AMS_1956-57_33k_ES_PAN_21mic_H50_0351_fot_37234_tif
  70
32
  10
587818.000
  20
4621482.000
  30
1172.913
  0
VERTEX
  8
PNOA-H_AMS_1956-57_33k_ES_PAN_21mic_H50_0351_fot_37234_tif
  70
32
  10
588234.000
  20
4621655.500
  30
1173.012
  0
VERTEX
  8
PNOA-H_AMS_1956-57_33k_ES_PAN_21mic_H50_0351_fot_37234_tif
  70
32
  10
588235.500
  20
4621656.000
  30
1173.03
  0
VERTEX
  8
PNOA-H_AMS_1956-57_33k_ES_PAN_21mic_H50_0351_fot_37234_tif
  70
32
  10
588692.000
  20
4621846.500
  30
1177.76
  0
VERTEX
  8
PNOA-H_AMS_1956-57_33k_ES_PAN_21mic_H50_0351_fot_37234_tif
  70
32
  10
588693.643
  20
4621846.808
  30
1177.772
  0
VERTEX
  8
PNOA-H_AMS_1956-57_33k_ES_PAN_21mic_H50_0351_fot_37234_tif
  70
32
  10
588698.563
  20
4621847.731
  30
1177.807
  0
VERTEX
  8
PNOA-H_AMS_1956-57_33k_ES_PAN_21mic_H50_0351_fot_37234_tif
  70
32
  10
588700.000
  20
4621848.000
  30
1177.817
  0
VERTEX
  8
PNOA-H_AMS_1956-57_33k_ES_PAN_21mic_H50_0351_fot_37234_tif
  70
32
  10
590236.111
  20
4621646.944
  30
1202.164
  0
VERTEX
  8
PNOA-H_AMS_1956-57_33k_ES_PAN_21mic_H50_0351_fot_37234_tif
  70
32
  10
590675.000
  20
4621589.500
  30
1209.121
  0
VERTEX
  8
PNOA-H_AMS_1956-57_33k_ES_PAN_21mic_H50_0351_fot_37234_tif
  70
32
  10
590764.000
  20
4617614.000
  30
1282.802
  0
VERTEX
  8
PNOA-H_AMS_1956-57_33k_ES_PAN_21mic_H50_0351_fot_37234_tif
  70
32
  10
590745.570
  20
4617604.412
  30
1284.29
  0
SEQEND
  8
PNOA-H_AMS_1956-57_33k_ES_PAN_21mic_H50_0351_fot_37234_tif
  0
INSERT
  8
FeatureAttribs
  2
FEATURE
  41
1
  42
1
  43
1
  50
0
  10
584806.772
  20
4623602.000
 66
1
  0
ATTRIB
  8
FeatureAttribs
 70
0
  1
PNOA-H_AMS_1956-57_33k_ES_PAN_21mic_H50_0351_fot_40471.tif
  2
NAME
  10
584806.772
  20
4623602.000
 40
33.67449
  0
SEQEND
  0
POLYLINE
  8
PNOA-H_AMS_1956-57_33k_ES_PAN_21mic_H50_0351_fot_40471_tif
  70
9
  66
1
  0
VERTEX
  8
PNOA-H_AMS_1956-57_33k_ES_PAN_21mic_H50_0351_fot_40471_tif
  70
32
  10
584857.539
  20
4621348.014
  30
1310.181
  0
VERTEX
  8
PNOA-H_AMS_1956-57_33k_ES_PAN_21mic_H50_0351_fot_40471_tif
  70
32
  10
584857.500
  20
4621348.000
  30
1310.177
  0
VERTEX
  8
PNOA-H_AMS_1956-57_33k_ES_PAN_21mic_H50_0351_fot_40471_tif
  70
32
  10
583543.500
  20
4621684.000
  30
1328.995
  0
VERTEX
  8
PNOA-H_AMS_1956-57_33k_ES_PAN_21mic_H50_0351_fot_40471_tif
  70
32
  10
583423.000
  20
4625475.000
  30
1073.569
  0
VERTEX
  8
PNOA-H_AMS_1956-57_33k_ES_PAN_21mic_H50_0351_fot_40471_tif
  70
32
  10
583423.016
  20
4625475.003
  30
1073.569
  0
VERTEX
  8
PNOA-H_AMS_1956-57_33k_ES_PAN_21mic_H50_0351_fot_40471_tif
  70
32
  10
583423.392
  20
4625475.071
  30
1073.56
  0
VERTEX
  8
PNOA-H_AMS_1956-57_33k_ES_PAN_21mic_H50_0351_fot_40471_tif
  70
32
  10
585531.500
  20
4625855.500
  30
1023.62
  0
VERTEX
  8
PNOA-H_AMS_1956-57_33k_ES_PAN_21mic_H50_0351_fot_40471_tif
  70
32
  10
585534.500
  20
4625856.000
  30
1023.706
  0
VERTEX
  8
PNOA-H_AMS_1956-57_33k_ES_PAN_21mic_H50_0351_fot_40471_tif
  70
32
  10
585536.500
  20
4625856.000
  30
1023.758
  0
VERTEX
  8
PNOA-H_AMS_1956-57_33k_ES_PAN_21mic_H50_0351_fot_40471_tif
  70
32
  10
585537.500
  20
4625856.000
  30
1023.784
  0
VERTEX
  8
PNOA-H_AMS_1956-57_33k_ES_PAN_21mic_H50_0351_fot_40471_tif
  70
32
  10
585540.000
  20
4625854.500
  30
1023.854
  0
VERTEX
  8
PNOA-H_AMS_1956-57_33k_ES_PAN_21mic_H50_0351_fot_40471_tif
  70
32
  10
586050.332
  20
4625533.868
  30
1051.36
  0
VERTEX
  8
PNOA-H_AMS_1956-57_33k_ES_PAN_21mic_H50_0351_fot_40471_tif
  70
32
  10
586130.500
  20
4625483.500
  30
1055.681
  0
VERTEX
  8
PNOA-H_AMS_1956-57_33k_ES_PAN_21mic_H50_0351_fot_40471_tif
  70
32
  10
586130.500
  20
4625483.000
  30
1055.732
  0
VERTEX
  8
PNOA-H_AMS_1956-57_33k_ES_PAN_21mic_H50_0351_fot_40471_tif
  70
32
  10
586131.500
  20
4621787.500
  30
1429.145
  0
VERTEX
  8
PNOA-H_AMS_1956-57_33k_ES_PAN_21mic_H50_0351_fot_40471_tif
  70
32
  10
586131.157
  20
4621787.382
  30
1429.113
  0
VERTEX
  8
PNOA-H_AMS_1956-57_33k_ES_PAN_21mic_H50_0351_fot_40471_tif
  70
32
  10
584857.539
  20
4621348.014
  30
1310.181
  0
SEQEND
  8
PNOA-H_AMS_1956-57_33k_ES_PAN_21mic_H50_0351_fot_40471_tif
  0
INSERT
  8
FeatureAttribs
  2
FEATURE
  41
1
  42
1
  43
1
  50
0
  10
587411.384
  20
4623654.750
 66
1
  0
ATTRIB
  8
FeatureAttribs
 70
0
  1
PNOA-H_AMS_1956-57_33k_ES_PAN_21mic_H50_0351_fot_40470.tif
  2
NAME
  10
587411.384
  20
4623654.750
 40
33.67449
  0
SEQEND
  0
POLYLINE
  8
PNOA-H_AMS_1956-57_33k_ES_PAN_21mic_H50_0351_fot_40470_tif
  70
9
  66
1
  0
VERTEX
  8
PNOA-H_AMS_1956-57_33k_ES_PAN_21mic_H50_0351_fot_40470_tif
  70
32
  10
587818.028
  20
4621481.512
  30
1172.872
  0
VERTEX
  8
PNOA-H_AMS_1956-57_33k_ES_PAN_21mic_H50_0351_fot_40470_tif
  70
32
  10
587818.000
  20
4621481.500
  30
1172.872
  0
VERTEX
  8
PNOA-H_AMS_1956-57_33k_ES_PAN_21mic_H50_0351_fot_40470_tif
  70
32
  10
586186.614
  20
4621777.500
  30
1420.77
  0
VERTEX
  8
PNOA-H_AMS_1956-57_33k_ES_PAN_21mic_H50_0351_fot_40470_tif
  70
32
  10
586131.500
  20
4621787.500
  30
1429.145
  0
VERTEX
  8
PNOA-H_AMS_1956-57_33k_ES_PAN_21mic_H50_0351_fot_40470_tif
  70
32
  10
586130.500
  20
4625483.000
  30
1055.636
  0
VERTEX
  8
PNOA-H_AMS_1956-57_33k_ES_PAN_21mic_H50_0351_fot_40470_tif
  70
32
  10
586131.279
  20
4625483.138
  30
1055.713
  0
VERTEX
  8
PNOA-H_AMS_1956-57_33k_ES_PAN_21mic_H50_0351_fot_40470_tif
  70
32
  10
586184.000
  20
4625492.500
  30
1060.954
  0
VERTEX
  8
PNOA-H_AMS_1956-57_33k_ES_PAN_21mic_H50_0351_fot_40470_tif
  70
32
  10
586187.000
  20
4625493.000
  30
1061.176
  0
VERTEX
  8
PNOA-H_AMS_1956-57_33k_ES_PAN_21mic_H50_0351_fot_40470_tif
  70
32
  10
588138.407
  20
4625827.727
  30
1129.125
  0
VERTEX
  8
PNOA-H_AMS_1956-57_33k_ES_PAN_21mic_H50_0351_fot_40470_tif
  70
32
  10
588139.606
  20
4625827.932
  30
1129.167
  0
VERTEX
  8
PNOA-H_AMS_1956-57_33k_ES_PAN_21mic_H50_0351_fot_40470_tif
  70
32
  10
588140.000
  20
4625828.000
  30
1129.181
  0
VERTEX
  8
PNOA-H_AMS_1956-57_33k_ES_PAN_21mic_H50_0351_fot_40470_tif
  70
32
  10
588686.895
  20
4625479.067
  30
1193.036
  0
VERTEX
  8
PNOA-H_AMS_1956-57_33k_ES_PAN_21mic_H50_0351_fot_40470_tif
  70
32
  10
588687.000
  20
4625479.000
  30
1193.049
  0
VERTEX
  8
PNOA-H_AMS_1956-57_33k_ES_PAN_21mic_H50_0351_fot_40470_tif
  70
32
  10
588696.500
  20
4621848.000
  30
1177.79
  0
VERTEX
  8
PNOA-H_AMS_1956-57_33k_ES_PAN_21mic_H50_0351_fot_40470_tif
  70
32
  10
588693.643
  20
4621846.808
  30
1177.774
  0
VERTEX
  8
PNOA-H_AMS_1956-57_33k_ES_PAN_21mic_H50_0351_fot_40470_tif
  70
32
  10
587818.028
  20
4621481.512
  30
1172.872
  0
SEQEND
  8
PNOA-H_AMS_1956-57_33k_ES_PAN_21mic_H50_0351_fot_40470_tif
  0
INSERT
  8
FeatureAttribs
  2
FEATURE
  41
1
  42
1
  43
1
  50
0
  10
583478.856
  20
4615091.217
 66
1
  0
ATTRIB
  8
FeatureAttribs
 70
0
  1
PNOA-H_AMS_1956-57_33k_ES_PAN_21mic_H50_0351_fot_39014.tif
  2
NAME
  10
583478.856
  20
4615091.217
 40
33.67449
  0
SEQEND
  0
POLYLINE
  8
PNOA-H_AMS_1956-57_33k_ES_PAN_21mic_H50_0351_fot_39014_tif
  70
9
  66
1
  0
VERTEX
  8
PNOA-H_AMS_1956-57_33k_ES_PAN_21mic_H50_0351_fot_39014_tif
  70
32
  10
582262.231
  20
4613239.434
  30
1101.915
  0
VERTEX
  8
PNOA-H_AMS_1956-57_33k_ES_PAN_21mic_H50_0351_fot_39014_tif
  70
32
  10
582262.147
  20
4613239.433
  30
1101.997
  0
VERTEX
  8
PNOA-H_AMS_1956-57_33k_ES_PAN_21mic_H50_0351_fot_39014_tif
  70
32
  10
582042.500
  20
4616810.000
  30
1092.742
  0
VERTEX
  8
PNOA-H_AMS_1956-57_33k_ES_PAN_21mic_H50_0351_fot_39014_tif
  70
32
  10
582042.500
  20
4616816.978
  30
1092.308
  0
VERTEX
  8
PNOA-H_AMS_1956-57_33k_ES_PAN_21mic_H50_0351_fot_39014_tif
  70
32
  10
582042.500
  20
4616817.000
  30
1092.307
  0
VERTEX
  8
PNOA-H_AMS_1956-57_33k_ES_PAN_21mic_H50_0351_fot_39014_tif
  70
32
  10
582043.500
  20
4616818.000
  30
1092.327
  0
VERTEX
  8
PNOA-H_AMS_1956-57_33k_ES_PAN_21mic_H50_0351_fot_39014_tif
  70
32
  10
582219.500
  20
4616943.000
  30
1097.155
  0
VERTEX
  8
PNOA-H_AMS_1956-57_33k_ES_PAN_21mic_H50_0351_fot_39014_tif
  70
32
  10
582219.666
  20
4616942.997
  30
1097.158
  0
VERTEX
  8
PNOA-H_AMS_1956-57_33k_ES_PAN_21mic_H50_0351_fot_39014_tif
  70
32
  10
584681.500
  20
4616900.000
  30
1141.827
  0
VERTEX
  8
PNOA-H_AMS_1956-57_33k_ES_PAN_21mic_H50_0351_fot_39014_tif
  70
32
  10
584910.000
  20
4613670.500
  30
1133.185
  0
VERTEX
  8
PNOA-H_AMS_1956-57_33k_ES_PAN_21mic_H50_0351_fot_39014_tif
  70
32
  10
584910.000
  20
4613669.000
  30
1133.217
  0
VERTEX
  8
PNOA-H_AMS_1956-57_33k_ES_PAN_21mic_H50_0351_fot_39014_tif
  70
32
  10
584938.105
  20
4613270.485
  30
1135.393
  0
VERTEX
  8
PNOA-H_AMS_1956-57_33k_ES_PAN_21mic_H50_0351_fot_39014_tif
  70
32
  10
584937.991
  20
4613270.484
  30
1140.065
  0
VERTEX
  8
PNOA-H_AMS_1956-57_33k_ES_PAN_21mic_H50_0351_fot_39014_tif
  70
32
  10
582262.231
  20
4613239.434
  30
1101.915
  0
SEQEND
  8
PNOA-H_AMS_1956-57_33k_ES_PAN_21mic_H50_0351_fot_39014_tif
  0
INSERT
  8
FeatureAttribs
  2
FEATURE
  41
1
  42
1
  43
1
  50
0
  10
586134.678
  20
4615254.492
 66
1
  0
ATTRIB
  8
FeatureAttribs
 70
0
  1
PNOA-H_AMS_1956-57_33k_ES_PAN_21mic_H50_0351_fot_39015.tif
  2
NAME
  10
586134.678
  20
4615254.492
 40
33.67449
  0
SEQEND
  0
POLYLINE
  8
PNOA-H_AMS_1956-57_33k_ES_PAN_21mic_H50_0351_fot_39015_tif
  70
9
  66
1
  0
VERTEX
  8
PNOA-H_AMS_1956-57_33k_ES_PAN_21mic_H50_0351_fot_39015_tif
  70
32
  10
584938.105
  20
4613270.485
  30
0
  0
VERTEX
  8
PNOA-H_AMS_1956-57_33k_ES_PAN_21mic_H50_0351_fot_39015_tif
  70
32
  10
584937.991
  20
4613270.484
  30
1140.065
  0
VERTEX
  8
PNOA-H_AMS_1956-57_33k_ES_PAN_21mic_H50_0351_fot_39015_tif
  70
32
  10
584681.500
  20
4616900.000
  30
1141.827
  0
VERTEX
  8
PNOA-H_AMS_1956-57_33k_ES_PAN_21mic_H50_0351_fot_39015_tif
  70
32
  10
584681.513
  20
4616900.009
  30
1141.827
  0
VERTEX
  8
PNOA-H_AMS_1956-57_33k_ES_PAN_21mic_H50_0351_fot_39015_tif
  70
32
  10
585190.000
  20
4617238.500
  30
1144.495
  0
VERTEX
  8
PNOA-H_AMS_1956-57_33k_ES_PAN_21mic_H50_0351_fot_39015_tif
  70
32
  10
585190.881
  20
4617238.421
  30
1144.492
  0
VERTEX
  8
PNOA-H_AMS_1956-57_33k_ES_PAN_21mic_H50_0351_fot_39015_tif
  70
32
  10
586182.000
  20
4617149.500
  30
1140.505
  0
VERTEX
  8
PNOA-H_AMS_1956-57_33k_ES_PAN_21mic_H50_0351_fot_39015_tif
  70
32
  10
586188.000
  20
4617149.000
  30
1140.573
  0
VERTEX
  8
PNOA-H_AMS_1956-57_33k_ES_PAN_21mic_H50_0351_fot_39015_tif
  70
32
  10
587326.500
  20
4617047.000
  30
1171.734
  0
VERTEX
  8
PNOA-H_AMS_1956-57_33k_ES_PAN_21mic_H50_0351_fot_39015_tif
  70
32
  10
587629.510
  20
4613302.996
  30
1131.505
  0
VERTEX
  8
PNOA-H_AMS_1956-57_33k_ES_PAN_21mic_H50_0351_fot_39015_tif
  70
32
  10
587629.427
  20
4613302.995
  30
0
  0
VERTEX
  8
PNOA-H_AMS_1956-57_33k_ES_PAN_21mic_H50_0351_fot_39015_tif
  70
32
  10
584983.301
  20
4613271.010
  30
0
  0
VERTEX
  8
PNOA-H_AMS_1956-57_33k_ES_PAN_21mic_H50_0351_fot_39015_tif
  70
32
  10
584938.105
  20
4613270.485
  30
0
  0
SEQEND
  8
PNOA-H_AMS_1956-57_33k_ES_PAN_21mic_H50_0351_fot_39015_tif
  0
INSERT
  8
FeatureAttribs
  2
FEATURE
  41
1
  42
1
  43
1
  50
0
  10
588780.348
  20
4615383.748
 66
1
  0
ATTRIB
  8
FeatureAttribs
 70
0
  1
PNOA-H_AMS_1956-57_33k_ES_PAN_21mic_H50_0351_fot_39016.tif
  2
NAME
  10
588780.348
  20
4615383.748
 40
33.67449
  0
SEQEND
  0
POLYLINE
  8
PNOA-H_AMS_1956-57_33k_ES_PAN_21mic_H50_0351_fot_39016_tif
  70
9
  66
1
  0
VERTEX
  8
PNOA-H_AMS_1956-57_33k_ES_PAN_21mic_H50_0351_fot_39016_tif
  70
32
  10
587629.510
  20
4613302.996
  30
0
  0
VERTEX
  8
PNOA-H_AMS_1956-57_33k_ES_PAN_21mic_H50_0351_fot_39016_tif
  70
32
  10
587629.427
  20
4613302.995
  30
1131.466
  0
VERTEX
  8
PNOA-H_AMS_1956-57_33k_ES_PAN_21mic_H50_0351_fot_39016_tif
  70
32
  10
587326.500
  20
4617040.500
  30
1171.416
  0
VERTEX
  8
PNOA-H_AMS_1956-57_33k_ES_PAN_21mic_H50_0351_fot_39016_tif
  70
32
  10
587326.500
  20
4617047.000
  30
1171.733
  0
VERTEX
  8
PNOA-H_AMS_1956-57_33k_ES_PAN_21mic_H50_0351_fot_39016_tif
  70
32
  10
587326.500
  20
4617047.500
  30
1171.758
  0
VERTEX
  8
PNOA-H_AMS_1956-57_33k_ES_PAN_21mic_H50_0351_fot_39016_tif
  70
32
  10
587328.000
  20
4617048.500
  30
1171.843
  0
VERTEX
  8
PNOA-H_AMS_1956-57_33k_ES_PAN_21mic_H50_0351_fot_39016_tif
  70
32
  10
588048.500
  20
4617464.500
  30
1224.78
  0
VERTEX
  8
PNOA-H_AMS_1956-57_33k_ES_PAN_21mic_H50_0351_fot_39016_tif
  70
32
  10
588049.310
  20
4617464.390
  30
1224.831
  0
VERTEX
  8
PNOA-H_AMS_1956-57_33k_ES_PAN_21mic_H50_0351_fot_39016_tif
  70
32
  10
589973.000
  20
4617203.000
  30
1346.484
  0
VERTEX
  8
PNOA-H_AMS_1956-57_33k_ES_PAN_21mic_H50_0351_fot_39016_tif
  70
32
  10
590242.809
  20
4613335.451
  30
1128.575
  0
VERTEX
  8
PNOA-H_AMS_1956-57_33k_ES_PAN_21mic_H50_0351_fot_39016_tif
  70
32
  10
590242.585
  20
4613335.448
  30
0
  0
VERTEX
  8
PNOA-H_AMS_1956-57_33k_ES_PAN_21mic_H50_0351_fot_39016_tif
  70
32
  10
588452.054
  20
4613312.939
  30
0
  0
VERTEX
  8
PNOA-H_AMS_1956-57_33k_ES_PAN_21mic_H50_0351_fot_39016_tif
  70
32
  10
587629.510
  20
4613302.996
  30
0
  0
SEQEND
  8
PNOA-H_AMS_1956-57_33k_ES_PAN_21mic_H50_0351_fot_39016_tif
  0
INSERT
  8
FeatureAttribs
  2
FEATURE
  41
1
  42
1
  43
1
  50
0
  10
595339.667
  20
4615408.597
 66
1
  0
ATTRIB
  8
FeatureAttribs
 70
0
  1
PNOA-H_AMS_1956-57_33k_ES_PAN_21mic_H50_0352_fot_37C-48361_W.tif
  2
NAME
  10
595339.667
  20
4615408.597
 40
33.67449
  0
SEQEND
  0
POLYLINE
  8
PNOA-H_AMS_1956-57_33k_ES_PAN_21mic_H50_0352_fot_37C-48361_W_tif
  70
9
  66
1
  0
VERTEX
  8
PNOA-H_AMS_1956-57_33k_ES_PAN_21mic_H50_0352_fot_37C-48361_W_tif
  70
32
  10
595321.859
  20
4613400.946
  30
0
  0
VERTEX
  8
PNOA-H_AMS_1956-57_33k_ES_PAN_21mic_H50_0352_fot_37C-48361_W_tif
  70
32
  10
595321.665
  20
4613400.943
  30
1222.405
  0
VERTEX
  8
PNOA-H_AMS_1956-57_33k_ES_PAN_21mic_H50_0352_fot_37C-48361_W_tif
  70
32
  10
595311.500
  20
4617313.000
  30
1458.106
  0
VERTEX
  8
PNOA-H_AMS_1956-57_33k_ES_PAN_21mic_H50_0352_fot_37C-48361_W_tif
  70
32
  10
595311.661
  20
4617342.549
  30
1459.481
  0
VERTEX
  8
PNOA-H_AMS_1956-57_33k_ES_PAN_21mic_H50_0352_fot_37C-48361_W_tif
  70
32
  10
595311.997
  20
4617404.001
  30
1462.341
  0
VERTEX
  8
PNOA-H_AMS_1956-57_33k_ES_PAN_21mic_H50_0352_fot_37C-48361_W_tif
  70
32
  10
595312.000
  20
4617404.500
  30
1462.364
  0
VERTEX
  8
PNOA-H_AMS_1956-57_33k_ES_PAN_21mic_H50_0352_fot_37C-48361_W_tif
  70
32
  10
595336.176
  20
4617416.251
  30
1458.084
  0
VERTEX
  8
PNOA-H_AMS_1956-57_33k_ES_PAN_21mic_H50_0352_fot_37C-48361_W_tif
  70
32
  10
595336.183
  20
4617415.754
  30
0
  0
VERTEX
  8
PNOA-H_AMS_1956-57_33k_ES_PAN_21mic_H50_0352_fot_37C-48361_W_tif
  70
32
  10
595358.813
  20
4615714.855
  30
0
  0
VERTEX
  8
PNOA-H_AMS_1956-57_33k_ES_PAN_21mic_H50_0352_fot_37C-48361_W_tif
  70
32
  10
595389.575
  20
4613401.830
  30
0
  0
VERTEX
  8
PNOA-H_AMS_1956-57_33k_ES_PAN_21mic_H50_0352_fot_37C-48361_W_tif
  70
32
  10
595321.859
  20
4613400.946
  30
0
  0
SEQEND
  8
PNOA-H_AMS_1956-57_33k_ES_PAN_21mic_H50_0352_fot_37C-48361_W_tif
  0
INSERT
  8
FeatureAttribs
  2
FEATURE
  41
1
  42
1
  43
1
  50
0
  10
594368.267
  20
4619655.915
 66
1
  0
ATTRIB
  8
FeatureAttribs
 70
0
  1
PNOA-H_AMS_1956-57_33k_ES_PAN_21mic_H50_0351_fot_37236.tif
  2
NAME
  10
594368.267
  20
4619655.915
 40
33.67449
  0
SEQEND
  0
POLYLINE
  8
PNOA-H_AMS_1956-57_33k_ES_PAN_21mic_H50_0351_fot_37236_tif
  70
9
  66
1
  0
VERTEX
  8
PNOA-H_AMS_1956-57_33k_ES_PAN_21mic_H50_0351_fot_37236_tif
  70
32
  10
595336.183
  20
4617415.754
  30
1458.154
  0
VERTEX
  8
PNOA-H_AMS_1956-57_33k_ES_PAN_21mic_H50_0351_fot_37236_tif
  70
32
  10
595312.000
  20
4617404.000
  30
1462.431
  0
VERTEX
  8
PNOA-H_AMS_1956-57_33k_ES_PAN_21mic_H50_0351_fot_37236_tif
  70
32
  10
595311.997
  20
4617404.001
  30
1462.431
  0
VERTEX
  8
PNOA-H_AMS_1956-57_33k_ES_PAN_21mic_H50_0351_fot_37236_tif
  70
32
  10
594930.080
  20
4617488.029
  30
1422.294
  0
VERTEX
  8
PNOA-H_AMS_1956-57_33k_ES_PAN_21mic_H50_0351_fot_37236_tif
  70
32
  10
593548.500
  20
4617792.000
  30
1277.101
  0
VERTEX
  8
PNOA-H_AMS_1956-57_33k_ES_PAN_21mic_H50_0351_fot_37236_tif
  70
32
  10
593544.000
  20
4617793.000
  30
1278.013
  0
VERTEX
  8
PNOA-H_AMS_1956-57_33k_ES_PAN_21mic_H50_0351_fot_37236_tif
  70
32
  10
593543.897
  20
4617793.413
  30
1278.077
  0
VERTEX
  8
PNOA-H_AMS_1956-57_33k_ES_PAN_21mic_H50_0351_fot_37236_tif
  70
32
  10
593543.750
  20
4617794.000
  30
1278.168
  0
VERTEX
  8
PNOA-H_AMS_1956-57_33k_ES_PAN_21mic_H50_0351_fot_37236_tif
  70
32
  10
593543.500
  20
4617795.000
  30
1278.322
  0
VERTEX
  8
PNOA-H_AMS_1956-57_33k_ES_PAN_21mic_H50_0351_fot_37236_tif
  70
32
  10
593304.000
  20
4621727.500
  30
1279.954
  0
VERTEX
  8
PNOA-H_AMS_1956-57_33k_ES_PAN_21mic_H50_0351_fot_37236_tif
  70
32
  10
593304.053
  20
4621727.528
  30
1279.946
  0
VERTEX
  8
PNOA-H_AMS_1956-57_33k_ES_PAN_21mic_H50_0351_fot_37236_tif
  70
32
  10
593505.000
  20
4621834.000
  30
1249.285
  0
VERTEX
  8
PNOA-H_AMS_1956-57_33k_ES_PAN_21mic_H50_0351_fot_37236_tif
  70
32
  10
593505.500
  20
4621834.021
  30
1249.307
  0
VERTEX
  8
PNOA-H_AMS_1956-57_33k_ES_PAN_21mic_H50_0351_fot_37236_tif
  70
32
  10
593689.071
  20
4621841.714
  30
1257.167
  0
VERTEX
  8
PNOA-H_AMS_1956-57_33k_ES_PAN_21mic_H50_0351_fot_37236_tif
  70
32
  10
594149.250
  20
4621861.000
  30
1276.871
  0
VERTEX
  8
PNOA-H_AMS_1956-57_33k_ES_PAN_21mic_H50_0351_fot_37236_tif
  70
32
  10
594364.000
  20
4621870.000
  30
1286.066
  0
VERTEX
  8
PNOA-H_AMS_1956-57_33k_ES_PAN_21mic_H50_0351_fot_37236_tif
  70
32
  10
594376.000
  20
4621870.500
  30
1286.376
  0
VERTEX
  8
PNOA-H_AMS_1956-57_33k_ES_PAN_21mic_H50_0351_fot_37236_tif
  70
32
  10
595276.386
  20
4621907.831
  30
1336.342
  0
VERTEX
  8
PNOA-H_AMS_1956-57_33k_ES_PAN_21mic_H50_0351_fot_37236_tif
  70
32
  10
595276.388
  20
4621907.699
  30
0
  0
VERTEX
  8
PNOA-H_AMS_1956-57_33k_ES_PAN_21mic_H50_0351_fot_37236_tif
  70
32
  10
595297.251
  20
4620340.929
  30
0
  0
VERTEX
  8
PNOA-H_AMS_1956-57_33k_ES_PAN_21mic_H50_0351_fot_37236_tif
  70
32
  10
595328.038
  20
4618027.888
  30
0
  0
VERTEX
  8
PNOA-H_AMS_1956-57_33k_ES_PAN_21mic_H50_0351_fot_37236_tif
  70
32
  10
595336.176
  20
4617416.251
  30
0
  0
VERTEX
  8
PNOA-H_AMS_1956-57_33k_ES_PAN_21mic_H50_0351_fot_37236_tif
  70
32
  10
595336.183
  20
4617415.754
  30
1458.154
  0
SEQEND
  8
PNOA-H_AMS_1956-57_33k_ES_PAN_21mic_H50_0351_fot_37236_tif
  0
INSERT
  8
FeatureAttribs
  2
FEATURE
  41
1
  42
1
  43
1
  50
0
  10
592077.444
  20
4619582.000
 66
1
  0
ATTRIB
  8
FeatureAttribs
 70
0
  1
PNOA-H_AMS_1956-57_33k_ES_PAN_21mic_H50_0351_fot_37235.tif
  2
NAME
  10
592077.444
  20
4619582.000
 40
33.67449
  0
SEQEND
  0
POLYLINE
  8
PNOA-H_AMS_1956-57_33k_ES_PAN_21mic_H50_0351_fot_37235_tif
  70
9
  66
1
  0
VERTEX
  8
PNOA-H_AMS_1956-57_33k_ES_PAN_21mic_H50_0351_fot_37235_tif
  70
32
  10
591257.000
  20
4621855.000
  30
1231.806
  0
VERTEX
  8
PNOA-H_AMS_1956-57_33k_ES_PAN_21mic_H50_0351_fot_37235_tif
  70
32
  10
592326.000
  20
4621788.000
  30
1227.089
  0
VERTEX
  8
PNOA-H_AMS_1956-57_33k_ES_PAN_21mic_H50_0351_fot_37235_tif
  70
32
  10
592332.000
  20
4621788.000
  30
1228.005
  0
VERTEX
  8
PNOA-H_AMS_1956-57_33k_ES_PAN_21mic_H50_0351_fot_37235_tif
  70
32
  10
593304.000
  20
4621727.500
  30
1279.954
  0
VERTEX
  8
PNOA-H_AMS_1956-57_33k_ES_PAN_21mic_H50_0351_fot_37235_tif
  70
32
  10
593544.000
  20
4617795.000
  30
1278.238
  0
VERTEX
  8
PNOA-H_AMS_1956-57_33k_ES_PAN_21mic_H50_0351_fot_37235_tif
  70
32
  10
593543.750
  20
4617794.000
  30
1278.169
  0
VERTEX
  8
PNOA-H_AMS_1956-57_33k_ES_PAN_21mic_H50_0351_fot_37235_tif
  70
32
  10
593543.618
  20
4617793.474
  30
1278.133
  0
VERTEX
  8
PNOA-H_AMS_1956-57_33k_ES_PAN_21mic_H50_0351_fot_37235_tif
  70
32
  10
593543.500
  20
4617793.000
  30
1278.101
  0
VERTEX
  8
PNOA-H_AMS_1956-57_33k_ES_PAN_21mic_H50_0351_fot_37235_tif
  70
32
  10
593533.500
  20
4617788.000
  30
1279.102
  0
VERTEX
  8
PNOA-H_AMS_1956-57_33k_ES_PAN_21mic_H50_0351_fot_37235_tif
  70
32
  10
592562.567
  20
4617321.991
  30
1269.63
  0
VERTEX
  8
PNOA-H_AMS_1956-57_33k_ES_PAN_21mic_H50_0351_fot_37235_tif
  70
32
  10
592535.500
  20
4617309.000
  30
1269.366
  0
VERTEX
  8
PNOA-H_AMS_1956-57_33k_ES_PAN_21mic_H50_0351_fot_37235_tif
  70
32
  10
591167.333
  20
4617544.944
  30
1279.756
  0
VERTEX
  8
PNOA-H_AMS_1956-57_33k_ES_PAN_21mic_H50_0351_fot_37235_tif
  70
32
  10
590764.751
  20
4617614.371
  30
1282.814
  0
VERTEX
  8
PNOA-H_AMS_1956-57_33k_ES_PAN_21mic_H50_0351_fot_37235_tif
  70
32
  10
590764.000
  20
4617614.500
  30
1282.82
  0
VERTEX
  8
PNOA-H_AMS_1956-57_33k_ES_PAN_21mic_H50_0351_fot_37235_tif
  70
32
  10
590675.000
  20
4621589.500
  30
1209.121
  0
VERTEX
  8
PNOA-H_AMS_1956-57_33k_ES_PAN_21mic_H50_0351_fot_37235_tif
  70
32
  10
590675.223
  20
4621589.602
  30
1209.129
  0
VERTEX
  8
PNOA-H_AMS_1956-57_33k_ES_PAN_21mic_H50_0351_fot_37235_tif
  70
32
  10
591257.000
  20
4621855.000
  30
1231.806
  0
SEQEND
  8
PNOA-H_AMS_1956-57_33k_ES_PAN_21mic_H50_0351_fot_37235_tif
  0
INSERT
  8
FeatureAttribs
  2
FEATURE
  41
1
  42
1
  43
1
  50
0
  10
591377.809
  20
4615474.974
 66
1
  0
ATTRIB
  8
FeatureAttribs
 70
0
  1
PNOA-H_AMS_1956-57_33k_ES_PAN_21mic_H50_0351_fot_39017.tif
  2
NAME
  10
591377.809
  20
4615474.974
 40
33.67449
  0
SEQEND
  0
POLYLINE
  8
PNOA-H_AMS_1956-57_33k_ES_PAN_21mic_H50_0351_fot_39017_tif
  70
9
  66
1
  0
VERTEX
  8
PNOA-H_AMS_1956-57_33k_ES_PAN_21mic_H50_0351_fot_39017_tif
  70
32
  10
590242.809
  20
4613335.451
  30
1128.865
  0
VERTEX
  8
PNOA-H_AMS_1956-57_33k_ES_PAN_21mic_H50_0351_fot_39017_tif
  70
32
  10
590242.585
  20
4613335.448
  30
1128.845
  0
VERTEX
  8
PNOA-H_AMS_1956-57_33k_ES_PAN_21mic_H50_0351_fot_39017_tif
  70
32
  10
589973.000
  20
4617199.500
  30
1345.781
  0
VERTEX
  8
PNOA-H_AMS_1956-57_33k_ES_PAN_21mic_H50_0351_fot_39017_tif
  70
32
  10
589973.000
  20
4617203.000
  30
1346.484
  0
VERTEX
  8
PNOA-H_AMS_1956-57_33k_ES_PAN_21mic_H50_0351_fot_39017_tif
  70
32
  10
589973.185
  20
4617203.111
  30
1346.522
  0
VERTEX
  8
PNOA-H_AMS_1956-57_33k_ES_PAN_21mic_H50_0351_fot_39017_tif
  70
32
  10
589975.500
  20
4617204.500
  30
1346.991
  0
VERTEX
  8
PNOA-H_AMS_1956-57_33k_ES_PAN_21mic_H50_0351_fot_39017_tif
  70
32
  10
590282.500
  20
4617364.000
  30
1355.423
  0
VERTEX
  8
PNOA-H_AMS_1956-57_33k_ES_PAN_21mic_H50_0351_fot_39017_tif
  70
32
  10
590283.500
  20
4617364.500
  30
1355.36
  0
VERTEX
  8
PNOA-H_AMS_1956-57_33k_ES_PAN_21mic_H50_0351_fot_39017_tif
  70
32
  10
590745.570
  20
4617604.412
  30
1285.876
  0
VERTEX
  8
PNOA-H_AMS_1956-57_33k_ES_PAN_21mic_H50_0351_fot_39017_tif
  70
32
  10
590764.751
  20
4617614.371
  30
1282.992
  0
VERTEX
  8
PNOA-H_AMS_1956-57_33k_ES_PAN_21mic_H50_0351_fot_39017_tif
  70
32
  10
590765.000
  20
4617614.500
  30
1282.954
  0
VERTEX
  8
PNOA-H_AMS_1956-57_33k_ES_PAN_21mic_H50_0351_fot_39017_tif
  70
32
  10
591167.333
  20
4617544.944
  30
1279.87
  0
VERTEX
  8
PNOA-H_AMS_1956-57_33k_ES_PAN_21mic_H50_0351_fot_39017_tif
  70
32
  10
592534.632
  20
4617308.564
  30
1269.389
  0
VERTEX
  8
PNOA-H_AMS_1956-57_33k_ES_PAN_21mic_H50_0351_fot_39017_tif
  70
32
  10
592535.000
  20
4617308.500
  30
1269.386
  0
VERTEX
  8
PNOA-H_AMS_1956-57_33k_ES_PAN_21mic_H50_0351_fot_39017_tif
  70
32
  10
592808.581
  20
4613368.135
  30
1163.979
  0
VERTEX
  8
PNOA-H_AMS_1956-57_33k_ES_PAN_21mic_H50_0351_fot_39017_tif
  70
32
  10
592808.524
  20
4613368.134
  30
0
  0
VERTEX
  8
PNOA-H_AMS_1956-57_33k_ES_PAN_21mic_H50_0351_fot_39017_tif
  70
32
  10
591920.811
  20
4613356.545
  30
0
  0
VERTEX
  8
PNOA-H_AMS_1956-57_33k_ES_PAN_21mic_H50_0351_fot_39017_tif
  70
32
  10
590242.809
  20
4613335.451
  30
1128.865
  0
SEQEND
  8
PNOA-H_AMS_1956-57_33k_ES_PAN_21mic_H50_0351_fot_39017_tif
  0
INSERT
  8
FeatureAttribs
  2
FEATURE
  41
1
  42
1
  43
1
  50
0
  10
593985.469
  20
4615580.817
 66
1
  0
ATTRIB
  8
FeatureAttribs
 70
0
  1
PNOA-H_AMS_1956-57_33k_ES_PAN_21mic_H50_0351_fot_39018.tif
  2
NAME
  10
593985.469
  20
4615580.817
 40
33.67449
  0
SEQEND
  0
POLYLINE
  8
PNOA-H_AMS_1956-57_33k_ES_PAN_21mic_H50_0351_fot_39018_tif
  70
9
  66
1
  0
VERTEX
  8
PNOA-H_AMS_1956-57_33k_ES_PAN_21mic_H50_0351_fot_39018_tif
  70
32
  10
592808.581
  20
4613368.135
  30
0
  0
VERTEX
  8
PNOA-H_AMS_1956-57_33k_ES_PAN_21mic_H50_0351_fot_39018_tif
  70
32
  10
592808.524
  20
4613368.134
  30
1163.986
  0
VERTEX
  8
PNOA-H_AMS_1956-57_33k_ES_PAN_21mic_H50_0351_fot_39018_tif
  70
32
  10
592534.500
  20
4617308.500
  30
1269.452
  0
VERTEX
  8
PNOA-H_AMS_1956-57_33k_ES_PAN_21mic_H50_0351_fot_39018_tif
  70
32
  10
592534.632
  20
4617308.564
  30
1269.453
  0
VERTEX
  8
PNOA-H_AMS_1956-57_33k_ES_PAN_21mic_H50_0351_fot_39018_tif
  70
32
  10
592562.567
  20
4617321.991
  30
1269.694
  0
VERTEX
  8
PNOA-H_AMS_1956-57_33k_ES_PAN_21mic_H50_0351_fot_39018_tif
  70
32
  10
593543.500
  20
4617793.500
  30
1278.156
  0
VERTEX
  8
PNOA-H_AMS_1956-57_33k_ES_PAN_21mic_H50_0351_fot_39018_tif
  70
32
  10
593543.618
  20
4617793.474
  30
1278.168
  0
VERTEX
  8
PNOA-H_AMS_1956-57_33k_ES_PAN_21mic_H50_0351_fot_39018_tif
  70
32
  10
593543.897
  20
4617793.413
  30
1278.197
  0
VERTEX
  8
PNOA-H_AMS_1956-57_33k_ES_PAN_21mic_H50_0351_fot_39018_tif
  70
32
  10
594930.080
  20
4617488.029
  30
1422.672
  0
VERTEX
  8
PNOA-H_AMS_1956-57_33k_ES_PAN_21mic_H50_0351_fot_39018_tif
  70
32
  10
595311.500
  20
4617404.000
  30
1462.426
  0
VERTEX
  8
PNOA-H_AMS_1956-57_33k_ES_PAN_21mic_H50_0351_fot_39018_tif
  70
32
  10
595311.661
  20
4617342.549
  30
1458.079
  0
VERTEX
  8
PNOA-H_AMS_1956-57_33k_ES_PAN_21mic_H50_0351_fot_39018_tif
  70
32
  10
595321.000
  20
4613788.500
  30
1206.692
  0
VERTEX
  8
PNOA-H_AMS_1956-57_33k_ES_PAN_21mic_H50_0351_fot_39018_tif
  70
32
  10
595321.000
  20
4613669.000
  30
1203.87
  0
VERTEX
  8
PNOA-H_AMS_1956-57_33k_ES_PAN_21mic_H50_0351_fot_39018_tif
  70
32
  10
595321.859
  20
4613400.946
  30
1197.341
  0
VERTEX
  8
PNOA-H_AMS_1956-57_33k_ES_PAN_21mic_H50_0351_fot_39018_tif
  70
32
  10
595321.665
  20
4613400.943
  30
0
  0
VERTEX
  8
PNOA-H_AMS_1956-57_33k_ES_PAN_21mic_H50_0351_fot_39018_tif
  70
32
  10
592808.581
  20
4613368.135
  30
0
  0
SEQEND
  8
PNOA-H_AMS_1956-57_33k_ES_PAN_21mic_H50_0351_fot_39018_tif
  0
INSERT
  8
FeatureAttribs
  2
FEATURE
  41
1
  42
1
  43
1
  50
0
  10
594371.766
  20
4623824.000
 66
1
  0
ATTRIB
  8
FeatureAttribs
 70
0
  1
PNOA-H_AMS_1956-57_33k_ES_PAN_21mic_H50_0351_fot_40467.tif
  2
NAME
  10
594371.766
  20
4623824.000
 40
33.67449
  0
SEQEND
  0
POLYLINE
  8
PNOA-H_AMS_1956-57_33k_ES_PAN_21mic_H50_0351_fot_40467_tif
  70
9
  66
1
  0
VERTEX
  8
PNOA-H_AMS_1956-57_33k_ES_PAN_21mic_H50_0351_fot_40467_tif
  70
32
  10
593689.071
  20
4621841.714
  30
1259.177
  0
VERTEX
  8
PNOA-H_AMS_1956-57_33k_ES_PAN_21mic_H50_0351_fot_40467_tif
  70
32
  10
593505.500
  20
4621834.000
  30
1249.295
  0
VERTEX
  8
PNOA-H_AMS_1956-57_33k_ES_PAN_21mic_H50_0351_fot_40467_tif
  70
32
  10
593505.500
  20
4621834.021
  30
1249.296
  0
VERTEX
  8
PNOA-H_AMS_1956-57_33k_ES_PAN_21mic_H50_0351_fot_40467_tif
  70
32
  10
593481.500
  20
4625555.500
  30
1520.187
  0
VERTEX
  8
PNOA-H_AMS_1956-57_33k_ES_PAN_21mic_H50_0351_fot_40467_tif
  70
32
  10
593481.503
  20
4625555.501
  30
1520.187
  0
VERTEX
  8
PNOA-H_AMS_1956-57_33k_ES_PAN_21mic_H50_0351_fot_40467_tif
  70
32
  10
593481.889
  20
4625555.562
  30
1520.246
  0
VERTEX
  8
PNOA-H_AMS_1956-57_33k_ES_PAN_21mic_H50_0351_fot_40467_tif
  70
32
  10
595095.000
  20
4625814.000
  30
1767.665
  0
VERTEX
  8
PNOA-H_AMS_1956-57_33k_ES_PAN_21mic_H50_0351_fot_40467_tif
  70
32
  10
595097.000
  20
4625814.000
  30
1768.501
  0
VERTEX
  8
PNOA-H_AMS_1956-57_33k_ES_PAN_21mic_H50_0351_fot_40467_tif
  70
32
  10
595097.500
  20
4625814.000
  30
1768.71
  0
VERTEX
  8
PNOA-H_AMS_1956-57_33k_ES_PAN_21mic_H50_0351_fot_40467_tif
  70
32
  10
595135.500
  20
4625795.000
  30
1783.198
  0
VERTEX
  8
PNOA-H_AMS_1956-57_33k_ES_PAN_21mic_H50_0351_fot_40467_tif
  70
32
  10
595225.208
  20
4625749.679
  30
1824.147
  0
VERTEX
  8
PNOA-H_AMS_1956-57_33k_ES_PAN_21mic_H50_0351_fot_40467_tif
  70
32
  10
595225.215
  20
4625749.214
  30
0
  0
VERTEX
  8
PNOA-H_AMS_1956-57_33k_ES_PAN_21mic_H50_0351_fot_40467_tif
  70
32
  10
595235.638
  20
4624967.036
  30
0
  0
VERTEX
  8
PNOA-H_AMS_1956-57_33k_ES_PAN_21mic_H50_0351_fot_40467_tif
  70
32
  10
595266.451
  20
4622653.979
  30
0
  0
VERTEX
  8
PNOA-H_AMS_1956-57_33k_ES_PAN_21mic_H50_0351_fot_40467_tif
  70
32
  10
595276.386
  20
4621907.831
  30
0
  0
VERTEX
  8
PNOA-H_AMS_1956-57_33k_ES_PAN_21mic_H50_0351_fot_40467_tif
  70
32
  10
595276.388
  20
4621907.699
  30
1338.952
  0
VERTEX
  8
PNOA-H_AMS_1956-57_33k_ES_PAN_21mic_H50_0351_fot_40467_tif
  70
32
  10
594160.000
  20
4621861.000
  30
1284.259
  0
VERTEX
  8
PNOA-H_AMS_1956-57_33k_ES_PAN_21mic_H50_0351_fot_40467_tif
  70
32
  10
594149.250
  20
4621861.000
  30
1283.921
  0
VERTEX
  8
PNOA-H_AMS_1956-57_33k_ES_PAN_21mic_H50_0351_fot_40467_tif
  70
32
  10
594148.000
  20
4621861.000
  30
1283.882
  0
VERTEX
  8
PNOA-H_AMS_1956-57_33k_ES_PAN_21mic_H50_0351_fot_40467_tif
  70
32
  10
593689.071
  20
4621841.714
  30
1259.177
  0
SEQEND
  8
PNOA-H_AMS_1956-57_33k_ES_PAN_21mic_H50_0351_fot_40467_tif
  0
INSERT
  8
FeatureAttribs
  2
FEATURE
  41
1
  42
1
  43
1
  50
0
  10
592340.965
  20
4623788.750
 66
1
  0
ATTRIB
  8
FeatureAttribs
 70
0
  1
PNOA-H_AMS_1956-57_33k_ES_PAN_21mic_H50_0351_fot_40468.tif
  2
NAME
  10
592340.965
  20
4623788.750
 40
33.67449
  0
SEQEND
  0
POLYLINE
  8
PNOA-H_AMS_1956-57_33k_ES_PAN_21mic_H50_0351_fot_40468_tif
  70
9
  66
1
  0
VERTEX
  8
PNOA-H_AMS_1956-57_33k_ES_PAN_21mic_H50_0351_fot_40468_tif
  70
32
  10
593505.500
  20
4621834.000
  30
1249.295
  0
VERTEX
  8
PNOA-H_AMS_1956-57_33k_ES_PAN_21mic_H50_0351_fot_40468_tif
  70
32
  10
593304.500
  20
4621727.500
  30
1279.927
  0
VERTEX
  8
PNOA-H_AMS_1956-57_33k_ES_PAN_21mic_H50_0351_fot_40468_tif
  70
32
  10
593304.053
  20
4621727.528
  30
1279.917
  0
VERTEX
  8
PNOA-H_AMS_1956-57_33k_ES_PAN_21mic_H50_0351_fot_40468_tif
  70
32
  10
591257.000
  20
4621855.000
  30
1231.806
  0
VERTEX
  8
PNOA-H_AMS_1956-57_33k_ES_PAN_21mic_H50_0351_fot_40468_tif
  70
32
  10
591127.500
  20
4625539.500
  30
1374.921
  0
VERTEX
  8
PNOA-H_AMS_1956-57_33k_ES_PAN_21mic_H50_0351_fot_40468_tif
  70
32
  10
592953.500
  20
4625849.500
  30
1458.952
  0
VERTEX
  8
PNOA-H_AMS_1956-57_33k_ES_PAN_21mic_H50_0351_fot_40468_tif
  70
32
  10
592956.500
  20
4625850.000
  30
1459.042
  0
VERTEX
  8
PNOA-H_AMS_1956-57_33k_ES_PAN_21mic_H50_0351_fot_40468_tif
  70
32
  10
592958.500
  20
4625850.000
  30
1459.013
  0
VERTEX
  8
PNOA-H_AMS_1956-57_33k_ES_PAN_21mic_H50_0351_fot_40468_tif
  70
32
  10
592959.000
  20
4625850.000
  30
1459.006
  0
VERTEX
  8
PNOA-H_AMS_1956-57_33k_ES_PAN_21mic_H50_0351_fot_40468_tif
  70
32
  10
592963.500
  20
4625847.500
  30
1458.181
  0
VERTEX
  8
PNOA-H_AMS_1956-57_33k_ES_PAN_21mic_H50_0351_fot_40468_tif
  70
32
  10
593481.500
  20
4625556.000
  30
1520.213
  0
VERTEX
  8
PNOA-H_AMS_1956-57_33k_ES_PAN_21mic_H50_0351_fot_40468_tif
  70
32
  10
593481.501
  20
4625555.780
  30
1520.197
  0
VERTEX
  8
PNOA-H_AMS_1956-57_33k_ES_PAN_21mic_H50_0351_fot_40468_tif
  70
32
  10
593481.503
  20
4625555.501
  30
1520.176
  0
VERTEX
  8
PNOA-H_AMS_1956-57_33k_ES_PAN_21mic_H50_0351_fot_40468_tif
  70
32
  10
593505.500
  20
4621834.021
  30
1249.296
  0
VERTEX
  8
PNOA-H_AMS_1956-57_33k_ES_PAN_21mic_H50_0351_fot_40468_tif
  70
32
  10
593505.500
  20
4621834.000
  30
1249.295
  0
SEQEND
  8
PNOA-H_AMS_1956-57_33k_ES_PAN_21mic_H50_0351_fot_40468_tif
  0
INSERT
  8
FeatureAttribs
  2
FEATURE
  41
1
  42
1
  43
1
  50
0
  10
589941.967
  20
4623702.500
 66
1
  0
ATTRIB
  8
FeatureAttribs
 70
0
  1
PNOA-H_AMS_1956-57_33k_ES_PAN_21mic_H50_0351_fot_40469.tif
  2
NAME
  10
589941.967
  20
4623702.500
 40
33.67449
  0
SEQEND
  0
POLYLINE
  8
PNOA-H_AMS_1956-57_33k_ES_PAN_21mic_H50_0351_fot_40469_tif
  70
9
  66
1
  0
VERTEX
  8
PNOA-H_AMS_1956-57_33k_ES_PAN_21mic_H50_0351_fot_40469_tif
  70
32
  10
591255.000
  20
4621853.500
  30
1231.767
  0
VERTEX
  8
PNOA-H_AMS_1956-57_33k_ES_PAN_21mic_H50_0351_fot_40469_tif
  70
32
  10
590676.000
  20
4621589.500
  30
1209.13
  0
VERTEX
  8
PNOA-H_AMS_1956-57_33k_ES_PAN_21mic_H50_0351_fot_40469_tif
  70
32
  10
590675.223
  20
4621589.602
  30
1209.117
  0
VERTEX
  8
PNOA-H_AMS_1956-57_33k_ES_PAN_21mic_H50_0351_fot_40469_tif
  70
32
  10
590236.111
  20
4621646.944
  30
1202.165
  0
VERTEX
  8
PNOA-H_AMS_1956-57_33k_ES_PAN_21mic_H50_0351_fot_40469_tif
  70
32
  10
588698.563
  20
4621847.731
  30
1177.823
  0
VERTEX
  8
PNOA-H_AMS_1956-57_33k_ES_PAN_21mic_H50_0351_fot_40469_tif
  70
32
  10
588696.500
  20
4621848.000
  30
1177.79
  0
VERTEX
  8
PNOA-H_AMS_1956-57_33k_ES_PAN_21mic_H50_0351_fot_40469_tif
  70
32
  10
588687.000
  20
4625479.000
  30
1193.049
  0
VERTEX
  8
PNOA-H_AMS_1956-57_33k_ES_PAN_21mic_H50_0351_fot_40469_tif
  70
32
  10
588968.071
  20
4625527.000
  30
1237.962
  0
VERTEX
  8
PNOA-H_AMS_1956-57_33k_ES_PAN_21mic_H50_0351_fot_40469_tif
  70
32
  10
590654.500
  20
4625815.000
  30
1507.44
  0
VERTEX
  8
PNOA-H_AMS_1956-57_33k_ES_PAN_21mic_H50_0351_fot_40469_tif
  70
32
  10
590657.495
  20
4625815.499
  30
1507.101
  0
VERTEX
  8
PNOA-H_AMS_1956-57_33k_ES_PAN_21mic_H50_0351_fot_40469_tif
  70
32
  10
590657.500
  20
4625815.500
  30
1507.1
  0
VERTEX
  8
PNOA-H_AMS_1956-57_33k_ES_PAN_21mic_H50_0351_fot_40469_tif
  70
32
  10
590657.998
  20
4625815.208
  30
1506.96
  0
VERTEX
  8
PNOA-H_AMS_1956-57_33k_ES_PAN_21mic_H50_0351_fot_40469_tif
  70
32
  10
591127.500
  20
4625539.500
  30
1374.921
  0
VERTEX
  8
PNOA-H_AMS_1956-57_33k_ES_PAN_21mic_H50_0351_fot_40469_tif
  70
32
  10
591257.000
  20
4621867.500
  30
1232.156
  0
VERTEX
  8
PNOA-H_AMS_1956-57_33k_ES_PAN_21mic_H50_0351_fot_40469_tif
  70
32
  10
591257.000
  20
4621855.000
  30
1231.806
  0
VERTEX
  8
PNOA-H_AMS_1956-57_33k_ES_PAN_21mic_H50_0351_fot_40469_tif
  70
32
  10
591257.000
  20
4621854.500
  30
1231.792
  0
VERTEX
  8
PNOA-H_AMS_1956-57_33k_ES_PAN_21mic_H50_0351_fot_40469_tif
  70
32
  10
591255.000
  20
4621853.500
  30
1231.767
  0
SEQEND
  8
PNOA-H_AMS_1956-57_33k_ES_PAN_21mic_H50_0351_fot_40469_tif
  0
ENDSEC
  0
EOF
