  0
SECTION
  2
HEADER
  9
$ACADVER
  1
AC1009
  9
$LUNITS
  70
2
  9
$LIMMIN
  10
539786.879
  20
4612878.574
  9
$LIMMAX
  10
567639.616
  20
4631590.742
  9
$EXTMIN
  10
539786.879
  20
4612878.574
  9
$EXTMAX
  10
567639.616
  20
4631590.742
  999
Created by Global Mapper
  999
Projection: UTM
  999
Datum: ETRS89
  999
Ground Units: meters
  999
ZONE: 30
  0
ENDSEC
  0
SECTION
  2
TABLES
  0
ENDSEC
  0
SECTION
  2
BLOCKS
  0
BLOCK
  8
FeatureAttribs
  70
0
  2
FEATURE
  3
FEATURE
  10
0.00000000
  20
0.00000000
  0
ATTDEF
  8
FeatureAttribs
  70
0
  1
 
  2
NAME
  3
NAME
  10
0.00000000
  20
0.00000000
  40
1.00000000
  0
ENDBLK
  0
ENDSEC
  0
SECTION
  2
ENTITIES
  0
INSERT
  8
FeatureAttribs
  2
FEATURE
  41
1
  42
1
  43
1
  50
0
  10
540347.511
  20
4627714.866
 66
1
  0
ATTRIB
  8
FeatureAttribs
 70
0
  1
PNOA-H_AMS_1956-57_33k_ES_PAN_21mic_H50_0349_fot_34C-40403_E.tif
  2
NAME
  10
540347.511
  20
4627714.866
 40
33.55473
  0
SEQEND
  0
POLYLINE
  8
PNOA-H_AMS_1956-57_33k_ES_PAN_21mic_H50_0349_fot_34C-40403_E_tif
  70
9
  66
1
  0
VERTEX
  8
PNOA-H_AMS_1956-57_33k_ES_PAN_21mic_H50_0349_fot_34C-40403_E_tif
  70
32
  10
540890.000
  20
4630046.000
  30
1019.491
  0
VERTEX
  8
PNOA-H_AMS_1956-57_33k_ES_PAN_21mic_H50_0349_fot_34C-40403_E_tif
  70
32
  10
540885.500
  20
4625501.000
  30
1112.343
  0
VERTEX
  8
PNOA-H_AMS_1956-57_33k_ES_PAN_21mic_H50_0349_fot_34C-40403_E_tif
  70
32
  10
539820.686
  20
4625318.461
  30
1087.385
  0
VERTEX
  8
PNOA-H_AMS_1956-57_33k_ES_PAN_21mic_H50_0349_fot_34C-40403_E_tif
  70
32
  10
539812.673
  20
4626756.580
  30
0
  0
VERTEX
  8
PNOA-H_AMS_1956-57_33k_ES_PAN_21mic_H50_0349_fot_34C-40403_E_tif
  70
32
  10
539799.778
  20
4629069.611
  30
0
  0
VERTEX
  8
PNOA-H_AMS_1956-57_33k_ES_PAN_21mic_H50_0349_fot_34C-40403_E_tif
  70
32
  10
539793.969
  20
4630111.271
  30
1040.264
  0
VERTEX
  8
PNOA-H_AMS_1956-57_33k_ES_PAN_21mic_H50_0349_fot_34C-40403_E_tif
  70
32
  10
540890.000
  20
4630046.000
  30
1019.491
  0
SEQEND
  8
PNOA-H_AMS_1956-57_33k_ES_PAN_21mic_H50_0349_fot_34C-40403_E_tif
  0
INSERT
  8
FeatureAttribs
  2
FEATURE
  41
1
  42
1
  43
1
  50
0
  10
540735.042
  20
4623091.000
 66
1
  0
ATTRIB
  8
FeatureAttribs
 70
0
  1
PNOA-H_AMS_1956-57_33k_ES_PAN_21mic_H50_0350_fot_40488.tif
  2
NAME
  10
540735.042
  20
4623091.000
 40
33.55473
  0
SEQEND
  0
POLYLINE
  8
PNOA-H_AMS_1956-57_33k_ES_PAN_21mic_H50_0350_fot_40488_tif
  70
9
  66
1
  0
VERTEX
  8
PNOA-H_AMS_1956-57_33k_ES_PAN_21mic_H50_0350_fot_40488_tif
  70
32
  10
541606.000
  20
4621043.000
  30
1102.959
  0
VERTEX
  8
PNOA-H_AMS_1956-57_33k_ES_PAN_21mic_H50_0350_fot_40488_tif
  70
32
  10
540767.500
  20
4620681.000
  30
1179.448
  0
VERTEX
  8
PNOA-H_AMS_1956-57_33k_ES_PAN_21mic_H50_0350_fot_40488_tif
  70
32
  10
540767.154
  20
4620681.067
  30
1179.43
  0
VERTEX
  8
PNOA-H_AMS_1956-57_33k_ES_PAN_21mic_H50_0350_fot_40488_tif
  70
32
  10
539845.526
  20
4620858.860
  30
1131.381
  0
VERTEX
  8
PNOA-H_AMS_1956-57_33k_ES_PAN_21mic_H50_0350_fot_40488_tif
  70
32
  10
539838.445
  20
4622130.545
  30
0
  0
VERTEX
  8
PNOA-H_AMS_1956-57_33k_ES_PAN_21mic_H50_0350_fot_40488_tif
  70
32
  10
539825.562
  20
4624443.558
  30
0
  0
VERTEX
  8
PNOA-H_AMS_1956-57_33k_ES_PAN_21mic_H50_0350_fot_40488_tif
  70
32
  10
539820.687
  20
4625318.298
  30
1086.279
  0
VERTEX
  8
PNOA-H_AMS_1956-57_33k_ES_PAN_21mic_H50_0350_fot_40488_tif
  70
32
  10
540885.790
  20
4625500.878
  30
1112.317
  0
VERTEX
  8
PNOA-H_AMS_1956-57_33k_ES_PAN_21mic_H50_0350_fot_40488_tif
  70
32
  10
540886.500
  20
4625501.000
  30
1112.334
  0
VERTEX
  8
PNOA-H_AMS_1956-57_33k_ES_PAN_21mic_H50_0350_fot_40488_tif
  70
32
  10
541668.500
  20
4625173.500
  30
1097.486
  0
VERTEX
  8
PNOA-H_AMS_1956-57_33k_ES_PAN_21mic_H50_0350_fot_40488_tif
  70
32
  10
541668.492
  20
4625173.003
  30
1097.487
  0
VERTEX
  8
PNOA-H_AMS_1956-57_33k_ES_PAN_21mic_H50_0350_fot_40488_tif
  70
32
  10
541666.096
  20
4625014.635
  30
1097.697
  0
VERTEX
  8
PNOA-H_AMS_1956-57_33k_ES_PAN_21mic_H50_0350_fot_40488_tif
  70
32
  10
541606.137
  20
4621052.069
  30
1102.947
  0
VERTEX
  8
PNOA-H_AMS_1956-57_33k_ES_PAN_21mic_H50_0350_fot_40488_tif
  70
32
  10
541606.004
  20
4621043.286
  30
1102.958
  0
VERTEX
  8
PNOA-H_AMS_1956-57_33k_ES_PAN_21mic_H50_0350_fot_40488_tif
  70
32
  10
541606.000
  20
4621043.000
  30
1102.959
  0
SEQEND
  8
PNOA-H_AMS_1956-57_33k_ES_PAN_21mic_H50_0350_fot_40488_tif
  0
INSERT
  8
FeatureAttribs
  2
FEATURE
  41
1
  42
1
  43
1
  50
0
  10
540348.963
  20
4618640.085
 66
1
  0
ATTRIB
  8
FeatureAttribs
 70
0
  1
PNOA-H_AMS_1956-57_33k_ES_PAN_21mic_H50_0349_fot_37217.tif
  2
NAME
  10
540348.963
  20
4618640.085
 40
33.55473
  0
SEQEND
  0
POLYLINE
  8
PNOA-H_AMS_1956-57_33k_ES_PAN_21mic_H50_0349_fot_37217_tif
  70
9
  66
1
  0
VERTEX
  8
PNOA-H_AMS_1956-57_33k_ES_PAN_21mic_H50_0349_fot_37217_tif
  70
32
  10
540643.238
  20
4616421.595
  30
1078.33
  0
VERTEX
  8
PNOA-H_AMS_1956-57_33k_ES_PAN_21mic_H50_0349_fot_37217_tif
  70
32
  10
540643.000
  20
4616421.500
  30
1078.315
  0
VERTEX
  8
PNOA-H_AMS_1956-57_33k_ES_PAN_21mic_H50_0349_fot_37217_tif
  70
32
  10
539869.897
  20
4616479.822
  30
1078.995
  0
VERTEX
  8
PNOA-H_AMS_1956-57_33k_ES_PAN_21mic_H50_0349_fot_37217_tif
  70
32
  10
539869.897
  20
4616479.825
  30
1078.995
  0
VERTEX
  8
PNOA-H_AMS_1956-57_33k_ES_PAN_21mic_H50_0349_fot_37217_tif
  70
32
  10
539864.197
  20
4617504.543
  30
0
  0
VERTEX
  8
PNOA-H_AMS_1956-57_33k_ES_PAN_21mic_H50_0349_fot_37217_tif
  70
32
  10
539851.324
  20
4619817.540
  30
0
  0
VERTEX
  8
PNOA-H_AMS_1956-57_33k_ES_PAN_21mic_H50_0349_fot_37217_tif
  70
32
  10
539845.527
  20
4620858.670
  30
1132.235
  0
VERTEX
  8
PNOA-H_AMS_1956-57_33k_ES_PAN_21mic_H50_0349_fot_37217_tif
  70
32
  10
540767.000
  20
4620681.000
  30
1179.539
  0
VERTEX
  8
PNOA-H_AMS_1956-57_33k_ES_PAN_21mic_H50_0349_fot_37217_tif
  70
32
  10
540913.500
  20
4616588.000
  30
1070.132
  0
VERTEX
  8
PNOA-H_AMS_1956-57_33k_ES_PAN_21mic_H50_0349_fot_37217_tif
  70
32
  10
540913.478
  20
4616587.987
  30
1070.133
  0
VERTEX
  8
PNOA-H_AMS_1956-57_33k_ES_PAN_21mic_H50_0349_fot_37217_tif
  70
32
  10
540912.776
  20
4616587.551
  30
1070.156
  0
VERTEX
  8
PNOA-H_AMS_1956-57_33k_ES_PAN_21mic_H50_0349_fot_37217_tif
  70
32
  10
540815.308
  20
4616527.162
  30
1073.277
  0
VERTEX
  8
PNOA-H_AMS_1956-57_33k_ES_PAN_21mic_H50_0349_fot_37217_tif
  70
32
  10
540648.000
  20
4616423.500
  30
1078.635
  0
VERTEX
  8
PNOA-H_AMS_1956-57_33k_ES_PAN_21mic_H50_0349_fot_37217_tif
  70
32
  10
540644.964
  20
4616422.285
  30
1078.441
  0
VERTEX
  8
PNOA-H_AMS_1956-57_33k_ES_PAN_21mic_H50_0349_fot_37217_tif
  70
32
  10
540643.238
  20
4616421.595
  30
1078.33
  0
SEQEND
  8
PNOA-H_AMS_1956-57_33k_ES_PAN_21mic_H50_0349_fot_37217_tif
  0
INSERT
  8
FeatureAttribs
  2
FEATURE
  41
1
  42
1
  43
1
  50
0
  10
547660.001
  20
4627698.500
 66
1
  0
ATTRIB
  8
FeatureAttribs
 70
0
  1
PNOA-H_AMS_1956-57_33k_ES_PAN_21mic_H50_0350_fot_34C-40406_E.tif
  2
NAME
  10
547660.001
  20
4627698.500
 40
33.55473
  0
SEQEND
  0
POLYLINE
  8
PNOA-H_AMS_1956-57_33k_ES_PAN_21mic_H50_0350_fot_34C-40406_E_tif
  70
9
  66
1
  0
VERTEX
  8
PNOA-H_AMS_1956-57_33k_ES_PAN_21mic_H50_0350_fot_34C-40406_E_tif
  70
32
  10
546789.856
  20
4625197.067
  30
1056.266
  0
VERTEX
  8
PNOA-H_AMS_1956-57_33k_ES_PAN_21mic_H50_0350_fot_34C-40406_E_tif
  70
32
  10
546789.000
  20
4625197.000
  30
1056.26
  0
VERTEX
  8
PNOA-H_AMS_1956-57_33k_ES_PAN_21mic_H50_0350_fot_34C-40406_E_tif
  70
32
  10
546233.128
  20
4625453.249
  30
1053.569
  0
VERTEX
  8
PNOA-H_AMS_1956-57_33k_ES_PAN_21mic_H50_0350_fot_34C-40406_E_tif
  70
32
  10
546231.500
  20
4625454.000
  30
1053.561
  0
VERTEX
  8
PNOA-H_AMS_1956-57_33k_ES_PAN_21mic_H50_0350_fot_34C-40406_E_tif
  70
32
  10
546318.500
  20
4629958.500
  30
1024.54
  0
VERTEX
  8
PNOA-H_AMS_1956-57_33k_ES_PAN_21mic_H50_0350_fot_34C-40406_E_tif
  70
32
  10
546475.479
  20
4630024.756
  30
1023.964
  0
VERTEX
  8
PNOA-H_AMS_1956-57_33k_ES_PAN_21mic_H50_0350_fot_34C-40406_E_tif
  70
32
  10
546542.398
  20
4630053.000
  30
1023.719
  0
VERTEX
  8
PNOA-H_AMS_1956-57_33k_ES_PAN_21mic_H50_0350_fot_34C-40406_E_tif
  70
32
  10
546889.500
  20
4630199.500
  30
1022.446
  0
VERTEX
  8
PNOA-H_AMS_1956-57_33k_ES_PAN_21mic_H50_0350_fot_34C-40406_E_tif
  70
32
  10
546891.000
  20
4630200.000
  30
1022.45
  0
VERTEX
  8
PNOA-H_AMS_1956-57_33k_ES_PAN_21mic_H50_0350_fot_34C-40406_E_tif
  70
32
  10
546891.006
  20
4630199.999
  30
1022.45
  0
VERTEX
  8
PNOA-H_AMS_1956-57_33k_ES_PAN_21mic_H50_0350_fot_34C-40406_E_tif
  70
32
  10
549092.620
  20
4629900.052
  30
1035.805
  0
VERTEX
  8
PNOA-H_AMS_1956-57_33k_ES_PAN_21mic_H50_0350_fot_34C-40406_E_tif
  70
32
  10
549093.000
  20
4629900.000
  30
1035.807
  0
VERTEX
  8
PNOA-H_AMS_1956-57_33k_ES_PAN_21mic_H50_0350_fot_34C-40406_E_tif
  70
32
  10
549092.994
  20
4629899.732
  30
1035.809
  0
VERTEX
  8
PNOA-H_AMS_1956-57_33k_ES_PAN_21mic_H50_0350_fot_34C-40406_E_tif
  70
32
  10
548995.500
  20
4625414.000
  30
1072.526
  0
VERTEX
  8
PNOA-H_AMS_1956-57_33k_ES_PAN_21mic_H50_0350_fot_34C-40406_E_tif
  70
32
  10
548994.905
  20
4625387.223
  30
1072.09
  0
VERTEX
  8
PNOA-H_AMS_1956-57_33k_ES_PAN_21mic_H50_0350_fot_34C-40406_E_tif
  70
32
  10
548994.500
  20
4625369.000
  30
1071.794
  0
VERTEX
  8
PNOA-H_AMS_1956-57_33k_ES_PAN_21mic_H50_0350_fot_34C-40406_E_tif
  70
32
  10
548993.982
  20
4625368.741
  30
1071.818
  0
VERTEX
  8
PNOA-H_AMS_1956-57_33k_ES_PAN_21mic_H50_0350_fot_34C-40406_E_tif
  70
32
  10
548993.500
  20
4625368.500
  30
1071.841
  0
VERTEX
  8
PNOA-H_AMS_1956-57_33k_ES_PAN_21mic_H50_0350_fot_34C-40406_E_tif
  70
32
  10
547082.933
  20
4625219.867
  30
1058.337
  0
VERTEX
  8
PNOA-H_AMS_1956-57_33k_ES_PAN_21mic_H50_0350_fot_34C-40406_E_tif
  70
32
  10
546789.856
  20
4625197.067
  30
1056.266
  0
SEQEND
  8
PNOA-H_AMS_1956-57_33k_ES_PAN_21mic_H50_0350_fot_34C-40406_E_tif
  0
INSERT
  8
FeatureAttribs
  2
FEATURE
  41
1
  42
1
  43
1
  50
0
  10
544921.831
  20
4627716.500
 66
1
  0
ATTRIB
  8
FeatureAttribs
 70
0
  1
PNOA-H_AMS_1956-57_33k_ES_PAN_21mic_H50_0350_fot_34C-40405_E.tif
  2
NAME
  10
544921.831
  20
4627716.500
 40
33.55473
  0
SEQEND
  0
POLYLINE
  8
PNOA-H_AMS_1956-57_33k_ES_PAN_21mic_H50_0350_fot_34C-40405_E_tif
  70
9
  66
1
  0
VERTEX
  8
PNOA-H_AMS_1956-57_33k_ES_PAN_21mic_H50_0350_fot_34C-40405_E_tif
  70
32
  10
544257.910
  20
4625195.054
  30
1054.91
  0
VERTEX
  8
PNOA-H_AMS_1956-57_33k_ES_PAN_21mic_H50_0350_fot_34C-40405_E_tif
  70
32
  10
544257.500
  20
4625195.000
  30
1054.91
  0
VERTEX
  8
PNOA-H_AMS_1956-57_33k_ES_PAN_21mic_H50_0350_fot_34C-40405_E_tif
  70
32
  10
543600.115
  20
4625476.808
  30
1069.439
  0
VERTEX
  8
PNOA-H_AMS_1956-57_33k_ES_PAN_21mic_H50_0350_fot_34C-40405_E_tif
  70
32
  10
543598.500
  20
4625477.500
  30
1069.475
  0
VERTEX
  8
PNOA-H_AMS_1956-57_33k_ES_PAN_21mic_H50_0350_fot_34C-40405_E_tif
  70
32
  10
543538.000
  20
4629987.500
  30
1022.084
  0
VERTEX
  8
PNOA-H_AMS_1956-57_33k_ES_PAN_21mic_H50_0350_fot_34C-40405_E_tif
  70
32
  10
543538.182
  20
4629987.581
  30
1022.083
  0
VERTEX
  8
PNOA-H_AMS_1956-57_33k_ES_PAN_21mic_H50_0350_fot_34C-40405_E_tif
  70
32
  10
544101.000
  20
4630237.500
  30
1019.836
  0
VERTEX
  8
PNOA-H_AMS_1956-57_33k_ES_PAN_21mic_H50_0350_fot_34C-40405_E_tif
  70
32
  10
544102.000
  20
4630238.000
  30
1019.809
  0
VERTEX
  8
PNOA-H_AMS_1956-57_33k_ES_PAN_21mic_H50_0350_fot_34C-40405_E_tif
  70
32
  10
544102.005
  20
4630237.999
  30
1019.809
  0
VERTEX
  8
PNOA-H_AMS_1956-57_33k_ES_PAN_21mic_H50_0350_fot_34C-40405_E_tif
  70
32
  10
546318.500
  20
4629958.500
  30
1024.54
  0
VERTEX
  8
PNOA-H_AMS_1956-57_33k_ES_PAN_21mic_H50_0350_fot_34C-40405_E_tif
  70
32
  10
546231.500
  20
4625454.000
  30
1053.561
  0
VERTEX
  8
PNOA-H_AMS_1956-57_33k_ES_PAN_21mic_H50_0350_fot_34C-40405_E_tif
  70
32
  10
546230.048
  20
4625453.809
  30
1053.562
  0
VERTEX
  8
PNOA-H_AMS_1956-57_33k_ES_PAN_21mic_H50_0350_fot_34C-40405_E_tif
  70
32
  10
544566.386
  20
4625235.528
  30
1054.699
  0
VERTEX
  8
PNOA-H_AMS_1956-57_33k_ES_PAN_21mic_H50_0350_fot_34C-40405_E_tif
  70
32
  10
544257.910
  20
4625195.054
  30
1054.91
  0
SEQEND
  8
PNOA-H_AMS_1956-57_33k_ES_PAN_21mic_H50_0350_fot_34C-40405_E_tif
  0
INSERT
  8
FeatureAttribs
  2
FEATURE
  41
1
  42
1
  43
1
  50
0
  10
542228.220
  20
4627693.750
 66
1
  0
ATTRIB
  8
FeatureAttribs
 70
0
  1
PNOA-H_AMS_1956-57_33k_ES_PAN_21mic_H50_0350_fot_34C-40404_E.tif
  2
NAME
  10
542228.220
  20
4627693.750
 40
33.55473
  0
SEQEND
  0
POLYLINE
  8
PNOA-H_AMS_1956-57_33k_ES_PAN_21mic_H50_0350_fot_34C-40404_E_tif
  70
9
  66
1
  0
VERTEX
  8
PNOA-H_AMS_1956-57_33k_ES_PAN_21mic_H50_0350_fot_34C-40404_E_tif
  70
32
  10
543597.623
  20
4625477.362
  30
1069.488
  0
VERTEX
  8
PNOA-H_AMS_1956-57_33k_ES_PAN_21mic_H50_0350_fot_34C-40404_E_tif
  70
32
  10
541668.500
  20
4625173.000
  30
1097.487
  0
VERTEX
  8
PNOA-H_AMS_1956-57_33k_ES_PAN_21mic_H50_0350_fot_34C-40404_E_tif
  70
32
  10
541668.492
  20
4625173.003
  30
1097.487
  0
VERTEX
  8
PNOA-H_AMS_1956-57_33k_ES_PAN_21mic_H50_0350_fot_34C-40404_E_tif
  70
32
  10
540885.790
  20
4625500.878
  30
1112.338
  0
VERTEX
  8
PNOA-H_AMS_1956-57_33k_ES_PAN_21mic_H50_0350_fot_34C-40404_E_tif
  70
32
  10
540885.500
  20
4625501.000
  30
1112.343
  0
VERTEX
  8
PNOA-H_AMS_1956-57_33k_ES_PAN_21mic_H50_0350_fot_34C-40404_E_tif
  70
32
  10
540890.000
  20
4630046.000
  30
1019.48
  0
VERTEX
  8
PNOA-H_AMS_1956-57_33k_ES_PAN_21mic_H50_0350_fot_34C-40404_E_tif
  70
32
  10
540890.000
  20
4630046.500
  30
1019.47
  0
VERTEX
  8
PNOA-H_AMS_1956-57_33k_ES_PAN_21mic_H50_0350_fot_34C-40404_E_tif
  70
32
  10
541244.500
  20
4630214.000
  30
1017.843
  0
VERTEX
  8
PNOA-H_AMS_1956-57_33k_ES_PAN_21mic_H50_0350_fot_34C-40404_E_tif
  70
32
  10
541245.500
  20
4630214.500
  30
1017.841
  0
VERTEX
  8
PNOA-H_AMS_1956-57_33k_ES_PAN_21mic_H50_0350_fot_34C-40404_E_tif
  70
32
  10
541245.582
  20
4630214.492
  30
1017.842
  0
VERTEX
  8
PNOA-H_AMS_1956-57_33k_ES_PAN_21mic_H50_0350_fot_34C-40404_E_tif
  70
32
  10
543538.000
  20
4629987.500
  30
1022.084
  0
VERTEX
  8
PNOA-H_AMS_1956-57_33k_ES_PAN_21mic_H50_0350_fot_34C-40404_E_tif
  70
32
  10
543598.500
  20
4625477.500
  30
1069.475
  0
VERTEX
  8
PNOA-H_AMS_1956-57_33k_ES_PAN_21mic_H50_0350_fot_34C-40404_E_tif
  70
32
  10
543597.623
  20
4625477.362
  30
1069.488
  0
SEQEND
  8
PNOA-H_AMS_1956-57_33k_ES_PAN_21mic_H50_0350_fot_34C-40404_E_tif
  0
INSERT
  8
FeatureAttribs
  2
FEATURE
  41
1
  42
1
  43
1
  50
0
  10
547979.661
  20
4623055.500
 66
1
  0
ATTRIB
  8
FeatureAttribs
 70
0
  1
PNOA-H_AMS_1956-57_33k_ES_PAN_21mic_H50_0350_fot_40485.tif
  2
NAME
  10
547979.661
  20
4623055.500
 40
33.55473
  0
SEQEND
  0
POLYLINE
  8
PNOA-H_AMS_1956-57_33k_ES_PAN_21mic_H50_0350_fot_40485_tif
  70
9
  66
1
  0
VERTEX
  8
PNOA-H_AMS_1956-57_33k_ES_PAN_21mic_H50_0350_fot_40485_tif
  70
32
  10
549193.000
  20
4620850.500
  30
1052.092
  0
VERTEX
  8
PNOA-H_AMS_1956-57_33k_ES_PAN_21mic_H50_0350_fot_40485_tif
  70
32
  10
549004.500
  20
4620742.000
  30
1057.027
  0
VERTEX
  8
PNOA-H_AMS_1956-57_33k_ES_PAN_21mic_H50_0350_fot_40485_tif
  70
32
  10
549003.650
  20
4620742.086
  30
1057.047
  0
VERTEX
  8
PNOA-H_AMS_1956-57_33k_ES_PAN_21mic_H50_0350_fot_40485_tif
  70
32
  10
546726.570
  20
4620972.993
  30
1108.784
  0
VERTEX
  8
PNOA-H_AMS_1956-57_33k_ES_PAN_21mic_H50_0350_fot_40485_tif
  70
32
  10
546726.500
  20
4620973.000
  30
1108.785
  0
VERTEX
  8
PNOA-H_AMS_1956-57_33k_ES_PAN_21mic_H50_0350_fot_40485_tif
  70
32
  10
546790.000
  20
4625197.000
  30
1056.264
  0
VERTEX
  8
PNOA-H_AMS_1956-57_33k_ES_PAN_21mic_H50_0350_fot_40485_tif
  70
32
  10
547082.933
  20
4625219.867
  30
1058.368
  0
VERTEX
  8
PNOA-H_AMS_1956-57_33k_ES_PAN_21mic_H50_0350_fot_40485_tif
  70
32
  10
548987.000
  20
4625368.500
  30
1072.046
  0
VERTEX
  8
PNOA-H_AMS_1956-57_33k_ES_PAN_21mic_H50_0350_fot_40485_tif
  70
32
  10
548993.500
  20
4625369.000
  30
1071.82
  0
VERTEX
  8
PNOA-H_AMS_1956-57_33k_ES_PAN_21mic_H50_0350_fot_40485_tif
  70
32
  10
548993.982
  20
4625368.741
  30
1071.837
  0
VERTEX
  8
PNOA-H_AMS_1956-57_33k_ES_PAN_21mic_H50_0350_fot_40485_tif
  70
32
  10
549009.761
  20
4625360.250
  30
1072.4
  0
VERTEX
  8
PNOA-H_AMS_1956-57_33k_ES_PAN_21mic_H50_0350_fot_40485_tif
  70
32
  10
549210.000
  20
4625252.500
  30
1079.543
  0
VERTEX
  8
PNOA-H_AMS_1956-57_33k_ES_PAN_21mic_H50_0350_fot_40485_tif
  70
32
  10
549209.999
  20
4625252.001
  30
1079.54
  0
VERTEX
  8
PNOA-H_AMS_1956-57_33k_ES_PAN_21mic_H50_0350_fot_40485_tif
  70
32
  10
549193.000
  20
4620850.500
  30
1052.092
  0
SEQEND
  8
PNOA-H_AMS_1956-57_33k_ES_PAN_21mic_H50_0350_fot_40485_tif
  0
INSERT
  8
FeatureAttribs
  2
FEATURE
  41
1
  42
1
  43
1
  50
0
  10
545496.686
  20
4623101.250
 66
1
  0
ATTRIB
  8
FeatureAttribs
 70
0
  1
PNOA-H_AMS_1956-57_33k_ES_PAN_21mic_H50_0350_fot_40486.tif
  2
NAME
  10
545496.686
  20
4623101.250
 40
33.55473
  0
SEQEND
  0
POLYLINE
  8
PNOA-H_AMS_1956-57_33k_ES_PAN_21mic_H50_0350_fot_40486_tif
  70
9
  66
1
  0
VERTEX
  8
PNOA-H_AMS_1956-57_33k_ES_PAN_21mic_H50_0350_fot_40486_tif
  70
32
  10
546725.500
  20
4620972.000
  30
1108.705
  0
VERTEX
  8
PNOA-H_AMS_1956-57_33k_ES_PAN_21mic_H50_0350_fot_40486_tif
  70
32
  10
546261.000
  20
4620748.500
  30
1098.615
  0
VERTEX
  8
PNOA-H_AMS_1956-57_33k_ES_PAN_21mic_H50_0350_fot_40486_tif
  70
32
  10
546260.609
  20
4620748.553
  30
1098.612
  0
VERTEX
  8
PNOA-H_AMS_1956-57_33k_ES_PAN_21mic_H50_0350_fot_40486_tif
  70
32
  10
545919.824
  20
4620794.528
  30
1095.935
  0
VERTEX
  8
PNOA-H_AMS_1956-57_33k_ES_PAN_21mic_H50_0350_fot_40486_tif
  70
32
  10
545226.985
  20
4620888.000
  30
1090.492
  0
VERTEX
  8
PNOA-H_AMS_1956-57_33k_ES_PAN_21mic_H50_0350_fot_40486_tif
  70
32
  10
544211.500
  20
4621025.000
  30
1082.514
  0
VERTEX
  8
PNOA-H_AMS_1956-57_33k_ES_PAN_21mic_H50_0350_fot_40486_tif
  70
32
  10
544258.000
  20
4625195.000
  30
1054.827
  0
VERTEX
  8
PNOA-H_AMS_1956-57_33k_ES_PAN_21mic_H50_0350_fot_40486_tif
  70
32
  10
544566.386
  20
4625235.528
  30
1054.626
  0
VERTEX
  8
PNOA-H_AMS_1956-57_33k_ES_PAN_21mic_H50_0350_fot_40486_tif
  70
32
  10
546225.000
  20
4625453.500
  30
1053.547
  0
VERTEX
  8
PNOA-H_AMS_1956-57_33k_ES_PAN_21mic_H50_0350_fot_40486_tif
  70
32
  10
546229.000
  20
4625454.000
  30
1053.56
  0
VERTEX
  8
PNOA-H_AMS_1956-57_33k_ES_PAN_21mic_H50_0350_fot_40486_tif
  70
32
  10
546230.048
  20
4625453.809
  30
1053.565
  0
VERTEX
  8
PNOA-H_AMS_1956-57_33k_ES_PAN_21mic_H50_0350_fot_40486_tif
  70
32
  10
546233.128
  20
4625453.249
  30
1053.581
  0
VERTEX
  8
PNOA-H_AMS_1956-57_33k_ES_PAN_21mic_H50_0350_fot_40486_tif
  70
32
  10
546234.500
  20
4625453.000
  30
1053.588
  0
VERTEX
  8
PNOA-H_AMS_1956-57_33k_ES_PAN_21mic_H50_0350_fot_40486_tif
  70
32
  10
546789.856
  20
4625197.067
  30
1056.263
  0
VERTEX
  8
PNOA-H_AMS_1956-57_33k_ES_PAN_21mic_H50_0350_fot_40486_tif
  70
32
  10
546790.000
  20
4625197.000
  30
1056.264
  0
VERTEX
  8
PNOA-H_AMS_1956-57_33k_ES_PAN_21mic_H50_0350_fot_40486_tif
  70
32
  10
546727.000
  20
4620976.000
  30
1108.923
  0
VERTEX
  8
PNOA-H_AMS_1956-57_33k_ES_PAN_21mic_H50_0350_fot_40486_tif
  70
32
  10
546726.570
  20
4620972.993
  30
1108.787
  0
VERTEX
  8
PNOA-H_AMS_1956-57_33k_ES_PAN_21mic_H50_0350_fot_40486_tif
  70
32
  10
546726.500
  20
4620972.500
  30
1108.765
  0
VERTEX
  8
PNOA-H_AMS_1956-57_33k_ES_PAN_21mic_H50_0350_fot_40486_tif
  70
32
  10
546725.500
  20
4620972.000
  30
1108.705
  0
SEQEND
  8
PNOA-H_AMS_1956-57_33k_ES_PAN_21mic_H50_0350_fot_40486_tif
  0
INSERT
  8
FeatureAttribs
  2
FEATURE
  41
1
  42
1
  43
1
  50
0
  10
542935.816
  20
4623094.750
 66
1
  0
ATTRIB
  8
FeatureAttribs
 70
0
  1
PNOA-H_AMS_1956-57_33k_ES_PAN_21mic_H50_0350_fot_40487.tif
  2
NAME
  10
542935.816
  20
4623094.750
 40
33.55473
  0
SEQEND
  0
POLYLINE
  8
PNOA-H_AMS_1956-57_33k_ES_PAN_21mic_H50_0350_fot_40487_tif
  70
9
  66
1
  0
VERTEX
  8
PNOA-H_AMS_1956-57_33k_ES_PAN_21mic_H50_0350_fot_40487_tif
  70
32
  10
544211.388
  20
4621024.948
  30
1082.513
  0
VERTEX
  8
PNOA-H_AMS_1956-57_33k_ES_PAN_21mic_H50_0350_fot_40487_tif
  70
32
  10
543546.000
  20
4620712.000
  30
1076.307
  0
VERTEX
  8
PNOA-H_AMS_1956-57_33k_ES_PAN_21mic_H50_0350_fot_40487_tif
  70
32
  10
543545.633
  20
4620712.063
  30
1076.312
  0
VERTEX
  8
PNOA-H_AMS_1956-57_33k_ES_PAN_21mic_H50_0350_fot_40487_tif
  70
32
  10
543262.827
  20
4620760.327
  30
1080.193
  0
VERTEX
  8
PNOA-H_AMS_1956-57_33k_ES_PAN_21mic_H50_0350_fot_40487_tif
  70
32
  10
541606.500
  20
4621043.000
  30
1102.921
  0
VERTEX
  8
PNOA-H_AMS_1956-57_33k_ES_PAN_21mic_H50_0350_fot_40487_tif
  70
32
  10
541606.480
  20
4621043.492
  30
1102.914
  0
VERTEX
  8
PNOA-H_AMS_1956-57_33k_ES_PAN_21mic_H50_0350_fot_40487_tif
  70
32
  10
541606.137
  20
4621052.069
  30
1102.792
  0
VERTEX
  8
PNOA-H_AMS_1956-57_33k_ES_PAN_21mic_H50_0350_fot_40487_tif
  70
32
  10
541606.000
  20
4621055.500
  30
1102.743
  0
VERTEX
  8
PNOA-H_AMS_1956-57_33k_ES_PAN_21mic_H50_0350_fot_40487_tif
  70
32
  10
541666.096
  20
4625014.635
  30
1097.689
  0
VERTEX
  8
PNOA-H_AMS_1956-57_33k_ES_PAN_21mic_H50_0350_fot_40487_tif
  70
32
  10
541668.500
  20
4625173.000
  30
1097.487
  0
VERTEX
  8
PNOA-H_AMS_1956-57_33k_ES_PAN_21mic_H50_0350_fot_40487_tif
  70
32
  10
543594.000
  20
4625477.000
  30
1069.79
  0
VERTEX
  8
PNOA-H_AMS_1956-57_33k_ES_PAN_21mic_H50_0350_fot_40487_tif
  70
32
  10
543597.000
  20
4625477.500
  30
1069.567
  0
VERTEX
  8
PNOA-H_AMS_1956-57_33k_ES_PAN_21mic_H50_0350_fot_40487_tif
  70
32
  10
543597.623
  20
4625477.362
  30
1069.538
  0
VERTEX
  8
PNOA-H_AMS_1956-57_33k_ES_PAN_21mic_H50_0350_fot_40487_tif
  70
32
  10
543600.115
  20
4625476.808
  30
1069.424
  0
VERTEX
  8
PNOA-H_AMS_1956-57_33k_ES_PAN_21mic_H50_0350_fot_40487_tif
  70
32
  10
543601.500
  20
4625476.500
  30
1069.361
  0
VERTEX
  8
PNOA-H_AMS_1956-57_33k_ES_PAN_21mic_H50_0350_fot_40487_tif
  70
32
  10
544255.500
  20
4625196.500
  30
1055.352
  0
VERTEX
  8
PNOA-H_AMS_1956-57_33k_ES_PAN_21mic_H50_0350_fot_40487_tif
  70
32
  10
544257.910
  20
4625195.054
  30
1054.846
  0
VERTEX
  8
PNOA-H_AMS_1956-57_33k_ES_PAN_21mic_H50_0350_fot_40487_tif
  70
32
  10
544258.000
  20
4625195.000
  30
1054.827
  0
VERTEX
  8
PNOA-H_AMS_1956-57_33k_ES_PAN_21mic_H50_0350_fot_40487_tif
  70
32
  10
544258.000
  20
4625177.500
  30
1055.422
  0
VERTEX
  8
PNOA-H_AMS_1956-57_33k_ES_PAN_21mic_H50_0350_fot_40487_tif
  70
32
  10
544211.500
  20
4621025.000
  30
1082.514
  0
VERTEX
  8
PNOA-H_AMS_1956-57_33k_ES_PAN_21mic_H50_0350_fot_40487_tif
  70
32
  10
544211.388
  20
4621024.948
  30
1082.513
  0
SEQEND
  8
PNOA-H_AMS_1956-57_33k_ES_PAN_21mic_H50_0350_fot_40487_tif
  0
INSERT
  8
FeatureAttribs
  2
FEATURE
  41
1
  42
1
  43
1
  50
0
  10
547623.984
  20
4618714.500
 66
1
  0
ATTRIB
  8
FeatureAttribs
 70
0
  1
PNOA-H_AMS_1956-57_33k_ES_PAN_21mic_H50_0350_fot_37220.tif
  2
NAME
  10
547623.984
  20
4618714.500
 40
33.55473
  0
SEQEND
  0
POLYLINE
  8
PNOA-H_AMS_1956-57_33k_ES_PAN_21mic_H50_0350_fot_37220_tif
  70
9
  66
1
  0
VERTEX
  8
PNOA-H_AMS_1956-57_33k_ES_PAN_21mic_H50_0350_fot_37220_tif
  70
32
  10
548976.500
  20
4616569.500
  30
993.263
  0
VERTEX
  8
PNOA-H_AMS_1956-57_33k_ES_PAN_21mic_H50_0350_fot_37220_tif
  70
32
  10
546432.000
  20
4616456.000
  30
989.801
  0
VERTEX
  8
PNOA-H_AMS_1956-57_33k_ES_PAN_21mic_H50_0350_fot_37220_tif
  70
32
  10
546431.988
  20
4616456.007
  30
989.801
  0
VERTEX
  8
PNOA-H_AMS_1956-57_33k_ES_PAN_21mic_H50_0350_fot_37220_tif
  70
32
  10
546254.500
  20
4616559.000
  30
990.38
  0
VERTEX
  8
PNOA-H_AMS_1956-57_33k_ES_PAN_21mic_H50_0350_fot_37220_tif
  70
32
  10
546260.500
  20
4620748.500
  30
1098.584
  0
VERTEX
  8
PNOA-H_AMS_1956-57_33k_ES_PAN_21mic_H50_0350_fot_37220_tif
  70
32
  10
546260.609
  20
4620748.553
  30
1098.586
  0
VERTEX
  8
PNOA-H_AMS_1956-57_33k_ES_PAN_21mic_H50_0350_fot_37220_tif
  70
32
  10
546726.500
  20
4620973.000
  30
1108.785
  0
VERTEX
  8
PNOA-H_AMS_1956-57_33k_ES_PAN_21mic_H50_0350_fot_37220_tif
  70
32
  10
546726.570
  20
4620972.993
  30
1108.784
  0
VERTEX
  8
PNOA-H_AMS_1956-57_33k_ES_PAN_21mic_H50_0350_fot_37220_tif
  70
32
  10
547270.500
  20
4620917.500
  30
1101.983
  0
VERTEX
  8
PNOA-H_AMS_1956-57_33k_ES_PAN_21mic_H50_0350_fot_37220_tif
  70
32
  10
547276.000
  20
4620917.000
  30
1102.19
  0
VERTEX
  8
PNOA-H_AMS_1956-57_33k_ES_PAN_21mic_H50_0350_fot_37220_tif
  70
32
  10
549003.500
  20
4620742.000
  30
1057.047
  0
VERTEX
  8
PNOA-H_AMS_1956-57_33k_ES_PAN_21mic_H50_0350_fot_37220_tif
  70
32
  10
548976.500
  20
4616569.500
  30
993.263
  0
SEQEND
  8
PNOA-H_AMS_1956-57_33k_ES_PAN_21mic_H50_0350_fot_37220_tif
  0
INSERT
  8
FeatureAttribs
  2
FEATURE
  41
1
  42
1
  43
1
  50
0
  10
544918.087
  20
4618779.250
 66
1
  0
ATTRIB
  8
FeatureAttribs
 70
0
  1
PNOA-H_AMS_1956-57_33k_ES_PAN_21mic_H50_0350_fot_37219.tif
  2
NAME
  10
544918.087
  20
4618779.250
 40
33.55473
  0
SEQEND
  0
POLYLINE
  8
PNOA-H_AMS_1956-57_33k_ES_PAN_21mic_H50_0350_fot_37219_tif
  70
9
  66
1
  0
VERTEX
  8
PNOA-H_AMS_1956-57_33k_ES_PAN_21mic_H50_0350_fot_37219_tif
  70
32
  10
544211.388
  20
4621024.948
  30
1082.504
  0
VERTEX
  8
PNOA-H_AMS_1956-57_33k_ES_PAN_21mic_H50_0350_fot_37219_tif
  70
32
  10
545225.000
  20
4620888.000
  30
1070.563
  0
VERTEX
  8
PNOA-H_AMS_1956-57_33k_ES_PAN_21mic_H50_0350_fot_37219_tif
  70
32
  10
545226.985
  20
4620888.000
  30
1072.029
  0
VERTEX
  8
PNOA-H_AMS_1956-57_33k_ES_PAN_21mic_H50_0350_fot_37219_tif
  70
32
  10
545228.000
  20
4620888.000
  30
1072.78
  0
VERTEX
  8
PNOA-H_AMS_1956-57_33k_ES_PAN_21mic_H50_0350_fot_37219_tif
  70
32
  10
545919.824
  20
4620794.528
  30
1090.07
  0
VERTEX
  8
PNOA-H_AMS_1956-57_33k_ES_PAN_21mic_H50_0350_fot_37219_tif
  70
32
  10
546260.500
  20
4620748.500
  30
1098.584
  0
VERTEX
  8
PNOA-H_AMS_1956-57_33k_ES_PAN_21mic_H50_0350_fot_37219_tif
  70
32
  10
546254.500
  20
4616559.000
  30
990.38
  0
VERTEX
  8
PNOA-H_AMS_1956-57_33k_ES_PAN_21mic_H50_0350_fot_37219_tif
  70
32
  10
543647.500
  20
4616533.500
  30
1009.267
  0
VERTEX
  8
PNOA-H_AMS_1956-57_33k_ES_PAN_21mic_H50_0350_fot_37219_tif
  70
32
  10
543617.000
  20
4616533.500
  30
1010.359
  0
VERTEX
  8
PNOA-H_AMS_1956-57_33k_ES_PAN_21mic_H50_0350_fot_37219_tif
  70
32
  10
543616.500
  20
4616553.000
  30
1010.248
  0
VERTEX
  8
PNOA-H_AMS_1956-57_33k_ES_PAN_21mic_H50_0350_fot_37219_tif
  70
32
  10
543545.500
  20
4620712.000
  30
1076.276
  0
VERTEX
  8
PNOA-H_AMS_1956-57_33k_ES_PAN_21mic_H50_0350_fot_37219_tif
  70
32
  10
543545.633
  20
4620712.063
  30
1076.278
  0
VERTEX
  8
PNOA-H_AMS_1956-57_33k_ES_PAN_21mic_H50_0350_fot_37219_tif
  70
32
  10
544211.000
  20
4621025.000
  30
1082.509
  0
VERTEX
  8
PNOA-H_AMS_1956-57_33k_ES_PAN_21mic_H50_0350_fot_37219_tif
  70
32
  10
544211.388
  20
4621024.948
  30
1082.504
  0
SEQEND
  8
PNOA-H_AMS_1956-57_33k_ES_PAN_21mic_H50_0350_fot_37219_tif
  0
INSERT
  8
FeatureAttribs
  2
FEATURE
  41
1
  42
1
  43
1
  50
0
  10
542206.918
  20
4618778.500
 66
1
  0
ATTRIB
  8
FeatureAttribs
 70
0
  1
PNOA-H_AMS_1956-57_33k_ES_PAN_21mic_H50_0350_fot_37218.tif
  2
NAME
  10
542206.918
  20
4618778.500
 40
33.55473
  0
SEQEND
  0
POLYLINE
  8
PNOA-H_AMS_1956-57_33k_ES_PAN_21mic_H50_0350_fot_37218_tif
  70
9
  66
1
  0
VERTEX
  8
PNOA-H_AMS_1956-57_33k_ES_PAN_21mic_H50_0350_fot_37218_tif
  70
32
  10
543579.823
  20
4616513.658
  30
1012.223
  0
VERTEX
  8
PNOA-H_AMS_1956-57_33k_ES_PAN_21mic_H50_0350_fot_37218_tif
  70
32
  10
543576.500
  20
4616513.500
  30
1012.409
  0
VERTEX
  8
PNOA-H_AMS_1956-57_33k_ES_PAN_21mic_H50_0350_fot_37218_tif
  70
32
  10
541053.658
  20
4616584.079
  30
1067.094
  0
VERTEX
  8
PNOA-H_AMS_1956-57_33k_ES_PAN_21mic_H50_0350_fot_37218_tif
  70
32
  10
540913.500
  20
4616588.000
  30
1070.132
  0
VERTEX
  8
PNOA-H_AMS_1956-57_33k_ES_PAN_21mic_H50_0350_fot_37218_tif
  70
32
  10
540767.000
  20
4620681.000
  30
1179.539
  0
VERTEX
  8
PNOA-H_AMS_1956-57_33k_ES_PAN_21mic_H50_0350_fot_37218_tif
  70
32
  10
540767.154
  20
4620681.067
  30
1179.529
  0
VERTEX
  8
PNOA-H_AMS_1956-57_33k_ES_PAN_21mic_H50_0350_fot_37218_tif
  70
32
  10
541130.000
  20
4620838.000
  30
1157.187
  0
VERTEX
  8
PNOA-H_AMS_1956-57_33k_ES_PAN_21mic_H50_0350_fot_37218_tif
  70
32
  10
541131.000
  20
4620838.500
  30
1157.065
  0
VERTEX
  8
PNOA-H_AMS_1956-57_33k_ES_PAN_21mic_H50_0350_fot_37218_tif
  70
32
  10
541606.004
  20
4621043.286
  30
1102.975
  0
VERTEX
  8
PNOA-H_AMS_1956-57_33k_ES_PAN_21mic_H50_0350_fot_37218_tif
  70
32
  10
541606.480
  20
4621043.492
  30
1102.921
  0
VERTEX
  8
PNOA-H_AMS_1956-57_33k_ES_PAN_21mic_H50_0350_fot_37218_tif
  70
32
  10
541606.500
  20
4621043.500
  30
1102.919
  0
VERTEX
  8
PNOA-H_AMS_1956-57_33k_ES_PAN_21mic_H50_0350_fot_37218_tif
  70
32
  10
543262.827
  20
4620760.327
  30
1080.161
  0
VERTEX
  8
PNOA-H_AMS_1956-57_33k_ES_PAN_21mic_H50_0350_fot_37218_tif
  70
32
  10
543545.500
  20
4620712.000
  30
1076.276
  0
VERTEX
  8
PNOA-H_AMS_1956-57_33k_ES_PAN_21mic_H50_0350_fot_37218_tif
  70
32
  10
543617.000
  20
4616553.000
  30
1010.23
  0
VERTEX
  8
PNOA-H_AMS_1956-57_33k_ES_PAN_21mic_H50_0350_fot_37218_tif
  70
32
  10
543617.000
  20
4616533.500
  30
1010.359
  0
VERTEX
  8
PNOA-H_AMS_1956-57_33k_ES_PAN_21mic_H50_0350_fot_37218_tif
  70
32
  10
543617.000
  20
4616533.000
  30
1010.363
  0
VERTEX
  8
PNOA-H_AMS_1956-57_33k_ES_PAN_21mic_H50_0350_fot_37218_tif
  70
32
  10
543587.000
  20
4616514.000
  30
1011.821
  0
VERTEX
  8
PNOA-H_AMS_1956-57_33k_ES_PAN_21mic_H50_0350_fot_37218_tif
  70
32
  10
543586.230
  20
4616513.963
  30
1011.864
  0
VERTEX
  8
PNOA-H_AMS_1956-57_33k_ES_PAN_21mic_H50_0350_fot_37218_tif
  70
32
  10
543579.823
  20
4616513.658
  30
1012.223
  0
SEQEND
  8
PNOA-H_AMS_1956-57_33k_ES_PAN_21mic_H50_0350_fot_37218_tif
  0
INSERT
  8
FeatureAttribs
  2
FEATURE
  41
1
  42
1
  43
1
  50
0
  10
553177.786
  20
4627685.000
 66
1
  0
ATTRIB
  8
FeatureAttribs
 70
0
  1
PNOA-H_AMS_1956-57_33k_ES_PAN_21mic_H50_0350_fot_34C-40408_E.tif
  2
NAME
  10
553177.786
  20
4627685.000
 40
33.55473
  0
SEQEND
  0
POLYLINE
  8
PNOA-H_AMS_1956-57_33k_ES_PAN_21mic_H50_0350_fot_34C-40408_E_tif
  70
9
  66
1
  0
VERTEX
  8
PNOA-H_AMS_1956-57_33k_ES_PAN_21mic_H50_0350_fot_34C-40408_E_tif
  70
32
  10
554504.000
  20
4625297.000
  30
1117.87
  0
VERTEX
  8
PNOA-H_AMS_1956-57_33k_ES_PAN_21mic_H50_0350_fot_34C-40408_E_tif
  70
32
  10
554427.500
  20
4625252.500
  30
1108.781
  0
VERTEX
  8
PNOA-H_AMS_1956-57_33k_ES_PAN_21mic_H50_0350_fot_34C-40408_E_tif
  70
32
  10
554427.007
  20
4625252.504
  30
1108.786
  0
VERTEX
  8
PNOA-H_AMS_1956-57_33k_ES_PAN_21mic_H50_0350_fot_34C-40408_E_tif
  70
32
  10
554426.153
  20
4625252.511
  30
1108.797
  0
VERTEX
  8
PNOA-H_AMS_1956-57_33k_ES_PAN_21mic_H50_0350_fot_34C-40408_E_tif
  70
32
  10
553411.500
  20
4625260.500
  30
1120.927
  0
VERTEX
  8
PNOA-H_AMS_1956-57_33k_ES_PAN_21mic_H50_0350_fot_34C-40408_E_tif
  70
32
  10
551824.000
  20
4625273.000
  30
1139.906
  0
VERTEX
  8
PNOA-H_AMS_1956-57_33k_ES_PAN_21mic_H50_0350_fot_34C-40408_E_tif
  70
32
  10
551793.500
  20
4629846.500
  30
1027.644
  0
VERTEX
  8
PNOA-H_AMS_1956-57_33k_ES_PAN_21mic_H50_0350_fot_34C-40408_E_tif
  70
32
  10
551793.500
  20
4629867.500
  30
1027.34
  0
VERTEX
  8
PNOA-H_AMS_1956-57_33k_ES_PAN_21mic_H50_0350_fot_34C-40408_E_tif
  70
32
  10
551795.500
  20
4629868.500
  30
1027.334
  0
VERTEX
  8
PNOA-H_AMS_1956-57_33k_ES_PAN_21mic_H50_0350_fot_34C-40408_E_tif
  70
32
  10
552357.000
  20
4630111.500
  30
1032.809
  0
VERTEX
  8
PNOA-H_AMS_1956-57_33k_ES_PAN_21mic_H50_0350_fot_34C-40408_E_tif
  70
32
  10
552371.000
  20
4630117.500
  30
1032.87
  0
VERTEX
  8
PNOA-H_AMS_1956-57_33k_ES_PAN_21mic_H50_0350_fot_34C-40408_E_tif
  70
32
  10
552372.500
  20
4630117.500
  30
1032.889
  0
VERTEX
  8
PNOA-H_AMS_1956-57_33k_ES_PAN_21mic_H50_0350_fot_34C-40408_E_tif
  70
32
  10
552376.500
  20
4630117.500
  30
1032.938
  0
VERTEX
  8
PNOA-H_AMS_1956-57_33k_ES_PAN_21mic_H50_0350_fot_34C-40408_E_tif
  70
32
  10
554587.000
  20
4629827.500
  30
1088.226
  0
VERTEX
  8
PNOA-H_AMS_1956-57_33k_ES_PAN_21mic_H50_0350_fot_34C-40408_E_tif
  70
32
  10
554586.991
  20
4629827.001
  30
1088.235
  0
VERTEX
  8
PNOA-H_AMS_1956-57_33k_ES_PAN_21mic_H50_0350_fot_34C-40408_E_tif
  70
32
  10
554516.000
  20
4625961.000
  30
1156.953
  0
VERTEX
  8
PNOA-H_AMS_1956-57_33k_ES_PAN_21mic_H50_0350_fot_34C-40408_E_tif
  70
32
  10
554516.000
  20
4625957.000
  30
1157.148
  0
VERTEX
  8
PNOA-H_AMS_1956-57_33k_ES_PAN_21mic_H50_0350_fot_34C-40408_E_tif
  70
32
  10
554505.169
  20
4625361.296
  30
1121.696
  0
VERTEX
  8
PNOA-H_AMS_1956-57_33k_ES_PAN_21mic_H50_0350_fot_34C-40408_E_tif
  70
32
  10
554504.009
  20
4625297.500
  30
1117.9
  0
VERTEX
  8
PNOA-H_AMS_1956-57_33k_ES_PAN_21mic_H50_0350_fot_34C-40408_E_tif
  70
32
  10
554504.000
  20
4625297.000
  30
1117.87
  0
SEQEND
  8
PNOA-H_AMS_1956-57_33k_ES_PAN_21mic_H50_0350_fot_34C-40408_E_tif
  0
INSERT
  8
FeatureAttribs
  2
FEATURE
  41
1
  42
1
  43
1
  50
0
  10
550426.330
  20
4627677.250
 66
1
  0
ATTRIB
  8
FeatureAttribs
 70
0
  1
PNOA-H_AMS_1956-57_33k_ES_PAN_21mic_H50_0350_fot_34C-40407_E.tif
  2
NAME
  10
550426.330
  20
4627677.250
 40
33.55473
  0
SEQEND
  0
POLYLINE
  8
PNOA-H_AMS_1956-57_33k_ES_PAN_21mic_H50_0350_fot_34C-40407_E_tif
  70
9
  66
1
  0
VERTEX
  8
PNOA-H_AMS_1956-57_33k_ES_PAN_21mic_H50_0350_fot_34C-40407_E_tif
  70
32
  10
551823.993
  20
4625272.996
  30
1139.905
  0
VERTEX
  8
PNOA-H_AMS_1956-57_33k_ES_PAN_21mic_H50_0350_fot_34C-40407_E_tif
  70
32
  10
551750.000
  20
4625229.000
  30
1133.448
  0
VERTEX
  8
PNOA-H_AMS_1956-57_33k_ES_PAN_21mic_H50_0350_fot_34C-40407_E_tif
  70
32
  10
551749.508
  20
4625229.004
  30
1133.438
  0
VERTEX
  8
PNOA-H_AMS_1956-57_33k_ES_PAN_21mic_H50_0350_fot_34C-40407_E_tif
  70
32
  10
549209.999
  20
4625252.001
  30
1079.699
  0
VERTEX
  8
PNOA-H_AMS_1956-57_33k_ES_PAN_21mic_H50_0350_fot_34C-40407_E_tif
  70
32
  10
549009.761
  20
4625360.250
  30
1072.373
  0
VERTEX
  8
PNOA-H_AMS_1956-57_33k_ES_PAN_21mic_H50_0350_fot_34C-40407_E_tif
  70
32
  10
548994.500
  20
4625368.500
  30
1071.815
  0
VERTEX
  8
PNOA-H_AMS_1956-57_33k_ES_PAN_21mic_H50_0350_fot_34C-40407_E_tif
  70
32
  10
548994.905
  20
4625387.223
  30
1071.666
  0
VERTEX
  8
PNOA-H_AMS_1956-57_33k_ES_PAN_21mic_H50_0350_fot_34C-40407_E_tif
  70
32
  10
549092.500
  20
4629899.500
  30
1035.815
  0
VERTEX
  8
PNOA-H_AMS_1956-57_33k_ES_PAN_21mic_H50_0350_fot_34C-40407_E_tif
  70
32
  10
549092.994
  20
4629899.732
  30
1035.807
  0
VERTEX
  8
PNOA-H_AMS_1956-57_33k_ES_PAN_21mic_H50_0350_fot_34C-40407_E_tif
  70
32
  10
549105.520
  20
4629905.612
  30
1035.612
  0
VERTEX
  8
PNOA-H_AMS_1956-57_33k_ES_PAN_21mic_H50_0350_fot_34C-40407_E_tif
  70
32
  10
549117.000
  20
4629911.000
  30
1035.433
  0
VERTEX
  8
PNOA-H_AMS_1956-57_33k_ES_PAN_21mic_H50_0350_fot_34C-40407_E_tif
  70
32
  10
549615.730
  20
4630125.384
  30
1030.332
  0
VERTEX
  8
PNOA-H_AMS_1956-57_33k_ES_PAN_21mic_H50_0350_fot_34C-40407_E_tif
  70
32
  10
549616.000
  20
4630125.500
  30
1030.329
  0
VERTEX
  8
PNOA-H_AMS_1956-57_33k_ES_PAN_21mic_H50_0350_fot_34C-40407_E_tif
  70
32
  10
551793.500
  20
4629867.500
  30
1027.34
  0
VERTEX
  8
PNOA-H_AMS_1956-57_33k_ES_PAN_21mic_H50_0350_fot_34C-40407_E_tif
  70
32
  10
551819.500
  20
4626000.000
  30
1097.128
  0
VERTEX
  8
PNOA-H_AMS_1956-57_33k_ES_PAN_21mic_H50_0350_fot_34C-40407_E_tif
  70
32
  10
551819.500
  20
4625957.000
  30
1099.681
  0
VERTEX
  8
PNOA-H_AMS_1956-57_33k_ES_PAN_21mic_H50_0350_fot_34C-40407_E_tif
  70
32
  10
551824.000
  20
4625273.000
  30
1139.906
  0
VERTEX
  8
PNOA-H_AMS_1956-57_33k_ES_PAN_21mic_H50_0350_fot_34C-40407_E_tif
  70
32
  10
551823.993
  20
4625272.996
  30
1139.905
  0
SEQEND
  8
PNOA-H_AMS_1956-57_33k_ES_PAN_21mic_H50_0350_fot_34C-40407_E_tif
  0
INSERT
  8
FeatureAttribs
  2
FEATURE
  41
1
  42
1
  43
1
  50
0
  10
553114.912
  20
4622996.000
 66
1
  0
ATTRIB
  8
FeatureAttribs
 70
0
  1
PNOA-H_AMS_1956-57_33k_ES_PAN_21mic_H50_0350_fot_40483.tif
  2
NAME
  10
553114.912
  20
4622996.000
 40
33.55473
  0
SEQEND
  0
POLYLINE
  8
PNOA-H_AMS_1956-57_33k_ES_PAN_21mic_H50_0350_fot_40483_tif
  70
9
  66
1
  0
VERTEX
  8
PNOA-H_AMS_1956-57_33k_ES_PAN_21mic_H50_0350_fot_40483_tif
  70
32
  10
551823.993
  20
4625272.996
  30
1139.858
  0
VERTEX
  8
PNOA-H_AMS_1956-57_33k_ES_PAN_21mic_H50_0350_fot_40483_tif
  70
32
  10
553400.000
  20
4625260.500
  30
1111.809
  0
VERTEX
  8
PNOA-H_AMS_1956-57_33k_ES_PAN_21mic_H50_0350_fot_40483_tif
  70
32
  10
553411.500
  20
4625260.500
  30
1111.857
  0
VERTEX
  8
PNOA-H_AMS_1956-57_33k_ES_PAN_21mic_H50_0350_fot_40483_tif
  70
32
  10
553420.000
  20
4625260.500
  30
1111.892
  0
VERTEX
  8
PNOA-H_AMS_1956-57_33k_ES_PAN_21mic_H50_0350_fot_40483_tif
  70
32
  10
554425.500
  20
4625253.000
  30
1108.625
  0
VERTEX
  8
PNOA-H_AMS_1956-57_33k_ES_PAN_21mic_H50_0350_fot_40483_tif
  70
32
  10
554426.153
  20
4625252.511
  30
1108.667
  0
VERTEX
  8
PNOA-H_AMS_1956-57_33k_ES_PAN_21mic_H50_0350_fot_40483_tif
  70
32
  10
554427.009
  20
4625251.868
  30
1108.722
  0
VERTEX
  8
PNOA-H_AMS_1956-57_33k_ES_PAN_21mic_H50_0350_fot_40483_tif
  70
32
  10
554427.500
  20
4625251.500
  30
1108.754
  0
VERTEX
  8
PNOA-H_AMS_1956-57_33k_ES_PAN_21mic_H50_0350_fot_40483_tif
  70
32
  10
554488.500
  20
4620938.000
  30
1029.399
  0
VERTEX
  8
PNOA-H_AMS_1956-57_33k_ES_PAN_21mic_H50_0350_fot_40483_tif
  70
32
  10
554488.493
  20
4620937.999
  30
1029.399
  0
VERTEX
  8
PNOA-H_AMS_1956-57_33k_ES_PAN_21mic_H50_0350_fot_40483_tif
  70
32
  10
554488.072
  20
4620937.962
  30
1029.399
  0
VERTEX
  8
PNOA-H_AMS_1956-57_33k_ES_PAN_21mic_H50_0350_fot_40483_tif
  70
32
  10
552005.000
  20
4620719.000
  30
1028.607
  0
VERTEX
  8
PNOA-H_AMS_1956-57_33k_ES_PAN_21mic_H50_0350_fot_40483_tif
  70
32
  10
552003.858
  20
4620719.208
  30
1028.554
  0
VERTEX
  8
PNOA-H_AMS_1956-57_33k_ES_PAN_21mic_H50_0350_fot_40483_tif
  70
32
  10
552001.202
  20
4620719.691
  30
1028.431
  0
VERTEX
  8
PNOA-H_AMS_1956-57_33k_ES_PAN_21mic_H50_0350_fot_40483_tif
  70
32
  10
551999.500
  20
4620720.000
  30
1028.352
  0
VERTEX
  8
PNOA-H_AMS_1956-57_33k_ES_PAN_21mic_H50_0350_fot_40483_tif
  70
32
  10
551790.501
  20
4620854.000
  30
1033.215
  0
VERTEX
  8
PNOA-H_AMS_1956-57_33k_ES_PAN_21mic_H50_0350_fot_40483_tif
  70
32
  10
551749.500
  20
4625229.000
  30
1133.402
  0
VERTEX
  8
PNOA-H_AMS_1956-57_33k_ES_PAN_21mic_H50_0350_fot_40483_tif
  70
32
  10
551749.508
  20
4625229.004
  30
1133.402
  0
VERTEX
  8
PNOA-H_AMS_1956-57_33k_ES_PAN_21mic_H50_0350_fot_40483_tif
  70
32
  10
551823.500
  20
4625273.000
  30
1139.866
  0
VERTEX
  8
PNOA-H_AMS_1956-57_33k_ES_PAN_21mic_H50_0350_fot_40483_tif
  70
32
  10
551823.993
  20
4625272.996
  30
1139.858
  0
SEQEND
  8
PNOA-H_AMS_1956-57_33k_ES_PAN_21mic_H50_0350_fot_40483_tif
  0
INSERT
  8
FeatureAttribs
  2
FEATURE
  41
1
  42
1
  43
1
  50
0
  10
550485.841
  20
4623051.250
 66
1
  0
ATTRIB
  8
FeatureAttribs
 70
0
  1
PNOA-H_AMS_1956-57_33k_ES_PAN_21mic_H50_0350_fot_40484.tif
  2
NAME
  10
550485.841
  20
4623051.250
 40
33.55473
  0
SEQEND
  0
POLYLINE
  8
PNOA-H_AMS_1956-57_33k_ES_PAN_21mic_H50_0350_fot_40484_tif
  70
9
  66
1
  0
VERTEX
  8
PNOA-H_AMS_1956-57_33k_ES_PAN_21mic_H50_0350_fot_40484_tif
  70
32
  10
551790.501
  20
4620854.000
  30
1033.215
  0
VERTEX
  8
PNOA-H_AMS_1956-57_33k_ES_PAN_21mic_H50_0350_fot_40484_tif
  70
32
  10
549193.000
  20
4620850.500
  30
1052.092
  0
VERTEX
  8
PNOA-H_AMS_1956-57_33k_ES_PAN_21mic_H50_0350_fot_40484_tif
  70
32
  10
549210.000
  20
4625146.500
  30
1088.886
  0
VERTEX
  8
PNOA-H_AMS_1956-57_33k_ES_PAN_21mic_H50_0350_fot_40484_tif
  70
32
  10
549209.999
  20
4625252.001
  30
1079.699
  0
VERTEX
  8
PNOA-H_AMS_1956-57_33k_ES_PAN_21mic_H50_0350_fot_40484_tif
  70
32
  10
551749.500
  20
4625229.000
  30
1133.402
  0
VERTEX
  8
PNOA-H_AMS_1956-57_33k_ES_PAN_21mic_H50_0350_fot_40484_tif
  70
32
  10
551790.500
  20
4620868.000
  30
1033.607
  0
VERTEX
  8
PNOA-H_AMS_1956-57_33k_ES_PAN_21mic_H50_0350_fot_40484_tif
  70
32
  10
551790.501
  20
4620854.000
  30
1033.215
  0
SEQEND
  8
PNOA-H_AMS_1956-57_33k_ES_PAN_21mic_H50_0350_fot_40484_tif
  0
INSERT
  8
FeatureAttribs
  2
FEATURE
  41
1
  42
1
  43
1
  50
0
  10
561011.789
  20
4627750.000
 66
1
  0
ATTRIB
  8
FeatureAttribs
 70
0
  1
PNOA-H_AMS_1956-57_33k_ES_PAN_21mic_H50_0350_fot_34C-40411_E.tif
  2
NAME
  10
561011.789
  20
4627750.000
 40
33.55473
  0
SEQEND
  0
POLYLINE
  8
PNOA-H_AMS_1956-57_33k_ES_PAN_21mic_H50_0350_fot_34C-40411_E_tif
  70
9
  66
1
  0
VERTEX
  8
PNOA-H_AMS_1956-57_33k_ES_PAN_21mic_H50_0350_fot_34C-40411_E_tif
  70
32
  10
562268.500
  20
4625339.003
  30
1123.248
  0
VERTEX
  8
PNOA-H_AMS_1956-57_33k_ES_PAN_21mic_H50_0350_fot_34C-40411_E_tif
  70
32
  10
562268.500
  20
4625339.000
  30
1123.248
  0
VERTEX
  8
PNOA-H_AMS_1956-57_33k_ES_PAN_21mic_H50_0350_fot_34C-40411_E_tif
  70
32
  10
562252.726
  20
4625339.111
  30
1123.041
  0
VERTEX
  8
PNOA-H_AMS_1956-57_33k_ES_PAN_21mic_H50_0350_fot_34C-40411_E_tif
  70
32
  10
559792.000
  20
4625356.500
  30
1090.764
  0
VERTEX
  8
PNOA-H_AMS_1956-57_33k_ES_PAN_21mic_H50_0350_fot_34C-40411_E_tif
  70
32
  10
559721.000
  20
4629741.000
  30
1117.974
  0
VERTEX
  8
PNOA-H_AMS_1956-57_33k_ES_PAN_21mic_H50_0350_fot_34C-40411_E_tif
  70
32
  10
559721.000
  20
4629760.500
  30
1118.909
  0
VERTEX
  8
PNOA-H_AMS_1956-57_33k_ES_PAN_21mic_H50_0350_fot_34C-40411_E_tif
  70
32
  10
559721.161
  20
4629760.571
  30
1118.931
  0
VERTEX
  8
PNOA-H_AMS_1956-57_33k_ES_PAN_21mic_H50_0350_fot_34C-40411_E_tif
  70
32
  10
559725.500
  20
4629762.500
  30
1119.512
  0
VERTEX
  8
PNOA-H_AMS_1956-57_33k_ES_PAN_21mic_H50_0350_fot_34C-40411_E_tif
  70
32
  10
560868.500
  20
4630161.000
  30
1219.043
  0
VERTEX
  8
PNOA-H_AMS_1956-57_33k_ES_PAN_21mic_H50_0350_fot_34C-40411_E_tif
  70
32
  10
561102.921
  20
4630102.708
  30
1222.048
  0
VERTEX
  8
PNOA-H_AMS_1956-57_33k_ES_PAN_21mic_H50_0350_fot_34C-40411_E_tif
  70
32
  10
562271.104
  20
4629812.223
  30
1237.02
  0
VERTEX
  8
PNOA-H_AMS_1956-57_33k_ES_PAN_21mic_H50_0350_fot_34C-40411_E_tif
  70
32
  10
562272.000
  20
4629812.000
  30
1237.032
  0
VERTEX
  8
PNOA-H_AMS_1956-57_33k_ES_PAN_21mic_H50_0350_fot_34C-40411_E_tif
  70
32
  10
562269.000
  20
4626091.000
  30
1088.467
  0
VERTEX
  8
PNOA-H_AMS_1956-57_33k_ES_PAN_21mic_H50_0350_fot_34C-40411_E_tif
  70
32
  10
562269.000
  20
4625978.000
  30
1090.982
  0
VERTEX
  8
PNOA-H_AMS_1956-57_33k_ES_PAN_21mic_H50_0350_fot_34C-40411_E_tif
  70
32
  10
562269.000
  20
4625957.000
  30
1091.45
  0
VERTEX
  8
PNOA-H_AMS_1956-57_33k_ES_PAN_21mic_H50_0350_fot_34C-40411_E_tif
  70
32
  10
562268.500
  20
4625339.003
  30
1123.248
  0
SEQEND
  8
PNOA-H_AMS_1956-57_33k_ES_PAN_21mic_H50_0350_fot_34C-40411_E_tif
  0
INSERT
  8
FeatureAttribs
  2
FEATURE
  41
1
  42
1
  43
1
  50
0
  10
555855.712
  20
4627645.000
 66
1
  0
ATTRIB
  8
FeatureAttribs
 70
0
  1
PNOA-H_AMS_1956-57_33k_ES_PAN_21mic_H50_0350_fot_34C-40409_E.tif
  2
NAME
  10
555855.712
  20
4627645.000
 40
33.55473
  0
SEQEND
  0
POLYLINE
  8
PNOA-H_AMS_1956-57_33k_ES_PAN_21mic_H50_0350_fot_34C-40409_E_tif
  70
9
  66
1
  0
VERTEX
  8
PNOA-H_AMS_1956-57_33k_ES_PAN_21mic_H50_0350_fot_34C-40409_E_tif
  70
32
  10
557172.994
  20
4625308.497
  30
1122.672
  0
VERTEX
  8
PNOA-H_AMS_1956-57_33k_ES_PAN_21mic_H50_0350_fot_34C-40409_E_tif
  70
32
  10
557017.000
  20
4625221.000
  30
1126.95
  0
VERTEX
  8
PNOA-H_AMS_1956-57_33k_ES_PAN_21mic_H50_0350_fot_34C-40409_E_tif
  70
32
  10
557016.526
  20
4625221.014
  30
1126.948
  0
VERTEX
  8
PNOA-H_AMS_1956-57_33k_ES_PAN_21mic_H50_0350_fot_34C-40409_E_tif
  70
32
  10
554504.009
  20
4625297.500
  30
1117.903
  0
VERTEX
  8
PNOA-H_AMS_1956-57_33k_ES_PAN_21mic_H50_0350_fot_34C-40409_E_tif
  70
32
  10
554504.000
  20
4625297.500
  30
1117.903
  0
VERTEX
  8
PNOA-H_AMS_1956-57_33k_ES_PAN_21mic_H50_0350_fot_34C-40409_E_tif
  70
32
  10
554505.169
  20
4625361.296
  30
1117.485
  0
VERTEX
  8
PNOA-H_AMS_1956-57_33k_ES_PAN_21mic_H50_0350_fot_34C-40409_E_tif
  70
32
  10
554587.000
  20
4629827.000
  30
1088.221
  0
VERTEX
  8
PNOA-H_AMS_1956-57_33k_ES_PAN_21mic_H50_0350_fot_34C-40409_E_tif
  70
32
  10
555146.500
  20
4630069.000
  30
1090.288
  0
VERTEX
  8
PNOA-H_AMS_1956-57_33k_ES_PAN_21mic_H50_0350_fot_34C-40409_E_tif
  70
32
  10
555146.507
  20
4630068.999
  30
1090.287
  0
VERTEX
  8
PNOA-H_AMS_1956-57_33k_ES_PAN_21mic_H50_0350_fot_34C-40409_E_tif
  70
32
  10
557156.000
  20
4629809.500
  30
1055.28
  0
VERTEX
  8
PNOA-H_AMS_1956-57_33k_ES_PAN_21mic_H50_0350_fot_34C-40409_E_tif
  70
32
  10
557170.500
  20
4626076.500
  30
1100.472
  0
VERTEX
  8
PNOA-H_AMS_1956-57_33k_ES_PAN_21mic_H50_0350_fot_34C-40409_E_tif
  70
32
  10
557170.500
  20
4625959.897
  30
1092.145
  0
VERTEX
  8
PNOA-H_AMS_1956-57_33k_ES_PAN_21mic_H50_0350_fot_34C-40409_E_tif
  70
32
  10
557170.500
  20
4625957.000
  30
1091.938
  0
VERTEX
  8
PNOA-H_AMS_1956-57_33k_ES_PAN_21mic_H50_0350_fot_34C-40409_E_tif
  70
32
  10
557173.000
  20
4625308.500
  30
1122.672
  0
VERTEX
  8
PNOA-H_AMS_1956-57_33k_ES_PAN_21mic_H50_0350_fot_34C-40409_E_tif
  70
32
  10
557172.994
  20
4625308.497
  30
1122.672
  0
SEQEND
  8
PNOA-H_AMS_1956-57_33k_ES_PAN_21mic_H50_0350_fot_34C-40409_E_tif
  0
INSERT
  8
FeatureAttribs
  2
FEATURE
  41
1
  42
1
  43
1
  50
0
  10
558459.036
  20
4627708.750
 66
1
  0
ATTRIB
  8
FeatureAttribs
 70
0
  1
PNOA-H_AMS_1956-57_33k_ES_PAN_21mic_H50_0350_fot_34C-40410_E.tif
  2
NAME
  10
558459.036
  20
4627708.750
 40
33.55473
  0
SEQEND
  0
POLYLINE
  8
PNOA-H_AMS_1956-57_33k_ES_PAN_21mic_H50_0350_fot_34C-40410_E_tif
  70
9
  66
1
  0
VERTEX
  8
PNOA-H_AMS_1956-57_33k_ES_PAN_21mic_H50_0350_fot_34C-40410_E_tif
  70
32
  10
559791.994
  20
4625356.496
  30
1090.764
  0
VERTEX
  8
PNOA-H_AMS_1956-57_33k_ES_PAN_21mic_H50_0350_fot_34C-40410_E_tif
  70
32
  10
559686.500
  20
4625291.500
  30
1091.548
  0
VERTEX
  8
PNOA-H_AMS_1956-57_33k_ES_PAN_21mic_H50_0350_fot_34C-40410_E_tif
  70
32
  10
559685.511
  20
4625291.507
  30
1091.56
  0
VERTEX
  8
PNOA-H_AMS_1956-57_33k_ES_PAN_21mic_H50_0350_fot_34C-40410_E_tif
  70
32
  10
557173.000
  20
4625308.500
  30
1122.672
  0
VERTEX
  8
PNOA-H_AMS_1956-57_33k_ES_PAN_21mic_H50_0350_fot_34C-40410_E_tif
  70
32
  10
557170.500
  20
4625959.897
  30
1112.742
  0
VERTEX
  8
PNOA-H_AMS_1956-57_33k_ES_PAN_21mic_H50_0350_fot_34C-40410_E_tif
  70
32
  10
557156.000
  20
4629738.000
  30
1055.149
  0
VERTEX
  8
PNOA-H_AMS_1956-57_33k_ES_PAN_21mic_H50_0350_fot_34C-40410_E_tif
  70
32
  10
557156.000
  20
4629809.500
  30
1055.276
  0
VERTEX
  8
PNOA-H_AMS_1956-57_33k_ES_PAN_21mic_H50_0350_fot_34C-40410_E_tif
  70
32
  10
557156.000
  20
4629810.000
  30
1055.277
  0
VERTEX
  8
PNOA-H_AMS_1956-57_33k_ES_PAN_21mic_H50_0350_fot_34C-40410_E_tif
  70
32
  10
557986.000
  20
4630126.000
  30
1112.366
  0
VERTEX
  8
PNOA-H_AMS_1956-57_33k_ES_PAN_21mic_H50_0350_fot_34C-40410_E_tif
  70
32
  10
557986.322
  20
4630125.932
  30
1112.367
  0
VERTEX
  8
PNOA-H_AMS_1956-57_33k_ES_PAN_21mic_H50_0350_fot_34C-40410_E_tif
  70
32
  10
559721.000
  20
4629760.500
  30
1118.909
  0
VERTEX
  8
PNOA-H_AMS_1956-57_33k_ES_PAN_21mic_H50_0350_fot_34C-40410_E_tif
  70
32
  10
559782.500
  20
4625969.500
  30
1087.541
  0
VERTEX
  8
PNOA-H_AMS_1956-57_33k_ES_PAN_21mic_H50_0350_fot_34C-40410_E_tif
  70
32
  10
559782.500
  20
4625957.000
  30
1087.87
  0
VERTEX
  8
PNOA-H_AMS_1956-57_33k_ES_PAN_21mic_H50_0350_fot_34C-40410_E_tif
  70
32
  10
559792.000
  20
4625356.500
  30
1090.764
  0
VERTEX
  8
PNOA-H_AMS_1956-57_33k_ES_PAN_21mic_H50_0350_fot_34C-40410_E_tif
  70
32
  10
559791.994
  20
4625356.496
  30
1090.764
  0
SEQEND
  8
PNOA-H_AMS_1956-57_33k_ES_PAN_21mic_H50_0350_fot_34C-40410_E_tif
  0
INSERT
  8
FeatureAttribs
  2
FEATURE
  41
1
  42
1
  43
1
  50
0
  10
555772.087
  20
4622974.250
 66
1
  0
ATTRIB
  8
FeatureAttribs
 70
0
  1
PNOA-H_AMS_1956-57_33k_ES_PAN_21mic_H50_0350_fot_40482.tif
  2
NAME
  10
555772.087
  20
4622974.250
 40
33.55473
  0
SEQEND
  0
POLYLINE
  8
PNOA-H_AMS_1956-57_33k_ES_PAN_21mic_H50_0350_fot_40482_tif
  70
9
  66
1
  0
VERTEX
  8
PNOA-H_AMS_1956-57_33k_ES_PAN_21mic_H50_0350_fot_40482_tif
  70
32
  10
554504.009
  20
4625297.500
  30
1117.903
  0
VERTEX
  8
PNOA-H_AMS_1956-57_33k_ES_PAN_21mic_H50_0350_fot_40482_tif
  70
32
  10
555462.000
  20
4625268.000
  30
1138.465
  0
VERTEX
  8
PNOA-H_AMS_1956-57_33k_ES_PAN_21mic_H50_0350_fot_40482_tif
  70
32
  10
555468.000
  20
4625268.000
  30
1138.99
  0
VERTEX
  8
PNOA-H_AMS_1956-57_33k_ES_PAN_21mic_H50_0350_fot_40482_tif
  70
32
  10
557016.500
  20
4625221.000
  30
1126.967
  0
VERTEX
  8
PNOA-H_AMS_1956-57_33k_ES_PAN_21mic_H50_0350_fot_40482_tif
  70
32
  10
557146.500
  20
4620938.500
  30
1044.269
  0
VERTEX
  8
PNOA-H_AMS_1956-57_33k_ES_PAN_21mic_H50_0350_fot_40482_tif
  70
32
  10
557146.485
  20
4620938.498
  30
1044.269
  0
VERTEX
  8
PNOA-H_AMS_1956-57_33k_ES_PAN_21mic_H50_0350_fot_40482_tif
  70
32
  10
555036.500
  20
4620651.000
  30
1023.907
  0
VERTEX
  8
PNOA-H_AMS_1956-57_33k_ES_PAN_21mic_H50_0350_fot_40482_tif
  70
32
  10
555035.486
  20
4620651.203
  30
1023.9
  0
VERTEX
  8
PNOA-H_AMS_1956-57_33k_ES_PAN_21mic_H50_0350_fot_40482_tif
  70
32
  10
555032.465
  20
4620651.807
  30
1023.877
  0
VERTEX
  8
PNOA-H_AMS_1956-57_33k_ES_PAN_21mic_H50_0350_fot_40482_tif
  70
32
  10
555031.500
  20
4620652.000
  30
1023.869
  0
VERTEX
  8
PNOA-H_AMS_1956-57_33k_ES_PAN_21mic_H50_0350_fot_40482_tif
  70
32
  10
554488.500
  20
4620937.500
  30
1029.402
  0
VERTEX
  8
PNOA-H_AMS_1956-57_33k_ES_PAN_21mic_H50_0350_fot_40482_tif
  70
32
  10
554488.497
  20
4620937.739
  30
1029.406
  0
VERTEX
  8
PNOA-H_AMS_1956-57_33k_ES_PAN_21mic_H50_0350_fot_40482_tif
  70
32
  10
554488.493
  20
4620937.999
  30
1029.411
  0
VERTEX
  8
PNOA-H_AMS_1956-57_33k_ES_PAN_21mic_H50_0350_fot_40482_tif
  70
32
  10
554427.009
  20
4625251.868
  30
1108.729
  0
VERTEX
  8
PNOA-H_AMS_1956-57_33k_ES_PAN_21mic_H50_0350_fot_40482_tif
  70
32
  10
554427.000
  20
4625252.500
  30
1108.74
  0
VERTEX
  8
PNOA-H_AMS_1956-57_33k_ES_PAN_21mic_H50_0350_fot_40482_tif
  70
32
  10
554427.007
  20
4625252.504
  30
1108.741
  0
VERTEX
  8
PNOA-H_AMS_1956-57_33k_ES_PAN_21mic_H50_0350_fot_40482_tif
  70
32
  10
554504.000
  20
4625297.500
  30
1117.903
  0
VERTEX
  8
PNOA-H_AMS_1956-57_33k_ES_PAN_21mic_H50_0350_fot_40482_tif
  70
32
  10
554504.009
  20
4625297.500
  30
1117.903
  0
SEQEND
  8
PNOA-H_AMS_1956-57_33k_ES_PAN_21mic_H50_0350_fot_40482_tif
  0
INSERT
  8
FeatureAttribs
  2
FEATURE
  41
1
  42
1
  43
1
  50
0
  10
561070.181
  20
4622937.500
 66
1
  0
ATTRIB
  8
FeatureAttribs
 70
0
  1
PNOA-H_AMS_1956-57_33k_ES_PAN_21mic_H50_0350_fot_40480.tif
  2
NAME
  10
561070.181
  20
4622937.500
 40
33.55473
  0
SEQEND
  0
POLYLINE
  8
PNOA-H_AMS_1956-57_33k_ES_PAN_21mic_H50_0350_fot_40480_tif
  70
9
  66
1
  0
VERTEX
  8
PNOA-H_AMS_1956-57_33k_ES_PAN_21mic_H50_0350_fot_40480_tif
  70
32
  10
559791.994
  20
4625356.496
  30
1090.772
  0
VERTEX
  8
PNOA-H_AMS_1956-57_33k_ES_PAN_21mic_H50_0350_fot_40480_tif
  70
32
  10
561581.500
  20
4625343.500
  30
1186.684
  0
VERTEX
  8
PNOA-H_AMS_1956-57_33k_ES_PAN_21mic_H50_0350_fot_40480_tif
  70
32
  10
561612.000
  20
4625343.500
  30
1181.096
  0
VERTEX
  8
PNOA-H_AMS_1956-57_33k_ES_PAN_21mic_H50_0350_fot_40480_tif
  70
32
  10
562252.726
  20
4625339.111
  30
1124.57
  0
VERTEX
  8
PNOA-H_AMS_1956-57_33k_ES_PAN_21mic_H50_0350_fot_40480_tif
  70
32
  10
562268.500
  20
4625339.003
  30
1123.179
  0
VERTEX
  8
PNOA-H_AMS_1956-57_33k_ES_PAN_21mic_H50_0350_fot_40480_tif
  70
32
  10
562269.000
  20
4625339.000
  30
1123.135
  0
VERTEX
  8
PNOA-H_AMS_1956-57_33k_ES_PAN_21mic_H50_0350_fot_40480_tif
  70
32
  10
562375.500
  20
4625281.500
  30
1128.189
  0
VERTEX
  8
PNOA-H_AMS_1956-57_33k_ES_PAN_21mic_H50_0350_fot_40480_tif
  70
32
  10
562441.000
  20
4620935.000
  30
1090.914
  0
VERTEX
  8
PNOA-H_AMS_1956-57_33k_ES_PAN_21mic_H50_0350_fot_40480_tif
  70
32
  10
562150.897
  20
4620849.124
  30
1087.699
  0
VERTEX
  8
PNOA-H_AMS_1956-57_33k_ES_PAN_21mic_H50_0350_fot_40480_tif
  70
32
  10
561034.000
  20
4620518.500
  30
1075.323
  0
VERTEX
  8
PNOA-H_AMS_1956-57_33k_ES_PAN_21mic_H50_0350_fot_40480_tif
  70
32
  10
561033.463
  20
4620518.674
  30
1075.373
  0
VERTEX
  8
PNOA-H_AMS_1956-57_33k_ES_PAN_21mic_H50_0350_fot_40480_tif
  70
32
  10
561026.233
  20
4620521.013
  30
1076.056
  0
VERTEX
  8
PNOA-H_AMS_1956-57_33k_ES_PAN_21mic_H50_0350_fot_40480_tif
  70
32
  10
561017.000
  20
4620524.000
  30
1076.927
  0
VERTEX
  8
PNOA-H_AMS_1956-57_33k_ES_PAN_21mic_H50_0350_fot_40480_tif
  70
32
  10
559767.439
  20
4620987.966
  30
1123.485
  0
VERTEX
  8
PNOA-H_AMS_1956-57_33k_ES_PAN_21mic_H50_0350_fot_40480_tif
  70
32
  10
559766.000
  20
4620988.500
  30
1123.539
  0
VERTEX
  8
PNOA-H_AMS_1956-57_33k_ES_PAN_21mic_H50_0350_fot_40480_tif
  70
32
  10
559685.500
  20
4625291.500
  30
1091.544
  0
VERTEX
  8
PNOA-H_AMS_1956-57_33k_ES_PAN_21mic_H50_0350_fot_40480_tif
  70
32
  10
559685.511
  20
4625291.507
  30
1091.544
  0
VERTEX
  8
PNOA-H_AMS_1956-57_33k_ES_PAN_21mic_H50_0350_fot_40480_tif
  70
32
  10
559791.500
  20
4625356.500
  30
1090.746
  0
VERTEX
  8
PNOA-H_AMS_1956-57_33k_ES_PAN_21mic_H50_0350_fot_40480_tif
  70
32
  10
559791.994
  20
4625356.496
  30
1090.772
  0
SEQEND
  8
PNOA-H_AMS_1956-57_33k_ES_PAN_21mic_H50_0350_fot_40480_tif
  0
INSERT
  8
FeatureAttribs
  2
FEATURE
  41
1
  42
1
  43
1
  50
0
  10
558407.276
  20
4622953.750
 66
1
  0
ATTRIB
  8
FeatureAttribs
 70
0
  1
PNOA-H_AMS_1956-57_33k_ES_PAN_21mic_H50_0350_fot_40481.tif
  2
NAME
  10
558407.276
  20
4622953.750
 40
33.55473
  0
SEQEND
  0
POLYLINE
  8
PNOA-H_AMS_1956-57_33k_ES_PAN_21mic_H50_0350_fot_40481_tif
  70
9
  66
1
  0
VERTEX
  8
PNOA-H_AMS_1956-57_33k_ES_PAN_21mic_H50_0350_fot_40481_tif
  70
32
  10
559765.306
  20
4620988.353
  30
1123.51
  0
VERTEX
  8
PNOA-H_AMS_1956-57_33k_ES_PAN_21mic_H50_0350_fot_40481_tif
  70
32
  10
557923.000
  20
4620599.000
  30
1046.775
  0
VERTEX
  8
PNOA-H_AMS_1956-57_33k_ES_PAN_21mic_H50_0350_fot_40481_tif
  70
32
  10
557922.837
  20
4620599.071
  30
1046.775
  0
VERTEX
  8
PNOA-H_AMS_1956-57_33k_ES_PAN_21mic_H50_0350_fot_40481_tif
  70
32
  10
557922.493
  20
4620599.221
  30
1046.774
  0
VERTEX
  8
PNOA-H_AMS_1956-57_33k_ES_PAN_21mic_H50_0350_fot_40481_tif
  70
32
  10
557146.500
  20
4620938.000
  30
1044.261
  0
VERTEX
  8
PNOA-H_AMS_1956-57_33k_ES_PAN_21mic_H50_0350_fot_40481_tif
  70
32
  10
557146.485
  20
4620938.498
  30
1044.271
  0
VERTEX
  8
PNOA-H_AMS_1956-57_33k_ES_PAN_21mic_H50_0350_fot_40481_tif
  70
32
  10
557016.500
  20
4625221.000
  30
1126.967
  0
VERTEX
  8
PNOA-H_AMS_1956-57_33k_ES_PAN_21mic_H50_0350_fot_40481_tif
  70
32
  10
557016.526
  20
4625221.014
  30
1126.966
  0
VERTEX
  8
PNOA-H_AMS_1956-57_33k_ES_PAN_21mic_H50_0350_fot_40481_tif
  70
32
  10
557171.500
  20
4625308.000
  30
1122.713
  0
VERTEX
  8
PNOA-H_AMS_1956-57_33k_ES_PAN_21mic_H50_0350_fot_40481_tif
  70
32
  10
557172.500
  20
4625308.500
  30
1122.698
  0
VERTEX
  8
PNOA-H_AMS_1956-57_33k_ES_PAN_21mic_H50_0350_fot_40481_tif
  70
32
  10
557172.994
  20
4625308.497
  30
1122.692
  0
VERTEX
  8
PNOA-H_AMS_1956-57_33k_ES_PAN_21mic_H50_0350_fot_40481_tif
  70
32
  10
559685.500
  20
4625291.500
  30
1091.544
  0
VERTEX
  8
PNOA-H_AMS_1956-57_33k_ES_PAN_21mic_H50_0350_fot_40481_tif
  70
32
  10
559766.000
  20
4620988.500
  30
1123.539
  0
VERTEX
  8
PNOA-H_AMS_1956-57_33k_ES_PAN_21mic_H50_0350_fot_40481_tif
  70
32
  10
559765.306
  20
4620988.353
  30
1123.51
  0
SEQEND
  8
PNOA-H_AMS_1956-57_33k_ES_PAN_21mic_H50_0350_fot_40481_tif
  0
INSERT
  8
FeatureAttribs
  2
FEATURE
  41
1
  42
1
  43
1
  50
0
  10
563501.127
  20
4627720.750
 66
1
  0
ATTRIB
  8
FeatureAttribs
 70
0
  1
PNOA-H_AMS_1956-57_33k_ES_PAN_21mic_H50_0350_fot_34C-40412_E.tif
  2
NAME
  10
563501.127
  20
4627720.750
 40
33.55473
  0
SEQEND
  0
POLYLINE
  8
PNOA-H_AMS_1956-57_33k_ES_PAN_21mic_H50_0350_fot_34C-40412_E_tif
  70
9
  66
1
  0
VERTEX
  8
PNOA-H_AMS_1956-57_33k_ES_PAN_21mic_H50_0350_fot_34C-40412_E_tif
  70
32
  10
562375.500
  20
4625281.500
  30
1128.189
  0
VERTEX
  8
PNOA-H_AMS_1956-57_33k_ES_PAN_21mic_H50_0350_fot_34C-40412_E_tif
  70
32
  10
562375.000
  20
4625281.500
  30
1128.199
  0
VERTEX
  8
PNOA-H_AMS_1956-57_33k_ES_PAN_21mic_H50_0350_fot_34C-40412_E_tif
  70
32
  10
562372.000
  20
4625283.000
  30
1128.345
  0
VERTEX
  8
PNOA-H_AMS_1956-57_33k_ES_PAN_21mic_H50_0350_fot_34C-40412_E_tif
  70
32
  10
562268.500
  20
4625339.000
  30
1123.248
  0
VERTEX
  8
PNOA-H_AMS_1956-57_33k_ES_PAN_21mic_H50_0350_fot_34C-40412_E_tif
  70
32
  10
562268.500
  20
4625339.003
  30
1123.248
  0
VERTEX
  8
PNOA-H_AMS_1956-57_33k_ES_PAN_21mic_H50_0350_fot_34C-40412_E_tif
  70
32
  10
562269.000
  20
4625978.000
  30
1139.503
  0
VERTEX
  8
PNOA-H_AMS_1956-57_33k_ES_PAN_21mic_H50_0350_fot_34C-40412_E_tif
  70
32
  10
562272.000
  20
4629812.000
  30
1237.032
  0
VERTEX
  8
PNOA-H_AMS_1956-57_33k_ES_PAN_21mic_H50_0350_fot_34C-40412_E_tif
  70
32
  10
562272.496
  20
4629812.116
  30
1237.012
  0
VERTEX
  8
PNOA-H_AMS_1956-57_33k_ES_PAN_21mic_H50_0350_fot_34C-40412_E_tif
  70
32
  10
563656.000
  20
4630135.000
  30
1183.227
  0
VERTEX
  8
PNOA-H_AMS_1956-57_33k_ES_PAN_21mic_H50_0350_fot_34C-40412_E_tif
  70
32
  10
563658.000
  20
4630135.500
  30
1183.238
  0
VERTEX
  8
PNOA-H_AMS_1956-57_33k_ES_PAN_21mic_H50_0350_fot_34C-40412_E_tif
  70
32
  10
563763.499
  20
4630160.000
  30
1183.807
  0
VERTEX
  8
PNOA-H_AMS_1956-57_33k_ES_PAN_21mic_H50_0350_fot_34C-40412_E_tif
  70
32
  10
564807.500
  20
4629775.500
  30
1252.007
  0
VERTEX
  8
PNOA-H_AMS_1956-57_33k_ES_PAN_21mic_H50_0350_fot_34C-40412_E_tif
  70
32
  10
564648.000
  20
4625441.000
  30
1051.679
  0
VERTEX
  8
PNOA-H_AMS_1956-57_33k_ES_PAN_21mic_H50_0350_fot_34C-40412_E_tif
  70
32
  10
562378.500
  20
4625281.500
  30
1128.129
  0
VERTEX
  8
PNOA-H_AMS_1956-57_33k_ES_PAN_21mic_H50_0350_fot_34C-40412_E_tif
  70
32
  10
562375.500
  20
4625281.500
  30
1128.189
  0
SEQEND
  8
PNOA-H_AMS_1956-57_33k_ES_PAN_21mic_H50_0350_fot_34C-40412_E_tif
  0
INSERT
  8
FeatureAttribs
  2
FEATURE
  41
1
  42
1
  43
1
  50
0
  10
566010.355
  20
4627657.250
 66
1
  0
ATTRIB
  8
FeatureAttribs
 70
0
  1
PNOA-H_AMS_1956-57_33k_ES_PAN_21mic_H50_0350_fot_34C-40413_E.tif
  2
NAME
  10
566010.355
  20
4627657.250
 40
33.55473
  0
SEQEND
  0
POLYLINE
  8
PNOA-H_AMS_1956-57_33k_ES_PAN_21mic_H50_0350_fot_34C-40413_E_tif
  70
9
  66
1
  0
VERTEX
  8
PNOA-H_AMS_1956-57_33k_ES_PAN_21mic_H50_0350_fot_34C-40413_E_tif
  70
32
  10
566615.500
  20
4630071.500
  30
1223.434
  0
VERTEX
  8
PNOA-H_AMS_1956-57_33k_ES_PAN_21mic_H50_0350_fot_34C-40413_E_tif
  70
32
  10
567265.330
  20
4629828.945
  30
1227.397
  0
VERTEX
  8
PNOA-H_AMS_1956-57_33k_ES_PAN_21mic_H50_0350_fot_34C-40413_E_tif
  70
32
  10
567333.500
  20
4629803.500
  30
1227.813
  0
VERTEX
  8
PNOA-H_AMS_1956-57_33k_ES_PAN_21mic_H50_0350_fot_34C-40413_E_tif
  70
32
  10
567247.000
  20
4625419.000
  30
1032.967
  0
VERTEX
  8
PNOA-H_AMS_1956-57_33k_ES_PAN_21mic_H50_0350_fot_34C-40413_E_tif
  70
32
  10
565463.800
  20
4625278.200
  30
1045.245
  0
VERTEX
  8
PNOA-H_AMS_1956-57_33k_ES_PAN_21mic_H50_0350_fot_34C-40413_E_tif
  70
32
  10
565018.871
  20
4625243.069
  30
1048.308
  0
VERTEX
  8
PNOA-H_AMS_1956-57_33k_ES_PAN_21mic_H50_0350_fot_34C-40413_E_tif
  70
32
  10
565018.000
  20
4625243.000
  30
1048.314
  0
VERTEX
  8
PNOA-H_AMS_1956-57_33k_ES_PAN_21mic_H50_0350_fot_34C-40413_E_tif
  70
32
  10
564648.000
  20
4625441.000
  30
1051.679
  0
VERTEX
  8
PNOA-H_AMS_1956-57_33k_ES_PAN_21mic_H50_0350_fot_34C-40413_E_tif
  70
32
  10
564807.500
  20
4629775.500
  30
1252.007
  0
VERTEX
  8
PNOA-H_AMS_1956-57_33k_ES_PAN_21mic_H50_0350_fot_34C-40413_E_tif
  70
32
  10
566608.500
  20
4630071.000
  30
1224.626
  0
VERTEX
  8
PNOA-H_AMS_1956-57_33k_ES_PAN_21mic_H50_0350_fot_34C-40413_E_tif
  70
32
  10
566611.500
  20
4630071.500
  30
1224.297
  0
VERTEX
  8
PNOA-H_AMS_1956-57_33k_ES_PAN_21mic_H50_0350_fot_34C-40413_E_tif
  70
32
  10
566614.000
  20
4630071.500
  30
1223.758
  0
VERTEX
  8
PNOA-H_AMS_1956-57_33k_ES_PAN_21mic_H50_0350_fot_34C-40413_E_tif
  70
32
  10
566615.500
  20
4630071.500
  30
1223.434
  0
SEQEND
  8
PNOA-H_AMS_1956-57_33k_ES_PAN_21mic_H50_0350_fot_34C-40413_E_tif
  0
INSERT
  8
FeatureAttribs
  2
FEATURE
  41
1
  42
1
  43
1
  50
0
  10
567396.051
  20
4627547.757
 66
1
  0
ATTRIB
  8
FeatureAttribs
 70
0
  1
PNOA-H_AMS_1956-57_33k_ES_PAN_21mic_H50_0351_fot_34C-40414_E.tif
  2
NAME
  10
567396.051
  20
4627547.757
 40
33.55473
  0
SEQEND
  0
POLYLINE
  8
PNOA-H_AMS_1956-57_33k_ES_PAN_21mic_H50_0351_fot_34C-40414_E_tif
  70
9
  66
1
  0
VERTEX
  8
PNOA-H_AMS_1956-57_33k_ES_PAN_21mic_H50_0351_fot_34C-40414_E_tif
  70
32
  10
567524.601
  20
4625272.635
  30
0
  0
VERTEX
  8
PNOA-H_AMS_1956-57_33k_ES_PAN_21mic_H50_0351_fot_34C-40414_E_tif
  70
32
  10
567524.602
  20
4625272.555
  30
1036.111
  0
VERTEX
  8
PNOA-H_AMS_1956-57_33k_ES_PAN_21mic_H50_0351_fot_34C-40414_E_tif
  70
32
  10
567247.000
  20
4625419.000
  30
1032.967
  0
VERTEX
  8
PNOA-H_AMS_1956-57_33k_ES_PAN_21mic_H50_0351_fot_34C-40414_E_tif
  70
32
  10
567333.500
  20
4629803.000
  30
1227.801
  0
VERTEX
  8
PNOA-H_AMS_1956-57_33k_ES_PAN_21mic_H50_0351_fot_34C-40414_E_tif
  70
32
  10
567334.601
  20
4629803.148
  30
1227.66
  0
VERTEX
  8
PNOA-H_AMS_1956-57_33k_ES_PAN_21mic_H50_0351_fot_34C-40414_E_tif
  70
32
  10
567481.591
  20
4629822.959
  30
1208.798
  0
VERTEX
  8
PNOA-H_AMS_1956-57_33k_ES_PAN_21mic_H50_0351_fot_34C-40414_E_tif
  70
32
  10
567481.594
  20
4629822.652
  30
0
  0
VERTEX
  8
PNOA-H_AMS_1956-57_33k_ES_PAN_21mic_H50_0351_fot_34C-40414_E_tif
  70
32
  10
567486.748
  20
4629277.686
  30
0
  0
VERTEX
  8
PNOA-H_AMS_1956-57_33k_ES_PAN_21mic_H50_0351_fot_34C-40414_E_tif
  70
32
  10
567508.613
  20
4626964.638
  30
0
  0
VERTEX
  8
PNOA-H_AMS_1956-57_33k_ES_PAN_21mic_H50_0351_fot_34C-40414_E_tif
  70
32
  10
567524.601
  20
4625272.635
  30
0
  0
SEQEND
  8
PNOA-H_AMS_1956-57_33k_ES_PAN_21mic_H50_0351_fot_34C-40414_E_tif
  0
INSERT
  8
FeatureAttribs
  2
FEATURE
  41
1
  42
1
  43
1
  50
0
  10
566295.628
  20
4623032.000
 66
1
  0
ATTRIB
  8
FeatureAttribs
 70
0
  1
PNOA-H_AMS_1956-57_33k_ES_PAN_21mic_H50_0350_fot_40478.tif
  2
NAME
  10
566295.628
  20
4623032.000
 40
33.55473
  0
SEQEND
  0
POLYLINE
  8
PNOA-H_AMS_1956-57_33k_ES_PAN_21mic_H50_0350_fot_40478_tif
  70
9
  66
1
  0
VERTEX
  8
PNOA-H_AMS_1956-57_33k_ES_PAN_21mic_H50_0350_fot_40478_tif
  70
32
  10
567565.576
  20
4620934.195
  30
1095.835
  0
VERTEX
  8
PNOA-H_AMS_1956-57_33k_ES_PAN_21mic_H50_0350_fot_40478_tif
  70
32
  10
566934.000
  20
4620645.000
  30
1090.714
  0
VERTEX
  8
PNOA-H_AMS_1956-57_33k_ES_PAN_21mic_H50_0350_fot_40478_tif
  70
32
  10
566933.280
  20
4620645.128
  30
1090.716
  0
VERTEX
  8
PNOA-H_AMS_1956-57_33k_ES_PAN_21mic_H50_0350_fot_40478_tif
  70
32
  10
565070.500
  20
4620976.000
  30
1093.524
  0
VERTEX
  8
PNOA-H_AMS_1956-57_33k_ES_PAN_21mic_H50_0350_fot_40478_tif
  70
32
  10
565069.743
  20
4621038.257
  30
1092.873
  0
VERTEX
  8
PNOA-H_AMS_1956-57_33k_ES_PAN_21mic_H50_0350_fot_40478_tif
  70
32
  10
565019.000
  20
4625209.500
  30
1049.296
  0
VERTEX
  8
PNOA-H_AMS_1956-57_33k_ES_PAN_21mic_H50_0350_fot_40478_tif
  70
32
  10
565019.000
  20
4625243.000
  30
1048.388
  0
VERTEX
  8
PNOA-H_AMS_1956-57_33k_ES_PAN_21mic_H50_0350_fot_40478_tif
  70
32
  10
565463.800
  20
4625278.200
  30
1045.295
  0
VERTEX
  8
PNOA-H_AMS_1956-57_33k_ES_PAN_21mic_H50_0350_fot_40478_tif
  70
32
  10
567243.000
  20
4625419.000
  30
1032.925
  0
VERTEX
  8
PNOA-H_AMS_1956-57_33k_ES_PAN_21mic_H50_0350_fot_40478_tif
  70
32
  10
567247.000
  20
4625419.000
  30
1032.969
  0
VERTEX
  8
PNOA-H_AMS_1956-57_33k_ES_PAN_21mic_H50_0350_fot_40478_tif
  70
32
  10
567248.000
  20
4625419.000
  30
1032.98
  0
VERTEX
  8
PNOA-H_AMS_1956-57_33k_ES_PAN_21mic_H50_0350_fot_40478_tif
  70
32
  10
567524.601
  20
4625272.635
  30
1036.125
  0
VERTEX
  8
PNOA-H_AMS_1956-57_33k_ES_PAN_21mic_H50_0350_fot_40478_tif
  70
32
  10
567524.602
  20
4625272.555
  30
0
  0
VERTEX
  8
PNOA-H_AMS_1956-57_33k_ES_PAN_21mic_H50_0350_fot_40478_tif
  70
32
  10
567530.469
  20
4624651.599
  30
0
  0
VERTEX
  8
PNOA-H_AMS_1956-57_33k_ES_PAN_21mic_H50_0350_fot_40478_tif
  70
32
  10
567552.316
  20
4622338.568
  30
0
  0
VERTEX
  8
PNOA-H_AMS_1956-57_33k_ES_PAN_21mic_H50_0350_fot_40478_tif
  70
32
  10
567565.573
  20
4620934.528
  30
0
  0
VERTEX
  8
PNOA-H_AMS_1956-57_33k_ES_PAN_21mic_H50_0350_fot_40478_tif
  70
32
  10
567565.576
  20
4620934.195
  30
1095.835
  0
SEQEND
  8
PNOA-H_AMS_1956-57_33k_ES_PAN_21mic_H50_0350_fot_40478_tif
  0
INSERT
  8
FeatureAttribs
  2
FEATURE
  41
1
  42
1
  43
1
  50
0
  10
563727.999
  20
4622998.250
 66
1
  0
ATTRIB
  8
FeatureAttribs
 70
0
  1
PNOA-H_AMS_1956-57_33k_ES_PAN_21mic_H50_0350_fot_40479.tif
  2
NAME
  10
563727.999
  20
4622998.250
 40
33.55473
  0
SEQEND
  0
POLYLINE
  8
PNOA-H_AMS_1956-57_33k_ES_PAN_21mic_H50_0350_fot_40479_tif
  70
9
  66
1
  0
VERTEX
  8
PNOA-H_AMS_1956-57_33k_ES_PAN_21mic_H50_0350_fot_40479_tif
  70
32
  10
565070.500
  20
4620975.500
  30
1093.473
  0
VERTEX
  8
PNOA-H_AMS_1956-57_33k_ES_PAN_21mic_H50_0350_fot_40479_tif
  70
32
  10
563933.000
  20
4620555.500
  30
1071.377
  0
VERTEX
  8
PNOA-H_AMS_1956-57_33k_ES_PAN_21mic_H50_0350_fot_40479_tif
  70
32
  10
563932.704
  20
4620555.575
  30
1071.381
  0
VERTEX
  8
PNOA-H_AMS_1956-57_33k_ES_PAN_21mic_H50_0350_fot_40479_tif
  70
32
  10
563435.667
  20
4620682.000
  30
1077.889
  0
VERTEX
  8
PNOA-H_AMS_1956-57_33k_ES_PAN_21mic_H50_0350_fot_40479_tif
  70
32
  10
562441.537
  20
4620934.863
  30
1090.907
  0
VERTEX
  8
PNOA-H_AMS_1956-57_33k_ES_PAN_21mic_H50_0350_fot_40479_tif
  70
32
  10
562441.000
  20
4620935.000
  30
1090.914
  0
VERTEX
  8
PNOA-H_AMS_1956-57_33k_ES_PAN_21mic_H50_0350_fot_40479_tif
  70
32
  10
562375.500
  20
4625281.500
  30
1128.189
  0
VERTEX
  8
PNOA-H_AMS_1956-57_33k_ES_PAN_21mic_H50_0350_fot_40479_tif
  70
32
  10
564634.000
  20
4625440.500
  30
1052.221
  0
VERTEX
  8
PNOA-H_AMS_1956-57_33k_ES_PAN_21mic_H50_0350_fot_40479_tif
  70
32
  10
564641.500
  20
4625441.000
  30
1051.905
  0
VERTEX
  8
PNOA-H_AMS_1956-57_33k_ES_PAN_21mic_H50_0350_fot_40479_tif
  70
32
  10
564648.000
  20
4625441.000
  30
1051.684
  0
VERTEX
  8
PNOA-H_AMS_1956-57_33k_ES_PAN_21mic_H50_0350_fot_40479_tif
  70
32
  10
564649.000
  20
4625441.000
  30
1051.65
  0
VERTEX
  8
PNOA-H_AMS_1956-57_33k_ES_PAN_21mic_H50_0350_fot_40479_tif
  70
32
  10
564651.000
  20
4625440.000
  30
1051.596
  0
VERTEX
  8
PNOA-H_AMS_1956-57_33k_ES_PAN_21mic_H50_0350_fot_40479_tif
  70
32
  10
565018.871
  20
4625243.069
  30
1048.389
  0
VERTEX
  8
PNOA-H_AMS_1956-57_33k_ES_PAN_21mic_H50_0350_fot_40479_tif
  70
32
  10
565019.000
  20
4625243.000
  30
1048.388
  0
VERTEX
  8
PNOA-H_AMS_1956-57_33k_ES_PAN_21mic_H50_0350_fot_40479_tif
  70
32
  10
565069.743
  20
4621038.257
  30
1092.809
  0
VERTEX
  8
PNOA-H_AMS_1956-57_33k_ES_PAN_21mic_H50_0350_fot_40479_tif
  70
32
  10
565070.494
  20
4620975.998
  30
1093.467
  0
VERTEX
  8
PNOA-H_AMS_1956-57_33k_ES_PAN_21mic_H50_0350_fot_40479_tif
  70
32
  10
565070.500
  20
4620975.500
  30
1093.473
  0
SEQEND
  8
PNOA-H_AMS_1956-57_33k_ES_PAN_21mic_H50_0350_fot_40479_tif
  0
INSERT
  8
FeatureAttribs
  2
FEATURE
  41
1
  42
1
  43
1
  50
0
  10
559404.667
  20
4618612.750
 66
1
  0
ATTRIB
  8
FeatureAttribs
 70
0
  1
PNOA-H_AMS_1956-57_33k_ES_PAN_21mic_H50_0350_fot_37224.tif
  2
NAME
  10
559404.667
  20
4618612.750
 40
33.55473
  0
SEQEND
  0
POLYLINE
  8
PNOA-H_AMS_1956-57_33k_ES_PAN_21mic_H50_0350_fot_37224_tif
  70
9
  66
1
  0
VERTEX
  8
PNOA-H_AMS_1956-57_33k_ES_PAN_21mic_H50_0350_fot_37224_tif
  70
32
  10
560829.722
  20
4616543.850
  30
1002.056
  0
VERTEX
  8
PNOA-H_AMS_1956-57_33k_ES_PAN_21mic_H50_0350_fot_37224_tif
  70
32
  10
560261.500
  20
4616237.000
  30
997.127
  0
VERTEX
  8
PNOA-H_AMS_1956-57_33k_ES_PAN_21mic_H50_0350_fot_37224_tif
  70
32
  10
560261.081
  20
4616237.044
  30
997.127
  0
VERTEX
  8
PNOA-H_AMS_1956-57_33k_ES_PAN_21mic_H50_0350_fot_37224_tif
  70
32
  10
559841.310
  20
4616280.655
  30
997.114
  0
VERTEX
  8
PNOA-H_AMS_1956-57_33k_ES_PAN_21mic_H50_0350_fot_37224_tif
  70
32
  10
559563.670
  20
4616309.500
  30
997.105
  0
VERTEX
  8
PNOA-H_AMS_1956-57_33k_ES_PAN_21mic_H50_0350_fot_37224_tif
  70
32
  10
558793.472
  20
4616389.518
  30
997.081
  0
VERTEX
  8
PNOA-H_AMS_1956-57_33k_ES_PAN_21mic_H50_0350_fot_37224_tif
  70
32
  10
557823.280
  20
4616490.315
  30
997.051
  0
VERTEX
  8
PNOA-H_AMS_1956-57_33k_ES_PAN_21mic_H50_0350_fot_37224_tif
  70
32
  10
557821.500
  20
4616490.500
  30
997.051
  0
VERTEX
  8
PNOA-H_AMS_1956-57_33k_ES_PAN_21mic_H50_0350_fot_37224_tif
  70
32
  10
557922.500
  20
4620599.000
  30
1046.751
  0
VERTEX
  8
PNOA-H_AMS_1956-57_33k_ES_PAN_21mic_H50_0350_fot_37224_tif
  70
32
  10
557922.837
  20
4620599.071
  30
1046.765
  0
VERTEX
  8
PNOA-H_AMS_1956-57_33k_ES_PAN_21mic_H50_0350_fot_37224_tif
  70
32
  10
559762.000
  20
4620988.000
  30
1123
  0
VERTEX
  8
PNOA-H_AMS_1956-57_33k_ES_PAN_21mic_H50_0350_fot_37224_tif
  70
32
  10
559764.500
  20
4620988.500
  30
1123.351
  0
VERTEX
  8
PNOA-H_AMS_1956-57_33k_ES_PAN_21mic_H50_0350_fot_37224_tif
  70
32
  10
559765.306
  20
4620988.353
  30
1123.423
  0
VERTEX
  8
PNOA-H_AMS_1956-57_33k_ES_PAN_21mic_H50_0350_fot_37224_tif
  70
32
  10
559767.439
  20
4620987.966
  30
1123.615
  0
VERTEX
  8
PNOA-H_AMS_1956-57_33k_ES_PAN_21mic_H50_0350_fot_37224_tif
  70
32
  10
559770.000
  20
4620987.500
  30
1123.845
  0
VERTEX
  8
PNOA-H_AMS_1956-57_33k_ES_PAN_21mic_H50_0350_fot_37224_tif
  70
32
  10
561026.233
  20
4620521.013
  30
1075.673
  0
VERTEX
  8
PNOA-H_AMS_1956-57_33k_ES_PAN_21mic_H50_0350_fot_37224_tif
  70
32
  10
561033.000
  20
4620518.500
  30
1075.414
  0
VERTEX
  8
PNOA-H_AMS_1956-57_33k_ES_PAN_21mic_H50_0350_fot_37224_tif
  70
32
  10
560830.000
  20
4616544.000
  30
1002.059
  0
VERTEX
  8
PNOA-H_AMS_1956-57_33k_ES_PAN_21mic_H50_0350_fot_37224_tif
  70
32
  10
560829.722
  20
4616543.850
  30
1002.056
  0
SEQEND
  8
PNOA-H_AMS_1956-57_33k_ES_PAN_21mic_H50_0350_fot_37224_tif
  0
INSERT
  8
FeatureAttribs
  2
FEATURE
  41
1
  42
1
  43
1
  50
0
  10
562462.787
  20
4618507.750
 66
1
  0
ATTRIB
  8
FeatureAttribs
 70
0
  1
PNOA-H_AMS_1956-57_33k_ES_PAN_21mic_H50_0350_fot_37225.tif
  2
NAME
  10
562462.787
  20
4618507.750
 40
33.55473
  0
SEQEND
  0
POLYLINE
  8
PNOA-H_AMS_1956-57_33k_ES_PAN_21mic_H50_0350_fot_37225_tif
  70
9
  66
1
  0
VERTEX
  8
PNOA-H_AMS_1956-57_33k_ES_PAN_21mic_H50_0350_fot_37225_tif
  70
32
  10
564052.754
  20
4616555.194
  30
1012.943
  0
VERTEX
  8
PNOA-H_AMS_1956-57_33k_ES_PAN_21mic_H50_0350_fot_37225_tif
  70
32
  10
563055.000
  20
4616080.500
  30
1016.627
  0
VERTEX
  8
PNOA-H_AMS_1956-57_33k_ES_PAN_21mic_H50_0350_fot_37225_tif
  70
32
  10
563054.652
  20
4616080.572
  30
1016.624
  0
VERTEX
  8
PNOA-H_AMS_1956-57_33k_ES_PAN_21mic_H50_0350_fot_37225_tif
  70
32
  10
560830.000
  20
4616544.000
  30
1002.059
  0
VERTEX
  8
PNOA-H_AMS_1956-57_33k_ES_PAN_21mic_H50_0350_fot_37225_tif
  70
32
  10
561032.500
  20
4620517.000
  30
1075.479
  0
VERTEX
  8
PNOA-H_AMS_1956-57_33k_ES_PAN_21mic_H50_0350_fot_37225_tif
  70
32
  10
561033.000
  20
4620518.500
  30
1075.414
  0
VERTEX
  8
PNOA-H_AMS_1956-57_33k_ES_PAN_21mic_H50_0350_fot_37225_tif
  70
32
  10
561033.463
  20
4620518.674
  30
1075.368
  0
VERTEX
  8
PNOA-H_AMS_1956-57_33k_ES_PAN_21mic_H50_0350_fot_37225_tif
  70
32
  10
561037.000
  20
4620520.000
  30
1075.021
  0
VERTEX
  8
PNOA-H_AMS_1956-57_33k_ES_PAN_21mic_H50_0350_fot_37225_tif
  70
32
  10
561610.000
  20
4620689.500
  30
1081.339
  0
VERTEX
  8
PNOA-H_AMS_1956-57_33k_ES_PAN_21mic_H50_0350_fot_37225_tif
  70
32
  10
561611.500
  20
4620690.000
  30
1081.371
  0
VERTEX
  8
PNOA-H_AMS_1956-57_33k_ES_PAN_21mic_H50_0350_fot_37225_tif
  70
32
  10
562150.897
  20
4620849.124
  30
1087.547
  0
VERTEX
  8
PNOA-H_AMS_1956-57_33k_ES_PAN_21mic_H50_0350_fot_37225_tif
  70
32
  10
562441.537
  20
4620934.863
  30
1090.875
  0
VERTEX
  8
PNOA-H_AMS_1956-57_33k_ES_PAN_21mic_H50_0350_fot_37225_tif
  70
32
  10
562442.000
  20
4620935.000
  30
1090.881
  0
VERTEX
  8
PNOA-H_AMS_1956-57_33k_ES_PAN_21mic_H50_0350_fot_37225_tif
  70
32
  10
563435.667
  20
4620682.000
  30
1077.882
  0
VERTEX
  8
PNOA-H_AMS_1956-57_33k_ES_PAN_21mic_H50_0350_fot_37225_tif
  70
32
  10
563932.500
  20
4620555.500
  30
1071.383
  0
VERTEX
  8
PNOA-H_AMS_1956-57_33k_ES_PAN_21mic_H50_0350_fot_37225_tif
  70
32
  10
564055.500
  20
4616556.500
  30
1012.933
  0
VERTEX
  8
PNOA-H_AMS_1956-57_33k_ES_PAN_21mic_H50_0350_fot_37225_tif
  70
32
  10
564052.754
  20
4616555.194
  30
1012.943
  0
SEQEND
  8
PNOA-H_AMS_1956-57_33k_ES_PAN_21mic_H50_0350_fot_37225_tif
  0
INSERT
  8
FeatureAttribs
  2
FEATURE
  41
1
  42
1
  43
1
  50
0
  10
567289.793
  20
4618692.779
 66
1
  0
ATTRIB
  8
FeatureAttribs
 70
0
  1
PNOA-H_AMS_1956-57_33k_ES_PAN_21mic_H50_0351_fot_37227.tif
  2
NAME
  10
567289.793
  20
4618692.779
 40
33.55473
  0
SEQEND
  0
POLYLINE
  8
PNOA-H_AMS_1956-57_33k_ES_PAN_21mic_H50_0351_fot_37227_tif
  70
9
  66
1
  0
VERTEX
  8
PNOA-H_AMS_1956-57_33k_ES_PAN_21mic_H50_0351_fot_37227_tif
  70
32
  10
567595.984
  20
4617712.531
  30
0
  0
VERTEX
  8
PNOA-H_AMS_1956-57_33k_ES_PAN_21mic_H50_0351_fot_37227_tif
  70
32
  10
567607.885
  20
4616451.030
  30
1052.074
  0
VERTEX
  8
PNOA-H_AMS_1956-57_33k_ES_PAN_21mic_H50_0351_fot_37227_tif
  70
32
  10
567057.000
  20
4616600.500
  30
1058.519
  0
VERTEX
  8
PNOA-H_AMS_1956-57_33k_ES_PAN_21mic_H50_0351_fot_37227_tif
  70
32
  10
566933.000
  20
4620645.000
  30
1090.762
  0
VERTEX
  8
PNOA-H_AMS_1956-57_33k_ES_PAN_21mic_H50_0351_fot_37227_tif
  70
32
  10
566933.280
  20
4620645.128
  30
1090.764
  0
VERTEX
  8
PNOA-H_AMS_1956-57_33k_ES_PAN_21mic_H50_0351_fot_37227_tif
  70
32
  10
567565.573
  20
4620934.528
  30
1094.956
  0
VERTEX
  8
PNOA-H_AMS_1956-57_33k_ES_PAN_21mic_H50_0351_fot_37227_tif
  70
32
  10
567565.576
  20
4620934.195
  30
0
  0
VERTEX
  8
PNOA-H_AMS_1956-57_33k_ES_PAN_21mic_H50_0351_fot_37227_tif
  70
32
  10
567574.155
  20
4620025.545
  30
0
  0
VERTEX
  8
PNOA-H_AMS_1956-57_33k_ES_PAN_21mic_H50_0351_fot_37227_tif
  70
32
  10
567595.984
  20
4617712.531
  30
0
  0
SEQEND
  8
PNOA-H_AMS_1956-57_33k_ES_PAN_21mic_H50_0351_fot_37227_tif
  0
INSERT
  8
FeatureAttribs
  2
FEATURE
  41
1
  42
1
  43
1
  50
0
  10
565496.209
  20
4618536.500
 66
1
  0
ATTRIB
  8
FeatureAttribs
 70
0
  1
PNOA-H_AMS_1956-57_33k_ES_PAN_21mic_H50_0350_fot_37226.tif
  2
NAME
  10
565496.209
  20
4618536.500
 40
33.55473
  0
SEQEND
  0
POLYLINE
  8
PNOA-H_AMS_1956-57_33k_ES_PAN_21mic_H50_0350_fot_37226_tif
  70
9
  66
1
  0
VERTEX
  8
PNOA-H_AMS_1956-57_33k_ES_PAN_21mic_H50_0350_fot_37226_tif
  70
32
  10
565070.500
  20
4620976.000
  30
1093.524
  0
VERTEX
  8
PNOA-H_AMS_1956-57_33k_ES_PAN_21mic_H50_0350_fot_37226_tif
  70
32
  10
565707.000
  20
4620862.500
  30
1083.011
  0
VERTEX
  8
PNOA-H_AMS_1956-57_33k_ES_PAN_21mic_H50_0350_fot_37226_tif
  70
32
  10
565708.000
  20
4620862.500
  30
1083.025
  0
VERTEX
  8
PNOA-H_AMS_1956-57_33k_ES_PAN_21mic_H50_0350_fot_37226_tif
  70
32
  10
566922.500
  20
4620647.000
  30
1091.059
  0
VERTEX
  8
PNOA-H_AMS_1956-57_33k_ES_PAN_21mic_H50_0350_fot_37226_tif
  70
32
  10
566933.000
  20
4620645.000
  30
1090.762
  0
VERTEX
  8
PNOA-H_AMS_1956-57_33k_ES_PAN_21mic_H50_0350_fot_37226_tif
  70
32
  10
566933.500
  20
4620640.500
  30
1090.501
  0
VERTEX
  8
PNOA-H_AMS_1956-57_33k_ES_PAN_21mic_H50_0350_fot_37226_tif
  70
32
  10
567057.000
  20
4616600.500
  30
1058.519
  0
VERTEX
  8
PNOA-H_AMS_1956-57_33k_ES_PAN_21mic_H50_0350_fot_37226_tif
  70
32
  10
567056.808
  20
4616600.416
  30
1058.514
  0
VERTEX
  8
PNOA-H_AMS_1956-57_33k_ES_PAN_21mic_H50_0350_fot_37226_tif
  70
32
  10
565904.000
  20
4616097.000
  30
1030.754
  0
VERTEX
  8
PNOA-H_AMS_1956-57_33k_ES_PAN_21mic_H50_0350_fot_37226_tif
  70
32
  10
565903.681
  20
4616097.079
  30
1030.751
  0
VERTEX
  8
PNOA-H_AMS_1956-57_33k_ES_PAN_21mic_H50_0350_fot_37226_tif
  70
32
  10
565441.875
  20
4616211.875
  30
1026.299
  0
VERTEX
  8
PNOA-H_AMS_1956-57_33k_ES_PAN_21mic_H50_0350_fot_37226_tif
  70
32
  10
564056.330
  20
4616556.294
  30
1012.941
  0
VERTEX
  8
PNOA-H_AMS_1956-57_33k_ES_PAN_21mic_H50_0350_fot_37226_tif
  70
32
  10
564055.500
  20
4616556.500
  30
1012.933
  0
VERTEX
  8
PNOA-H_AMS_1956-57_33k_ES_PAN_21mic_H50_0350_fot_37226_tif
  70
32
  10
563932.500
  20
4620555.500
  30
1071.383
  0
VERTEX
  8
PNOA-H_AMS_1956-57_33k_ES_PAN_21mic_H50_0350_fot_37226_tif
  70
32
  10
563932.704
  20
4620555.575
  30
1071.387
  0
VERTEX
  8
PNOA-H_AMS_1956-57_33k_ES_PAN_21mic_H50_0350_fot_37226_tif
  70
32
  10
565070.494
  20
4620975.998
  30
1093.524
  0
VERTEX
  8
PNOA-H_AMS_1956-57_33k_ES_PAN_21mic_H50_0350_fot_37226_tif
  70
32
  10
565070.500
  20
4620976.000
  30
1093.524
  0
SEQEND
  8
PNOA-H_AMS_1956-57_33k_ES_PAN_21mic_H50_0350_fot_37226_tif
  0
INSERT
  8
FeatureAttribs
  2
FEATURE
  41
1
  42
1
  43
1
  50
0
  10
540522.249
  20
4630718.625
 66
1
  0
ATTRIB
  8
FeatureAttribs
 70
0
  1
PNOA-H_AMS_1956-57_33k_ES_PAN_21mic_H50_0318_fot_33B-38735_E.tif
  2
NAME
  10
540522.249
  20
4630718.625
 40
33.55473
  0
SEQEND
  0
POLYLINE
  8
PNOA-H_AMS_1956-57_33k_ES_PAN_21mic_H50_0318_fot_33B-38735_E_tif
  70
9
  66
1
  0
VERTEX
  8
PNOA-H_AMS_1956-57_33k_ES_PAN_21mic_H50_0318_fot_33B-38735_E_tif
  70
32
  10
541238.500
  20
4630210.500
  30
1017.877
  0
VERTEX
  8
PNOA-H_AMS_1956-57_33k_ES_PAN_21mic_H50_0318_fot_33B-38735_E_tif
  70
32
  10
540890.000
  20
4630046.000
  30
1019.491
  0
VERTEX
  8
PNOA-H_AMS_1956-57_33k_ES_PAN_21mic_H50_0318_fot_33B-38735_E_tif
  70
32
  10
539793.969
  20
4630111.284
  30
1040.266
  0
VERTEX
  8
PNOA-H_AMS_1956-57_33k_ES_PAN_21mic_H50_0318_fot_33B-38735_E_tif
  70
32
  10
539786.879
  20
4631382.649
  30
0
  0
VERTEX
  8
PNOA-H_AMS_1956-57_33k_ES_PAN_21mic_H50_0318_fot_33B-38735_E_tif
  70
32
  10
541264.201
  20
4631391.248
  30
0
  0
VERTEX
  8
PNOA-H_AMS_1956-57_33k_ES_PAN_21mic_H50_0318_fot_33B-38735_E_tif
  70
32
  10
541264.530
  20
4631391.250
  30
1035.254
  0
VERTEX
  8
PNOA-H_AMS_1956-57_33k_ES_PAN_21mic_H50_0318_fot_33B-38735_E_tif
  70
32
  10
541246.000
  20
4630217.000
  30
1017.854
  0
VERTEX
  8
PNOA-H_AMS_1956-57_33k_ES_PAN_21mic_H50_0318_fot_33B-38735_E_tif
  70
32
  10
541245.582
  20
4630214.492
  30
1017.841
  0
VERTEX
  8
PNOA-H_AMS_1956-57_33k_ES_PAN_21mic_H50_0318_fot_33B-38735_E_tif
  70
32
  10
541245.500
  20
4630214.000
  30
1017.838
  0
VERTEX
  8
PNOA-H_AMS_1956-57_33k_ES_PAN_21mic_H50_0318_fot_33B-38735_E_tif
  70
32
  10
541238.500
  20
4630210.500
  30
1017.877
  0
SEQEND
  8
PNOA-H_AMS_1956-57_33k_ES_PAN_21mic_H50_0318_fot_33B-38735_E_tif
  0
INSERT
  8
FeatureAttribs
  2
FEATURE
  41
1
  42
1
  43
1
  50
0
  10
542680.008
  20
4630697.879
 66
1
  0
ATTRIB
  8
FeatureAttribs
 70
0
  1
PNOA-H_AMS_1956-57_33k_ES_PAN_21mic_H50_0318_fot_33B-38736_E.tif
  2
NAME
  10
542680.008
  20
4630697.879
 40
33.55473
  0
SEQEND
  0
POLYLINE
  8
PNOA-H_AMS_1956-57_33k_ES_PAN_21mic_H50_0318_fot_33B-38736_E_tif
  70
9
  66
1
  0
VERTEX
  8
PNOA-H_AMS_1956-57_33k_ES_PAN_21mic_H50_0318_fot_33B-38736_E_tif
  70
32
  10
544102.000
  20
4630237.500
  30
1019.804
  0
VERTEX
  8
PNOA-H_AMS_1956-57_33k_ES_PAN_21mic_H50_0318_fot_33B-38736_E_tif
  70
32
  10
543539.000
  20
4629987.500
  30
1022.075
  0
VERTEX
  8
PNOA-H_AMS_1956-57_33k_ES_PAN_21mic_H50_0318_fot_33B-38736_E_tif
  70
32
  10
543538.182
  20
4629987.581
  30
1022.074
  0
VERTEX
  8
PNOA-H_AMS_1956-57_33k_ES_PAN_21mic_H50_0318_fot_33B-38736_E_tif
  70
32
  10
541245.582
  20
4630214.492
  30
1017.842
  0
VERTEX
  8
PNOA-H_AMS_1956-57_33k_ES_PAN_21mic_H50_0318_fot_33B-38736_E_tif
  70
32
  10
541245.500
  20
4630214.500
  30
1017.841
  0
VERTEX
  8
PNOA-H_AMS_1956-57_33k_ES_PAN_21mic_H50_0318_fot_33B-38736_E_tif
  70
32
  10
541264.201
  20
4631391.248
  30
1035.272
  0
VERTEX
  8
PNOA-H_AMS_1956-57_33k_ES_PAN_21mic_H50_0318_fot_33B-38736_E_tif
  70
32
  10
541264.530
  20
4631391.250
  30
0
  0
VERTEX
  8
PNOA-H_AMS_1956-57_33k_ES_PAN_21mic_H50_0318_fot_33B-38736_E_tif
  70
32
  10
543246.618
  20
4631402.787
  30
0
  0
VERTEX
  8
PNOA-H_AMS_1956-57_33k_ES_PAN_21mic_H50_0318_fot_33B-38736_E_tif
  70
32
  10
544114.290
  20
4631408.258
  30
0
  0
VERTEX
  8
PNOA-H_AMS_1956-57_33k_ES_PAN_21mic_H50_0318_fot_33B-38736_E_tif
  70
32
  10
544114.294
  20
4631408.258
  30
1029.271
  0
VERTEX
  8
PNOA-H_AMS_1956-57_33k_ES_PAN_21mic_H50_0318_fot_33B-38736_E_tif
  70
32
  10
544102.005
  20
4630237.999
  30
1019.808
  0
VERTEX
  8
PNOA-H_AMS_1956-57_33k_ES_PAN_21mic_H50_0318_fot_33B-38736_E_tif
  70
32
  10
544102.000
  20
4630237.500
  30
1019.804
  0
SEQEND
  8
PNOA-H_AMS_1956-57_33k_ES_PAN_21mic_H50_0318_fot_33B-38736_E_tif
  0
INSERT
  8
FeatureAttribs
  2
FEATURE
  41
1
  42
1
  43
1
  50
0
  10
545501.844
  20
4630692.228
 66
1
  0
ATTRIB
  8
FeatureAttribs
 70
0
  1
PNOA-H_AMS_1956-57_33k_ES_PAN_21mic_H50_0318_fot_33B-38737_E.tif
  2
NAME
  10
545501.844
  20
4630692.228
 40
33.55473
  0
SEQEND
  0
POLYLINE
  8
PNOA-H_AMS_1956-57_33k_ES_PAN_21mic_H50_0318_fot_33B-38737_E_tif
  70
9
  66
1
  0
VERTEX
  8
PNOA-H_AMS_1956-57_33k_ES_PAN_21mic_H50_0318_fot_33B-38737_E_tif
  70
32
  10
546891.000
  20
4630199.500
  30
1022.445
  0
VERTEX
  8
PNOA-H_AMS_1956-57_33k_ES_PAN_21mic_H50_0318_fot_33B-38737_E_tif
  70
32
  10
546543.500
  20
4630053.000
  30
1025.954
  0
VERTEX
  8
PNOA-H_AMS_1956-57_33k_ES_PAN_21mic_H50_0318_fot_33B-38737_E_tif
  70
32
  10
546542.398
  20
4630053.000
  30
1025.977
  0
VERTEX
  8
PNOA-H_AMS_1956-57_33k_ES_PAN_21mic_H50_0318_fot_33B-38737_E_tif
  70
32
  10
546542.000
  20
4630053.000
  30
1025.985
  0
VERTEX
  8
PNOA-H_AMS_1956-57_33k_ES_PAN_21mic_H50_0318_fot_33B-38737_E_tif
  70
32
  10
546475.479
  20
4630024.756
  30
1025.656
  0
VERTEX
  8
PNOA-H_AMS_1956-57_33k_ES_PAN_21mic_H50_0318_fot_33B-38737_E_tif
  70
32
  10
546326.500
  20
4629961.500
  30
1024.917
  0
VERTEX
  8
PNOA-H_AMS_1956-57_33k_ES_PAN_21mic_H50_0318_fot_33B-38737_E_tif
  70
32
  10
546319.000
  20
4629958.500
  30
1024.546
  0
VERTEX
  8
PNOA-H_AMS_1956-57_33k_ES_PAN_21mic_H50_0318_fot_33B-38737_E_tif
  70
32
  10
546318.500
  20
4629958.500
  30
1024.543
  0
VERTEX
  8
PNOA-H_AMS_1956-57_33k_ES_PAN_21mic_H50_0318_fot_33B-38737_E_tif
  70
32
  10
546315.500
  20
4629958.500
  30
1024.529
  0
VERTEX
  8
PNOA-H_AMS_1956-57_33k_ES_PAN_21mic_H50_0318_fot_33B-38737_E_tif
  70
32
  10
544102.005
  20
4630237.999
  30
1019.809
  0
VERTEX
  8
PNOA-H_AMS_1956-57_33k_ES_PAN_21mic_H50_0318_fot_33B-38737_E_tif
  70
32
  10
544102.000
  20
4630238.000
  30
1019.809
  0
VERTEX
  8
PNOA-H_AMS_1956-57_33k_ES_PAN_21mic_H50_0318_fot_33B-38737_E_tif
  70
32
  10
544114.290
  20
4631408.258
  30
1029.272
  0
VERTEX
  8
PNOA-H_AMS_1956-57_33k_ES_PAN_21mic_H50_0318_fot_33B-38737_E_tif
  70
32
  10
544114.294
  20
4631408.258
  30
1029.272
  0
VERTEX
  8
PNOA-H_AMS_1956-57_33k_ES_PAN_21mic_H50_0318_fot_33B-38737_E_tif
  70
32
  10
546706.359
  20
4631424.603
  30
0
  0
VERTEX
  8
PNOA-H_AMS_1956-57_33k_ES_PAN_21mic_H50_0318_fot_33B-38737_E_tif
  70
32
  10
546905.726
  20
4631425.956
  30
0
  0
VERTEX
  8
PNOA-H_AMS_1956-57_33k_ES_PAN_21mic_H50_0318_fot_33B-38737_E_tif
  70
32
  10
546905.730
  20
4631425.956
  30
1029.372
  0
VERTEX
  8
PNOA-H_AMS_1956-57_33k_ES_PAN_21mic_H50_0318_fot_33B-38737_E_tif
  70
32
  10
546891.006
  20
4630199.999
  30
1022.448
  0
VERTEX
  8
PNOA-H_AMS_1956-57_33k_ES_PAN_21mic_H50_0318_fot_33B-38737_E_tif
  70
32
  10
546891.000
  20
4630199.500
  30
1022.445
  0
SEQEND
  8
PNOA-H_AMS_1956-57_33k_ES_PAN_21mic_H50_0318_fot_33B-38737_E_tif
  0
INSERT
  8
FeatureAttribs
  2
FEATURE
  41
1
  42
1
  43
1
  50
0
  10
553769.082
  20
4630656.110
 66
1
  0
ATTRIB
  8
FeatureAttribs
 70
0
  1
PNOA-H_AMS_1956-57_33k_ES_PAN_21mic_H50_0318_fot_33B-38740_E.tif
  2
NAME
  10
553769.082
  20
4630656.110
 40
33.55473
  0
SEQEND
  0
POLYLINE
  8
PNOA-H_AMS_1956-57_33k_ES_PAN_21mic_H50_0318_fot_33B-38740_E_tif
  70
9
  66
1
  0
VERTEX
  8
PNOA-H_AMS_1956-57_33k_ES_PAN_21mic_H50_0318_fot_33B-38740_E_tif
  70
32
  10
555146.500
  20
4630068.500
  30
1090.296
  0
VERTEX
  8
PNOA-H_AMS_1956-57_33k_ES_PAN_21mic_H50_0318_fot_33B-38740_E_tif
  70
32
  10
554587.000
  20
4629827.000
  30
1088.221
  0
VERTEX
  8
PNOA-H_AMS_1956-57_33k_ES_PAN_21mic_H50_0318_fot_33B-38740_E_tif
  70
32
  10
554586.991
  20
4629827.001
  30
1088.221
  0
VERTEX
  8
PNOA-H_AMS_1956-57_33k_ES_PAN_21mic_H50_0318_fot_33B-38740_E_tif
  70
32
  10
552372.500
  20
4630117.500
  30
1032.89
  0
VERTEX
  8
PNOA-H_AMS_1956-57_33k_ES_PAN_21mic_H50_0318_fot_33B-38740_E_tif
  70
32
  10
552400.402
  20
4631464.353
  30
1043.368
  0
VERTEX
  8
PNOA-H_AMS_1956-57_33k_ES_PAN_21mic_H50_0318_fot_33B-38740_E_tif
  70
32
  10
553625.851
  20
4631473.269
  30
0
  0
VERTEX
  8
PNOA-H_AMS_1956-57_33k_ES_PAN_21mic_H50_0318_fot_33B-38740_E_tif
  70
32
  10
555165.804
  20
4631485.220
  30
1078.949
  0
VERTEX
  8
PNOA-H_AMS_1956-57_33k_ES_PAN_21mic_H50_0318_fot_33B-38740_E_tif
  70
32
  10
555146.507
  20
4630068.999
  30
1090.292
  0
VERTEX
  8
PNOA-H_AMS_1956-57_33k_ES_PAN_21mic_H50_0318_fot_33B-38740_E_tif
  70
32
  10
555146.500
  20
4630068.500
  30
1090.296
  0
SEQEND
  8
PNOA-H_AMS_1956-57_33k_ES_PAN_21mic_H50_0318_fot_33B-38740_E_tif
  0
INSERT
  8
FeatureAttribs
  2
FEATURE
  41
1
  42
1
  43
1
  50
0
  10
551006.109
  20
4630665.926
 66
1
  0
ATTRIB
  8
FeatureAttribs
 70
0
  1
PNOA-H_AMS_1956-57_33k_ES_PAN_21mic_H50_0318_fot_33B-38739_E.tif
  2
NAME
  10
551006.109
  20
4630665.926
 40
33.55473
  0
SEQEND
  0
POLYLINE
  8
PNOA-H_AMS_1956-57_33k_ES_PAN_21mic_H50_0318_fot_33B-38739_E_tif
  70
9
  66
1
  0
VERTEX
  8
PNOA-H_AMS_1956-57_33k_ES_PAN_21mic_H50_0318_fot_33B-38739_E_tif
  70
32
  10
551793.500
  20
4629867.500
  30
1027.333
  0
VERTEX
  8
PNOA-H_AMS_1956-57_33k_ES_PAN_21mic_H50_0318_fot_33B-38739_E_tif
  70
32
  10
551790.500
  20
4629867.500
  30
1027.332
  0
VERTEX
  8
PNOA-H_AMS_1956-57_33k_ES_PAN_21mic_H50_0318_fot_33B-38739_E_tif
  70
32
  10
549616.000
  20
4630125.500
  30
1030.329
  0
VERTEX
  8
PNOA-H_AMS_1956-57_33k_ES_PAN_21mic_H50_0318_fot_33B-38739_E_tif
  70
32
  10
549616.002
  20
4630125.602
  30
1030.33
  0
VERTEX
  8
PNOA-H_AMS_1956-57_33k_ES_PAN_21mic_H50_0318_fot_33B-38739_E_tif
  70
32
  10
549646.162
  20
4631444.566
  30
1034.869
  0
VERTEX
  8
PNOA-H_AMS_1956-57_33k_ES_PAN_21mic_H50_0318_fot_33B-38739_E_tif
  70
32
  10
549646.499
  20
4631444.568
  30
0
  0
VERTEX
  8
PNOA-H_AMS_1956-57_33k_ES_PAN_21mic_H50_0318_fot_33B-38739_E_tif
  70
32
  10
550166.104
  20
4631448.097
  30
0
  0
VERTEX
  8
PNOA-H_AMS_1956-57_33k_ES_PAN_21mic_H50_0318_fot_33B-38739_E_tif
  70
32
  10
552400.402
  20
4631464.353
  30
1043.368
  0
VERTEX
  8
PNOA-H_AMS_1956-57_33k_ES_PAN_21mic_H50_0318_fot_33B-38739_E_tif
  70
32
  10
552372.500
  20
4630117.500
  30
1032.89
  0
VERTEX
  8
PNOA-H_AMS_1956-57_33k_ES_PAN_21mic_H50_0318_fot_33B-38739_E_tif
  70
32
  10
551800.500
  20
4629870.000
  30
1027.332
  0
VERTEX
  8
PNOA-H_AMS_1956-57_33k_ES_PAN_21mic_H50_0318_fot_33B-38739_E_tif
  70
32
  10
551794.500
  20
4629867.500
  30
1027.334
  0
VERTEX
  8
PNOA-H_AMS_1956-57_33k_ES_PAN_21mic_H50_0318_fot_33B-38739_E_tif
  70
32
  10
551793.500
  20
4629867.500
  30
1027.333
  0
SEQEND
  8
PNOA-H_AMS_1956-57_33k_ES_PAN_21mic_H50_0318_fot_33B-38739_E_tif
  0
INSERT
  8
FeatureAttribs
  2
FEATURE
  41
1
  42
1
  43
1
  50
0
  10
548262.801
  20
4630672.284
 66
1
  0
ATTRIB
  8
FeatureAttribs
 70
0
  1
PNOA-H_AMS_1956-57_33k_ES_PAN_21mic_H50_0318_fot_33B-38738_E.tif
  2
NAME
  10
548262.801
  20
4630672.284
 40
33.55473
  0
SEQEND
  0
POLYLINE
  8
PNOA-H_AMS_1956-57_33k_ES_PAN_21mic_H50_0318_fot_33B-38738_E_tif
  70
9
  66
1
  0
VERTEX
  8
PNOA-H_AMS_1956-57_33k_ES_PAN_21mic_H50_0318_fot_33B-38738_E_tif
  70
32
  10
549092.620
  20
4629900.052
  30
1035.811
  0
VERTEX
  8
PNOA-H_AMS_1956-57_33k_ES_PAN_21mic_H50_0318_fot_33B-38738_E_tif
  70
32
  10
549092.500
  20
4629900.000
  30
1035.813
  0
VERTEX
  8
PNOA-H_AMS_1956-57_33k_ES_PAN_21mic_H50_0318_fot_33B-38738_E_tif
  70
32
  10
546891.006
  20
4630199.999
  30
1022.45
  0
VERTEX
  8
PNOA-H_AMS_1956-57_33k_ES_PAN_21mic_H50_0318_fot_33B-38738_E_tif
  70
32
  10
546891.000
  20
4630200.000
  30
1022.45
  0
VERTEX
  8
PNOA-H_AMS_1956-57_33k_ES_PAN_21mic_H50_0318_fot_33B-38738_E_tif
  70
32
  10
546905.726
  20
4631425.956
  30
1029.373
  0
VERTEX
  8
PNOA-H_AMS_1956-57_33k_ES_PAN_21mic_H50_0318_fot_33B-38738_E_tif
  70
32
  10
546905.730
  20
4631425.956
  30
1029.373
  0
VERTEX
  8
PNOA-H_AMS_1956-57_33k_ES_PAN_21mic_H50_0318_fot_33B-38738_E_tif
  70
32
  10
549646.162
  20
4631444.566
  30
1034.869
  0
VERTEX
  8
PNOA-H_AMS_1956-57_33k_ES_PAN_21mic_H50_0318_fot_33B-38738_E_tif
  70
32
  10
549646.499
  20
4631444.568
  30
1034.87
  0
VERTEX
  8
PNOA-H_AMS_1956-57_33k_ES_PAN_21mic_H50_0318_fot_33B-38738_E_tif
  70
32
  10
549616.500
  20
4630126.000
  30
1030.332
  0
VERTEX
  8
PNOA-H_AMS_1956-57_33k_ES_PAN_21mic_H50_0318_fot_33B-38738_E_tif
  70
32
  10
549616.002
  20
4630125.602
  30
1030.33
  0
VERTEX
  8
PNOA-H_AMS_1956-57_33k_ES_PAN_21mic_H50_0318_fot_33B-38738_E_tif
  70
32
  10
549615.730
  20
4630125.384
  30
1030.328
  0
VERTEX
  8
PNOA-H_AMS_1956-57_33k_ES_PAN_21mic_H50_0318_fot_33B-38738_E_tif
  70
32
  10
549614.000
  20
4630124.000
  30
1030.319
  0
VERTEX
  8
PNOA-H_AMS_1956-57_33k_ES_PAN_21mic_H50_0318_fot_33B-38738_E_tif
  70
32
  10
549448.500
  20
4630053.000
  30
1029.937
  0
VERTEX
  8
PNOA-H_AMS_1956-57_33k_ES_PAN_21mic_H50_0318_fot_33B-38738_E_tif
  70
32
  10
549447.500
  20
4630053.000
  30
1029.935
  0
VERTEX
  8
PNOA-H_AMS_1956-57_33k_ES_PAN_21mic_H50_0318_fot_33B-38738_E_tif
  70
32
  10
549105.520
  20
4629905.612
  30
1035.597
  0
VERTEX
  8
PNOA-H_AMS_1956-57_33k_ES_PAN_21mic_H50_0318_fot_33B-38738_E_tif
  70
32
  10
549092.620
  20
4629900.052
  30
1035.811
  0
SEQEND
  8
PNOA-H_AMS_1956-57_33k_ES_PAN_21mic_H50_0318_fot_33B-38738_E_tif
  0
INSERT
  8
FeatureAttribs
  2
FEATURE
  41
1
  42
1
  43
1
  50
0
  10
556571.232
  20
4630658.536
 66
1
  0
ATTRIB
  8
FeatureAttribs
 70
0
  1
PNOA-H_AMS_1956-57_33k_ES_PAN_21mic_H50_0318_fot_33B-38741_E.tif
  2
NAME
  10
556571.232
  20
4630658.536
 40
33.55473
  0
SEQEND
  0
POLYLINE
  8
PNOA-H_AMS_1956-57_33k_ES_PAN_21mic_H50_0318_fot_33B-38741_E_tif
  70
9
  66
1
  0
VERTEX
  8
PNOA-H_AMS_1956-57_33k_ES_PAN_21mic_H50_0318_fot_33B-38741_E_tif
  70
32
  10
557986.322
  20
4630125.932
  30
1112.442
  0
VERTEX
  8
PNOA-H_AMS_1956-57_33k_ES_PAN_21mic_H50_0318_fot_33B-38741_E_tif
  70
32
  10
557156.000
  20
4629809.500
  30
1055.28
  0
VERTEX
  8
PNOA-H_AMS_1956-57_33k_ES_PAN_21mic_H50_0318_fot_33B-38741_E_tif
  70
32
  10
555147.000
  20
4630069.000
  30
1090.26
  0
VERTEX
  8
PNOA-H_AMS_1956-57_33k_ES_PAN_21mic_H50_0318_fot_33B-38741_E_tif
  70
32
  10
555165.983
  20
4631485.222
  30
1078.915
  0
VERTEX
  8
PNOA-H_AMS_1956-57_33k_ES_PAN_21mic_H50_0318_fot_33B-38741_E_tif
  70
32
  10
557085.601
  20
4631500.120
  30
0
  0
VERTEX
  8
PNOA-H_AMS_1956-57_33k_ES_PAN_21mic_H50_0318_fot_33B-38741_E_tif
  70
32
  10
557989.255
  20
4631507.571
  30
1115.251
  0
VERTEX
  8
PNOA-H_AMS_1956-57_33k_ES_PAN_21mic_H50_0318_fot_33B-38741_E_tif
  70
32
  10
557986.500
  20
4630126.000
  30
1112.454
  0
VERTEX
  8
PNOA-H_AMS_1956-57_33k_ES_PAN_21mic_H50_0318_fot_33B-38741_E_tif
  70
32
  10
557986.322
  20
4630125.932
  30
1112.442
  0
SEQEND
  8
PNOA-H_AMS_1956-57_33k_ES_PAN_21mic_H50_0318_fot_33B-38741_E_tif
  0
INSERT
  8
FeatureAttribs
  2
FEATURE
  41
1
  42
1
  43
1
  50
0
  10
559427.962
  20
4630645.984
 66
1
  0
ATTRIB
  8
FeatureAttribs
 70
0
  1
PNOA-H_AMS_1956-57_33k_ES_PAN_21mic_H50_0318_fot_33B-38742_E.tif
  2
NAME
  10
559427.962
  20
4630645.984
 40
33.55473
  0
SEQEND
  0
POLYLINE
  8
PNOA-H_AMS_1956-57_33k_ES_PAN_21mic_H50_0318_fot_33B-38742_E_tif
  70
9
  66
1
  0
VERTEX
  8
PNOA-H_AMS_1956-57_33k_ES_PAN_21mic_H50_0318_fot_33B-38742_E_tif
  70
32
  10
560868.500
  20
4630160.500
  30
1218.945
  0
VERTEX
  8
PNOA-H_AMS_1956-57_33k_ES_PAN_21mic_H50_0318_fot_33B-38742_E_tif
  70
32
  10
559721.500
  20
4629760.500
  30
1118.961
  0
VERTEX
  8
PNOA-H_AMS_1956-57_33k_ES_PAN_21mic_H50_0318_fot_33B-38742_E_tif
  70
32
  10
559721.161
  20
4629760.571
  30
1118.959
  0
VERTEX
  8
PNOA-H_AMS_1956-57_33k_ES_PAN_21mic_H50_0318_fot_33B-38742_E_tif
  70
32
  10
557986.500
  20
4630126.000
  30
1112.454
  0
VERTEX
  8
PNOA-H_AMS_1956-57_33k_ES_PAN_21mic_H50_0318_fot_33B-38742_E_tif
  70
32
  10
557989.255
  20
4631507.571
  30
1115.251
  0
VERTEX
  8
PNOA-H_AMS_1956-57_33k_ES_PAN_21mic_H50_0318_fot_33B-38742_E_tif
  70
32
  10
560545.355
  20
4631528.649
  30
0
  0
VERTEX
  8
PNOA-H_AMS_1956-57_33k_ES_PAN_21mic_H50_0318_fot_33B-38742_E_tif
  70
32
  10
560868.181
  20
4631531.467
  30
1207.241
  0
VERTEX
  8
PNOA-H_AMS_1956-57_33k_ES_PAN_21mic_H50_0318_fot_33B-38742_E_tif
  70
32
  10
560868.500
  20
4630161.000
  30
1218.941
  0
VERTEX
  8
PNOA-H_AMS_1956-57_33k_ES_PAN_21mic_H50_0318_fot_33B-38742_E_tif
  70
32
  10
560868.500
  20
4630160.500
  30
1218.945
  0
SEQEND
  8
PNOA-H_AMS_1956-57_33k_ES_PAN_21mic_H50_0318_fot_33B-38742_E_tif
  0
INSERT
  8
FeatureAttribs
  2
FEATURE
  41
1
  42
1
  43
1
  50
0
  10
565179.102
  20
4630678.994
 66
1
  0
ATTRIB
  8
FeatureAttribs
 70
0
  1
PNOA-H_AMS_1956-57_33k_ES_PAN_21mic_H50_0318_fot_33B-38744_E.tif
  2
NAME
  10
565179.102
  20
4630678.994
 40
33.55473
  0
SEQEND
  0
POLYLINE
  8
PNOA-H_AMS_1956-57_33k_ES_PAN_21mic_H50_0318_fot_33B-38744_E_tif
  70
9
  66
1
  0
VERTEX
  8
PNOA-H_AMS_1956-57_33k_ES_PAN_21mic_H50_0318_fot_33B-38744_E_tif
  70
32
  10
566614.000
  20
4630071.500
  30
1223.809
  0
VERTEX
  8
PNOA-H_AMS_1956-57_33k_ES_PAN_21mic_H50_0318_fot_33B-38744_E_tif
  70
32
  10
564809.000
  20
4629775.500
  30
1252.2
  0
VERTEX
  8
PNOA-H_AMS_1956-57_33k_ES_PAN_21mic_H50_0318_fot_33B-38744_E_tif
  70
32
  10
564807.500
  20
4629775.500
  30
1252.009
  0
VERTEX
  8
PNOA-H_AMS_1956-57_33k_ES_PAN_21mic_H50_0318_fot_33B-38744_E_tif
  70
32
  10
564806.500
  20
4629775.500
  30
1251.882
  0
VERTEX
  8
PNOA-H_AMS_1956-57_33k_ES_PAN_21mic_H50_0318_fot_33B-38744_E_tif
  70
32
  10
563763.500
  20
4630159.500
  30
1183.799
  0
VERTEX
  8
PNOA-H_AMS_1956-57_33k_ES_PAN_21mic_H50_0318_fot_33B-38744_E_tif
  70
32
  10
563763.499
  20
4630160.000
  30
1183.802
  0
VERTEX
  8
PNOA-H_AMS_1956-57_33k_ES_PAN_21mic_H50_0318_fot_33B-38744_E_tif
  70
32
  10
563759.987
  20
4631556.716
  30
1191.363
  0
VERTEX
  8
PNOA-H_AMS_1956-57_33k_ES_PAN_21mic_H50_0318_fot_33B-38744_E_tif
  70
32
  10
564005.112
  20
4631558.856
  30
0
  0
VERTEX
  8
PNOA-H_AMS_1956-57_33k_ES_PAN_21mic_H50_0318_fot_33B-38744_E_tif
  70
32
  10
566569.256
  20
4631582.488
  30
1257.155
  0
VERTEX
  8
PNOA-H_AMS_1956-57_33k_ES_PAN_21mic_H50_0318_fot_33B-38744_E_tif
  70
32
  10
566614.000
  20
4630071.500
  30
1223.809
  0
SEQEND
  8
PNOA-H_AMS_1956-57_33k_ES_PAN_21mic_H50_0318_fot_33B-38744_E_tif
  0
INSERT
  8
FeatureAttribs
  2
FEATURE
  41
1
  42
1
  43
1
  50
0
  10
562315.499
  20
4630684.358
 66
1
  0
ATTRIB
  8
FeatureAttribs
 70
0
  1
PNOA-H_AMS_1956-57_33k_ES_PAN_21mic_H50_0318_fot_33B-38743_E.tif
  2
NAME
  10
562315.499
  20
4630684.358
 40
33.55473
  0
SEQEND
  0
POLYLINE
  8
PNOA-H_AMS_1956-57_33k_ES_PAN_21mic_H50_0318_fot_33B-38743_E_tif
  70
9
  66
1
  0
VERTEX
  8
PNOA-H_AMS_1956-57_33k_ES_PAN_21mic_H50_0318_fot_33B-38743_E_tif
  70
32
  10
563763.499
  20
4630160.000
  30
1183.807
  0
VERTEX
  8
PNOA-H_AMS_1956-57_33k_ES_PAN_21mic_H50_0318_fot_33B-38743_E_tif
  70
32
  10
562274.000
  20
4629812.000
  30
1237.025
  0
VERTEX
  8
PNOA-H_AMS_1956-57_33k_ES_PAN_21mic_H50_0318_fot_33B-38743_E_tif
  70
32
  10
562272.496
  20
4629812.116
  30
1237.055
  0
VERTEX
  8
PNOA-H_AMS_1956-57_33k_ES_PAN_21mic_H50_0318_fot_33B-38743_E_tif
  70
32
  10
562271.104
  20
4629812.223
  30
1237.083
  0
VERTEX
  8
PNOA-H_AMS_1956-57_33k_ES_PAN_21mic_H50_0318_fot_33B-38743_E_tif
  70
32
  10
562267.500
  20
4629812.500
  30
1237.154
  0
VERTEX
  8
PNOA-H_AMS_1956-57_33k_ES_PAN_21mic_H50_0318_fot_33B-38743_E_tif
  70
32
  10
561102.921
  20
4630102.708
  30
1222.075
  0
VERTEX
  8
PNOA-H_AMS_1956-57_33k_ES_PAN_21mic_H50_0318_fot_33B-38743_E_tif
  70
32
  10
560869.000
  20
4630161.000
  30
1219.046
  0
VERTEX
  8
PNOA-H_AMS_1956-57_33k_ES_PAN_21mic_H50_0318_fot_33B-38743_E_tif
  70
32
  10
560868.522
  20
4631531.470
  30
1207.313
  0
VERTEX
  8
PNOA-H_AMS_1956-57_33k_ES_PAN_21mic_H50_0318_fot_33B-38743_E_tif
  70
32
  10
563759.987
  20
4631556.716
  30
1191.366
  0
VERTEX
  8
PNOA-H_AMS_1956-57_33k_ES_PAN_21mic_H50_0318_fot_33B-38743_E_tif
  70
32
  10
563763.499
  20
4630160.000
  30
1183.807
  0
SEQEND
  8
PNOA-H_AMS_1956-57_33k_ES_PAN_21mic_H50_0318_fot_33B-38743_E_tif
  0
INSERT
  8
FeatureAttribs
  2
FEATURE
  41
1
  42
1
  43
1
  50
0
  10
567034.404
  20
4630696.871
 66
1
  0
ATTRIB
  8
FeatureAttribs
 70
0
  1
PNOA-H_AMS_1956-57_33k_ES_PAN_21mic_H50_0319_fot_33B-38745_E.tif
  2
NAME
  10
567034.404
  20
4630696.871
 40
33.55473
  0
SEQEND
  0
POLYLINE
  8
PNOA-H_AMS_1956-57_33k_ES_PAN_21mic_H50_0319_fot_33B-38745_E_tif
  70
9
  66
1
  0
VERTEX
  8
PNOA-H_AMS_1956-57_33k_ES_PAN_21mic_H50_0319_fot_33B-38745_E_tif
  70
32
  10
567481.594
  20
4629822.652
  30
1213.932
  0
VERTEX
  8
PNOA-H_AMS_1956-57_33k_ES_PAN_21mic_H50_0319_fot_33B-38745_E_tif
  70
32
  10
567335.000
  20
4629803.000
  30
1227.585
  0
VERTEX
  8
PNOA-H_AMS_1956-57_33k_ES_PAN_21mic_H50_0319_fot_33B-38745_E_tif
  70
32
  10
567334.601
  20
4629803.148
  30
1227.583
  0
VERTEX
  8
PNOA-H_AMS_1956-57_33k_ES_PAN_21mic_H50_0319_fot_33B-38745_E_tif
  70
32
  10
567265.330
  20
4629828.945
  30
1227.22
  0
VERTEX
  8
PNOA-H_AMS_1956-57_33k_ES_PAN_21mic_H50_0319_fot_33B-38745_E_tif
  70
32
  10
566614.000
  20
4630071.500
  30
1223.809
  0
VERTEX
  8
PNOA-H_AMS_1956-57_33k_ES_PAN_21mic_H50_0319_fot_33B-38745_E_tif
  70
32
  10
566569.256
  20
4631582.488
  30
1257.155
  0
VERTEX
  8
PNOA-H_AMS_1956-57_33k_ES_PAN_21mic_H50_0319_fot_33B-38745_E_tif
  70
32
  10
567464.873
  20
4631590.742
  30
0
  0
VERTEX
  8
PNOA-H_AMS_1956-57_33k_ES_PAN_21mic_H50_0319_fot_33B-38745_E_tif
  70
32
  10
567481.591
  20
4629822.959
  30
0
  0
VERTEX
  8
PNOA-H_AMS_1956-57_33k_ES_PAN_21mic_H50_0319_fot_33B-38745_E_tif
  70
32
  10
567481.594
  20
4629822.652
  30
1213.932
  0
SEQEND
  8
PNOA-H_AMS_1956-57_33k_ES_PAN_21mic_H50_0319_fot_33B-38745_E_tif
  0
INSERT
  8
FeatureAttribs
  2
FEATURE
  41
1
  42
1
  43
1
  50
0
  10
540251.780
  20
4614679.199
 66
1
  0
ATTRIB
  8
FeatureAttribs
 70
0
  1
PNOA-H_AMS_1956-57_33k_ES_PAN_21mic_H50_0349_fot_38998.tif
  2
NAME
  10
540251.780
  20
4614679.199
 40
33.55473
  0
SEQEND
  0
POLYLINE
  8
PNOA-H_AMS_1956-57_33k_ES_PAN_21mic_H50_0349_fot_38998_tif
  70
9
  66
1
  0
VERTEX
  8
PNOA-H_AMS_1956-57_33k_ES_PAN_21mic_H50_0349_fot_38998_tif
  70
32
  10
540602.142
  20
4612882.706
  30
1070.49
  0
VERTEX
  8
PNOA-H_AMS_1956-57_33k_ES_PAN_21mic_H50_0349_fot_38998_tif
  70
32
  10
539889.927
  20
4612878.574
  30
0
  0
VERTEX
  8
PNOA-H_AMS_1956-57_33k_ES_PAN_21mic_H50_0349_fot_38998_tif
  70
32
  10
539877.064
  20
4615191.554
  30
0
  0
VERTEX
  8
PNOA-H_AMS_1956-57_33k_ES_PAN_21mic_H50_0349_fot_38998_tif
  70
32
  10
539869.897
  20
4616479.822
  30
0
  0
VERTEX
  8
PNOA-H_AMS_1956-57_33k_ES_PAN_21mic_H50_0349_fot_38998_tif
  70
32
  10
539869.897
  20
4616479.825
  30
1080.974
  0
VERTEX
  8
PNOA-H_AMS_1956-57_33k_ES_PAN_21mic_H50_0349_fot_38998_tif
  70
32
  10
540643.238
  20
4616421.595
  30
1078.388
  0
VERTEX
  8
PNOA-H_AMS_1956-57_33k_ES_PAN_21mic_H50_0349_fot_38998_tif
  70
32
  10
540644.494
  20
4616421.500
  30
1078.384
  0
VERTEX
  8
PNOA-H_AMS_1956-57_33k_ES_PAN_21mic_H50_0349_fot_38998_tif
  70
32
  10
540644.500
  20
4616421.500
  30
1078.384
  0
VERTEX
  8
PNOA-H_AMS_1956-57_33k_ES_PAN_21mic_H50_0349_fot_38998_tif
  70
32
  10
540602.142
  20
4612882.706
  30
1070.49
  0
SEQEND
  8
PNOA-H_AMS_1956-57_33k_ES_PAN_21mic_H50_0349_fot_38998_tif
  0
INSERT
  8
FeatureAttribs
  2
FEATURE
  41
1
  42
1
  43
1
  50
0
  10
547804.642
  20
4614743.488
 66
1
  0
ATTRIB
  8
FeatureAttribs
 70
0
  1
PNOA-H_AMS_1956-57_33k_ES_PAN_21mic_H50_0350_fot_39001.tif
  2
NAME
  10
547804.642
  20
4614743.488
 40
33.55473
  0
SEQEND
  0
POLYLINE
  8
PNOA-H_AMS_1956-57_33k_ES_PAN_21mic_H50_0350_fot_39001_tif
  70
9
  66
1
  0
VERTEX
  8
PNOA-H_AMS_1956-57_33k_ES_PAN_21mic_H50_0350_fot_39001_tif
  70
32
  10
546827.330
  20
4612920.499
  30
0
  0
VERTEX
  8
PNOA-H_AMS_1956-57_33k_ES_PAN_21mic_H50_0350_fot_39001_tif
  70
32
  10
546346.397
  20
4612917.476
  30
1052.765
  0
VERTEX
  8
PNOA-H_AMS_1956-57_33k_ES_PAN_21mic_H50_0350_fot_39001_tif
  70
32
  10
546432.000
  20
4616456.000
  30
989.801
  0
VERTEX
  8
PNOA-H_AMS_1956-57_33k_ES_PAN_21mic_H50_0350_fot_39001_tif
  70
32
  10
548956.500
  20
4616569.000
  30
992.665
  0
VERTEX
  8
PNOA-H_AMS_1956-57_33k_ES_PAN_21mic_H50_0350_fot_39001_tif
  70
32
  10
548968.000
  20
4616569.500
  30
992.871
  0
VERTEX
  8
PNOA-H_AMS_1956-57_33k_ES_PAN_21mic_H50_0350_fot_39001_tif
  70
32
  10
548976.500
  20
4616569.500
  30
993.266
  0
VERTEX
  8
PNOA-H_AMS_1956-57_33k_ES_PAN_21mic_H50_0350_fot_39001_tif
  70
32
  10
548977.500
  20
4616569.500
  30
993.312
  0
VERTEX
  8
PNOA-H_AMS_1956-57_33k_ES_PAN_21mic_H50_0350_fot_39001_tif
  70
32
  10
549260.461
  20
4616402.023
  30
989.687
  0
VERTEX
  8
PNOA-H_AMS_1956-57_33k_ES_PAN_21mic_H50_0350_fot_39001_tif
  70
32
  10
549260.500
  20
4616402.000
  30
989.686
  0
VERTEX
  8
PNOA-H_AMS_1956-57_33k_ES_PAN_21mic_H50_0350_fot_39001_tif
  70
32
  10
549173.179
  20
4612936.377
  30
991.519
  0
VERTEX
  8
PNOA-H_AMS_1956-57_33k_ES_PAN_21mic_H50_0350_fot_39001_tif
  70
32
  10
549173.119
  20
4612936.377
  30
0
  0
VERTEX
  8
PNOA-H_AMS_1956-57_33k_ES_PAN_21mic_H50_0350_fot_39001_tif
  70
32
  10
546827.330
  20
4612920.499
  30
0
  0
SEQEND
  8
PNOA-H_AMS_1956-57_33k_ES_PAN_21mic_H50_0350_fot_39001_tif
  0
INSERT
  8
FeatureAttribs
  2
FEATURE
  41
1
  42
1
  43
1
  50
0
  10
542086.356
  20
4614735.353
 66
1
  0
ATTRIB
  8
FeatureAttribs
 70
0
  1
PNOA-H_AMS_1956-57_33k_ES_PAN_21mic_H50_0350_fot_38999.tif
  2
NAME
  10
542086.356
  20
4614735.353
 40
33.55473
  0
SEQEND
  0
POLYLINE
  8
PNOA-H_AMS_1956-57_33k_ES_PAN_21mic_H50_0350_fot_38999_tif
  70
9
  66
1
  0
VERTEX
  8
PNOA-H_AMS_1956-57_33k_ES_PAN_21mic_H50_0350_fot_38999_tif
  70
32
  10
543358.627
  20
4612898.698
  30
0
  0
VERTEX
  8
PNOA-H_AMS_1956-57_33k_ES_PAN_21mic_H50_0350_fot_38999_tif
  70
32
  10
540602.142
  20
4612882.706
  30
1070.492
  0
VERTEX
  8
PNOA-H_AMS_1956-57_33k_ES_PAN_21mic_H50_0350_fot_38999_tif
  70
32
  10
540644.494
  20
4616421.500
  30
1078.403
  0
VERTEX
  8
PNOA-H_AMS_1956-57_33k_ES_PAN_21mic_H50_0350_fot_38999_tif
  70
32
  10
540644.500
  20
4616422.000
  30
1078.404
  0
VERTEX
  8
PNOA-H_AMS_1956-57_33k_ES_PAN_21mic_H50_0350_fot_38999_tif
  70
32
  10
540644.964
  20
4616422.285
  30
1078.39
  0
VERTEX
  8
PNOA-H_AMS_1956-57_33k_ES_PAN_21mic_H50_0350_fot_38999_tif
  70
32
  10
540815.308
  20
4616527.162
  30
1073.181
  0
VERTEX
  8
PNOA-H_AMS_1956-57_33k_ES_PAN_21mic_H50_0350_fot_38999_tif
  70
32
  10
540912.500
  20
4616587.000
  30
1070.209
  0
VERTEX
  8
PNOA-H_AMS_1956-57_33k_ES_PAN_21mic_H50_0350_fot_38999_tif
  70
32
  10
540912.776
  20
4616587.551
  30
1070.169
  0
VERTEX
  8
PNOA-H_AMS_1956-57_33k_ES_PAN_21mic_H50_0350_fot_38999_tif
  70
32
  10
540913.000
  20
4616588.000
  30
1070.137
  0
VERTEX
  8
PNOA-H_AMS_1956-57_33k_ES_PAN_21mic_H50_0350_fot_38999_tif
  70
32
  10
540913.478
  20
4616587.987
  30
1070.126
  0
VERTEX
  8
PNOA-H_AMS_1956-57_33k_ES_PAN_21mic_H50_0350_fot_38999_tif
  70
32
  10
541053.658
  20
4616584.079
  30
1067.072
  0
VERTEX
  8
PNOA-H_AMS_1956-57_33k_ES_PAN_21mic_H50_0350_fot_38999_tif
  70
32
  10
543579.823
  20
4616513.658
  30
1012.031
  0
VERTEX
  8
PNOA-H_AMS_1956-57_33k_ES_PAN_21mic_H50_0350_fot_38999_tif
  70
32
  10
543585.500
  20
4616513.500
  30
1011.908
  0
VERTEX
  8
PNOA-H_AMS_1956-57_33k_ES_PAN_21mic_H50_0350_fot_38999_tif
  70
32
  10
543510.095
  20
4612899.650
  30
1044.477
  0
VERTEX
  8
PNOA-H_AMS_1956-57_33k_ES_PAN_21mic_H50_0350_fot_38999_tif
  70
32
  10
543358.627
  20
4612898.698
  30
0
  0
SEQEND
  8
PNOA-H_AMS_1956-57_33k_ES_PAN_21mic_H50_0350_fot_38999_tif
  0
INSERT
  8
FeatureAttribs
  2
FEATURE
  41
1
  42
1
  43
1
  50
0
  10
544969.247
  20
4614729.325
 66
1
  0
ATTRIB
  8
FeatureAttribs
 70
0
  1
PNOA-H_AMS_1956-57_33k_ES_PAN_21mic_H50_0350_fot_39000.tif
  2
NAME
  10
544969.247
  20
4614729.325
 40
33.55473
  0
SEQEND
  0
POLYLINE
  8
PNOA-H_AMS_1956-57_33k_ES_PAN_21mic_H50_0350_fot_39000_tif
  70
9
  66
1
  0
VERTEX
  8
PNOA-H_AMS_1956-57_33k_ES_PAN_21mic_H50_0350_fot_39000_tif
  70
32
  10
546346.385
  20
4612917.476
  30
1052.774
  0
VERTEX
  8
PNOA-H_AMS_1956-57_33k_ES_PAN_21mic_H50_0350_fot_39000_tif
  70
32
  10
543510.104
  20
4612899.650
  30
1044.492
  0
VERTEX
  8
PNOA-H_AMS_1956-57_33k_ES_PAN_21mic_H50_0350_fot_39000_tif
  70
32
  10
543585.500
  20
4616513.500
  30
1011.908
  0
VERTEX
  8
PNOA-H_AMS_1956-57_33k_ES_PAN_21mic_H50_0350_fot_39000_tif
  70
32
  10
543586.230
  20
4616513.963
  30
1011.872
  0
VERTEX
  8
PNOA-H_AMS_1956-57_33k_ES_PAN_21mic_H50_0350_fot_39000_tif
  70
32
  10
543617.000
  20
4616533.500
  30
1010.359
  0
VERTEX
  8
PNOA-H_AMS_1956-57_33k_ES_PAN_21mic_H50_0350_fot_39000_tif
  70
32
  10
546176.500
  20
4616558.500
  30
984.014
  0
VERTEX
  8
PNOA-H_AMS_1956-57_33k_ES_PAN_21mic_H50_0350_fot_39000_tif
  70
32
  10
546228.000
  20
4616559.000
  30
986.678
  0
VERTEX
  8
PNOA-H_AMS_1956-57_33k_ES_PAN_21mic_H50_0350_fot_39000_tif
  70
32
  10
546254.500
  20
4616559.000
  30
990.376
  0
VERTEX
  8
PNOA-H_AMS_1956-57_33k_ES_PAN_21mic_H50_0350_fot_39000_tif
  70
32
  10
546255.000
  20
4616559.000
  30
990.446
  0
VERTEX
  8
PNOA-H_AMS_1956-57_33k_ES_PAN_21mic_H50_0350_fot_39000_tif
  70
32
  10
546432.000
  20
4616456.500
  30
989.808
  0
VERTEX
  8
PNOA-H_AMS_1956-57_33k_ES_PAN_21mic_H50_0350_fot_39000_tif
  70
32
  10
546431.988
  20
4616456.007
  30
989.817
  0
VERTEX
  8
PNOA-H_AMS_1956-57_33k_ES_PAN_21mic_H50_0350_fot_39000_tif
  70
32
  10
546346.385
  20
4612917.476
  30
1052.774
  0
SEQEND
  8
PNOA-H_AMS_1956-57_33k_ES_PAN_21mic_H50_0350_fot_39000_tif
  0
INSERT
  8
FeatureAttribs
  2
FEATURE
  41
1
  42
1
  43
1
  50
0
  10
553457.727
  20
4618674.750
 66
1
  0
ATTRIB
  8
FeatureAttribs
 70
0
  1
PNOA-H_AMS_1956-57_33k_ES_PAN_21mic_H50_0350_fot_37222.tif
  2
NAME
  10
553457.727
  20
4618674.750
 40
33.55473
  0
SEQEND
  0
POLYLINE
  8
PNOA-H_AMS_1956-57_33k_ES_PAN_21mic_H50_0350_fot_37222_tif
  70
9
  66
1
  0
VERTEX
  8
PNOA-H_AMS_1956-57_33k_ES_PAN_21mic_H50_0350_fot_37222_tif
  70
32
  10
554861.500
  20
4616441.500
  30
1011.627
  0
VERTEX
  8
PNOA-H_AMS_1956-57_33k_ES_PAN_21mic_H50_0350_fot_37222_tif
  70
32
  10
554811.000
  20
4616411.500
  30
1013.192
  0
VERTEX
  8
PNOA-H_AMS_1956-57_33k_ES_PAN_21mic_H50_0350_fot_37222_tif
  70
32
  10
554810.515
  20
4616411.509
  30
1013.191
  0
VERTEX
  8
PNOA-H_AMS_1956-57_33k_ES_PAN_21mic_H50_0350_fot_37222_tif
  70
32
  10
552037.500
  20
4616460.500
  30
1009.285
  0
VERTEX
  8
PNOA-H_AMS_1956-57_33k_ES_PAN_21mic_H50_0350_fot_37222_tif
  70
32
  10
551921.224
  20
4616534.539
  30
1014.662
  0
VERTEX
  8
PNOA-H_AMS_1956-57_33k_ES_PAN_21mic_H50_0350_fot_37222_tif
  70
32
  10
551920.500
  20
4616535.000
  30
1014.695
  0
VERTEX
  8
PNOA-H_AMS_1956-57_33k_ES_PAN_21mic_H50_0350_fot_37222_tif
  70
32
  10
552001.500
  20
4620719.000
  30
1028.507
  0
VERTEX
  8
PNOA-H_AMS_1956-57_33k_ES_PAN_21mic_H50_0350_fot_37222_tif
  70
32
  10
552003.858
  20
4620719.208
  30
1028.508
  0
VERTEX
  8
PNOA-H_AMS_1956-57_33k_ES_PAN_21mic_H50_0350_fot_37222_tif
  70
32
  10
554482.000
  20
4620937.500
  30
1029.405
  0
VERTEX
  8
PNOA-H_AMS_1956-57_33k_ES_PAN_21mic_H50_0350_fot_37222_tif
  70
32
  10
554488.000
  20
4620938.000
  30
1029.404
  0
VERTEX
  8
PNOA-H_AMS_1956-57_33k_ES_PAN_21mic_H50_0350_fot_37222_tif
  70
32
  10
554488.072
  20
4620937.962
  30
1029.403
  0
VERTEX
  8
PNOA-H_AMS_1956-57_33k_ES_PAN_21mic_H50_0350_fot_37222_tif
  70
32
  10
554488.497
  20
4620937.739
  30
1029.399
  0
VERTEX
  8
PNOA-H_AMS_1956-57_33k_ES_PAN_21mic_H50_0350_fot_37222_tif
  70
32
  10
555032.465
  20
4620651.807
  30
1023.878
  0
VERTEX
  8
PNOA-H_AMS_1956-57_33k_ES_PAN_21mic_H50_0350_fot_37222_tif
  70
32
  10
555034.000
  20
4620651.000
  30
1023.863
  0
VERTEX
  8
PNOA-H_AMS_1956-57_33k_ES_PAN_21mic_H50_0350_fot_37222_tif
  70
32
  10
554863.000
  20
4616451.500
  30
1011.588
  0
VERTEX
  8
PNOA-H_AMS_1956-57_33k_ES_PAN_21mic_H50_0350_fot_37222_tif
  70
32
  10
554862.500
  20
4616442.500
  30
1011.579
  0
VERTEX
  8
PNOA-H_AMS_1956-57_33k_ES_PAN_21mic_H50_0350_fot_37222_tif
  70
32
  10
554862.478
  20
4616442.478
  30
1011.58
  0
VERTEX
  8
PNOA-H_AMS_1956-57_33k_ES_PAN_21mic_H50_0350_fot_37222_tif
  70
32
  10
554861.500
  20
4616441.500
  30
1011.627
  0
SEQEND
  8
PNOA-H_AMS_1956-57_33k_ES_PAN_21mic_H50_0350_fot_37222_tif
  0
INSERT
  8
FeatureAttribs
  2
FEATURE
  41
1
  42
1
  43
1
  50
0
  10
550475.417
  20
4618628.000
 66
1
  0
ATTRIB
  8
FeatureAttribs
 70
0
  1
PNOA-H_AMS_1956-57_33k_ES_PAN_21mic_H50_0350_fot_37221.tif
  2
NAME
  10
550475.417
  20
4618628.000
 40
33.55473
  0
SEQEND
  0
POLYLINE
  8
PNOA-H_AMS_1956-57_33k_ES_PAN_21mic_H50_0350_fot_37221_tif
  70
9
  66
1
  0
VERTEX
  8
PNOA-H_AMS_1956-57_33k_ES_PAN_21mic_H50_0350_fot_37221_tif
  70
32
  10
549260.461
  20
4616402.023
  30
989.641
  0
VERTEX
  8
PNOA-H_AMS_1956-57_33k_ES_PAN_21mic_H50_0350_fot_37221_tif
  70
32
  10
549260.000
  20
4616402.000
  30
989.637
  0
VERTEX
  8
PNOA-H_AMS_1956-57_33k_ES_PAN_21mic_H50_0350_fot_37221_tif
  70
32
  10
548976.500
  20
4616569.500
  30
993.263
  0
VERTEX
  8
PNOA-H_AMS_1956-57_33k_ES_PAN_21mic_H50_0350_fot_37221_tif
  70
32
  10
549003.500
  20
4620742.000
  30
1057.047
  0
VERTEX
  8
PNOA-H_AMS_1956-57_33k_ES_PAN_21mic_H50_0350_fot_37221_tif
  70
32
  10
549003.650
  20
4620742.086
  30
1057.043
  0
VERTEX
  8
PNOA-H_AMS_1956-57_33k_ES_PAN_21mic_H50_0350_fot_37221_tif
  70
32
  10
549191.500
  20
4620850.000
  30
1052.102
  0
VERTEX
  8
PNOA-H_AMS_1956-57_33k_ES_PAN_21mic_H50_0350_fot_37221_tif
  70
32
  10
549192.500
  20
4620850.500
  30
1052.104
  0
VERTEX
  8
PNOA-H_AMS_1956-57_33k_ES_PAN_21mic_H50_0350_fot_37221_tif
  70
32
  10
549193.000
  20
4620850.500
  30
1052.1
  0
VERTEX
  8
PNOA-H_AMS_1956-57_33k_ES_PAN_21mic_H50_0350_fot_37221_tif
  70
32
  10
551790.501
  20
4620854.000
  30
1033.223
  0
VERTEX
  8
PNOA-H_AMS_1956-57_33k_ES_PAN_21mic_H50_0350_fot_37221_tif
  70
32
  10
551791.000
  20
4620854.000
  30
1033.219
  0
VERTEX
  8
PNOA-H_AMS_1956-57_33k_ES_PAN_21mic_H50_0350_fot_37221_tif
  70
32
  10
552001.202
  20
4620719.691
  30
1028.469
  0
VERTEX
  8
PNOA-H_AMS_1956-57_33k_ES_PAN_21mic_H50_0350_fot_37221_tif
  70
32
  10
552001.500
  20
4620719.500
  30
1028.462
  0
VERTEX
  8
PNOA-H_AMS_1956-57_33k_ES_PAN_21mic_H50_0350_fot_37221_tif
  70
32
  10
551920.500
  20
4616535.000
  30
1014.695
  0
VERTEX
  8
PNOA-H_AMS_1956-57_33k_ES_PAN_21mic_H50_0350_fot_37221_tif
  70
32
  10
551916.250
  20
4616534.788
  30
1014.655
  0
VERTEX
  8
PNOA-H_AMS_1956-57_33k_ES_PAN_21mic_H50_0350_fot_37221_tif
  70
32
  10
549264.992
  20
4616402.250
  30
989.684
  0
VERTEX
  8
PNOA-H_AMS_1956-57_33k_ES_PAN_21mic_H50_0350_fot_37221_tif
  70
32
  10
549260.461
  20
4616402.023
  30
989.641
  0
SEQEND
  8
PNOA-H_AMS_1956-57_33k_ES_PAN_21mic_H50_0350_fot_37221_tif
  0
INSERT
  8
FeatureAttribs
  2
FEATURE
  41
1
  42
1
  43
1
  50
0
  10
553423.511
  20
4614708.550
 66
1
  0
ATTRIB
  8
FeatureAttribs
 70
0
  1
PNOA-H_AMS_1956-57_33k_ES_PAN_21mic_H50_0350_fot_39003.tif
  2
NAME
  10
553423.511
  20
4614708.550
 40
33.55473
  0
SEQEND
  0
POLYLINE
  8
PNOA-H_AMS_1956-57_33k_ES_PAN_21mic_H50_0350_fot_39003_tif
  70
9
  66
1
  0
VERTEX
  8
PNOA-H_AMS_1956-57_33k_ES_PAN_21mic_H50_0350_fot_39003_tif
  70
32
  10
554810.500
  20
4616411.500
  30
1013.204
  0
VERTEX
  8
PNOA-H_AMS_1956-57_33k_ES_PAN_21mic_H50_0350_fot_39003_tif
  70
32
  10
554809.326
  20
4612977.213
  30
1007.89
  0
VERTEX
  8
PNOA-H_AMS_1956-57_33k_ES_PAN_21mic_H50_0350_fot_39003_tif
  70
32
  10
553764.744
  20
4612969.133
  30
0
  0
VERTEX
  8
PNOA-H_AMS_1956-57_33k_ES_PAN_21mic_H50_0350_fot_39003_tif
  70
32
  10
552036.707
  20
4612956.601
  30
982.475
  0
VERTEX
  8
PNOA-H_AMS_1956-57_33k_ES_PAN_21mic_H50_0350_fot_39003_tif
  70
32
  10
552037.500
  20
4616460.500
  30
1009.285
  0
VERTEX
  8
PNOA-H_AMS_1956-57_33k_ES_PAN_21mic_H50_0350_fot_39003_tif
  70
32
  10
553412.500
  20
4616436.000
  30
1014.714
  0
VERTEX
  8
PNOA-H_AMS_1956-57_33k_ES_PAN_21mic_H50_0350_fot_39003_tif
  70
32
  10
553420.000
  20
4616436.000
  30
1014.673
  0
VERTEX
  8
PNOA-H_AMS_1956-57_33k_ES_PAN_21mic_H50_0350_fot_39003_tif
  70
32
  10
554810.500
  20
4616411.500
  30
1013.204
  0
SEQEND
  8
PNOA-H_AMS_1956-57_33k_ES_PAN_21mic_H50_0350_fot_39003_tif
  0
INSERT
  8
FeatureAttribs
  2
FEATURE
  41
1
  42
1
  43
1
  50
0
  10
550627.701
  20
4614735.688
 66
1
  0
ATTRIB
  8
FeatureAttribs
 70
0
  1
PNOA-H_AMS_1956-57_33k_ES_PAN_21mic_H50_0350_fot_39002.tif
  2
NAME
  10
550627.701
  20
4614735.688
 40
33.55473
  0
SEQEND
  0
POLYLINE
  8
PNOA-H_AMS_1956-57_33k_ES_PAN_21mic_H50_0350_fot_39002_tif
  70
9
  66
1
  0
VERTEX
  8
PNOA-H_AMS_1956-57_33k_ES_PAN_21mic_H50_0350_fot_39002_tif
  70
32
  10
549173.179
  20
4612936.377
  30
991.519
  0
VERTEX
  8
PNOA-H_AMS_1956-57_33k_ES_PAN_21mic_H50_0350_fot_39002_tif
  70
32
  10
549173.119
  20
4612936.377
  30
991.539
  0
VERTEX
  8
PNOA-H_AMS_1956-57_33k_ES_PAN_21mic_H50_0350_fot_39002_tif
  70
32
  10
549260.000
  20
4616397.000
  30
989.812
  0
VERTEX
  8
PNOA-H_AMS_1956-57_33k_ES_PAN_21mic_H50_0350_fot_39002_tif
  70
32
  10
549260.500
  20
4616402.000
  30
989.686
  0
VERTEX
  8
PNOA-H_AMS_1956-57_33k_ES_PAN_21mic_H50_0350_fot_39002_tif
  70
32
  10
549264.992
  20
4616402.250
  30
990.495
  0
VERTEX
  8
PNOA-H_AMS_1956-57_33k_ES_PAN_21mic_H50_0350_fot_39002_tif
  70
32
  10
549305.500
  20
4616404.500
  30
997.794
  0
VERTEX
  8
PNOA-H_AMS_1956-57_33k_ES_PAN_21mic_H50_0350_fot_39002_tif
  70
32
  10
549315.500
  20
4616405.000
  30
997.721
  0
VERTEX
  8
PNOA-H_AMS_1956-57_33k_ES_PAN_21mic_H50_0350_fot_39002_tif
  70
32
  10
551912.000
  20
4616535.000
  30
1014.971
  0
VERTEX
  8
PNOA-H_AMS_1956-57_33k_ES_PAN_21mic_H50_0350_fot_39002_tif
  70
32
  10
551916.250
  20
4616534.788
  30
1014.831
  0
VERTEX
  8
PNOA-H_AMS_1956-57_33k_ES_PAN_21mic_H50_0350_fot_39002_tif
  70
32
  10
551921.224
  20
4616534.539
  30
1014.668
  0
VERTEX
  8
PNOA-H_AMS_1956-57_33k_ES_PAN_21mic_H50_0350_fot_39002_tif
  70
32
  10
551922.000
  20
4616534.500
  30
1014.643
  0
VERTEX
  8
PNOA-H_AMS_1956-57_33k_ES_PAN_21mic_H50_0350_fot_39002_tif
  70
32
  10
552037.500
  20
4616461.000
  30
1009.288
  0
VERTEX
  8
PNOA-H_AMS_1956-57_33k_ES_PAN_21mic_H50_0350_fot_39002_tif
  70
32
  10
552037.500
  20
4616460.500
  30
1009.284
  0
VERTEX
  8
PNOA-H_AMS_1956-57_33k_ES_PAN_21mic_H50_0350_fot_39002_tif
  70
32
  10
552036.707
  20
4612956.601
  30
982.475
  0
VERTEX
  8
PNOA-H_AMS_1956-57_33k_ES_PAN_21mic_H50_0350_fot_39002_tif
  70
32
  10
550296.035
  20
4612943.977
  30
0
  0
VERTEX
  8
PNOA-H_AMS_1956-57_33k_ES_PAN_21mic_H50_0350_fot_39002_tif
  70
32
  10
549173.179
  20
4612936.377
  30
991.519
  0
SEQEND
  8
PNOA-H_AMS_1956-57_33k_ES_PAN_21mic_H50_0350_fot_39002_tif
  0
INSERT
  8
FeatureAttribs
  2
FEATURE
  41
1
  42
1
  43
1
  50
0
  10
556412.817
  20
4618628.500
 66
1
  0
ATTRIB
  8
FeatureAttribs
 70
0
  1
PNOA-H_AMS_1956-57_33k_ES_PAN_21mic_H50_0350_fot_37223.tif
  2
NAME
  10
556412.817
  20
4618628.500
 40
33.55473
  0
SEQEND
  0
POLYLINE
  8
PNOA-H_AMS_1956-57_33k_ES_PAN_21mic_H50_0350_fot_37223_tif
  70
9
  66
1
  0
VERTEX
  8
PNOA-H_AMS_1956-57_33k_ES_PAN_21mic_H50_0350_fot_37223_tif
  70
32
  10
557523.006
  20
4616318.503
  30
996.92
  0
VERTEX
  8
PNOA-H_AMS_1956-57_33k_ES_PAN_21mic_H50_0350_fot_37223_tif
  70
32
  10
557523.000
  20
4616318.500
  30
996.92
  0
VERTEX
  8
PNOA-H_AMS_1956-57_33k_ES_PAN_21mic_H50_0350_fot_37223_tif
  70
32
  10
554862.500
  20
4616442.500
  30
1011.579
  0
VERTEX
  8
PNOA-H_AMS_1956-57_33k_ES_PAN_21mic_H50_0350_fot_37223_tif
  70
32
  10
555034.000
  20
4620651.000
  30
1023.863
  0
VERTEX
  8
PNOA-H_AMS_1956-57_33k_ES_PAN_21mic_H50_0350_fot_37223_tif
  70
32
  10
555035.486
  20
4620651.203
  30
1023.877
  0
VERTEX
  8
PNOA-H_AMS_1956-57_33k_ES_PAN_21mic_H50_0350_fot_37223_tif
  70
32
  10
555462.500
  20
4620709.500
  30
1028.124
  0
VERTEX
  8
PNOA-H_AMS_1956-57_33k_ES_PAN_21mic_H50_0350_fot_37223_tif
  70
32
  10
555466.000
  20
4620710.000
  30
1028.134
  0
VERTEX
  8
PNOA-H_AMS_1956-57_33k_ES_PAN_21mic_H50_0350_fot_37223_tif
  70
32
  10
557146.485
  20
4620938.498
  30
1044.269
  0
VERTEX
  8
PNOA-H_AMS_1956-57_33k_ES_PAN_21mic_H50_0350_fot_37223_tif
  70
32
  10
557146.500
  20
4620938.500
  30
1044.269
  0
VERTEX
  8
PNOA-H_AMS_1956-57_33k_ES_PAN_21mic_H50_0350_fot_37223_tif
  70
32
  10
557922.500
  20
4620599.500
  30
1046.777
  0
VERTEX
  8
PNOA-H_AMS_1956-57_33k_ES_PAN_21mic_H50_0350_fot_37223_tif
  70
32
  10
557922.493
  20
4620599.221
  30
1046.774
  0
VERTEX
  8
PNOA-H_AMS_1956-57_33k_ES_PAN_21mic_H50_0350_fot_37223_tif
  70
32
  10
557821.500
  20
4616490.500
  30
997.051
  0
VERTEX
  8
PNOA-H_AMS_1956-57_33k_ES_PAN_21mic_H50_0350_fot_37223_tif
  70
32
  10
557820.824
  20
4616490.110
  30
997.05
  0
VERTEX
  8
PNOA-H_AMS_1956-57_33k_ES_PAN_21mic_H50_0350_fot_37223_tif
  70
32
  10
557523.006
  20
4616318.503
  30
996.92
  0
SEQEND
  8
PNOA-H_AMS_1956-57_33k_ES_PAN_21mic_H50_0350_fot_37223_tif
  0
INSERT
  8
FeatureAttribs
  2
FEATURE
  41
1
  42
1
  43
1
  50
0
  10
558906.438
  20
4614744.577
 66
1
  0
ATTRIB
  8
FeatureAttribs
 70
0
  1
PNOA-H_AMS_1956-57_33k_ES_PAN_21mic_H50_0350_fot_39005.tif
  2
NAME
  10
558906.438
  20
4614744.577
 40
33.55473
  0
SEQEND
  0
POLYLINE
  8
PNOA-H_AMS_1956-57_33k_ES_PAN_21mic_H50_0350_fot_39005_tif
  70
9
  66
1
  0
VERTEX
  8
PNOA-H_AMS_1956-57_33k_ES_PAN_21mic_H50_0350_fot_39005_tif
  70
32
  10
558793.472
  20
4616389.518
  30
996.995
  0
VERTEX
  8
PNOA-H_AMS_1956-57_33k_ES_PAN_21mic_H50_0350_fot_39005_tif
  70
32
  10
559560.500
  20
4616309.500
  30
996.952
  0
VERTEX
  8
PNOA-H_AMS_1956-57_33k_ES_PAN_21mic_H50_0350_fot_39005_tif
  70
32
  10
559563.670
  20
4616309.500
  30
996.951
  0
VERTEX
  8
PNOA-H_AMS_1956-57_33k_ES_PAN_21mic_H50_0350_fot_39005_tif
  70
32
  10
559564.000
  20
4616309.500
  30
996.951
  0
VERTEX
  8
PNOA-H_AMS_1956-57_33k_ES_PAN_21mic_H50_0350_fot_39005_tif
  70
32
  10
559841.310
  20
4616280.655
  30
997.024
  0
VERTEX
  8
PNOA-H_AMS_1956-57_33k_ES_PAN_21mic_H50_0350_fot_39005_tif
  70
32
  10
560261.000
  20
4616237.000
  30
997.135
  0
VERTEX
  8
PNOA-H_AMS_1956-57_33k_ES_PAN_21mic_H50_0350_fot_39005_tif
  70
32
  10
560284.724
  20
4613021.044
  30
990.906
  0
VERTEX
  8
PNOA-H_AMS_1956-57_33k_ES_PAN_21mic_H50_0350_fot_39005_tif
  70
32
  10
557560.678
  20
4612998.655
  30
997.505
  0
VERTEX
  8
PNOA-H_AMS_1956-57_33k_ES_PAN_21mic_H50_0350_fot_39005_tif
  70
32
  10
557523.006
  20
4616318.503
  30
996.922
  0
VERTEX
  8
PNOA-H_AMS_1956-57_33k_ES_PAN_21mic_H50_0350_fot_39005_tif
  70
32
  10
557523.000
  20
4616319.000
  30
996.921
  0
VERTEX
  8
PNOA-H_AMS_1956-57_33k_ES_PAN_21mic_H50_0350_fot_39005_tif
  70
32
  10
557819.500
  20
4616490.000
  30
997.046
  0
VERTEX
  8
PNOA-H_AMS_1956-57_33k_ES_PAN_21mic_H50_0350_fot_39005_tif
  70
32
  10
557820.824
  20
4616490.110
  30
997.047
  0
VERTEX
  8
PNOA-H_AMS_1956-57_33k_ES_PAN_21mic_H50_0350_fot_39005_tif
  70
32
  10
557823.280
  20
4616490.315
  30
997.048
  0
VERTEX
  8
PNOA-H_AMS_1956-57_33k_ES_PAN_21mic_H50_0350_fot_39005_tif
  70
32
  10
557825.500
  20
4616490.500
  30
997.049
  0
VERTEX
  8
PNOA-H_AMS_1956-57_33k_ES_PAN_21mic_H50_0350_fot_39005_tif
  70
32
  10
558793.472
  20
4616389.518
  30
996.995
  0
SEQEND
  8
PNOA-H_AMS_1956-57_33k_ES_PAN_21mic_H50_0350_fot_39005_tif
  0
INSERT
  8
FeatureAttribs
  2
FEATURE
  41
1
  42
1
  43
1
  50
0
  10
561661.800
  20
4614782.522
 66
1
  0
ATTRIB
  8
FeatureAttribs
 70
0
  1
PNOA-H_AMS_1956-57_33k_ES_PAN_21mic_H50_0350_fot_39006.tif
  2
NAME
  10
561661.800
  20
4614782.522
 40
33.55473
  0
SEQEND
  0
POLYLINE
  8
PNOA-H_AMS_1956-57_33k_ES_PAN_21mic_H50_0350_fot_39006_tif
  70
9
  66
1
  0
VERTEX
  8
PNOA-H_AMS_1956-57_33k_ES_PAN_21mic_H50_0350_fot_39006_tif
  70
32
  10
560702.172
  20
4613024.475
  30
0
  0
VERTEX
  8
PNOA-H_AMS_1956-57_33k_ES_PAN_21mic_H50_0350_fot_39006_tif
  70
32
  10
560284.724
  20
4613021.044
  30
990.906
  0
VERTEX
  8
PNOA-H_AMS_1956-57_33k_ES_PAN_21mic_H50_0350_fot_39006_tif
  70
32
  10
560261.000
  20
4616237.000
  30
997.135
  0
VERTEX
  8
PNOA-H_AMS_1956-57_33k_ES_PAN_21mic_H50_0350_fot_39006_tif
  70
32
  10
560261.081
  20
4616237.044
  30
997.136
  0
VERTEX
  8
PNOA-H_AMS_1956-57_33k_ES_PAN_21mic_H50_0350_fot_39006_tif
  70
32
  10
560829.000
  20
4616544.000
  30
1002.03
  0
VERTEX
  8
PNOA-H_AMS_1956-57_33k_ES_PAN_21mic_H50_0350_fot_39006_tif
  70
32
  10
560829.722
  20
4616543.850
  30
1002.035
  0
VERTEX
  8
PNOA-H_AMS_1956-57_33k_ES_PAN_21mic_H50_0350_fot_39006_tif
  70
32
  10
561609.000
  20
4616381.500
  30
1007.35
  0
VERTEX
  8
PNOA-H_AMS_1956-57_33k_ES_PAN_21mic_H50_0350_fot_39006_tif
  70
32
  10
561612.000
  20
4616381.000
  30
1007.35
  0
VERTEX
  8
PNOA-H_AMS_1956-57_33k_ES_PAN_21mic_H50_0350_fot_39006_tif
  70
32
  10
563054.500
  20
4616080.500
  30
1016.621
  0
VERTEX
  8
PNOA-H_AMS_1956-57_33k_ES_PAN_21mic_H50_0350_fot_39006_tif
  70
32
  10
563048.349
  20
4613044.893
  30
1017.953
  0
VERTEX
  8
PNOA-H_AMS_1956-57_33k_ES_PAN_21mic_H50_0350_fot_39006_tif
  70
32
  10
560702.172
  20
4613024.475
  30
0
  0
SEQEND
  8
PNOA-H_AMS_1956-57_33k_ES_PAN_21mic_H50_0350_fot_39006_tif
  0
INSERT
  8
FeatureAttribs
  2
FEATURE
  41
1
  42
1
  43
1
  50
0
  10
556175.588
  20
4614709.857
 66
1
  0
ATTRIB
  8
FeatureAttribs
 70
0
  1
PNOA-H_AMS_1956-57_33k_ES_PAN_21mic_H50_0350_fot_39004.tif
  2
NAME
  10
556175.588
  20
4614709.857
 40
33.55473
  0
SEQEND
  0
POLYLINE
  8
PNOA-H_AMS_1956-57_33k_ES_PAN_21mic_H50_0350_fot_39004_tif
  70
9
  66
1
  0
VERTEX
  8
PNOA-H_AMS_1956-57_33k_ES_PAN_21mic_H50_0350_fot_39004_tif
  70
32
  10
557233.457
  20
4612995.965
  30
0
  0
VERTEX
  8
PNOA-H_AMS_1956-57_33k_ES_PAN_21mic_H50_0350_fot_39004_tif
  70
32
  10
554809.326
  20
4612977.213
  30
1007.89
  0
VERTEX
  8
PNOA-H_AMS_1956-57_33k_ES_PAN_21mic_H50_0350_fot_39004_tif
  70
32
  10
554810.500
  20
4616411.500
  30
1013.204
  0
VERTEX
  8
PNOA-H_AMS_1956-57_33k_ES_PAN_21mic_H50_0350_fot_39004_tif
  70
32
  10
554810.515
  20
4616411.509
  30
1013.203
  0
VERTEX
  8
PNOA-H_AMS_1956-57_33k_ES_PAN_21mic_H50_0350_fot_39004_tif
  70
32
  10
554861.500
  20
4616441.500
  30
1011.627
  0
VERTEX
  8
PNOA-H_AMS_1956-57_33k_ES_PAN_21mic_H50_0350_fot_39004_tif
  70
32
  10
554862.000
  20
4616442.500
  30
1011.598
  0
VERTEX
  8
PNOA-H_AMS_1956-57_33k_ES_PAN_21mic_H50_0350_fot_39004_tif
  70
32
  10
554862.478
  20
4616442.478
  30
1011.595
  0
VERTEX
  8
PNOA-H_AMS_1956-57_33k_ES_PAN_21mic_H50_0350_fot_39004_tif
  70
32
  10
557523.000
  20
4616318.500
  30
996.92
  0
VERTEX
  8
PNOA-H_AMS_1956-57_33k_ES_PAN_21mic_H50_0350_fot_39004_tif
  70
32
  10
557560.678
  20
4612998.655
  30
997.505
  0
VERTEX
  8
PNOA-H_AMS_1956-57_33k_ES_PAN_21mic_H50_0350_fot_39004_tif
  70
32
  10
557233.457
  20
4612995.965
  30
0
  0
SEQEND
  8
PNOA-H_AMS_1956-57_33k_ES_PAN_21mic_H50_0350_fot_39004_tif
  0
INSERT
  8
FeatureAttribs
  2
FEATURE
  41
1
  42
1
  43
1
  50
0
  10
566760.075
  20
4614835.468
 66
1
  0
ATTRIB
  8
FeatureAttribs
 70
0
  1
PNOA-H_AMS_1956-57_33k_ES_PAN_21mic_H50_0350_fot_39008.tif
  2
NAME
  10
566760.075
  20
4614835.468
 40
33.55473
  0
SEQEND
  0
POLYLINE
  8
PNOA-H_AMS_1956-57_33k_ES_PAN_21mic_H50_0350_fot_39008_tif
  70
9
  66
1
  0
VERTEX
  8
PNOA-H_AMS_1956-57_33k_ES_PAN_21mic_H50_0350_fot_39008_tif
  70
32
  10
567639.616
  20
4613086.527
  30
0
  0
VERTEX
  8
PNOA-H_AMS_1956-57_33k_ES_PAN_21mic_H50_0350_fot_39008_tif
  70
32
  10
565887.968
  20
4613070.436
  30
1011.533
  0
VERTEX
  8
PNOA-H_AMS_1956-57_33k_ES_PAN_21mic_H50_0350_fot_39008_tif
  70
32
  10
565903.500
  20
4616097.000
  30
1030.811
  0
VERTEX
  8
PNOA-H_AMS_1956-57_33k_ES_PAN_21mic_H50_0350_fot_39008_tif
  70
32
  10
565903.681
  20
4616097.079
  30
1030.815
  0
VERTEX
  8
PNOA-H_AMS_1956-57_33k_ES_PAN_21mic_H50_0350_fot_39008_tif
  70
32
  10
567056.500
  20
4616600.500
  30
1058.523
  0
VERTEX
  8
PNOA-H_AMS_1956-57_33k_ES_PAN_21mic_H50_0350_fot_39008_tif
  70
32
  10
567056.808
  20
4616600.416
  30
1058.528
  0
VERTEX
  8
PNOA-H_AMS_1956-57_33k_ES_PAN_21mic_H50_0350_fot_39008_tif
  70
32
  10
567607.887
  20
4616450.804
  30
1067.827
  0
VERTEX
  8
PNOA-H_AMS_1956-57_33k_ES_PAN_21mic_H50_0350_fot_39008_tif
  70
32
  10
567617.804
  20
4615399.525
  30
0
  0
VERTEX
  8
PNOA-H_AMS_1956-57_33k_ES_PAN_21mic_H50_0350_fot_39008_tif
  70
32
  10
567639.616
  20
4613086.527
  30
0
  0
SEQEND
  8
PNOA-H_AMS_1956-57_33k_ES_PAN_21mic_H50_0350_fot_39008_tif
  0
INSERT
  8
FeatureAttribs
  2
FEATURE
  41
1
  42
1
  43
1
  50
0
  10
564474.377
  20
4614800.697
 66
1
  0
ATTRIB
  8
FeatureAttribs
 70
0
  1
PNOA-H_AMS_1956-57_33k_ES_PAN_21mic_H50_0350_fot_39007.tif
  2
NAME
  10
564474.377
  20
4614800.697
 40
33.55473
  0
SEQEND
  0
POLYLINE
  8
PNOA-H_AMS_1956-57_33k_ES_PAN_21mic_H50_0350_fot_39007_tif
  70
9
  66
1
  0
VERTEX
  8
PNOA-H_AMS_1956-57_33k_ES_PAN_21mic_H50_0350_fot_39007_tif
  70
32
  10
564170.892
  20
4613054.662
  30
0
  0
VERTEX
  8
PNOA-H_AMS_1956-57_33k_ES_PAN_21mic_H50_0350_fot_39007_tif
  70
32
  10
563048.349
  20
4613044.893
  30
1017.953
  0
VERTEX
  8
PNOA-H_AMS_1956-57_33k_ES_PAN_21mic_H50_0350_fot_39007_tif
  70
32
  10
563054.500
  20
4616080.500
  30
1016.621
  0
VERTEX
  8
PNOA-H_AMS_1956-57_33k_ES_PAN_21mic_H50_0350_fot_39007_tif
  70
32
  10
563054.652
  20
4616080.572
  30
1016.619
  0
VERTEX
  8
PNOA-H_AMS_1956-57_33k_ES_PAN_21mic_H50_0350_fot_39007_tif
  70
32
  10
563658.500
  20
4616368.000
  30
1007.45
  0
VERTEX
  8
PNOA-H_AMS_1956-57_33k_ES_PAN_21mic_H50_0350_fot_39007_tif
  70
32
  10
563659.500
  20
4616368.500
  30
1007.458
  0
VERTEX
  8
PNOA-H_AMS_1956-57_33k_ES_PAN_21mic_H50_0350_fot_39007_tif
  70
32
  10
564050.500
  20
4616554.500
  30
1012.723
  0
VERTEX
  8
PNOA-H_AMS_1956-57_33k_ES_PAN_21mic_H50_0350_fot_39007_tif
  70
32
  10
564052.754
  20
4616555.194
  30
1012.823
  0
VERTEX
  8
PNOA-H_AMS_1956-57_33k_ES_PAN_21mic_H50_0350_fot_39007_tif
  70
32
  10
564056.330
  20
4616556.294
  30
1012.981
  0
VERTEX
  8
PNOA-H_AMS_1956-57_33k_ES_PAN_21mic_H50_0350_fot_39007_tif
  70
32
  10
564057.000
  20
4616556.500
  30
1013.01
  0
VERTEX
  8
PNOA-H_AMS_1956-57_33k_ES_PAN_21mic_H50_0350_fot_39007_tif
  70
32
  10
565441.875
  20
4616211.875
  30
1026.361
  0
VERTEX
  8
PNOA-H_AMS_1956-57_33k_ES_PAN_21mic_H50_0350_fot_39007_tif
  70
32
  10
565903.500
  20
4616097.000
  30
1030.811
  0
VERTEX
  8
PNOA-H_AMS_1956-57_33k_ES_PAN_21mic_H50_0350_fot_39007_tif
  70
32
  10
565887.968
  20
4613070.436
  30
1011.533
  0
VERTEX
  8
PNOA-H_AMS_1956-57_33k_ES_PAN_21mic_H50_0350_fot_39007_tif
  70
32
  10
564170.892
  20
4613054.662
  30
0
  0
SEQEND
  8
PNOA-H_AMS_1956-57_33k_ES_PAN_21mic_H50_0350_fot_39007_tif
  0
ENDSEC
  0
EOF
