  0
SECTION
  2
HEADER
  9
$ACADVER
  1
AC1009
  9
$LUNITS
  70
2
  9
$LIMMIN
  10
512109.036
  20
4612777.956
  9
$LIMMAX
  10
539889.927
  20
4631382.649
  9
$EXTMIN
  10
512109.036
  20
4612777.956
  9
$EXTMAX
  10
539889.927
  20
4631382.649
  999
Created by Global Mapper
  999
Projection: UTM
  999
Datum: ETRS89
  999
Ground Units: meters
  999
ZONE: 30
  0
ENDSEC
  0
SECTION
  2
TABLES
  0
ENDSEC
  0
SECTION
  2
BLOCKS
  0
BLOCK
  8
FeatureAttribs
  70
0
  2
FEATURE
  3
FEATURE
  10
0.00000000
  20
0.00000000
  0
ATTDEF
  8
FeatureAttribs
  70
0
  1
 
  2
NAME
  3
NAME
  10
0.00000000
  20
0.00000000
  40
1.00000000
  0
ENDBLK
  0
ENDSEC
  0
SECTION
  2
ENTITIES
  0
INSERT
  8
FeatureAttribs
  2
FEATURE
  41
1
  42
1
  43
1
  50
0
  10
513316.538
  20
4627562.000
 66
1
  0
ATTRIB
  8
FeatureAttribs
 70
0
  1
PNOA-H_AMS_1956-57_33k_ES_PAN_21mic_H50_0349_fot_34C-40393_E.tif
  2
NAME
  10
513316.538
  20
4627562.000
 40
33.43520
  0
SEQEND
  0
POLYLINE
  8
PNOA-H_AMS_1956-57_33k_ES_PAN_21mic_H50_0349_fot_34C-40393_E_tif
  70
9
  66
1
  0
VERTEX
  8
PNOA-H_AMS_1956-57_33k_ES_PAN_21mic_H50_0349_fot_34C-40393_E_tif
  70
32
  10
512376.691
  20
4625234.523
  30
1116.453
  0
VERTEX
  8
PNOA-H_AMS_1956-57_33k_ES_PAN_21mic_H50_0349_fot_34C-40393_E_tif
  70
32
  10
512376.500
  20
4625234.500
  30
1116.437
  0
VERTEX
  8
PNOA-H_AMS_1956-57_33k_ES_PAN_21mic_H50_0349_fot_34C-40393_E_tif
  70
32
  10
512119.077
  20
4625364.059
  30
1128.389
  0
VERTEX
  8
PNOA-H_AMS_1956-57_33k_ES_PAN_21mic_H50_0349_fot_34C-40393_E_tif
  70
32
  10
512119.076
  20
4625364.542
  30
0
  0
VERTEX
  8
PNOA-H_AMS_1956-57_33k_ES_PAN_21mic_H50_0349_fot_34C-40393_E_tif
  70
32
  10
512116.886
  20
4626655.911
  30
0
  0
VERTEX
  8
PNOA-H_AMS_1956-57_33k_ES_PAN_21mic_H50_0349_fot_34C-40393_E_tif
  70
32
  10
512112.962
  20
4628968.933
  30
0
  0
VERTEX
  8
PNOA-H_AMS_1956-57_33k_ES_PAN_21mic_H50_0349_fot_34C-40393_E_tif
  70
32
  10
512112.023
  20
4629521.866
  30
0
  0
VERTEX
  8
PNOA-H_AMS_1956-57_33k_ES_PAN_21mic_H50_0349_fot_34C-40393_E_tif
  70
32
  10
512112.022
  20
4629522.334
  30
1144.494
  0
VERTEX
  8
PNOA-H_AMS_1956-57_33k_ES_PAN_21mic_H50_0349_fot_34C-40393_E_tif
  70
32
  10
512458.000
  20
4629627.500
  30
1120.152
  0
VERTEX
  8
PNOA-H_AMS_1956-57_33k_ES_PAN_21mic_H50_0349_fot_34C-40393_E_tif
  70
32
  10
512459.500
  20
4629628.000
  30
1120.099
  0
VERTEX
  8
PNOA-H_AMS_1956-57_33k_ES_PAN_21mic_H50_0349_fot_34C-40393_E_tif
  70
32
  10
513320.001
  20
4629889.045
  30
1144.269
  0
VERTEX
  8
PNOA-H_AMS_1956-57_33k_ES_PAN_21mic_H50_0349_fot_34C-40393_E_tif
  70
32
  10
513320.971
  20
4629889.339
  30
1144.296
  0
VERTEX
  8
PNOA-H_AMS_1956-57_33k_ES_PAN_21mic_H50_0349_fot_34C-40393_E_tif
  70
32
  10
513321.500
  20
4629889.500
  30
1144.311
  0
VERTEX
  8
PNOA-H_AMS_1956-57_33k_ES_PAN_21mic_H50_0349_fot_34C-40393_E_tif
  70
32
  10
514130.833
  20
4629613.167
  30
1153.914
  0
VERTEX
  8
PNOA-H_AMS_1956-57_33k_ES_PAN_21mic_H50_0349_fot_34C-40393_E_tif
  70
32
  10
514535.500
  20
4629475.000
  30
1158.716
  0
VERTEX
  8
PNOA-H_AMS_1956-57_33k_ES_PAN_21mic_H50_0349_fot_34C-40393_E_tif
  70
32
  10
514507.500
  20
4626461.216
  30
1267.203
  0
VERTEX
  8
PNOA-H_AMS_1956-57_33k_ES_PAN_21mic_H50_0349_fot_34C-40393_E_tif
  70
32
  10
514498.500
  20
4625492.500
  30
1302.074
  0
VERTEX
  8
PNOA-H_AMS_1956-57_33k_ES_PAN_21mic_H50_0349_fot_34C-40393_E_tif
  70
32
  10
512400.385
  20
4625237.404
  30
1118.526
  0
VERTEX
  8
PNOA-H_AMS_1956-57_33k_ES_PAN_21mic_H50_0349_fot_34C-40393_E_tif
  70
32
  10
512376.691
  20
4625234.523
  30
1116.453
  0
SEQEND
  8
PNOA-H_AMS_1956-57_33k_ES_PAN_21mic_H50_0349_fot_34C-40393_E_tif
  0
INSERT
  8
FeatureAttribs
  2
FEATURE
  41
1
  42
1
  43
1
  50
0
  10
512261.346
  20
4622910.021
 66
1
  0
ATTRIB
  8
FeatureAttribs
 70
0
  1
PNOA-H_AMS_1956-57_33k_ES_PAN_21mic_H50_0348_fot_40499.tif
  2
NAME
  10
512261.346
  20
4622910.021
 40
33.43520
  0
SEQEND
  0
POLYLINE
  8
PNOA-H_AMS_1956-57_33k_ES_PAN_21mic_H50_0348_fot_40499_tif
  70
9
  66
1
  0
VERTEX
  8
PNOA-H_AMS_1956-57_33k_ES_PAN_21mic_H50_0348_fot_40499_tif
  70
32
  10
512159.516
  20
4620455.508
  30
1109.115
  0
VERTEX
  8
PNOA-H_AMS_1956-57_33k_ES_PAN_21mic_H50_0348_fot_40499_tif
  70
32
  10
512159.500
  20
4620455.500
  30
1109.116
  0
VERTEX
  8
PNOA-H_AMS_1956-57_33k_ES_PAN_21mic_H50_0348_fot_40499_tif
  70
32
  10
512127.395
  20
4620457.011
  30
1108.629
  0
VERTEX
  8
PNOA-H_AMS_1956-57_33k_ES_PAN_21mic_H50_0348_fot_40499_tif
  70
32
  10
512127.395
  20
4620457.016
  30
0
  0
VERTEX
  8
PNOA-H_AMS_1956-57_33k_ES_PAN_21mic_H50_0348_fot_40499_tif
  70
32
  10
512124.729
  20
4622029.892
  30
0
  0
VERTEX
  8
PNOA-H_AMS_1956-57_33k_ES_PAN_21mic_H50_0348_fot_40499_tif
  70
32
  10
512120.808
  20
4624342.897
  30
0
  0
VERTEX
  8
PNOA-H_AMS_1956-57_33k_ES_PAN_21mic_H50_0348_fot_40499_tif
  70
32
  10
512119.077
  20
4625364.059
  30
0
  0
VERTEX
  8
PNOA-H_AMS_1956-57_33k_ES_PAN_21mic_H50_0348_fot_40499_tif
  70
32
  10
512119.076
  20
4625364.542
  30
1127.874
  0
VERTEX
  8
PNOA-H_AMS_1956-57_33k_ES_PAN_21mic_H50_0348_fot_40499_tif
  70
32
  10
512356.000
  20
4625245.500
  30
1116.436
  0
VERTEX
  8
PNOA-H_AMS_1956-57_33k_ES_PAN_21mic_H50_0348_fot_40499_tif
  70
32
  10
512376.500
  20
4625235.000
  30
1116.436
  0
VERTEX
  8
PNOA-H_AMS_1956-57_33k_ES_PAN_21mic_H50_0348_fot_40499_tif
  70
32
  10
512376.691
  20
4625234.523
  30
1116.434
  0
VERTEX
  8
PNOA-H_AMS_1956-57_33k_ES_PAN_21mic_H50_0348_fot_40499_tif
  70
32
  10
512377.007
  20
4625233.732
  30
1116.429
  0
VERTEX
  8
PNOA-H_AMS_1956-57_33k_ES_PAN_21mic_H50_0348_fot_40499_tif
  70
32
  10
512377.500
  20
4625232.500
  30
1116.422
  0
VERTEX
  8
PNOA-H_AMS_1956-57_33k_ES_PAN_21mic_H50_0348_fot_40499_tif
  70
32
  10
512421.500
  20
4620578.000
  30
1106.442
  0
VERTEX
  8
PNOA-H_AMS_1956-57_33k_ES_PAN_21mic_H50_0348_fot_40499_tif
  70
32
  10
512421.493
  20
4620577.997
  30
1106.442
  0
VERTEX
  8
PNOA-H_AMS_1956-57_33k_ES_PAN_21mic_H50_0348_fot_40499_tif
  70
32
  10
512159.516
  20
4620455.508
  30
1109.115
  0
SEQEND
  8
PNOA-H_AMS_1956-57_33k_ES_PAN_21mic_H50_0348_fot_40499_tif
  0
INSERT
  8
FeatureAttribs
  2
FEATURE
  41
1
  42
1
  43
1
  50
0
  10
512180.718
  20
4618313.080
 66
1
  0
ATTRIB
  8
FeatureAttribs
 70
0
  1
PNOA-H_AMS_1956-57_33k_ES_PAN_21mic_H50_0348_fot_37207.tif
  2
NAME
  10
512180.718
  20
4618313.080
 40
33.43520
  0
SEQEND
  0
POLYLINE
  8
PNOA-H_AMS_1956-57_33k_ES_PAN_21mic_H50_0348_fot_37207_tif
  70
9
  66
1
  0
VERTEX
  8
PNOA-H_AMS_1956-57_33k_ES_PAN_21mic_H50_0348_fot_37207_tif
  70
32
  10
512300.000
  20
4616210.500
  30
1067.505
  0
VERTEX
  8
PNOA-H_AMS_1956-57_33k_ES_PAN_21mic_H50_0348_fot_37207_tif
  70
32
  10
512134.657
  20
4616169.143
  30
1060.335
  0
VERTEX
  8
PNOA-H_AMS_1956-57_33k_ES_PAN_21mic_H50_0348_fot_37207_tif
  70
32
  10
512134.657
  20
4616169.528
  30
0
  0
VERTEX
  8
PNOA-H_AMS_1956-57_33k_ES_PAN_21mic_H50_0348_fot_37207_tif
  70
32
  10
512132.567
  20
4617403.907
  30
0
  0
VERTEX
  8
PNOA-H_AMS_1956-57_33k_ES_PAN_21mic_H50_0348_fot_37207_tif
  70
32
  10
512128.649
  20
4619716.896
  30
0
  0
VERTEX
  8
PNOA-H_AMS_1956-57_33k_ES_PAN_21mic_H50_0348_fot_37207_tif
  70
32
  10
512127.395
  20
4620457.011
  30
0
  0
VERTEX
  8
PNOA-H_AMS_1956-57_33k_ES_PAN_21mic_H50_0348_fot_37207_tif
  70
32
  10
512127.395
  20
4620457.016
  30
1109.148
  0
VERTEX
  8
PNOA-H_AMS_1956-57_33k_ES_PAN_21mic_H50_0348_fot_37207_tif
  70
32
  10
512159.500
  20
4620455.500
  30
1109.116
  0
VERTEX
  8
PNOA-H_AMS_1956-57_33k_ES_PAN_21mic_H50_0348_fot_37207_tif
  70
32
  10
512300.000
  20
4616210.500
  30
1067.505
  0
SEQEND
  8
PNOA-H_AMS_1956-57_33k_ES_PAN_21mic_H50_0348_fot_37207_tif
  0
INSERT
  8
FeatureAttribs
  2
FEATURE
  41
1
  42
1
  43
1
  50
0
  10
513648.800
  20
4618175.750
 66
1
  0
ATTRIB
  8
FeatureAttribs
 70
0
  1
PNOA-H_AMS_1956-57_33k_ES_PAN_21mic_H50_0349_fot_37208.tif
  2
NAME
  10
513648.800
  20
4618175.750
 40
33.43520
  0
SEQEND
  0
POLYLINE
  8
PNOA-H_AMS_1956-57_33k_ES_PAN_21mic_H50_0349_fot_37208_tif
  70
9
  66
1
  0
VERTEX
  8
PNOA-H_AMS_1956-57_33k_ES_PAN_21mic_H50_0349_fot_37208_tif
  70
32
  10
515171.500
  20
4616288.000
  30
1036.458
  0
VERTEX
  8
PNOA-H_AMS_1956-57_33k_ES_PAN_21mic_H50_0349_fot_37208_tif
  70
32
  10
513135.000
  20
4615773.500
  30
1063.574
  0
VERTEX
  8
PNOA-H_AMS_1956-57_33k_ES_PAN_21mic_H50_0349_fot_37208_tif
  70
32
  10
513134.837
  20
4615773.585
  30
1063.575
  0
VERTEX
  8
PNOA-H_AMS_1956-57_33k_ES_PAN_21mic_H50_0349_fot_37208_tif
  70
32
  10
513134.503
  20
4615773.760
  30
1063.577
  0
VERTEX
  8
PNOA-H_AMS_1956-57_33k_ES_PAN_21mic_H50_0349_fot_37208_tif
  70
32
  10
512300.000
  20
4616210.500
  30
1067.505
  0
VERTEX
  8
PNOA-H_AMS_1956-57_33k_ES_PAN_21mic_H50_0349_fot_37208_tif
  70
32
  10
512159.516
  20
4620455.508
  30
1109.108
  0
VERTEX
  8
PNOA-H_AMS_1956-57_33k_ES_PAN_21mic_H50_0349_fot_37208_tif
  70
32
  10
512159.500
  20
4620456.000
  30
1109.113
  0
VERTEX
  8
PNOA-H_AMS_1956-57_33k_ES_PAN_21mic_H50_0349_fot_37208_tif
  70
32
  10
512420.000
  20
4620577.500
  30
1106.223
  0
VERTEX
  8
PNOA-H_AMS_1956-57_33k_ES_PAN_21mic_H50_0349_fot_37208_tif
  70
32
  10
512421.000
  20
4620578.000
  30
1106.386
  0
VERTEX
  8
PNOA-H_AMS_1956-57_33k_ES_PAN_21mic_H50_0349_fot_37208_tif
  70
32
  10
512421.493
  20
4620577.997
  30
1106.385
  0
VERTEX
  8
PNOA-H_AMS_1956-57_33k_ES_PAN_21mic_H50_0349_fot_37208_tif
  70
32
  10
514925.000
  20
4620562.500
  30
1102.528
  0
VERTEX
  8
PNOA-H_AMS_1956-57_33k_ES_PAN_21mic_H50_0349_fot_37208_tif
  70
32
  10
515171.500
  20
4616288.000
  30
1036.458
  0
SEQEND
  8
PNOA-H_AMS_1956-57_33k_ES_PAN_21mic_H50_0349_fot_37208_tif
  0
INSERT
  8
FeatureAttribs
  2
FEATURE
  41
1
  42
1
  43
1
  50
0
  10
515847.473
  20
4627543.750
 66
1
  0
ATTRIB
  8
FeatureAttribs
 70
0
  1
PNOA-H_AMS_1956-57_33k_ES_PAN_21mic_H50_0349_fot_34C-40394_E.tif
  2
NAME
  10
515847.473
  20
4627543.750
 40
33.43520
  0
SEQEND
  0
POLYLINE
  8
PNOA-H_AMS_1956-57_33k_ES_PAN_21mic_H50_0349_fot_34C-40394_E_tif
  70
9
  66
1
  0
VERTEX
  8
PNOA-H_AMS_1956-57_33k_ES_PAN_21mic_H50_0349_fot_34C-40394_E_tif
  70
32
  10
517163.096
  20
4625460.950
  30
1277.18
  0
VERTEX
  8
PNOA-H_AMS_1956-57_33k_ES_PAN_21mic_H50_0349_fot_34C-40394_E_tif
  70
32
  10
515050.500
  20
4625200.000
  30
1273.517
  0
VERTEX
  8
PNOA-H_AMS_1956-57_33k_ES_PAN_21mic_H50_0349_fot_34C-40394_E_tif
  70
32
  10
515050.492
  20
4625200.004
  30
1273.517
  0
VERTEX
  8
PNOA-H_AMS_1956-57_33k_ES_PAN_21mic_H50_0349_fot_34C-40394_E_tif
  70
32
  10
514498.500
  20
4625492.000
  30
1302.062
  0
VERTEX
  8
PNOA-H_AMS_1956-57_33k_ES_PAN_21mic_H50_0349_fot_34C-40394_E_tif
  70
32
  10
514498.505
  20
4625492.498
  30
1302.042
  0
VERTEX
  8
PNOA-H_AMS_1956-57_33k_ES_PAN_21mic_H50_0349_fot_34C-40394_E_tif
  70
32
  10
514507.500
  20
4626449.500
  30
1262.115
  0
VERTEX
  8
PNOA-H_AMS_1956-57_33k_ES_PAN_21mic_H50_0349_fot_34C-40394_E_tif
  70
32
  10
514507.500
  20
4626461.216
  30
1262.579
  0
VERTEX
  8
PNOA-H_AMS_1956-57_33k_ES_PAN_21mic_H50_0349_fot_34C-40394_E_tif
  70
32
  10
514507.500
  20
4626503.000
  30
1264.235
  0
VERTEX
  8
PNOA-H_AMS_1956-57_33k_ES_PAN_21mic_H50_0349_fot_34C-40394_E_tif
  70
32
  10
514535.500
  20
4629475.000
  30
1158.716
  0
VERTEX
  8
PNOA-H_AMS_1956-57_33k_ES_PAN_21mic_H50_0349_fot_34C-40394_E_tif
  70
32
  10
514535.789
  20
4629475.072
  30
1158.717
  0
VERTEX
  8
PNOA-H_AMS_1956-57_33k_ES_PAN_21mic_H50_0349_fot_34C-40394_E_tif
  70
32
  10
516198.500
  20
4629887.500
  30
1167.032
  0
VERTEX
  8
PNOA-H_AMS_1956-57_33k_ES_PAN_21mic_H50_0349_fot_34C-40394_E_tif
  70
32
  10
516198.560
  20
4629887.477
  30
1167.031
  0
VERTEX
  8
PNOA-H_AMS_1956-57_33k_ES_PAN_21mic_H50_0349_fot_34C-40394_E_tif
  70
32
  10
516198.993
  20
4629887.313
  30
1167.018
  0
VERTEX
  8
PNOA-H_AMS_1956-57_33k_ES_PAN_21mic_H50_0349_fot_34C-40394_E_tif
  70
32
  10
517187.434
  20
4629512.851
  30
1138.929
  0
VERTEX
  8
PNOA-H_AMS_1956-57_33k_ES_PAN_21mic_H50_0349_fot_34C-40394_E_tif
  70
32
  10
517191.000
  20
4629511.500
  30
1138.828
  0
VERTEX
  8
PNOA-H_AMS_1956-57_33k_ES_PAN_21mic_H50_0349_fot_34C-40394_E_tif
  70
32
  10
517163.500
  20
4625461.000
  30
1277.181
  0
VERTEX
  8
PNOA-H_AMS_1956-57_33k_ES_PAN_21mic_H50_0349_fot_34C-40394_E_tif
  70
32
  10
517163.096
  20
4625460.950
  30
1277.18
  0
SEQEND
  8
PNOA-H_AMS_1956-57_33k_ES_PAN_21mic_H50_0349_fot_34C-40394_E_tif
  0
INSERT
  8
FeatureAttribs
  2
FEATURE
  41
1
  42
1
  43
1
  50
0
  10
518485.567
  20
4627533.500
 66
1
  0
ATTRIB
  8
FeatureAttribs
 70
0
  1
PNOA-H_AMS_1956-57_33k_ES_PAN_21mic_H50_0349_fot_34C-40395_E.tif
  2
NAME
  10
518485.567
  20
4627533.500
 40
33.43520
  0
SEQEND
  0
POLYLINE
  8
PNOA-H_AMS_1956-57_33k_ES_PAN_21mic_H50_0349_fot_34C-40395_E_tif
  70
9
  66
1
  0
VERTEX
  8
PNOA-H_AMS_1956-57_33k_ES_PAN_21mic_H50_0349_fot_34C-40395_E_tif
  70
32
  10
519850.000
  20
4625473.000
  30
1177.967
  0
VERTEX
  8
PNOA-H_AMS_1956-57_33k_ES_PAN_21mic_H50_0349_fot_34C-40395_E_tif
  70
32
  10
517695.000
  20
4625183.500
  30
1175.535
  0
VERTEX
  8
PNOA-H_AMS_1956-57_33k_ES_PAN_21mic_H50_0349_fot_34C-40395_E_tif
  70
32
  10
517694.536
  20
4625183.639
  30
1175.547
  0
VERTEX
  8
PNOA-H_AMS_1956-57_33k_ES_PAN_21mic_H50_0349_fot_34C-40395_E_tif
  70
32
  10
517691.483
  20
4625184.555
  30
1175.627
  0
VERTEX
  8
PNOA-H_AMS_1956-57_33k_ES_PAN_21mic_H50_0349_fot_34C-40395_E_tif
  70
32
  10
517690.000
  20
4625185.000
  30
1175.666
  0
VERTEX
  8
PNOA-H_AMS_1956-57_33k_ES_PAN_21mic_H50_0349_fot_34C-40395_E_tif
  70
32
  10
517163.500
  20
4625460.500
  30
1277.119
  0
VERTEX
  8
PNOA-H_AMS_1956-57_33k_ES_PAN_21mic_H50_0349_fot_34C-40395_E_tif
  70
32
  10
517163.502
  20
4625460.738
  30
1277.111
  0
VERTEX
  8
PNOA-H_AMS_1956-57_33k_ES_PAN_21mic_H50_0349_fot_34C-40395_E_tif
  70
32
  10
517191.000
  20
4629511.500
  30
1138.828
  0
VERTEX
  8
PNOA-H_AMS_1956-57_33k_ES_PAN_21mic_H50_0349_fot_34C-40395_E_tif
  70
32
  10
517191.858
  20
4629511.671
  30
1138.808
  0
VERTEX
  8
PNOA-H_AMS_1956-57_33k_ES_PAN_21mic_H50_0349_fot_34C-40395_E_tif
  70
32
  10
519055.000
  20
4629883.000
  30
1095.131
  0
VERTEX
  8
PNOA-H_AMS_1956-57_33k_ES_PAN_21mic_H50_0349_fot_34C-40395_E_tif
  70
32
  10
519057.500
  20
4629883.500
  30
1095.306
  0
VERTEX
  8
PNOA-H_AMS_1956-57_33k_ES_PAN_21mic_H50_0349_fot_34C-40395_E_tif
  70
32
  10
519057.668
  20
4629883.434
  30
1095.325
  0
VERTEX
  8
PNOA-H_AMS_1956-57_33k_ES_PAN_21mic_H50_0349_fot_34C-40395_E_tif
  70
32
  10
519219.162
  20
4629819.909
  30
1113.569
  0
VERTEX
  8
PNOA-H_AMS_1956-57_33k_ES_PAN_21mic_H50_0349_fot_34C-40395_E_tif
  70
32
  10
519735.000
  20
4629617.000
  30
1171.843
  0
VERTEX
  8
PNOA-H_AMS_1956-57_33k_ES_PAN_21mic_H50_0349_fot_34C-40395_E_tif
  70
32
  10
519851.000
  20
4625490.000
  30
1178.304
  0
VERTEX
  8
PNOA-H_AMS_1956-57_33k_ES_PAN_21mic_H50_0349_fot_34C-40395_E_tif
  70
32
  10
519851.000
  20
4625473.500
  30
1177.948
  0
VERTEX
  8
PNOA-H_AMS_1956-57_33k_ES_PAN_21mic_H50_0349_fot_34C-40395_E_tif
  70
32
  10
519850.562
  20
4625473.281
  30
1177.957
  0
VERTEX
  8
PNOA-H_AMS_1956-57_33k_ES_PAN_21mic_H50_0349_fot_34C-40395_E_tif
  70
32
  10
519850.000
  20
4625473.000
  30
1177.967
  0
SEQEND
  8
PNOA-H_AMS_1956-57_33k_ES_PAN_21mic_H50_0349_fot_34C-40395_E_tif
  0
INSERT
  8
FeatureAttribs
  2
FEATURE
  41
1
  42
1
  43
1
  50
0
  10
519069.761
  20
4623030.750
 66
1
  0
ATTRIB
  8
FeatureAttribs
 70
0
  1
PNOA-H_AMS_1956-57_33k_ES_PAN_21mic_H50_0349_fot_40496.tif
  2
NAME
  10
519069.761
  20
4623030.750
 40
33.43520
  0
SEQEND
  0
POLYLINE
  8
PNOA-H_AMS_1956-57_33k_ES_PAN_21mic_H50_0349_fot_40496_tif
  70
9
  66
1
  0
VERTEX
  8
PNOA-H_AMS_1956-57_33k_ES_PAN_21mic_H50_0349_fot_40496_tif
  70
32
  10
517889.500
  20
4620588.000
  30
1121.522
  0
VERTEX
  8
PNOA-H_AMS_1956-57_33k_ES_PAN_21mic_H50_0349_fot_40496_tif
  70
32
  10
517888.500
  20
4620588.000
  30
1121.501
  0
VERTEX
  8
PNOA-H_AMS_1956-57_33k_ES_PAN_21mic_H50_0349_fot_40496_tif
  70
32
  10
517882.000
  20
4620591.000
  30
1121.291
  0
VERTEX
  8
PNOA-H_AMS_1956-57_33k_ES_PAN_21mic_H50_0349_fot_40496_tif
  70
32
  10
517723.927
  20
4620667.551
  30
1115.083
  0
VERTEX
  8
PNOA-H_AMS_1956-57_33k_ES_PAN_21mic_H50_0349_fot_40496_tif
  70
32
  10
517723.000
  20
4620668.000
  30
1115.047
  0
VERTEX
  8
PNOA-H_AMS_1956-57_33k_ES_PAN_21mic_H50_0349_fot_40496_tif
  70
32
  10
517693.500
  20
4625183.500
  30
1175.526
  0
VERTEX
  8
PNOA-H_AMS_1956-57_33k_ES_PAN_21mic_H50_0349_fot_40496_tif
  70
32
  10
517694.536
  20
4625183.639
  30
1175.527
  0
VERTEX
  8
PNOA-H_AMS_1956-57_33k_ES_PAN_21mic_H50_0349_fot_40496_tif
  70
32
  10
519846.000
  20
4625473.000
  30
1178.077
  0
VERTEX
  8
PNOA-H_AMS_1956-57_33k_ES_PAN_21mic_H50_0349_fot_40496_tif
  70
32
  10
519850.000
  20
4625473.500
  30
1177.973
  0
VERTEX
  8
PNOA-H_AMS_1956-57_33k_ES_PAN_21mic_H50_0349_fot_40496_tif
  70
32
  10
519850.562
  20
4625473.281
  30
1177.963
  0
VERTEX
  8
PNOA-H_AMS_1956-57_33k_ES_PAN_21mic_H50_0349_fot_40496_tif
  70
32
  10
519854.906
  20
4625471.592
  30
1177.888
  0
VERTEX
  8
PNOA-H_AMS_1956-57_33k_ES_PAN_21mic_H50_0349_fot_40496_tif
  70
32
  10
519859.000
  20
4625470.000
  30
1177.818
  0
VERTEX
  8
PNOA-H_AMS_1956-57_33k_ES_PAN_21mic_H50_0349_fot_40496_tif
  70
32
  10
520427.500
  20
4625192.500
  30
1167.554
  0
VERTEX
  8
PNOA-H_AMS_1956-57_33k_ES_PAN_21mic_H50_0349_fot_40496_tif
  70
32
  10
520436.500
  20
4620828.500
  30
1122.583
  0
VERTEX
  8
PNOA-H_AMS_1956-57_33k_ES_PAN_21mic_H50_0349_fot_40496_tif
  70
32
  10
520434.564
  20
4620828.317
  30
1122.583
  0
VERTEX
  8
PNOA-H_AMS_1956-57_33k_ES_PAN_21mic_H50_0349_fot_40496_tif
  70
32
  10
517895.000
  20
4620588.000
  30
1121.641
  0
VERTEX
  8
PNOA-H_AMS_1956-57_33k_ES_PAN_21mic_H50_0349_fot_40496_tif
  70
32
  10
517889.500
  20
4620588.000
  30
1121.522
  0
SEQEND
  8
PNOA-H_AMS_1956-57_33k_ES_PAN_21mic_H50_0349_fot_40496_tif
  0
INSERT
  8
FeatureAttribs
  2
FEATURE
  41
1
  42
1
  43
1
  50
0
  10
516362.067
  20
4623026.000
 66
1
  0
ATTRIB
  8
FeatureAttribs
 70
0
  1
PNOA-H_AMS_1956-57_33k_ES_PAN_21mic_H50_0349_fot_40497.tif
  2
NAME
  10
516362.067
  20
4623026.000
 40
33.43520
  0
SEQEND
  0
POLYLINE
  8
PNOA-H_AMS_1956-57_33k_ES_PAN_21mic_H50_0349_fot_40497_tif
  70
9
  66
1
  0
VERTEX
  8
PNOA-H_AMS_1956-57_33k_ES_PAN_21mic_H50_0349_fot_40497_tif
  70
32
  10
514978.523
  20
4620591.001
  30
1098.926
  0
VERTEX
  8
PNOA-H_AMS_1956-57_33k_ES_PAN_21mic_H50_0349_fot_40497_tif
  70
32
  10
514978.500
  20
4620591.000
  30
1098.926
  0
VERTEX
  8
PNOA-H_AMS_1956-57_33k_ES_PAN_21mic_H50_0349_fot_40497_tif
  70
32
  10
515048.876
  20
4625096.010
  30
1269.578
  0
VERTEX
  8
PNOA-H_AMS_1956-57_33k_ES_PAN_21mic_H50_0349_fot_40497_tif
  70
32
  10
515050.500
  20
4625200.000
  30
1273.517
  0
VERTEX
  8
PNOA-H_AMS_1956-57_33k_ES_PAN_21mic_H50_0349_fot_40497_tif
  70
32
  10
517159.000
  20
4625460.500
  30
1277.802
  0
VERTEX
  8
PNOA-H_AMS_1956-57_33k_ES_PAN_21mic_H50_0349_fot_40497_tif
  70
32
  10
517163.000
  20
4625461.000
  30
1277.258
  0
VERTEX
  8
PNOA-H_AMS_1956-57_33k_ES_PAN_21mic_H50_0349_fot_40497_tif
  70
32
  10
517163.096
  20
4625460.950
  30
1277.24
  0
VERTEX
  8
PNOA-H_AMS_1956-57_33k_ES_PAN_21mic_H50_0349_fot_40497_tif
  70
32
  10
517163.502
  20
4625460.738
  30
1277.162
  0
VERTEX
  8
PNOA-H_AMS_1956-57_33k_ES_PAN_21mic_H50_0349_fot_40497_tif
  70
32
  10
517691.483
  20
4625184.555
  30
1175.913
  0
VERTEX
  8
PNOA-H_AMS_1956-57_33k_ES_PAN_21mic_H50_0349_fot_40497_tif
  70
32
  10
517693.500
  20
4625183.500
  30
1175.526
  0
VERTEX
  8
PNOA-H_AMS_1956-57_33k_ES_PAN_21mic_H50_0349_fot_40497_tif
  70
32
  10
517723.000
  20
4620668.000
  30
1115.047
  0
VERTEX
  8
PNOA-H_AMS_1956-57_33k_ES_PAN_21mic_H50_0349_fot_40497_tif
  70
32
  10
517717.651
  20
4620667.850
  30
1115.016
  0
VERTEX
  8
PNOA-H_AMS_1956-57_33k_ES_PAN_21mic_H50_0349_fot_40497_tif
  70
32
  10
514978.523
  20
4620591.001
  30
1098.926
  0
SEQEND
  8
PNOA-H_AMS_1956-57_33k_ES_PAN_21mic_H50_0349_fot_40497_tif
  0
INSERT
  8
FeatureAttribs
  2
FEATURE
  41
1
  42
1
  43
1
  50
0
  10
513707.404
  20
4623027.500
 66
1
  0
ATTRIB
  8
FeatureAttribs
 70
0
  1
PNOA-H_AMS_1956-57_33k_ES_PAN_21mic_H50_0349_fot_40498.tif
  2
NAME
  10
513707.404
  20
4623027.500
 40
33.43520
  0
SEQEND
  0
POLYLINE
  8
PNOA-H_AMS_1956-57_33k_ES_PAN_21mic_H50_0349_fot_40498_tif
  70
9
  66
1
  0
VERTEX
  8
PNOA-H_AMS_1956-57_33k_ES_PAN_21mic_H50_0349_fot_40498_tif
  70
32
  10
514978.500
  20
4620590.500
  30
1098.888
  0
VERTEX
  8
PNOA-H_AMS_1956-57_33k_ES_PAN_21mic_H50_0349_fot_40498_tif
  70
32
  10
514926.000
  20
4620562.500
  30
1102.48
  0
VERTEX
  8
PNOA-H_AMS_1956-57_33k_ES_PAN_21mic_H50_0349_fot_40498_tif
  70
32
  10
514925.011
  20
4620562.506
  30
1102.481
  0
VERTEX
  8
PNOA-H_AMS_1956-57_33k_ES_PAN_21mic_H50_0349_fot_40498_tif
  70
32
  10
512421.500
  20
4620578.000
  30
1106.442
  0
VERTEX
  8
PNOA-H_AMS_1956-57_33k_ES_PAN_21mic_H50_0349_fot_40498_tif
  70
32
  10
512377.007
  20
4625233.732
  30
1116.431
  0
VERTEX
  8
PNOA-H_AMS_1956-57_33k_ES_PAN_21mic_H50_0349_fot_40498_tif
  70
32
  10
512377.000
  20
4625234.500
  30
1116.432
  0
VERTEX
  8
PNOA-H_AMS_1956-57_33k_ES_PAN_21mic_H50_0349_fot_40498_tif
  70
32
  10
512400.385
  20
4625237.404
  30
1116.843
  0
VERTEX
  8
PNOA-H_AMS_1956-57_33k_ES_PAN_21mic_H50_0349_fot_40498_tif
  70
32
  10
512453.500
  20
4625244.000
  30
1117.776
  0
VERTEX
  8
PNOA-H_AMS_1956-57_33k_ES_PAN_21mic_H50_0349_fot_40498_tif
  70
32
  10
512458.000
  20
4625244.500
  30
1117.973
  0
VERTEX
  8
PNOA-H_AMS_1956-57_33k_ES_PAN_21mic_H50_0349_fot_40498_tif
  70
32
  10
514498.500
  20
4625492.500
  30
1302.074
  0
VERTEX
  8
PNOA-H_AMS_1956-57_33k_ES_PAN_21mic_H50_0349_fot_40498_tif
  70
32
  10
514498.505
  20
4625492.498
  30
1302.074
  0
VERTEX
  8
PNOA-H_AMS_1956-57_33k_ES_PAN_21mic_H50_0349_fot_40498_tif
  70
32
  10
515050.500
  20
4625200.500
  30
1273.63
  0
VERTEX
  8
PNOA-H_AMS_1956-57_33k_ES_PAN_21mic_H50_0349_fot_40498_tif
  70
32
  10
515050.492
  20
4625200.004
  30
1273.611
  0
VERTEX
  8
PNOA-H_AMS_1956-57_33k_ES_PAN_21mic_H50_0349_fot_40498_tif
  70
32
  10
515048.876
  20
4625096.010
  30
1269.676
  0
VERTEX
  8
PNOA-H_AMS_1956-57_33k_ES_PAN_21mic_H50_0349_fot_40498_tif
  70
32
  10
514979.000
  20
4620601.500
  30
1099.587
  0
VERTEX
  8
PNOA-H_AMS_1956-57_33k_ES_PAN_21mic_H50_0349_fot_40498_tif
  70
32
  10
514978.523
  20
4620591.001
  30
1098.92
  0
VERTEX
  8
PNOA-H_AMS_1956-57_33k_ES_PAN_21mic_H50_0349_fot_40498_tif
  70
32
  10
514978.500
  20
4620590.500
  30
1098.888
  0
SEQEND
  8
PNOA-H_AMS_1956-57_33k_ES_PAN_21mic_H50_0349_fot_40498_tif
  0
INSERT
  8
FeatureAttribs
  2
FEATURE
  41
1
  42
1
  43
1
  50
0
  10
516534.027
  20
4618284.750
 66
1
  0
ATTRIB
  8
FeatureAttribs
 70
0
  1
PNOA-H_AMS_1956-57_33k_ES_PAN_21mic_H50_0349_fot_37209.tif
  2
NAME
  10
516534.027
  20
4618284.750
 40
33.43520
  0
SEQEND
  0
POLYLINE
  8
PNOA-H_AMS_1956-57_33k_ES_PAN_21mic_H50_0349_fot_37209_tif
  70
9
  66
1
  0
VERTEX
  8
PNOA-H_AMS_1956-57_33k_ES_PAN_21mic_H50_0349_fot_37209_tif
  70
32
  10
517602.153
  20
4616246.875
  30
1088.826
  0
VERTEX
  8
PNOA-H_AMS_1956-57_33k_ES_PAN_21mic_H50_0349_fot_37209_tif
  70
32
  10
515928.500
  20
4615901.500
  30
1090.784
  0
VERTEX
  8
PNOA-H_AMS_1956-57_33k_ES_PAN_21mic_H50_0349_fot_37209_tif
  70
32
  10
515928.212
  20
4615901.647
  30
1090.763
  0
VERTEX
  8
PNOA-H_AMS_1956-57_33k_ES_PAN_21mic_H50_0349_fot_37209_tif
  70
32
  10
515538.491
  20
4616100.626
  30
1062.795
  0
VERTEX
  8
PNOA-H_AMS_1956-57_33k_ES_PAN_21mic_H50_0349_fot_37209_tif
  70
32
  10
515171.500
  20
4616288.000
  30
1036.458
  0
VERTEX
  8
PNOA-H_AMS_1956-57_33k_ES_PAN_21mic_H50_0349_fot_37209_tif
  70
32
  10
514925.000
  20
4620562.500
  30
1102.528
  0
VERTEX
  8
PNOA-H_AMS_1956-57_33k_ES_PAN_21mic_H50_0349_fot_37209_tif
  70
32
  10
514925.011
  20
4620562.506
  30
1102.527
  0
VERTEX
  8
PNOA-H_AMS_1956-57_33k_ES_PAN_21mic_H50_0349_fot_37209_tif
  70
32
  10
514978.500
  20
4620591.000
  30
1098.926
  0
VERTEX
  8
PNOA-H_AMS_1956-57_33k_ES_PAN_21mic_H50_0349_fot_37209_tif
  70
32
  10
514978.523
  20
4620591.001
  30
1098.926
  0
VERTEX
  8
PNOA-H_AMS_1956-57_33k_ES_PAN_21mic_H50_0349_fot_37209_tif
  70
32
  10
517696.500
  20
4620667.500
  30
1114.764
  0
VERTEX
  8
PNOA-H_AMS_1956-57_33k_ES_PAN_21mic_H50_0349_fot_37209_tif
  70
32
  10
517714.500
  20
4620668.000
  30
1114.946
  0
VERTEX
  8
PNOA-H_AMS_1956-57_33k_ES_PAN_21mic_H50_0349_fot_37209_tif
  70
32
  10
517717.651
  20
4620667.850
  30
1114.988
  0
VERTEX
  8
PNOA-H_AMS_1956-57_33k_ES_PAN_21mic_H50_0349_fot_37209_tif
  70
32
  10
517723.927
  20
4620667.551
  30
1115.071
  0
VERTEX
  8
PNOA-H_AMS_1956-57_33k_ES_PAN_21mic_H50_0349_fot_37209_tif
  70
32
  10
517725.000
  20
4620667.500
  30
1115.086
  0
VERTEX
  8
PNOA-H_AMS_1956-57_33k_ES_PAN_21mic_H50_0349_fot_37209_tif
  70
32
  10
517889.500
  20
4620588.000
  30
1121.518
  0
VERTEX
  8
PNOA-H_AMS_1956-57_33k_ES_PAN_21mic_H50_0349_fot_37209_tif
  70
32
  10
517890.000
  20
4620583.500
  30
1121.676
  0
VERTEX
  8
PNOA-H_AMS_1956-57_33k_ES_PAN_21mic_H50_0349_fot_37209_tif
  70
32
  10
518114.000
  20
4616352.500
  30
1088.227
  0
VERTEX
  8
PNOA-H_AMS_1956-57_33k_ES_PAN_21mic_H50_0349_fot_37209_tif
  70
32
  10
517602.153
  20
4616246.875
  30
1088.826
  0
SEQEND
  8
PNOA-H_AMS_1956-57_33k_ES_PAN_21mic_H50_0349_fot_37209_tif
  0
INSERT
  8
FeatureAttribs
  2
FEATURE
  41
1
  42
1
  43
1
  50
0
  10
519374.493
  20
4618412.000
 66
1
  0
ATTRIB
  8
FeatureAttribs
 70
0
  1
PNOA-H_AMS_1956-57_33k_ES_PAN_21mic_H50_0349_fot_37210.tif
  2
NAME
  10
519374.493
  20
4618412.000
 40
33.43520
  0
SEQEND
  0
POLYLINE
  8
PNOA-H_AMS_1956-57_33k_ES_PAN_21mic_H50_0349_fot_37210_tif
  70
9
  66
1
  0
VERTEX
  8
PNOA-H_AMS_1956-57_33k_ES_PAN_21mic_H50_0349_fot_37210_tif
  70
32
  10
520803.500
  20
4616323.000
  30
1161.469
  0
VERTEX
  8
PNOA-H_AMS_1956-57_33k_ES_PAN_21mic_H50_0349_fot_37210_tif
  70
32
  10
518741.500
  20
4615995.500
  30
1159
  0
VERTEX
  8
PNOA-H_AMS_1956-57_33k_ES_PAN_21mic_H50_0349_fot_37210_tif
  70
32
  10
518741.271
  20
4615995.623
  30
1159.017
  0
VERTEX
  8
PNOA-H_AMS_1956-57_33k_ES_PAN_21mic_H50_0349_fot_37210_tif
  70
32
  10
518725.207
  20
4616004.229
  30
1160.246
  0
VERTEX
  8
PNOA-H_AMS_1956-57_33k_ES_PAN_21mic_H50_0349_fot_37210_tif
  70
32
  10
518713.500
  20
4616010.500
  30
1161.141
  0
VERTEX
  8
PNOA-H_AMS_1956-57_33k_ES_PAN_21mic_H50_0349_fot_37210_tif
  70
32
  10
518114.265
  20
4616352.349
  30
1088.26
  0
VERTEX
  8
PNOA-H_AMS_1956-57_33k_ES_PAN_21mic_H50_0349_fot_37210_tif
  70
32
  10
518114.000
  20
4616352.500
  30
1088.227
  0
VERTEX
  8
PNOA-H_AMS_1956-57_33k_ES_PAN_21mic_H50_0349_fot_37210_tif
  70
32
  10
517889.500
  20
4620583.500
  30
1121.664
  0
VERTEX
  8
PNOA-H_AMS_1956-57_33k_ES_PAN_21mic_H50_0349_fot_37210_tif
  70
32
  10
517889.500
  20
4620588.000
  30
1121.518
  0
VERTEX
  8
PNOA-H_AMS_1956-57_33k_ES_PAN_21mic_H50_0349_fot_37210_tif
  70
32
  10
518598.000
  20
4620655.000
  30
1119.401
  0
VERTEX
  8
PNOA-H_AMS_1956-57_33k_ES_PAN_21mic_H50_0349_fot_37210_tif
  70
32
  10
518603.000
  20
4620655.500
  30
1119.09
  0
VERTEX
  8
PNOA-H_AMS_1956-57_33k_ES_PAN_21mic_H50_0349_fot_37210_tif
  70
32
  10
520432.000
  20
4620828.500
  30
1122.705
  0
VERTEX
  8
PNOA-H_AMS_1956-57_33k_ES_PAN_21mic_H50_0349_fot_37210_tif
  70
32
  10
520434.564
  20
4620828.317
  30
1122.665
  0
VERTEX
  8
PNOA-H_AMS_1956-57_33k_ES_PAN_21mic_H50_0349_fot_37210_tif
  70
32
  10
520437.368
  20
4620828.117
  30
1122.621
  0
VERTEX
  8
PNOA-H_AMS_1956-57_33k_ES_PAN_21mic_H50_0349_fot_37210_tif
  70
32
  10
520439.000
  20
4620828.000
  30
1122.595
  0
VERTEX
  8
PNOA-H_AMS_1956-57_33k_ES_PAN_21mic_H50_0349_fot_37210_tif
  70
32
  10
520668.968
  20
4620726.014
  30
1101.746
  0
VERTEX
  8
PNOA-H_AMS_1956-57_33k_ES_PAN_21mic_H50_0349_fot_37210_tif
  70
32
  10
520669.000
  20
4620726.000
  30
1101.743
  0
VERTEX
  8
PNOA-H_AMS_1956-57_33k_ES_PAN_21mic_H50_0349_fot_37210_tif
  70
32
  10
520812.000
  20
4616329.500
  30
1160.156
  0
VERTEX
  8
PNOA-H_AMS_1956-57_33k_ES_PAN_21mic_H50_0349_fot_37210_tif
  70
32
  10
520812.000
  20
4616324.500
  30
1161.252
  0
VERTEX
  8
PNOA-H_AMS_1956-57_33k_ES_PAN_21mic_H50_0349_fot_37210_tif
  70
32
  10
520803.500
  20
4616323.000
  30
1161.469
  0
SEQEND
  8
PNOA-H_AMS_1956-57_33k_ES_PAN_21mic_H50_0349_fot_37210_tif
  0
INSERT
  8
FeatureAttribs
  2
FEATURE
  41
1
  42
1
  43
1
  50
0
  10
521087.739
  20
4627565.750
 66
1
  0
ATTRIB
  8
FeatureAttribs
 70
0
  1
PNOA-H_AMS_1956-57_33k_ES_PAN_21mic_H50_0349_fot_34C-40396_E.tif
  2
NAME
  10
521087.739
  20
4627565.750
 40
33.43520
  0
SEQEND
  0
POLYLINE
  8
PNOA-H_AMS_1956-57_33k_ES_PAN_21mic_H50_0349_fot_34C-40396_E_tif
  70
9
  66
1
  0
VERTEX
  8
PNOA-H_AMS_1956-57_33k_ES_PAN_21mic_H50_0349_fot_34C-40396_E_tif
  70
32
  10
520427.500
  20
4625192.500
  30
1167.563
  0
VERTEX
  8
PNOA-H_AMS_1956-57_33k_ES_PAN_21mic_H50_0349_fot_34C-40396_E_tif
  70
32
  10
520426.500
  20
4625192.500
  30
1167.586
  0
VERTEX
  8
PNOA-H_AMS_1956-57_33k_ES_PAN_21mic_H50_0349_fot_34C-40396_E_tif
  70
32
  10
520414.000
  20
4625198.500
  30
1167.924
  0
VERTEX
  8
PNOA-H_AMS_1956-57_33k_ES_PAN_21mic_H50_0349_fot_34C-40396_E_tif
  70
32
  10
519854.906
  20
4625471.592
  30
1177.879
  0
VERTEX
  8
PNOA-H_AMS_1956-57_33k_ES_PAN_21mic_H50_0349_fot_34C-40396_E_tif
  70
32
  10
519851.000
  20
4625473.500
  30
1177.948
  0
VERTEX
  8
PNOA-H_AMS_1956-57_33k_ES_PAN_21mic_H50_0349_fot_34C-40396_E_tif
  70
32
  10
519735.000
  20
4629617.000
  30
1171.843
  0
VERTEX
  8
PNOA-H_AMS_1956-57_33k_ES_PAN_21mic_H50_0349_fot_34C-40396_E_tif
  70
32
  10
521804.000
  20
4629938.500
  30
1098.326
  0
VERTEX
  8
PNOA-H_AMS_1956-57_33k_ES_PAN_21mic_H50_0349_fot_34C-40396_E_tif
  70
32
  10
521807.500
  20
4629939.000
  30
1098.608
  0
VERTEX
  8
PNOA-H_AMS_1956-57_33k_ES_PAN_21mic_H50_0349_fot_34C-40396_E_tif
  70
32
  10
521808.305
  20
4629938.814
  30
1098.668
  0
VERTEX
  8
PNOA-H_AMS_1956-57_33k_ES_PAN_21mic_H50_0349_fot_34C-40396_E_tif
  70
32
  10
521811.857
  20
4629937.995
  30
1098.932
  0
VERTEX
  8
PNOA-H_AMS_1956-57_33k_ES_PAN_21mic_H50_0349_fot_34C-40396_E_tif
  70
32
  10
521814.000
  20
4629937.500
  30
1099.092
  0
VERTEX
  8
PNOA-H_AMS_1956-57_33k_ES_PAN_21mic_H50_0349_fot_34C-40396_E_tif
  70
32
  10
522359.237
  20
4629704.753
  30
1164.806
  0
VERTEX
  8
PNOA-H_AMS_1956-57_33k_ES_PAN_21mic_H50_0349_fot_34C-40396_E_tif
  70
32
  10
522361.000
  20
4629704.000
  30
1165.019
  0
VERTEX
  8
PNOA-H_AMS_1956-57_33k_ES_PAN_21mic_H50_0349_fot_34C-40396_E_tif
  70
32
  10
522404.000
  20
4625534.500
  30
1156.919
  0
VERTEX
  8
PNOA-H_AMS_1956-57_33k_ES_PAN_21mic_H50_0349_fot_34C-40396_E_tif
  70
32
  10
521939.906
  20
4625454.115
  30
1159.411
  0
VERTEX
  8
PNOA-H_AMS_1956-57_33k_ES_PAN_21mic_H50_0349_fot_34C-40396_E_tif
  70
32
  10
520429.500
  20
4625192.500
  30
1167.518
  0
VERTEX
  8
PNOA-H_AMS_1956-57_33k_ES_PAN_21mic_H50_0349_fot_34C-40396_E_tif
  70
32
  10
520427.500
  20
4625192.500
  30
1167.563
  0
SEQEND
  8
PNOA-H_AMS_1956-57_33k_ES_PAN_21mic_H50_0349_fot_34C-40396_E_tif
  0
INSERT
  8
FeatureAttribs
  2
FEATURE
  41
1
  42
1
  43
1
  50
0
  10
526254.217
  20
4627602.750
 66
1
  0
ATTRIB
  8
FeatureAttribs
 70
0
  1
PNOA-H_AMS_1956-57_33k_ES_PAN_21mic_H50_0349_fot_34C-40398_E.tif
  2
NAME
  10
526254.217
  20
4627602.750
 40
33.43520
  0
SEQEND
  0
POLYLINE
  8
PNOA-H_AMS_1956-57_33k_ES_PAN_21mic_H50_0349_fot_34C-40398_E_tif
  70
9
  66
1
  0
VERTEX
  8
PNOA-H_AMS_1956-57_33k_ES_PAN_21mic_H50_0349_fot_34C-40398_E_tif
  70
32
  10
527578.000
  20
4625578.000
  30
1215.812
  0
VERTEX
  8
PNOA-H_AMS_1956-57_33k_ES_PAN_21mic_H50_0349_fot_34C-40398_E_tif
  70
32
  10
525835.000
  20
4625201.500
  30
1177.221
  0
VERTEX
  8
PNOA-H_AMS_1956-57_33k_ES_PAN_21mic_H50_0349_fot_34C-40398_E_tif
  70
32
  10
525834.831
  20
4625201.571
  30
1177.22
  0
VERTEX
  8
PNOA-H_AMS_1956-57_33k_ES_PAN_21mic_H50_0349_fot_34C-40398_E_tif
  70
32
  10
525612.847
  20
4625295.133
  30
1175.889
  0
VERTEX
  8
PNOA-H_AMS_1956-57_33k_ES_PAN_21mic_H50_0349_fot_34C-40398_E_tif
  70
32
  10
524971.258
  20
4625565.548
  30
1172.042
  0
VERTEX
  8
PNOA-H_AMS_1956-57_33k_ES_PAN_21mic_H50_0349_fot_34C-40398_E_tif
  70
32
  10
524969.000
  20
4625566.500
  30
1172.029
  0
VERTEX
  8
PNOA-H_AMS_1956-57_33k_ES_PAN_21mic_H50_0349_fot_34C-40398_E_tif
  70
32
  10
524967.000
  20
4629785.000
  30
1117.033
  0
VERTEX
  8
PNOA-H_AMS_1956-57_33k_ES_PAN_21mic_H50_0349_fot_34C-40398_E_tif
  70
32
  10
527247.000
  20
4630003.500
  30
1124.409
  0
VERTEX
  8
PNOA-H_AMS_1956-57_33k_ES_PAN_21mic_H50_0349_fot_34C-40398_E_tif
  70
32
  10
527252.500
  20
4630004.000
  30
1123.993
  0
VERTEX
  8
PNOA-H_AMS_1956-57_33k_ES_PAN_21mic_H50_0349_fot_34C-40398_E_tif
  70
32
  10
527253.234
  20
4630003.831
  30
1123.95
  0
VERTEX
  8
PNOA-H_AMS_1956-57_33k_ES_PAN_21mic_H50_0349_fot_34C-40398_E_tif
  70
32
  10
527257.412
  20
4630002.867
  30
1123.7
  0
VERTEX
  8
PNOA-H_AMS_1956-57_33k_ES_PAN_21mic_H50_0349_fot_34C-40398_E_tif
  70
32
  10
527259.000
  20
4630002.500
  30
1123.605
  0
VERTEX
  8
PNOA-H_AMS_1956-57_33k_ES_PAN_21mic_H50_0349_fot_34C-40398_E_tif
  70
32
  10
527491.500
  20
4629893.500
  30
1114.521
  0
VERTEX
  8
PNOA-H_AMS_1956-57_33k_ES_PAN_21mic_H50_0349_fot_34C-40398_E_tif
  70
32
  10
527497.500
  20
4629890.500
  30
1114.333
  0
VERTEX
  8
PNOA-H_AMS_1956-57_33k_ES_PAN_21mic_H50_0349_fot_34C-40398_E_tif
  70
32
  10
527498.000
  20
4629886.000
  30
1114.136
  0
VERTEX
  8
PNOA-H_AMS_1956-57_33k_ES_PAN_21mic_H50_0349_fot_34C-40398_E_tif
  70
32
  10
527578.000
  20
4625578.000
  30
1215.812
  0
SEQEND
  8
PNOA-H_AMS_1956-57_33k_ES_PAN_21mic_H50_0349_fot_34C-40398_E_tif
  0
INSERT
  8
FeatureAttribs
  2
FEATURE
  41
1
  42
1
  43
1
  50
0
  10
523675.429
  20
4627588.500
 66
1
  0
ATTRIB
  8
FeatureAttribs
 70
0
  1
PNOA-H_AMS_1956-57_33k_ES_PAN_21mic_H50_0349_fot_34C-40397_E.tif
  2
NAME
  10
523675.429
  20
4627588.500
 40
33.43520
  0
SEQEND
  0
POLYLINE
  8
PNOA-H_AMS_1956-57_33k_ES_PAN_21mic_H50_0349_fot_34C-40397_E_tif
  70
9
  66
1
  0
VERTEX
  8
PNOA-H_AMS_1956-57_33k_ES_PAN_21mic_H50_0349_fot_34C-40397_E_tif
  70
32
  10
524967.739
  20
4625566.252
  30
1172.018
  0
VERTEX
  8
PNOA-H_AMS_1956-57_33k_ES_PAN_21mic_H50_0349_fot_34C-40397_E_tif
  70
32
  10
523136.500
  20
4625206.500
  30
1156.609
  0
VERTEX
  8
PNOA-H_AMS_1956-57_33k_ES_PAN_21mic_H50_0349_fot_34C-40397_E_tif
  70
32
  10
523136.347
  20
4625206.568
  30
1156.609
  0
VERTEX
  8
PNOA-H_AMS_1956-57_33k_ES_PAN_21mic_H50_0349_fot_34C-40397_E_tif
  70
32
  10
523136.002
  20
4625206.723
  30
1156.609
  0
VERTEX
  8
PNOA-H_AMS_1956-57_33k_ES_PAN_21mic_H50_0349_fot_34C-40397_E_tif
  70
32
  10
522404.278
  20
4625534.375
  30
1156.919
  0
VERTEX
  8
PNOA-H_AMS_1956-57_33k_ES_PAN_21mic_H50_0349_fot_34C-40397_E_tif
  70
32
  10
522404.000
  20
4625534.500
  30
1156.919
  0
VERTEX
  8
PNOA-H_AMS_1956-57_33k_ES_PAN_21mic_H50_0349_fot_34C-40397_E_tif
  70
32
  10
522361.000
  20
4629704.000
  30
1165.019
  0
VERTEX
  8
PNOA-H_AMS_1956-57_33k_ES_PAN_21mic_H50_0349_fot_34C-40397_E_tif
  70
32
  10
522362.239
  20
4629704.152
  30
1165.018
  0
VERTEX
  8
PNOA-H_AMS_1956-57_33k_ES_PAN_21mic_H50_0349_fot_34C-40397_E_tif
  70
32
  10
522694.500
  20
4629745.000
  30
1164.874
  0
VERTEX
  8
PNOA-H_AMS_1956-57_33k_ES_PAN_21mic_H50_0349_fot_34C-40397_E_tif
  70
32
  10
522698.500
  20
4629745.500
  30
1164.864
  0
VERTEX
  8
PNOA-H_AMS_1956-57_33k_ES_PAN_21mic_H50_0349_fot_34C-40397_E_tif
  70
32
  10
524541.500
  20
4629970.500
  30
1109.426
  0
VERTEX
  8
PNOA-H_AMS_1956-57_33k_ES_PAN_21mic_H50_0349_fot_34C-40397_E_tif
  70
32
  10
524542.259
  20
4629970.348
  30
1109.447
  0
VERTEX
  8
PNOA-H_AMS_1956-57_33k_ES_PAN_21mic_H50_0349_fot_34C-40397_E_tif
  70
32
  10
524544.357
  20
4629969.929
  30
1109.504
  0
VERTEX
  8
PNOA-H_AMS_1956-57_33k_ES_PAN_21mic_H50_0349_fot_34C-40397_E_tif
  70
32
  10
524546.500
  20
4629969.500
  30
1109.563
  0
VERTEX
  8
PNOA-H_AMS_1956-57_33k_ES_PAN_21mic_H50_0349_fot_34C-40397_E_tif
  70
32
  10
524967.000
  20
4629785.000
  30
1117.033
  0
VERTEX
  8
PNOA-H_AMS_1956-57_33k_ES_PAN_21mic_H50_0349_fot_34C-40397_E_tif
  70
32
  10
524969.000
  20
4625566.500
  30
1172.029
  0
VERTEX
  8
PNOA-H_AMS_1956-57_33k_ES_PAN_21mic_H50_0349_fot_34C-40397_E_tif
  70
32
  10
524967.739
  20
4625566.252
  30
1172.018
  0
SEQEND
  8
PNOA-H_AMS_1956-57_33k_ES_PAN_21mic_H50_0349_fot_34C-40397_E_tif
  0
INSERT
  8
FeatureAttribs
  2
FEATURE
  41
1
  42
1
  43
1
  50
0
  10
524490.396
  20
4623165.250
 66
1
  0
ATTRIB
  8
FeatureAttribs
 70
0
  1
PNOA-H_AMS_1956-57_33k_ES_PAN_21mic_H50_0349_fot_40494.tif
  2
NAME
  10
524490.396
  20
4623165.250
 40
33.43520
  0
SEQEND
  0
POLYLINE
  8
PNOA-H_AMS_1956-57_33k_ES_PAN_21mic_H50_0349_fot_40494_tif
  70
9
  66
1
  0
VERTEX
  8
PNOA-H_AMS_1956-57_33k_ES_PAN_21mic_H50_0349_fot_40494_tif
  70
32
  10
523263.000
  20
4620764.000
  30
1139.989
  0
VERTEX
  8
PNOA-H_AMS_1956-57_33k_ES_PAN_21mic_H50_0349_fot_40494_tif
  70
32
  10
523252.500
  20
4620764.000
  30
1139.238
  0
VERTEX
  8
PNOA-H_AMS_1956-57_33k_ES_PAN_21mic_H50_0349_fot_40494_tif
  70
32
  10
523251.500
  20
4620764.000
  30
1139.167
  0
VERTEX
  8
PNOA-H_AMS_1956-57_33k_ES_PAN_21mic_H50_0349_fot_40494_tif
  70
32
  10
523174.500
  20
4620802.500
  30
1131.877
  0
VERTEX
  8
PNOA-H_AMS_1956-57_33k_ES_PAN_21mic_H50_0349_fot_40494_tif
  70
32
  10
523136.000
  20
4625206.500
  30
1156.613
  0
VERTEX
  8
PNOA-H_AMS_1956-57_33k_ES_PAN_21mic_H50_0349_fot_40494_tif
  70
32
  10
523136.004
  20
4625206.501
  30
1156.613
  0
VERTEX
  8
PNOA-H_AMS_1956-57_33k_ES_PAN_21mic_H50_0349_fot_40494_tif
  70
32
  10
523136.347
  20
4625206.568
  30
1156.616
  0
VERTEX
  8
PNOA-H_AMS_1956-57_33k_ES_PAN_21mic_H50_0349_fot_40494_tif
  70
32
  10
524964.000
  20
4625566.000
  30
1171.936
  0
VERTEX
  8
PNOA-H_AMS_1956-57_33k_ES_PAN_21mic_H50_0349_fot_40494_tif
  70
32
  10
524966.500
  20
4625566.500
  30
1171.991
  0
VERTEX
  8
PNOA-H_AMS_1956-57_33k_ES_PAN_21mic_H50_0349_fot_40494_tif
  70
32
  10
524967.739
  20
4625566.252
  30
1172.002
  0
VERTEX
  8
PNOA-H_AMS_1956-57_33k_ES_PAN_21mic_H50_0349_fot_40494_tif
  70
32
  10
524971.258
  20
4625565.548
  30
1172.034
  0
VERTEX
  8
PNOA-H_AMS_1956-57_33k_ES_PAN_21mic_H50_0349_fot_40494_tif
  70
32
  10
524974.000
  20
4625565.000
  30
1172.058
  0
VERTEX
  8
PNOA-H_AMS_1956-57_33k_ES_PAN_21mic_H50_0349_fot_40494_tif
  70
32
  10
525612.847
  20
4625295.133
  30
1175.876
  0
VERTEX
  8
PNOA-H_AMS_1956-57_33k_ES_PAN_21mic_H50_0349_fot_40494_tif
  70
32
  10
525834.500
  20
4625201.500
  30
1177.2
  0
VERTEX
  8
PNOA-H_AMS_1956-57_33k_ES_PAN_21mic_H50_0349_fot_40494_tif
  70
32
  10
525818.500
  20
4620888.000
  30
1150.05
  0
VERTEX
  8
PNOA-H_AMS_1956-57_33k_ES_PAN_21mic_H50_0349_fot_40494_tif
  70
32
  10
523263.000
  20
4620764.000
  30
1139.989
  0
SEQEND
  8
PNOA-H_AMS_1956-57_33k_ES_PAN_21mic_H50_0349_fot_40494_tif
  0
INSERT
  8
FeatureAttribs
  2
FEATURE
  41
1
  42
1
  43
1
  50
0
  10
527173.583
  20
4623182.750
 66
1
  0
ATTRIB
  8
FeatureAttribs
 70
0
  1
PNOA-H_AMS_1956-57_33k_ES_PAN_21mic_H50_0349_fot_40493.tif
  2
NAME
  10
527173.583
  20
4623182.750
 40
33.43520
  0
SEQEND
  0
POLYLINE
  8
PNOA-H_AMS_1956-57_33k_ES_PAN_21mic_H50_0349_fot_40493_tif
  70
9
  66
1
  0
VERTEX
  8
PNOA-H_AMS_1956-57_33k_ES_PAN_21mic_H50_0349_fot_40493_tif
  70
32
  10
528372.282
  20
4620928.290
  30
1152.379
  0
VERTEX
  8
PNOA-H_AMS_1956-57_33k_ES_PAN_21mic_H50_0349_fot_40493_tif
  70
32
  10
526032.000
  20
4620787.500
  30
1150.095
  0
VERTEX
  8
PNOA-H_AMS_1956-57_33k_ES_PAN_21mic_H50_0349_fot_40493_tif
  70
32
  10
526025.000
  20
4620787.500
  30
1150.171
  0
VERTEX
  8
PNOA-H_AMS_1956-57_33k_ES_PAN_21mic_H50_0349_fot_40493_tif
  70
32
  10
526024.000
  20
4620787.500
  30
1150.182
  0
VERTEX
  8
PNOA-H_AMS_1956-57_33k_ES_PAN_21mic_H50_0349_fot_40493_tif
  70
32
  10
525818.500
  20
4620888.000
  30
1150.05
  0
VERTEX
  8
PNOA-H_AMS_1956-57_33k_ES_PAN_21mic_H50_0349_fot_40493_tif
  70
32
  10
525834.500
  20
4625201.500
  30
1177.2
  0
VERTEX
  8
PNOA-H_AMS_1956-57_33k_ES_PAN_21mic_H50_0349_fot_40493_tif
  70
32
  10
525834.831
  20
4625201.571
  30
1177.208
  0
VERTEX
  8
PNOA-H_AMS_1956-57_33k_ES_PAN_21mic_H50_0349_fot_40493_tif
  70
32
  10
527574.000
  20
4625577.500
  30
1215.749
  0
VERTEX
  8
PNOA-H_AMS_1956-57_33k_ES_PAN_21mic_H50_0349_fot_40493_tif
  70
32
  10
527576.000
  20
4625578.000
  30
1215.808
  0
VERTEX
  8
PNOA-H_AMS_1956-57_33k_ES_PAN_21mic_H50_0349_fot_40493_tif
  70
32
  10
527578.000
  20
4625578.000
  30
1215.789
  0
VERTEX
  8
PNOA-H_AMS_1956-57_33k_ES_PAN_21mic_H50_0349_fot_40493_tif
  70
32
  10
527579.000
  20
4625578.000
  30
1215.78
  0
VERTEX
  8
PNOA-H_AMS_1956-57_33k_ES_PAN_21mic_H50_0349_fot_40493_tif
  70
32
  10
527594.500
  20
4625572.000
  30
1215.49
  0
VERTEX
  8
PNOA-H_AMS_1956-57_33k_ES_PAN_21mic_H50_0349_fot_40493_tif
  70
32
  10
528550.968
  20
4625192.583
  30
1284.34
  0
VERTEX
  8
PNOA-H_AMS_1956-57_33k_ES_PAN_21mic_H50_0349_fot_40493_tif
  70
32
  10
528560.000
  20
4625189.000
  30
1284.99
  0
VERTEX
  8
PNOA-H_AMS_1956-57_33k_ES_PAN_21mic_H50_0349_fot_40493_tif
  70
32
  10
528559.990
  20
4625188.490
  30
1284.974
  0
VERTEX
  8
PNOA-H_AMS_1956-57_33k_ES_PAN_21mic_H50_0349_fot_40493_tif
  70
32
  10
528475.500
  20
4620934.500
  30
1152.479
  0
VERTEX
  8
PNOA-H_AMS_1956-57_33k_ES_PAN_21mic_H50_0349_fot_40493_tif
  70
32
  10
528372.282
  20
4620928.290
  30
1152.379
  0
SEQEND
  8
PNOA-H_AMS_1956-57_33k_ES_PAN_21mic_H50_0349_fot_40493_tif
  0
INSERT
  8
FeatureAttribs
  2
FEATURE
  41
1
  42
1
  43
1
  50
0
  10
521792.953
  20
4623130.250
 66
1
  0
ATTRIB
  8
FeatureAttribs
 70
0
  1
PNOA-H_AMS_1956-57_33k_ES_PAN_21mic_H50_0349_fot_40495.tif
  2
NAME
  10
521792.953
  20
4623130.250
 40
33.43520
  0
SEQEND
  0
POLYLINE
  8
PNOA-H_AMS_1956-57_33k_ES_PAN_21mic_H50_0349_fot_40495_tif
  70
9
  66
1
  0
VERTEX
  8
PNOA-H_AMS_1956-57_33k_ES_PAN_21mic_H50_0349_fot_40495_tif
  70
32
  10
520668.968
  20
4620726.014
  30
1101.824
  0
VERTEX
  8
PNOA-H_AMS_1956-57_33k_ES_PAN_21mic_H50_0349_fot_40495_tif
  70
32
  10
520668.500
  20
4620726.000
  30
1101.818
  0
VERTEX
  8
PNOA-H_AMS_1956-57_33k_ES_PAN_21mic_H50_0349_fot_40495_tif
  70
32
  10
520437.368
  20
4620828.117
  30
1122.506
  0
VERTEX
  8
PNOA-H_AMS_1956-57_33k_ES_PAN_21mic_H50_0349_fot_40495_tif
  70
32
  10
520436.500
  20
4620828.500
  30
1122.583
  0
VERTEX
  8
PNOA-H_AMS_1956-57_33k_ES_PAN_21mic_H50_0349_fot_40495_tif
  70
32
  10
520427.500
  20
4625192.500
  30
1167.554
  0
VERTEX
  8
PNOA-H_AMS_1956-57_33k_ES_PAN_21mic_H50_0349_fot_40495_tif
  70
32
  10
520646.000
  20
4625230.500
  30
1168.141
  0
VERTEX
  8
PNOA-H_AMS_1956-57_33k_ES_PAN_21mic_H50_0349_fot_40495_tif
  70
32
  10
520649.000
  20
4625231.000
  30
1168.164
  0
VERTEX
  8
PNOA-H_AMS_1956-57_33k_ES_PAN_21mic_H50_0349_fot_40495_tif
  70
32
  10
521939.906
  20
4625454.115
  30
1159.895
  0
VERTEX
  8
PNOA-H_AMS_1956-57_33k_ES_PAN_21mic_H50_0349_fot_40495_tif
  70
32
  10
522404.278
  20
4625534.375
  30
1156.921
  0
VERTEX
  8
PNOA-H_AMS_1956-57_33k_ES_PAN_21mic_H50_0349_fot_40495_tif
  70
32
  10
522405.000
  20
4625534.500
  30
1156.916
  0
VERTEX
  8
PNOA-H_AMS_1956-57_33k_ES_PAN_21mic_H50_0349_fot_40495_tif
  70
32
  10
523136.000
  20
4625207.000
  30
1156.612
  0
VERTEX
  8
PNOA-H_AMS_1956-57_33k_ES_PAN_21mic_H50_0349_fot_40495_tif
  70
32
  10
523136.002
  20
4625206.723
  30
1156.61
  0
VERTEX
  8
PNOA-H_AMS_1956-57_33k_ES_PAN_21mic_H50_0349_fot_40495_tif
  70
32
  10
523136.004
  20
4625206.501
  30
1156.609
  0
VERTEX
  8
PNOA-H_AMS_1956-57_33k_ES_PAN_21mic_H50_0349_fot_40495_tif
  70
32
  10
523174.500
  20
4620802.500
  30
1131.877
  0
VERTEX
  8
PNOA-H_AMS_1956-57_33k_ES_PAN_21mic_H50_0349_fot_40495_tif
  70
32
  10
520745.717
  20
4620728.357
  30
1102.744
  0
VERTEX
  8
PNOA-H_AMS_1956-57_33k_ES_PAN_21mic_H50_0349_fot_40495_tif
  70
32
  10
520668.968
  20
4620726.014
  30
1101.824
  0
SEQEND
  8
PNOA-H_AMS_1956-57_33k_ES_PAN_21mic_H50_0349_fot_40495_tif
  0
INSERT
  8
FeatureAttribs
  2
FEATURE
  41
1
  42
1
  43
1
  50
0
  10
528843.454
  20
4627608.500
 66
1
  0
ATTRIB
  8
FeatureAttribs
 70
0
  1
PNOA-H_AMS_1956-57_33k_ES_PAN_21mic_H50_0349_fot_34C-40399_E.tif
  2
NAME
  10
528843.454
  20
4627608.500
 40
33.43520
  0
SEQEND
  0
POLYLINE
  8
PNOA-H_AMS_1956-57_33k_ES_PAN_21mic_H50_0349_fot_34C-40399_E_tif
  70
9
  66
1
  0
VERTEX
  8
PNOA-H_AMS_1956-57_33k_ES_PAN_21mic_H50_0349_fot_34C-40399_E_tif
  70
32
  10
529777.982
  20
4625490.240
  30
1280.49
  0
VERTEX
  8
PNOA-H_AMS_1956-57_33k_ES_PAN_21mic_H50_0349_fot_34C-40399_E_tif
  70
32
  10
528561.000
  20
4625189.000
  30
1284.718
  0
VERTEX
  8
PNOA-H_AMS_1956-57_33k_ES_PAN_21mic_H50_0349_fot_34C-40399_E_tif
  70
32
  10
528560.632
  20
4625189.132
  30
1284.773
  0
VERTEX
  8
PNOA-H_AMS_1956-57_33k_ES_PAN_21mic_H50_0349_fot_34C-40399_E_tif
  70
32
  10
528550.968
  20
4625192.583
  30
1286.21
  0
VERTEX
  8
PNOA-H_AMS_1956-57_33k_ES_PAN_21mic_H50_0349_fot_34C-40399_E_tif
  70
32
  10
528540.000
  20
4625196.500
  30
1287.84
  0
VERTEX
  8
PNOA-H_AMS_1956-57_33k_ES_PAN_21mic_H50_0349_fot_34C-40399_E_tif
  70
32
  10
527578.000
  20
4625578.000
  30
1215.812
  0
VERTEX
  8
PNOA-H_AMS_1956-57_33k_ES_PAN_21mic_H50_0349_fot_34C-40399_E_tif
  70
32
  10
527497.500
  20
4629890.500
  30
1114.333
  0
VERTEX
  8
PNOA-H_AMS_1956-57_33k_ES_PAN_21mic_H50_0349_fot_34C-40399_E_tif
  70
32
  10
529956.000
  20
4630027.500
  30
1093.447
  0
VERTEX
  8
PNOA-H_AMS_1956-57_33k_ES_PAN_21mic_H50_0349_fot_34C-40399_E_tif
  70
32
  10
529965.000
  20
4630028.000
  30
1093.039
  0
VERTEX
  8
PNOA-H_AMS_1956-57_33k_ES_PAN_21mic_H50_0349_fot_34C-40399_E_tif
  70
32
  10
529965.014
  20
4630027.993
  30
1093.038
  0
VERTEX
  8
PNOA-H_AMS_1956-57_33k_ES_PAN_21mic_H50_0349_fot_34C-40399_E_tif
  70
32
  10
530012.916
  20
4630004.717
  30
1092.525
  0
VERTEX
  8
PNOA-H_AMS_1956-57_33k_ES_PAN_21mic_H50_0349_fot_34C-40399_E_tif
  70
32
  10
530106.125
  20
4629959.425
  30
1091.525
  0
VERTEX
  8
PNOA-H_AMS_1956-57_33k_ES_PAN_21mic_H50_0349_fot_34C-40399_E_tif
  70
32
  10
530107.000
  20
4629959.000
  30
1091.515
  0
VERTEX
  8
PNOA-H_AMS_1956-57_33k_ES_PAN_21mic_H50_0349_fot_34C-40399_E_tif
  70
32
  10
530181.000
  20
4625590.000
  30
1279.09
  0
VERTEX
  8
PNOA-H_AMS_1956-57_33k_ES_PAN_21mic_H50_0349_fot_34C-40399_E_tif
  70
32
  10
529777.982
  20
4625490.240
  30
1280.49
  0
SEQEND
  8
PNOA-H_AMS_1956-57_33k_ES_PAN_21mic_H50_0349_fot_34C-40399_E_tif
  0
INSERT
  8
FeatureAttribs
  2
FEATURE
  41
1
  42
1
  43
1
  50
0
  10
531482.259
  20
4627641.250
 66
1
  0
ATTRIB
  8
FeatureAttribs
 70
0
  1
PNOA-H_AMS_1956-57_33k_ES_PAN_21mic_H50_0349_fot_34C-40400_E.tif
  2
NAME
  10
531482.259
  20
4627641.250
 40
33.43520
  0
SEQEND
  0
POLYLINE
  8
PNOA-H_AMS_1956-57_33k_ES_PAN_21mic_H50_0349_fot_34C-40400_E_tif
  70
9
  66
1
  0
VERTEX
  8
PNOA-H_AMS_1956-57_33k_ES_PAN_21mic_H50_0349_fot_34C-40400_E_tif
  70
32
  10
532737.000
  20
4630081.000
  30
1063.377
  0
VERTEX
  8
PNOA-H_AMS_1956-57_33k_ES_PAN_21mic_H50_0349_fot_34C-40400_E_tif
  70
32
  10
532744.500
  20
4630081.000
  30
1063.329
  0
VERTEX
  8
PNOA-H_AMS_1956-57_33k_ES_PAN_21mic_H50_0349_fot_34C-40400_E_tif
  70
32
  10
532745.000
  20
4630081.000
  30
1063.326
  0
VERTEX
  8
PNOA-H_AMS_1956-57_33k_ES_PAN_21mic_H50_0349_fot_34C-40400_E_tif
  70
32
  10
532765.000
  20
4630071.000
  30
1063.578
  0
VERTEX
  8
PNOA-H_AMS_1956-57_33k_ES_PAN_21mic_H50_0349_fot_34C-40400_E_tif
  70
32
  10
532784.000
  20
4630061.500
  30
1063.818
  0
VERTEX
  8
PNOA-H_AMS_1956-57_33k_ES_PAN_21mic_H50_0349_fot_34C-40400_E_tif
  70
32
  10
532784.083
  20
4630061.003
  30
1063.833
  0
VERTEX
  8
PNOA-H_AMS_1956-57_33k_ES_PAN_21mic_H50_0349_fot_34C-40400_E_tif
  70
32
  10
532784.500
  20
4630058.500
  30
1063.906
  0
VERTEX
  8
PNOA-H_AMS_1956-57_33k_ES_PAN_21mic_H50_0349_fot_34C-40400_E_tif
  70
32
  10
532847.000
  20
4625583.500
  30
1251.092
  0
VERTEX
  8
PNOA-H_AMS_1956-57_33k_ES_PAN_21mic_H50_0349_fot_34C-40400_E_tif
  70
32
  10
532846.451
  20
4625583.369
  30
1251.105
  0
VERTEX
  8
PNOA-H_AMS_1956-57_33k_ES_PAN_21mic_H50_0349_fot_34C-40400_E_tif
  70
32
  10
531247.000
  20
4625201.500
  30
1290.294
  0
VERTEX
  8
PNOA-H_AMS_1956-57_33k_ES_PAN_21mic_H50_0349_fot_34C-40400_E_tif
  70
32
  10
531245.000
  20
4625201.500
  30
1290.186
  0
VERTEX
  8
PNOA-H_AMS_1956-57_33k_ES_PAN_21mic_H50_0349_fot_34C-40400_E_tif
  70
32
  10
531244.000
  20
4625201.500
  30
1290.132
  0
VERTEX
  8
PNOA-H_AMS_1956-57_33k_ES_PAN_21mic_H50_0349_fot_34C-40400_E_tif
  70
32
  10
531228.500
  20
4625207.000
  30
1289.097
  0
VERTEX
  8
PNOA-H_AMS_1956-57_33k_ES_PAN_21mic_H50_0349_fot_34C-40400_E_tif
  70
32
  10
530181.403
  20
4625589.853
  30
1279.094
  0
VERTEX
  8
PNOA-H_AMS_1956-57_33k_ES_PAN_21mic_H50_0349_fot_34C-40400_E_tif
  70
32
  10
530181.000
  20
4625590.000
  30
1279.09
  0
VERTEX
  8
PNOA-H_AMS_1956-57_33k_ES_PAN_21mic_H50_0349_fot_34C-40400_E_tif
  70
32
  10
530107.000
  20
4629959.000
  30
1091.515
  0
VERTEX
  8
PNOA-H_AMS_1956-57_33k_ES_PAN_21mic_H50_0349_fot_34C-40400_E_tif
  70
32
  10
530110.243
  20
4629959.150
  30
1091.481
  0
VERTEX
  8
PNOA-H_AMS_1956-57_33k_ES_PAN_21mic_H50_0349_fot_34C-40400_E_tif
  70
32
  10
532726.000
  20
4630080.500
  30
1063.535
  0
VERTEX
  8
PNOA-H_AMS_1956-57_33k_ES_PAN_21mic_H50_0349_fot_34C-40400_E_tif
  70
32
  10
532737.000
  20
4630081.000
  30
1063.377
  0
SEQEND
  8
PNOA-H_AMS_1956-57_33k_ES_PAN_21mic_H50_0349_fot_34C-40400_E_tif
  0
INSERT
  8
FeatureAttribs
  2
FEATURE
  41
1
  42
1
  43
1
  50
0
  10
534177.251
  20
4627687.250
 66
1
  0
ATTRIB
  8
FeatureAttribs
 70
0
  1
PNOA-H_AMS_1956-57_33k_ES_PAN_21mic_H50_0349_fot_34C-40401_E.tif
  2
NAME
  10
534177.251
  20
4627687.250
 40
33.43520
  0
SEQEND
  0
POLYLINE
  8
PNOA-H_AMS_1956-57_33k_ES_PAN_21mic_H50_0349_fot_34C-40401_E_tif
  70
9
  66
1
  0
VERTEX
  8
PNOA-H_AMS_1956-57_33k_ES_PAN_21mic_H50_0349_fot_34C-40401_E_tif
  70
32
  10
535459.000
  20
4630157.500
  30
1065.125
  0
VERTEX
  8
PNOA-H_AMS_1956-57_33k_ES_PAN_21mic_H50_0349_fot_34C-40401_E_tif
  70
32
  10
535462.493
  20
4630157.500
  30
1065.276
  0
VERTEX
  8
PNOA-H_AMS_1956-57_33k_ES_PAN_21mic_H50_0349_fot_34C-40401_E_tif
  70
32
  10
535462.500
  20
4630157.500
  30
1065.277
  0
VERTEX
  8
PNOA-H_AMS_1956-57_33k_ES_PAN_21mic_H50_0349_fot_34C-40401_E_tif
  70
32
  10
535467.500
  20
4630155.000
  30
1065.204
  0
VERTEX
  8
PNOA-H_AMS_1956-57_33k_ES_PAN_21mic_H50_0349_fot_34C-40401_E_tif
  70
32
  10
535531.494
  20
4630120.503
  30
1062.146
  0
VERTEX
  8
PNOA-H_AMS_1956-57_33k_ES_PAN_21mic_H50_0349_fot_34C-40401_E_tif
  70
32
  10
535531.500
  20
4630120.500
  30
1062.146
  0
VERTEX
  8
PNOA-H_AMS_1956-57_33k_ES_PAN_21mic_H50_0349_fot_34C-40401_E_tif
  70
32
  10
535542.000
  20
4625559.500
  30
1105.995
  0
VERTEX
  8
PNOA-H_AMS_1956-57_33k_ES_PAN_21mic_H50_0349_fot_34C-40401_E_tif
  70
32
  10
533823.000
  20
4625217.000
  30
1246.892
  0
VERTEX
  8
PNOA-H_AMS_1956-57_33k_ES_PAN_21mic_H50_0349_fot_34C-40401_E_tif
  70
32
  10
533822.653
  20
4625217.130
  30
1246.893
  0
VERTEX
  8
PNOA-H_AMS_1956-57_33k_ES_PAN_21mic_H50_0349_fot_34C-40401_E_tif
  70
32
  10
532874.317
  20
4625573.242
  30
1250.974
  0
VERTEX
  8
PNOA-H_AMS_1956-57_33k_ES_PAN_21mic_H50_0349_fot_34C-40401_E_tif
  70
32
  10
532847.125
  20
4625583.453
  30
1251.091
  0
VERTEX
  8
PNOA-H_AMS_1956-57_33k_ES_PAN_21mic_H50_0349_fot_34C-40401_E_tif
  70
32
  10
532847.000
  20
4625583.500
  30
1251.092
  0
VERTEX
  8
PNOA-H_AMS_1956-57_33k_ES_PAN_21mic_H50_0349_fot_34C-40401_E_tif
  70
32
  10
532784.000
  20
4630061.000
  30
1063.833
  0
VERTEX
  8
PNOA-H_AMS_1956-57_33k_ES_PAN_21mic_H50_0349_fot_34C-40401_E_tif
  70
32
  10
532784.083
  20
4630061.003
  30
1063.833
  0
VERTEX
  8
PNOA-H_AMS_1956-57_33k_ES_PAN_21mic_H50_0349_fot_34C-40401_E_tif
  70
32
  10
532785.397
  20
4630061.050
  30
1063.834
  0
VERTEX
  8
PNOA-H_AMS_1956-57_33k_ES_PAN_21mic_H50_0349_fot_34C-40401_E_tif
  70
32
  10
535445.000
  20
4630157.000
  30
1064.807
  0
VERTEX
  8
PNOA-H_AMS_1956-57_33k_ES_PAN_21mic_H50_0349_fot_34C-40401_E_tif
  70
32
  10
535459.000
  20
4630157.500
  30
1065.125
  0
SEQEND
  8
PNOA-H_AMS_1956-57_33k_ES_PAN_21mic_H50_0349_fot_34C-40401_E_tif
  0
INSERT
  8
FeatureAttribs
  2
FEATURE
  41
1
  42
1
  43
1
  50
0
  10
532490.696
  20
4623103.750
 66
1
  0
ATTRIB
  8
FeatureAttribs
 70
0
  1
PNOA-H_AMS_1956-57_33k_ES_PAN_21mic_H50_0349_fot_40491.tif
  2
NAME
  10
532490.696
  20
4623103.750
 40
33.43520
  0
SEQEND
  0
POLYLINE
  8
PNOA-H_AMS_1956-57_33k_ES_PAN_21mic_H50_0349_fot_40491_tif
  70
9
  66
1
  0
VERTEX
  8
PNOA-H_AMS_1956-57_33k_ES_PAN_21mic_H50_0349_fot_40491_tif
  70
32
  10
532874.317
  20
4625573.242
  30
1250.887
  0
VERTEX
  8
PNOA-H_AMS_1956-57_33k_ES_PAN_21mic_H50_0349_fot_40491_tif
  70
32
  10
532939.000
  20
4625548.500
  30
1250.46
  0
VERTEX
  8
PNOA-H_AMS_1956-57_33k_ES_PAN_21mic_H50_0349_fot_40491_tif
  70
32
  10
532940.000
  20
4625548.500
  30
1250.43
  0
VERTEX
  8
PNOA-H_AMS_1956-57_33k_ES_PAN_21mic_H50_0349_fot_40491_tif
  70
32
  10
533822.000
  20
4625217.000
  30
1246.867
  0
VERTEX
  8
PNOA-H_AMS_1956-57_33k_ES_PAN_21mic_H50_0349_fot_40491_tif
  70
32
  10
533747.500
  20
4620994.000
  30
1140.789
  0
VERTEX
  8
PNOA-H_AMS_1956-57_33k_ES_PAN_21mic_H50_0349_fot_40491_tif
  70
32
  10
531942.000
  20
4620624.000
  30
1164.269
  0
VERTEX
  8
PNOA-H_AMS_1956-57_33k_ES_PAN_21mic_H50_0349_fot_40491_tif
  70
32
  10
531941.846
  20
4620624.071
  30
1164.271
  0
VERTEX
  8
PNOA-H_AMS_1956-57_33k_ES_PAN_21mic_H50_0349_fot_40491_tif
  70
32
  10
531941.000
  20
4620624.462
  30
1164.284
  0
VERTEX
  8
PNOA-H_AMS_1956-57_33k_ES_PAN_21mic_H50_0349_fot_40491_tif
  70
32
  10
531148.088
  20
4620990.959
  30
1176.07
  0
VERTEX
  8
PNOA-H_AMS_1956-57_33k_ES_PAN_21mic_H50_0349_fot_40491_tif
  70
32
  10
531148.000
  20
4620991.000
  30
1176.071
  0
VERTEX
  8
PNOA-H_AMS_1956-57_33k_ES_PAN_21mic_H50_0349_fot_40491_tif
  70
32
  10
531245.000
  20
4625201.500
  30
1290.186
  0
VERTEX
  8
PNOA-H_AMS_1956-57_33k_ES_PAN_21mic_H50_0349_fot_40491_tif
  70
32
  10
532843.500
  20
4625583.000
  30
1251.283
  0
VERTEX
  8
PNOA-H_AMS_1956-57_33k_ES_PAN_21mic_H50_0349_fot_40491_tif
  70
32
  10
532846.451
  20
4625583.369
  30
1251.121
  0
VERTEX
  8
PNOA-H_AMS_1956-57_33k_ES_PAN_21mic_H50_0349_fot_40491_tif
  70
32
  10
532847.125
  20
4625583.453
  30
1251.084
  0
VERTEX
  8
PNOA-H_AMS_1956-57_33k_ES_PAN_21mic_H50_0349_fot_40491_tif
  70
32
  10
532847.500
  20
4625583.500
  30
1251.063
  0
VERTEX
  8
PNOA-H_AMS_1956-57_33k_ES_PAN_21mic_H50_0349_fot_40491_tif
  70
32
  10
532874.317
  20
4625573.242
  30
1250.887
  0
SEQEND
  8
PNOA-H_AMS_1956-57_33k_ES_PAN_21mic_H50_0349_fot_40491_tif
  0
INSERT
  8
FeatureAttribs
  2
FEATURE
  41
1
  42
1
  43
1
  50
0
  10
529859.030
  20
4623175.000
 66
1
  0
ATTRIB
  8
FeatureAttribs
 70
0
  1
PNOA-H_AMS_1956-57_33k_ES_PAN_21mic_H50_0349_fot_40492.tif
  2
NAME
  10
529859.030
  20
4623175.000
 40
33.43520
  0
SEQEND
  0
POLYLINE
  8
PNOA-H_AMS_1956-57_33k_ES_PAN_21mic_H50_0349_fot_40492_tif
  70
9
  66
1
  0
VERTEX
  8
PNOA-H_AMS_1956-57_33k_ES_PAN_21mic_H50_0349_fot_40492_tif
  70
32
  10
528821.000
  20
4620760.000
  30
1151.645
  0
VERTEX
  8
PNOA-H_AMS_1956-57_33k_ES_PAN_21mic_H50_0349_fot_40492_tif
  70
32
  10
528820.500
  20
4620760.000
  30
1151.64
  0
VERTEX
  8
PNOA-H_AMS_1956-57_33k_ES_PAN_21mic_H50_0349_fot_40492_tif
  70
32
  10
528475.553
  20
4620934.473
  30
1152.479
  0
VERTEX
  8
PNOA-H_AMS_1956-57_33k_ES_PAN_21mic_H50_0349_fot_40492_tif
  70
32
  10
528475.500
  20
4620934.500
  30
1152.479
  0
VERTEX
  8
PNOA-H_AMS_1956-57_33k_ES_PAN_21mic_H50_0349_fot_40492_tif
  70
32
  10
528559.500
  20
4625188.000
  30
1285.265
  0
VERTEX
  8
PNOA-H_AMS_1956-57_33k_ES_PAN_21mic_H50_0349_fot_40492_tif
  70
32
  10
528559.990
  20
4625188.490
  30
1285.063
  0
VERTEX
  8
PNOA-H_AMS_1956-57_33k_ES_PAN_21mic_H50_0349_fot_40492_tif
  70
32
  10
528560.632
  20
4625189.132
  30
1284.799
  0
VERTEX
  8
PNOA-H_AMS_1956-57_33k_ES_PAN_21mic_H50_0349_fot_40492_tif
  70
32
  10
528561.000
  20
4625189.500
  30
1284.647
  0
VERTEX
  8
PNOA-H_AMS_1956-57_33k_ES_PAN_21mic_H50_0349_fot_40492_tif
  70
32
  10
528841.500
  20
4625259.000
  30
1254.524
  0
VERTEX
  8
PNOA-H_AMS_1956-57_33k_ES_PAN_21mic_H50_0349_fot_40492_tif
  70
32
  10
528843.500
  20
4625259.500
  30
1254.404
  0
VERTEX
  8
PNOA-H_AMS_1956-57_33k_ES_PAN_21mic_H50_0349_fot_40492_tif
  70
32
  10
529777.982
  20
4625490.240
  30
1271.621
  0
VERTEX
  8
PNOA-H_AMS_1956-57_33k_ES_PAN_21mic_H50_0349_fot_40492_tif
  70
32
  10
530181.403
  20
4625589.853
  30
1279.054
  0
VERTEX
  8
PNOA-H_AMS_1956-57_33k_ES_PAN_21mic_H50_0349_fot_40492_tif
  70
32
  10
530182.000
  20
4625590.000
  30
1279.065
  0
VERTEX
  8
PNOA-H_AMS_1956-57_33k_ES_PAN_21mic_H50_0349_fot_40492_tif
  70
32
  10
531245.000
  20
4625201.500
  30
1290.186
  0
VERTEX
  8
PNOA-H_AMS_1956-57_33k_ES_PAN_21mic_H50_0349_fot_40492_tif
  70
32
  10
531148.000
  20
4620991.000
  30
1176.071
  0
VERTEX
  8
PNOA-H_AMS_1956-57_33k_ES_PAN_21mic_H50_0349_fot_40492_tif
  70
32
  10
530938.344
  20
4620970.156
  30
1173.87
  0
VERTEX
  8
PNOA-H_AMS_1956-57_33k_ES_PAN_21mic_H50_0349_fot_40492_tif
  70
32
  10
528824.500
  20
4620760.000
  30
1151.678
  0
VERTEX
  8
PNOA-H_AMS_1956-57_33k_ES_PAN_21mic_H50_0349_fot_40492_tif
  70
32
  10
528821.000
  20
4620760.000
  30
1151.645
  0
SEQEND
  8
PNOA-H_AMS_1956-57_33k_ES_PAN_21mic_H50_0349_fot_40492_tif
  0
INSERT
  8
FeatureAttribs
  2
FEATURE
  41
1
  42
1
  43
1
  50
0
  10
536882.032
  20
4627664.500
 66
1
  0
ATTRIB
  8
FeatureAttribs
 70
0
  1
PNOA-H_AMS_1956-57_33k_ES_PAN_21mic_H50_0349_fot_34C-40402_E.tif
  2
NAME
  10
536882.032
  20
4627664.500
 40
33.43520
  0
SEQEND
  0
POLYLINE
  8
PNOA-H_AMS_1956-57_33k_ES_PAN_21mic_H50_0349_fot_34C-40402_E_tif
  70
9
  66
1
  0
VERTEX
  8
PNOA-H_AMS_1956-57_33k_ES_PAN_21mic_H50_0349_fot_34C-40402_E_tif
  70
32
  10
538219.000
  20
4625511.500
  30
1103.617
  0
VERTEX
  8
PNOA-H_AMS_1956-57_33k_ES_PAN_21mic_H50_0349_fot_34C-40402_E_tif
  70
32
  10
536439.000
  20
4625190.000
  30
1103.569
  0
VERTEX
  8
PNOA-H_AMS_1956-57_33k_ES_PAN_21mic_H50_0349_fot_34C-40402_E_tif
  70
32
  10
536438.695
  20
4625190.126
  30
1103.57
  0
VERTEX
  8
PNOA-H_AMS_1956-57_33k_ES_PAN_21mic_H50_0349_fot_34C-40402_E_tif
  70
32
  10
536437.998
  20
4625190.413
  30
1103.572
  0
VERTEX
  8
PNOA-H_AMS_1956-57_33k_ES_PAN_21mic_H50_0349_fot_34C-40402_E_tif
  70
32
  10
535542.000
  20
4625559.500
  30
1105.995
  0
VERTEX
  8
PNOA-H_AMS_1956-57_33k_ES_PAN_21mic_H50_0349_fot_34C-40402_E_tif
  70
32
  10
535531.500
  20
4630120.500
  30
1062.146
  0
VERTEX
  8
PNOA-H_AMS_1956-57_33k_ES_PAN_21mic_H50_0349_fot_34C-40402_E_tif
  70
32
  10
535561.787
  20
4630120.710
  30
1062.888
  0
VERTEX
  8
PNOA-H_AMS_1956-57_33k_ES_PAN_21mic_H50_0349_fot_34C-40402_E_tif
  70
32
  10
536898.500
  20
4630130.000
  30
1095.651
  0
VERTEX
  8
PNOA-H_AMS_1956-57_33k_ES_PAN_21mic_H50_0349_fot_34C-40402_E_tif
  70
32
  10
536972.000
  20
4630130.500
  30
1096.21
  0
VERTEX
  8
PNOA-H_AMS_1956-57_33k_ES_PAN_21mic_H50_0349_fot_34C-40402_E_tif
  70
32
  10
538236.000
  20
4630139.000
  30
1069.084
  0
VERTEX
  8
PNOA-H_AMS_1956-57_33k_ES_PAN_21mic_H50_0349_fot_34C-40402_E_tif
  70
32
  10
538236.000
  20
4630138.993
  30
1069.084
  0
VERTEX
  8
PNOA-H_AMS_1956-57_33k_ES_PAN_21mic_H50_0349_fot_34C-40402_E_tif
  70
32
  10
538219.000
  20
4625511.500
  30
1103.617
  0
SEQEND
  8
PNOA-H_AMS_1956-57_33k_ES_PAN_21mic_H50_0349_fot_34C-40402_E_tif
  0
INSERT
  8
FeatureAttribs
  2
FEATURE
  41
1
  42
1
  43
1
  50
0
  10
539017.236
  20
4627690.250
 66
1
  0
ATTRIB
  8
FeatureAttribs
 70
0
  1
PNOA-H_AMS_1956-57_33k_ES_PAN_21mic_H50_0349_fot_34C-40403_E.tif
  2
NAME
  10
539017.236
  20
4627690.250
 40
33.43520
  0
SEQEND
  0
POLYLINE
  8
PNOA-H_AMS_1956-57_33k_ES_PAN_21mic_H50_0349_fot_34C-40403_E_tif
  70
9
  66
1
  0
VERTEX
  8
PNOA-H_AMS_1956-57_33k_ES_PAN_21mic_H50_0349_fot_34C-40403_E_tif
  70
32
  10
539031.203
  20
4625183.120
  30
1068.88
  0
VERTEX
  8
PNOA-H_AMS_1956-57_33k_ES_PAN_21mic_H50_0349_fot_34C-40403_E_tif
  70
32
  10
539030.500
  20
4625183.000
  30
1068.864
  0
VERTEX
  8
PNOA-H_AMS_1956-57_33k_ES_PAN_21mic_H50_0349_fot_34C-40403_E_tif
  70
32
  10
538219.000
  20
4625511.500
  30
1103.617
  0
VERTEX
  8
PNOA-H_AMS_1956-57_33k_ES_PAN_21mic_H50_0349_fot_34C-40403_E_tif
  70
32
  10
538236.000
  20
4630138.993
  30
1069.084
  0
VERTEX
  8
PNOA-H_AMS_1956-57_33k_ES_PAN_21mic_H50_0349_fot_34C-40403_E_tif
  70
32
  10
538236.000
  20
4630139.000
  30
1069.084
  0
VERTEX
  8
PNOA-H_AMS_1956-57_33k_ES_PAN_21mic_H50_0349_fot_34C-40403_E_tif
  70
32
  10
538345.000
  20
4630197.000
  30
1067.728
  0
VERTEX
  8
PNOA-H_AMS_1956-57_33k_ES_PAN_21mic_H50_0349_fot_34C-40403_E_tif
  70
32
  10
538346.000
  20
4630197.500
  30
1067.708
  0
VERTEX
  8
PNOA-H_AMS_1956-57_33k_ES_PAN_21mic_H50_0349_fot_34C-40403_E_tif
  70
32
  10
538346.450
  20
4630197.473
  30
1067.7
  0
VERTEX
  8
PNOA-H_AMS_1956-57_33k_ES_PAN_21mic_H50_0349_fot_34C-40403_E_tif
  70
32
  10
539793.969
  20
4630111.271
  30
1040.264
  0
VERTEX
  8
PNOA-H_AMS_1956-57_33k_ES_PAN_21mic_H50_0349_fot_34C-40403_E_tif
  70
32
  10
539799.778
  20
4629069.611
  30
0
  0
VERTEX
  8
PNOA-H_AMS_1956-57_33k_ES_PAN_21mic_H50_0349_fot_34C-40403_E_tif
  70
32
  10
539812.673
  20
4626756.580
  30
0
  0
VERTEX
  8
PNOA-H_AMS_1956-57_33k_ES_PAN_21mic_H50_0349_fot_34C-40403_E_tif
  70
32
  10
539820.686
  20
4625318.461
  30
1087.385
  0
VERTEX
  8
PNOA-H_AMS_1956-57_33k_ES_PAN_21mic_H50_0349_fot_34C-40403_E_tif
  70
32
  10
539031.203
  20
4625183.120
  30
1068.88
  0
SEQEND
  8
PNOA-H_AMS_1956-57_33k_ES_PAN_21mic_H50_0349_fot_34C-40403_E_tif
  0
INSERT
  8
FeatureAttribs
  2
FEATURE
  41
1
  42
1
  43
1
  50
0
  10
537706.847
  20
4623048.000
 66
1
  0
ATTRIB
  8
FeatureAttribs
 70
0
  1
PNOA-H_AMS_1956-57_33k_ES_PAN_21mic_H50_0349_fot_40489.tif
  2
NAME
  10
537706.847
  20
4623048.000
 40
33.43520
  0
SEQEND
  0
POLYLINE
  8
PNOA-H_AMS_1956-57_33k_ES_PAN_21mic_H50_0349_fot_40489_tif
  70
9
  66
1
  0
VERTEX
  8
PNOA-H_AMS_1956-57_33k_ES_PAN_21mic_H50_0349_fot_40489_tif
  70
32
  10
538216.500
  20
4625511.500
  30
1103.931
  0
VERTEX
  8
PNOA-H_AMS_1956-57_33k_ES_PAN_21mic_H50_0349_fot_40489_tif
  70
32
  10
538219.000
  20
4625511.500
  30
1103.614
  0
VERTEX
  8
PNOA-H_AMS_1956-57_33k_ES_PAN_21mic_H50_0349_fot_40489_tif
  70
32
  10
538220.000
  20
4625511.500
  30
1103.486
  0
VERTEX
  8
PNOA-H_AMS_1956-57_33k_ES_PAN_21mic_H50_0349_fot_40489_tif
  70
32
  10
538232.500
  20
4625506.500
  30
1102.068
  0
VERTEX
  8
PNOA-H_AMS_1956-57_33k_ES_PAN_21mic_H50_0349_fot_40489_tif
  70
32
  10
539031.203
  20
4625183.120
  30
1068.808
  0
VERTEX
  8
PNOA-H_AMS_1956-57_33k_ES_PAN_21mic_H50_0349_fot_40489_tif
  70
32
  10
539031.500
  20
4625183.000
  30
1068.796
  0
VERTEX
  8
PNOA-H_AMS_1956-57_33k_ES_PAN_21mic_H50_0349_fot_40489_tif
  70
32
  10
539018.000
  20
4621018.500
  30
1088.238
  0
VERTEX
  8
PNOA-H_AMS_1956-57_33k_ES_PAN_21mic_H50_0349_fot_40489_tif
  70
32
  10
539016.441
  20
4621017.888
  30
1088.225
  0
VERTEX
  8
PNOA-H_AMS_1956-57_33k_ES_PAN_21mic_H50_0349_fot_40489_tif
  70
32
  10
537912.000
  20
4620584.500
  30
1079.134
  0
VERTEX
  8
PNOA-H_AMS_1956-57_33k_ES_PAN_21mic_H50_0349_fot_40489_tif
  70
32
  10
537911.406
  20
4620584.659
  30
1079.138
  0
VERTEX
  8
PNOA-H_AMS_1956-57_33k_ES_PAN_21mic_H50_0349_fot_40489_tif
  70
32
  10
537363.342
  20
4620731.671
  30
1082.814
  0
VERTEX
  8
PNOA-H_AMS_1956-57_33k_ES_PAN_21mic_H50_0349_fot_40489_tif
  70
32
  10
536342.500
  20
4621005.500
  30
1089.661
  0
VERTEX
  8
PNOA-H_AMS_1956-57_33k_ES_PAN_21mic_H50_0349_fot_40489_tif
  70
32
  10
536342.511
  20
4621005.997
  30
1089.663
  0
VERTEX
  8
PNOA-H_AMS_1956-57_33k_ES_PAN_21mic_H50_0349_fot_40489_tif
  70
32
  10
536438.000
  20
4625190.000
  30
1103.684
  0
VERTEX
  8
PNOA-H_AMS_1956-57_33k_ES_PAN_21mic_H50_0349_fot_40489_tif
  70
32
  10
536438.695
  20
4625190.126
  30
1103.684
  0
VERTEX
  8
PNOA-H_AMS_1956-57_33k_ES_PAN_21mic_H50_0349_fot_40489_tif
  70
32
  10
538214.000
  20
4625511.000
  30
1104.206
  0
VERTEX
  8
PNOA-H_AMS_1956-57_33k_ES_PAN_21mic_H50_0349_fot_40489_tif
  70
32
  10
538216.500
  20
4625511.500
  30
1103.931
  0
SEQEND
  8
PNOA-H_AMS_1956-57_33k_ES_PAN_21mic_H50_0349_fot_40489_tif
  0
INSERT
  8
FeatureAttribs
  2
FEATURE
  41
1
  42
1
  43
1
  50
0
  10
535086.849
  20
4623069.250
 66
1
  0
ATTRIB
  8
FeatureAttribs
 70
0
  1
PNOA-H_AMS_1956-57_33k_ES_PAN_21mic_H50_0349_fot_40490.tif
  2
NAME
  10
535086.849
  20
4623069.250
 40
33.43520
  0
SEQEND
  0
POLYLINE
  8
PNOA-H_AMS_1956-57_33k_ES_PAN_21mic_H50_0349_fot_40490_tif
  70
9
  66
1
  0
VERTEX
  8
PNOA-H_AMS_1956-57_33k_ES_PAN_21mic_H50_0349_fot_40490_tif
  70
32
  10
536342.500
  20
4621006.000
  30
1089.682
  0
VERTEX
  8
PNOA-H_AMS_1956-57_33k_ES_PAN_21mic_H50_0349_fot_40490_tif
  70
32
  10
534967.000
  20
4620579.000
  30
1108.777
  0
VERTEX
  8
PNOA-H_AMS_1956-57_33k_ES_PAN_21mic_H50_0349_fot_40490_tif
  70
32
  10
534966.106
  20
4620579.191
  30
1108.68
  0
VERTEX
  8
PNOA-H_AMS_1956-57_33k_ES_PAN_21mic_H50_0349_fot_40490_tif
  70
32
  10
534961.750
  20
4620580.125
  30
1108.208
  0
VERTEX
  8
PNOA-H_AMS_1956-57_33k_ES_PAN_21mic_H50_0349_fot_40490_tif
  70
32
  10
534960.000
  20
4620580.500
  30
1108.018
  0
VERTEX
  8
PNOA-H_AMS_1956-57_33k_ES_PAN_21mic_H50_0349_fot_40490_tif
  70
32
  10
533747.500
  20
4620994.000
  30
1140.789
  0
VERTEX
  8
PNOA-H_AMS_1956-57_33k_ES_PAN_21mic_H50_0349_fot_40490_tif
  70
32
  10
533822.000
  20
4625217.000
  30
1246.867
  0
VERTEX
  8
PNOA-H_AMS_1956-57_33k_ES_PAN_21mic_H50_0349_fot_40490_tif
  70
32
  10
533822.653
  20
4625217.130
  30
1246.814
  0
VERTEX
  8
PNOA-H_AMS_1956-57_33k_ES_PAN_21mic_H50_0349_fot_40490_tif
  70
32
  10
535538.000
  20
4625559.000
  30
1106.36
  0
VERTEX
  8
PNOA-H_AMS_1956-57_33k_ES_PAN_21mic_H50_0349_fot_40490_tif
  70
32
  10
535540.500
  20
4625559.500
  30
1106.085
  0
VERTEX
  8
PNOA-H_AMS_1956-57_33k_ES_PAN_21mic_H50_0349_fot_40490_tif
  70
32
  10
535542.000
  20
4625559.500
  30
1105.994
  0
VERTEX
  8
PNOA-H_AMS_1956-57_33k_ES_PAN_21mic_H50_0349_fot_40490_tif
  70
32
  10
535543.000
  20
4625559.500
  30
1105.933
  0
VERTEX
  8
PNOA-H_AMS_1956-57_33k_ES_PAN_21mic_H50_0349_fot_40490_tif
  70
32
  10
536438.000
  20
4625190.500
  30
1103.696
  0
VERTEX
  8
PNOA-H_AMS_1956-57_33k_ES_PAN_21mic_H50_0349_fot_40490_tif
  70
32
  10
536437.998
  20
4625190.413
  30
1103.696
  0
VERTEX
  8
PNOA-H_AMS_1956-57_33k_ES_PAN_21mic_H50_0349_fot_40490_tif
  70
32
  10
536342.500
  20
4621006.000
  30
1089.682
  0
SEQEND
  8
PNOA-H_AMS_1956-57_33k_ES_PAN_21mic_H50_0349_fot_40490_tif
  0
INSERT
  8
FeatureAttribs
  2
FEATURE
  41
1
  42
1
  43
1
  50
0
  10
539428.910
  20
4623088.579
 66
1
  0
ATTRIB
  8
FeatureAttribs
 70
0
  1
PNOA-H_AMS_1956-57_33k_ES_PAN_21mic_H50_0350_fot_40488.tif
  2
NAME
  10
539428.910
  20
4623088.579
 40
33.43520
  0
SEQEND
  0
POLYLINE
  8
PNOA-H_AMS_1956-57_33k_ES_PAN_21mic_H50_0350_fot_40488_tif
  70
9
  66
1
  0
VERTEX
  8
PNOA-H_AMS_1956-57_33k_ES_PAN_21mic_H50_0350_fot_40488_tif
  70
32
  10
539838.445
  20
4622130.545
  30
0
  0
VERTEX
  8
PNOA-H_AMS_1956-57_33k_ES_PAN_21mic_H50_0350_fot_40488_tif
  70
32
  10
539845.526
  20
4620858.860
  30
1131.381
  0
VERTEX
  8
PNOA-H_AMS_1956-57_33k_ES_PAN_21mic_H50_0350_fot_40488_tif
  70
32
  10
539052.758
  20
4621011.795
  30
1090.05
  0
VERTEX
  8
PNOA-H_AMS_1956-57_33k_ES_PAN_21mic_H50_0350_fot_40488_tif
  70
32
  10
539018.764
  20
4621018.353
  30
1088.278
  0
VERTEX
  8
PNOA-H_AMS_1956-57_33k_ES_PAN_21mic_H50_0350_fot_40488_tif
  70
32
  10
539018.000
  20
4621018.500
  30
1088.238
  0
VERTEX
  8
PNOA-H_AMS_1956-57_33k_ES_PAN_21mic_H50_0350_fot_40488_tif
  70
32
  10
539031.500
  20
4625183.000
  30
1068.796
  0
VERTEX
  8
PNOA-H_AMS_1956-57_33k_ES_PAN_21mic_H50_0350_fot_40488_tif
  70
32
  10
539078.000
  20
4625191.000
  30
1068.186
  0
VERTEX
  8
PNOA-H_AMS_1956-57_33k_ES_PAN_21mic_H50_0350_fot_40488_tif
  70
32
  10
539081.000
  20
4625191.500
  30
1068.197
  0
VERTEX
  8
PNOA-H_AMS_1956-57_33k_ES_PAN_21mic_H50_0350_fot_40488_tif
  70
32
  10
539820.687
  20
4625318.298
  30
1086.279
  0
VERTEX
  8
PNOA-H_AMS_1956-57_33k_ES_PAN_21mic_H50_0350_fot_40488_tif
  70
32
  10
539825.562
  20
4624443.558
  30
0
  0
VERTEX
  8
PNOA-H_AMS_1956-57_33k_ES_PAN_21mic_H50_0350_fot_40488_tif
  70
32
  10
539838.445
  20
4622130.545
  30
0
  0
SEQEND
  8
PNOA-H_AMS_1956-57_33k_ES_PAN_21mic_H50_0350_fot_40488_tif
  0
INSERT
  8
FeatureAttribs
  2
FEATURE
  41
1
  42
1
  43
1
  50
0
  10
533450.154
  20
4618718.000
 66
1
  0
ATTRIB
  8
FeatureAttribs
 70
0
  1
PNOA-H_AMS_1956-57_33k_ES_PAN_21mic_H50_0349_fot_37215.tif
  2
NAME
  10
533450.154
  20
4618718.000
 40
33.43520
  0
SEQEND
  0
POLYLINE
  8
PNOA-H_AMS_1956-57_33k_ES_PAN_21mic_H50_0349_fot_37215_tif
  70
9
  66
1
  0
VERTEX
  8
PNOA-H_AMS_1956-57_33k_ES_PAN_21mic_H50_0349_fot_37215_tif
  70
32
  10
534933.000
  20
4616472.994
  30
1092.812
  0
VERTEX
  8
PNOA-H_AMS_1956-57_33k_ES_PAN_21mic_H50_0349_fot_37215_tif
  70
32
  10
532129.500
  20
4616442.000
  30
1094.718
  0
VERTEX
  8
PNOA-H_AMS_1956-57_33k_ES_PAN_21mic_H50_0349_fot_37215_tif
  70
32
  10
531891.500
  20
4616602.500
  30
1101.584
  0
VERTEX
  8
PNOA-H_AMS_1956-57_33k_ES_PAN_21mic_H50_0349_fot_37215_tif
  70
32
  10
531906.000
  20
4617768.735
  30
1119.757
  0
VERTEX
  8
PNOA-H_AMS_1956-57_33k_ES_PAN_21mic_H50_0349_fot_37215_tif
  70
32
  10
531941.500
  20
4620624.000
  30
1164.251
  0
VERTEX
  8
PNOA-H_AMS_1956-57_33k_ES_PAN_21mic_H50_0349_fot_37215_tif
  70
32
  10
531941.846
  20
4620624.071
  30
1164.25
  0
VERTEX
  8
PNOA-H_AMS_1956-57_33k_ES_PAN_21mic_H50_0349_fot_37215_tif
  70
32
  10
532935.000
  20
4620828.000
  30
1161.661
  0
VERTEX
  8
PNOA-H_AMS_1956-57_33k_ES_PAN_21mic_H50_0349_fot_37215_tif
  70
32
  10
532937.500
  20
4620828.500
  30
1160.968
  0
VERTEX
  8
PNOA-H_AMS_1956-57_33k_ES_PAN_21mic_H50_0349_fot_37215_tif
  70
32
  10
533745.000
  20
4620994.000
  30
1140.85
  0
VERTEX
  8
PNOA-H_AMS_1956-57_33k_ES_PAN_21mic_H50_0349_fot_37215_tif
  70
32
  10
533747.500
  20
4620994.000
  30
1140.772
  0
VERTEX
  8
PNOA-H_AMS_1956-57_33k_ES_PAN_21mic_H50_0349_fot_37215_tif
  70
32
  10
533749.000
  20
4620994.000
  30
1140.725
  0
VERTEX
  8
PNOA-H_AMS_1956-57_33k_ES_PAN_21mic_H50_0349_fot_37215_tif
  70
32
  10
534959.000
  20
4620581.500
  30
1107.922
  0
VERTEX
  8
PNOA-H_AMS_1956-57_33k_ES_PAN_21mic_H50_0349_fot_37215_tif
  70
32
  10
534961.750
  20
4620580.125
  30
1108.207
  0
VERTEX
  8
PNOA-H_AMS_1956-57_33k_ES_PAN_21mic_H50_0349_fot_37215_tif
  70
32
  10
534965.500
  20
4620578.250
  30
1108.596
  0
VERTEX
  8
PNOA-H_AMS_1956-57_33k_ES_PAN_21mic_H50_0349_fot_37215_tif
  70
32
  10
534966.000
  20
4620578.000
  30
1108.647
  0
VERTEX
  8
PNOA-H_AMS_1956-57_33k_ES_PAN_21mic_H50_0349_fot_37215_tif
  70
32
  10
535001.679
  20
4616557.179
  30
1093.86
  0
VERTEX
  8
PNOA-H_AMS_1956-57_33k_ES_PAN_21mic_H50_0349_fot_37215_tif
  70
32
  10
535002.000
  20
4616521.000
  30
1093.727
  0
VERTEX
  8
PNOA-H_AMS_1956-57_33k_ES_PAN_21mic_H50_0349_fot_37215_tif
  70
32
  10
534998.487
  20
4616518.538
  30
1093.68
  0
VERTEX
  8
PNOA-H_AMS_1956-57_33k_ES_PAN_21mic_H50_0349_fot_37215_tif
  70
32
  10
534986.607
  20
4616510.213
  30
1093.521
  0
VERTEX
  8
PNOA-H_AMS_1956-57_33k_ES_PAN_21mic_H50_0349_fot_37215_tif
  70
32
  10
534971.328
  20
4616499.507
  30
1093.317
  0
VERTEX
  8
PNOA-H_AMS_1956-57_33k_ES_PAN_21mic_H50_0349_fot_37215_tif
  70
32
  10
534933.500
  20
4616473.000
  30
1092.811
  0
VERTEX
  8
PNOA-H_AMS_1956-57_33k_ES_PAN_21mic_H50_0349_fot_37215_tif
  70
32
  10
534933.000
  20
4616472.994
  30
1092.812
  0
SEQEND
  8
PNOA-H_AMS_1956-57_33k_ES_PAN_21mic_H50_0349_fot_37215_tif
  0
INSERT
  8
FeatureAttribs
  2
FEATURE
  41
1
  42
1
  43
1
  50
0
  10
536479.906
  20
4618707.250
 66
1
  0
ATTRIB
  8
FeatureAttribs
 70
0
  1
PNOA-H_AMS_1956-57_33k_ES_PAN_21mic_H50_0349_fot_37216.tif
  2
NAME
  10
536479.906
  20
4618707.250
 40
33.43520
  0
SEQEND
  0
POLYLINE
  8
PNOA-H_AMS_1956-57_33k_ES_PAN_21mic_H50_0349_fot_37216_tif
  70
9
  66
1
  0
VERTEX
  8
PNOA-H_AMS_1956-57_33k_ES_PAN_21mic_H50_0349_fot_37216_tif
  70
32
  10
537730.502
  20
4616408.501
  30
1068.344
  0
VERTEX
  8
PNOA-H_AMS_1956-57_33k_ES_PAN_21mic_H50_0349_fot_37216_tif
  70
32
  10
537730.500
  20
4616408.500
  30
1068.344
  0
VERTEX
  8
PNOA-H_AMS_1956-57_33k_ES_PAN_21mic_H50_0349_fot_37216_tif
  70
32
  10
535002.941
  20
4616521.461
  30
1093.838
  0
VERTEX
  8
PNOA-H_AMS_1956-57_33k_ES_PAN_21mic_H50_0349_fot_37216_tif
  70
32
  10
535002.000
  20
4616521.500
  30
1093.847
  0
VERTEX
  8
PNOA-H_AMS_1956-57_33k_ES_PAN_21mic_H50_0349_fot_37216_tif
  70
32
  10
535001.679
  20
4616557.179
  30
1093.977
  0
VERTEX
  8
PNOA-H_AMS_1956-57_33k_ES_PAN_21mic_H50_0349_fot_37216_tif
  70
32
  10
534965.500
  20
4620578.000
  30
1108.593
  0
VERTEX
  8
PNOA-H_AMS_1956-57_33k_ES_PAN_21mic_H50_0349_fot_37216_tif
  70
32
  10
534965.500
  20
4620578.250
  30
1108.596
  0
VERTEX
  8
PNOA-H_AMS_1956-57_33k_ES_PAN_21mic_H50_0349_fot_37216_tif
  70
32
  10
534965.500
  20
4620579.000
  30
1108.605
  0
VERTEX
  8
PNOA-H_AMS_1956-57_33k_ES_PAN_21mic_H50_0349_fot_37216_tif
  70
32
  10
534966.106
  20
4620579.191
  30
1108.764
  0
VERTEX
  8
PNOA-H_AMS_1956-57_33k_ES_PAN_21mic_H50_0349_fot_37216_tif
  70
32
  10
534984.500
  20
4620585.000
  30
1113.591
  0
VERTEX
  8
PNOA-H_AMS_1956-57_33k_ES_PAN_21mic_H50_0349_fot_37216_tif
  70
32
  10
534986.500
  20
4620585.500
  30
1114.143
  0
VERTEX
  8
PNOA-H_AMS_1956-57_33k_ES_PAN_21mic_H50_0349_fot_37216_tif
  70
32
  10
536342.500
  20
4621006.000
  30
1089.682
  0
VERTEX
  8
PNOA-H_AMS_1956-57_33k_ES_PAN_21mic_H50_0349_fot_37216_tif
  70
32
  10
536342.511
  20
4621005.997
  30
1089.682
  0
VERTEX
  8
PNOA-H_AMS_1956-57_33k_ES_PAN_21mic_H50_0349_fot_37216_tif
  70
32
  10
537363.342
  20
4620731.671
  30
1082.754
  0
VERTEX
  8
PNOA-H_AMS_1956-57_33k_ES_PAN_21mic_H50_0349_fot_37216_tif
  70
32
  10
537911.000
  20
4620584.500
  30
1079.037
  0
VERTEX
  8
PNOA-H_AMS_1956-57_33k_ES_PAN_21mic_H50_0349_fot_37216_tif
  70
32
  10
538051.500
  20
4616617.000
  30
1080.595
  0
VERTEX
  8
PNOA-H_AMS_1956-57_33k_ES_PAN_21mic_H50_0349_fot_37216_tif
  70
32
  10
538051.448
  20
4616616.966
  30
1080.593
  0
VERTEX
  8
PNOA-H_AMS_1956-57_33k_ES_PAN_21mic_H50_0349_fot_37216_tif
  70
32
  10
537730.502
  20
4616408.501
  30
1068.344
  0
SEQEND
  8
PNOA-H_AMS_1956-57_33k_ES_PAN_21mic_H50_0349_fot_37216_tif
  0
INSERT
  8
FeatureAttribs
  2
FEATURE
  41
1
  42
1
  43
1
  50
0
  10
538916.632
  20
4618749.161
 66
1
  0
ATTRIB
  8
FeatureAttribs
 70
0
  1
PNOA-H_AMS_1956-57_33k_ES_PAN_21mic_H50_0349_fot_37217.tif
  2
NAME
  10
538916.632
  20
4618749.161
 40
33.43520
  0
SEQEND
  0
POLYLINE
  8
PNOA-H_AMS_1956-57_33k_ES_PAN_21mic_H50_0349_fot_37217_tif
  70
9
  66
1
  0
VERTEX
  8
PNOA-H_AMS_1956-57_33k_ES_PAN_21mic_H50_0349_fot_37217_tif
  70
32
  10
539869.897
  20
4616479.825
  30
0
  0
VERTEX
  8
PNOA-H_AMS_1956-57_33k_ES_PAN_21mic_H50_0349_fot_37217_tif
  70
32
  10
539869.897
  20
4616479.822
  30
1078.995
  0
VERTEX
  8
PNOA-H_AMS_1956-57_33k_ES_PAN_21mic_H50_0349_fot_37217_tif
  70
32
  10
539850.716
  20
4616481.269
  30
1079.012
  0
VERTEX
  8
PNOA-H_AMS_1956-57_33k_ES_PAN_21mic_H50_0349_fot_37217_tif
  70
32
  10
538051.500
  20
4616617.000
  30
1080.595
  0
VERTEX
  8
PNOA-H_AMS_1956-57_33k_ES_PAN_21mic_H50_0349_fot_37217_tif
  70
32
  10
537911.000
  20
4620584.500
  30
1079.037
  0
VERTEX
  8
PNOA-H_AMS_1956-57_33k_ES_PAN_21mic_H50_0349_fot_37217_tif
  70
32
  10
537911.406
  20
4620584.659
  30
1079.04
  0
VERTEX
  8
PNOA-H_AMS_1956-57_33k_ES_PAN_21mic_H50_0349_fot_37217_tif
  70
32
  10
539014.500
  20
4621017.500
  30
1088.342
  0
VERTEX
  8
PNOA-H_AMS_1956-57_33k_ES_PAN_21mic_H50_0349_fot_37217_tif
  70
32
  10
539016.441
  20
4621017.888
  30
1088.292
  0
VERTEX
  8
PNOA-H_AMS_1956-57_33k_ES_PAN_21mic_H50_0349_fot_37217_tif
  70
32
  10
539018.764
  20
4621018.353
  30
1088.232
  0
VERTEX
  8
PNOA-H_AMS_1956-57_33k_ES_PAN_21mic_H50_0349_fot_37217_tif
  70
32
  10
539019.500
  20
4621018.500
  30
1088.213
  0
VERTEX
  8
PNOA-H_AMS_1956-57_33k_ES_PAN_21mic_H50_0349_fot_37217_tif
  70
32
  10
539052.758
  20
4621011.795
  30
1090.696
  0
VERTEX
  8
PNOA-H_AMS_1956-57_33k_ES_PAN_21mic_H50_0349_fot_37217_tif
  70
32
  10
539081.500
  20
4621006.000
  30
1092.842
  0
VERTEX
  8
PNOA-H_AMS_1956-57_33k_ES_PAN_21mic_H50_0349_fot_37217_tif
  70
32
  10
539084.000
  20
4621005.500
  30
1093.142
  0
VERTEX
  8
PNOA-H_AMS_1956-57_33k_ES_PAN_21mic_H50_0349_fot_37217_tif
  70
32
  10
539845.527
  20
4620858.670
  30
1132.235
  0
VERTEX
  8
PNOA-H_AMS_1956-57_33k_ES_PAN_21mic_H50_0349_fot_37217_tif
  70
32
  10
539851.324
  20
4619817.540
  30
0
  0
VERTEX
  8
PNOA-H_AMS_1956-57_33k_ES_PAN_21mic_H50_0349_fot_37217_tif
  70
32
  10
539864.197
  20
4617504.543
  30
0
  0
VERTEX
  8
PNOA-H_AMS_1956-57_33k_ES_PAN_21mic_H50_0349_fot_37217_tif
  70
32
  10
539869.897
  20
4616479.825
  30
0
  0
SEQEND
  8
PNOA-H_AMS_1956-57_33k_ES_PAN_21mic_H50_0349_fot_37217_tif
  0
INSERT
  8
FeatureAttribs
  2
FEATURE
  41
1
  42
1
  43
1
  50
0
  10
512710.335
  20
4630403.062
 66
1
  0
ATTRIB
  8
FeatureAttribs
 70
0
  1
PNOA-H_AMS_1956-57_33k_ES_PAN_21mic_H50_0317_fot_33B-38725_E.tif
  2
NAME
  10
512710.335
  20
4630403.062
 40
33.43520
  0
SEQEND
  0
POLYLINE
  8
PNOA-H_AMS_1956-57_33k_ES_PAN_21mic_H50_0317_fot_33B-38725_E_tif
  70
9
  66
1
  0
VERTEX
  8
PNOA-H_AMS_1956-57_33k_ES_PAN_21mic_H50_0317_fot_33B-38725_E_tif
  70
32
  10
513320.000
  20
4629889.000
  30
1144.14
  0
VERTEX
  8
PNOA-H_AMS_1956-57_33k_ES_PAN_21mic_H50_0317_fot_33B-38725_E_tif
  70
32
  10
512112.023
  20
4629521.866
  30
1160.558
  0
VERTEX
  8
PNOA-H_AMS_1956-57_33k_ES_PAN_21mic_H50_0317_fot_33B-38725_E_tif
  70
32
  10
512112.022
  20
4629522.334
  30
0
  0
VERTEX
  8
PNOA-H_AMS_1956-57_33k_ES_PAN_21mic_H50_0317_fot_33B-38725_E_tif
  70
32
  10
512109.036
  20
4631281.963
  30
0
  0
VERTEX
  8
PNOA-H_AMS_1956-57_33k_ES_PAN_21mic_H50_0317_fot_33B-38725_E_tif
  70
32
  10
513291.107
  20
4631284.257
  30
0
  0
VERTEX
  8
PNOA-H_AMS_1956-57_33k_ES_PAN_21mic_H50_0317_fot_33B-38725_E_tif
  70
32
  10
513291.542
  20
4631284.258
  30
1145.31
  0
VERTEX
  8
PNOA-H_AMS_1956-57_33k_ES_PAN_21mic_H50_0317_fot_33B-38725_E_tif
  70
32
  10
513317.500
  20
4630054.500
  30
1167.108
  0
VERTEX
  8
PNOA-H_AMS_1956-57_33k_ES_PAN_21mic_H50_0317_fot_33B-38725_E_tif
  70
32
  10
513317.500
  20
4630053.000
  30
1166.937
  0
VERTEX
  8
PNOA-H_AMS_1956-57_33k_ES_PAN_21mic_H50_0317_fot_33B-38725_E_tif
  70
32
  10
513320.500
  20
4629912.000
  30
1146.824
  0
VERTEX
  8
PNOA-H_AMS_1956-57_33k_ES_PAN_21mic_H50_0317_fot_33B-38725_E_tif
  70
32
  10
513320.259
  20
4629900.925
  30
1145.532
  0
VERTEX
  8
PNOA-H_AMS_1956-57_33k_ES_PAN_21mic_H50_0317_fot_33B-38725_E_tif
  70
32
  10
513320.001
  20
4629889.045
  30
1144.145
  0
VERTEX
  8
PNOA-H_AMS_1956-57_33k_ES_PAN_21mic_H50_0317_fot_33B-38725_E_tif
  70
32
  10
513320.000
  20
4629889.000
  30
1144.14
  0
SEQEND
  8
PNOA-H_AMS_1956-57_33k_ES_PAN_21mic_H50_0317_fot_33B-38725_E_tif
  0
INSERT
  8
FeatureAttribs
  2
FEATURE
  41
1
  42
1
  43
1
  50
0
  10
514749.376
  20
4630382.566
 66
1
  0
ATTRIB
  8
FeatureAttribs
 70
0
  1
PNOA-H_AMS_1956-57_33k_ES_PAN_21mic_H50_0317_fot_33B-38726_E.tif
  2
NAME
  10
514749.376
  20
4630382.566
 40
33.43520
  0
SEQEND
  0
POLYLINE
  8
PNOA-H_AMS_1956-57_33k_ES_PAN_21mic_H50_0317_fot_33B-38726_E_tif
  70
9
  66
1
  0
VERTEX
  8
PNOA-H_AMS_1956-57_33k_ES_PAN_21mic_H50_0317_fot_33B-38726_E_tif
  70
32
  10
516198.500
  20
4629887.000
  30
1166.984
  0
VERTEX
  8
PNOA-H_AMS_1956-57_33k_ES_PAN_21mic_H50_0317_fot_33B-38726_E_tif
  70
32
  10
514536.000
  20
4629475.000
  30
1158.731
  0
VERTEX
  8
PNOA-H_AMS_1956-57_33k_ES_PAN_21mic_H50_0317_fot_33B-38726_E_tif
  70
32
  10
514535.789
  20
4629475.072
  30
1158.729
  0
VERTEX
  8
PNOA-H_AMS_1956-57_33k_ES_PAN_21mic_H50_0317_fot_33B-38726_E_tif
  70
32
  10
514130.833
  20
4629613.167
  30
1153.9
  0
VERTEX
  8
PNOA-H_AMS_1956-57_33k_ES_PAN_21mic_H50_0317_fot_33B-38726_E_tif
  70
32
  10
513320.971
  20
4629889.339
  30
1144.242
  0
VERTEX
  8
PNOA-H_AMS_1956-57_33k_ES_PAN_21mic_H50_0317_fot_33B-38726_E_tif
  70
32
  10
513320.500
  20
4629889.500
  30
1144.236
  0
VERTEX
  8
PNOA-H_AMS_1956-57_33k_ES_PAN_21mic_H50_0317_fot_33B-38726_E_tif
  70
32
  10
513320.259
  20
4629900.925
  30
1144.108
  0
VERTEX
  8
PNOA-H_AMS_1956-57_33k_ES_PAN_21mic_H50_0317_fot_33B-38726_E_tif
  70
32
  10
513291.107
  20
4631284.257
  30
1128.487
  0
VERTEX
  8
PNOA-H_AMS_1956-57_33k_ES_PAN_21mic_H50_0317_fot_33B-38726_E_tif
  70
32
  10
513291.542
  20
4631284.258
  30
0
  0
VERTEX
  8
PNOA-H_AMS_1956-57_33k_ES_PAN_21mic_H50_0317_fot_33B-38726_E_tif
  70
32
  10
515568.761
  20
4631288.676
  30
0
  0
VERTEX
  8
PNOA-H_AMS_1956-57_33k_ES_PAN_21mic_H50_0317_fot_33B-38726_E_tif
  70
32
  10
516169.464
  20
4631290.133
  30
1138.649
  0
VERTEX
  8
PNOA-H_AMS_1956-57_33k_ES_PAN_21mic_H50_0317_fot_33B-38726_E_tif
  70
32
  10
516169.520
  20
4631290.133
  30
1138.699
  0
VERTEX
  8
PNOA-H_AMS_1956-57_33k_ES_PAN_21mic_H50_0317_fot_33B-38726_E_tif
  70
32
  10
516199.000
  20
4629891.000
  30
1167.417
  0
VERTEX
  8
PNOA-H_AMS_1956-57_33k_ES_PAN_21mic_H50_0317_fot_33B-38726_E_tif
  70
32
  10
516198.928
  20
4629890.423
  30
1167.355
  0
VERTEX
  8
PNOA-H_AMS_1956-57_33k_ES_PAN_21mic_H50_0317_fot_33B-38726_E_tif
  70
32
  10
516198.560
  20
4629887.477
  30
1167.036
  0
VERTEX
  8
PNOA-H_AMS_1956-57_33k_ES_PAN_21mic_H50_0317_fot_33B-38726_E_tif
  70
32
  10
516198.500
  20
4629887.000
  30
1166.984
  0
SEQEND
  8
PNOA-H_AMS_1956-57_33k_ES_PAN_21mic_H50_0317_fot_33B-38726_E_tif
  0
INSERT
  8
FeatureAttribs
  2
FEATURE
  41
1
  42
1
  43
1
  50
0
  10
520414.090
  20
4630461.013
 66
1
  0
ATTRIB
  8
FeatureAttribs
 70
0
  1
PNOA-H_AMS_1956-57_33k_ES_PAN_21mic_H50_0317_fot_33B-38728_E.tif
  2
NAME
  10
520414.090
  20
4630461.013
 40
33.43520
  0
SEQEND
  0
POLYLINE
  8
PNOA-H_AMS_1956-57_33k_ES_PAN_21mic_H50_0317_fot_33B-38728_E_tif
  70
9
  66
1
  0
VERTEX
  8
PNOA-H_AMS_1956-57_33k_ES_PAN_21mic_H50_0317_fot_33B-38728_E_tif
  70
32
  10
519735.000
  20
4629617.000
  30
1171.843
  0
VERTEX
  8
PNOA-H_AMS_1956-57_33k_ES_PAN_21mic_H50_0317_fot_33B-38728_E_tif
  70
32
  10
519733.500
  20
4629617.000
  30
1171.661
  0
VERTEX
  8
PNOA-H_AMS_1956-57_33k_ES_PAN_21mic_H50_0317_fot_33B-38728_E_tif
  70
32
  10
519722.000
  20
4629621.500
  30
1171.144
  0
VERTEX
  8
PNOA-H_AMS_1956-57_33k_ES_PAN_21mic_H50_0317_fot_33B-38728_E_tif
  70
32
  10
519219.162
  20
4629819.909
  30
1113.727
  0
VERTEX
  8
PNOA-H_AMS_1956-57_33k_ES_PAN_21mic_H50_0317_fot_33B-38728_E_tif
  70
32
  10
519058.000
  20
4629883.500
  30
1095.325
  0
VERTEX
  8
PNOA-H_AMS_1956-57_33k_ES_PAN_21mic_H50_0317_fot_33B-38728_E_tif
  70
32
  10
519004.504
  20
4631297.008
  30
1094.331
  0
VERTEX
  8
PNOA-H_AMS_1956-57_33k_ES_PAN_21mic_H50_0317_fot_33B-38728_E_tif
  70
32
  10
519028.488
  20
4631297.066
  30
0
  0
VERTEX
  8
PNOA-H_AMS_1956-57_33k_ES_PAN_21mic_H50_0317_fot_33B-38728_E_tif
  70
32
  10
521763.801
  20
4631305.026
  30
1093.011
  0
VERTEX
  8
PNOA-H_AMS_1956-57_33k_ES_PAN_21mic_H50_0317_fot_33B-38728_E_tif
  70
32
  10
521809.500
  20
4629939.000
  30
1098.755
  0
VERTEX
  8
PNOA-H_AMS_1956-57_33k_ES_PAN_21mic_H50_0317_fot_33B-38728_E_tif
  70
32
  10
521808.305
  20
4629938.814
  30
1098.797
  0
VERTEX
  8
PNOA-H_AMS_1956-57_33k_ES_PAN_21mic_H50_0317_fot_33B-38728_E_tif
  70
32
  10
519738.000
  20
4629617.000
  30
1172.207
  0
VERTEX
  8
PNOA-H_AMS_1956-57_33k_ES_PAN_21mic_H50_0317_fot_33B-38728_E_tif
  70
32
  10
519735.000
  20
4629617.000
  30
1171.843
  0
SEQEND
  8
PNOA-H_AMS_1956-57_33k_ES_PAN_21mic_H50_0317_fot_33B-38728_E_tif
  0
INSERT
  8
FeatureAttribs
  2
FEATURE
  41
1
  42
1
  43
1
  50
0
  10
517613.202
  20
4630404.254
 66
1
  0
ATTRIB
  8
FeatureAttribs
 70
0
  1
PNOA-H_AMS_1956-57_33k_ES_PAN_21mic_H50_0317_fot_33B-38727_E.tif
  2
NAME
  10
517613.202
  20
4630404.254
 40
33.43520
  0
SEQEND
  0
POLYLINE
  8
PNOA-H_AMS_1956-57_33k_ES_PAN_21mic_H50_0317_fot_33B-38727_E_tif
  70
9
  66
1
  0
VERTEX
  8
PNOA-H_AMS_1956-57_33k_ES_PAN_21mic_H50_0317_fot_33B-38727_E_tif
  70
32
  10
519057.668
  20
4629883.434
  30
1095.333
  0
VERTEX
  8
PNOA-H_AMS_1956-57_33k_ES_PAN_21mic_H50_0317_fot_33B-38727_E_tif
  70
32
  10
517192.500
  20
4629511.500
  30
1138.814
  0
VERTEX
  8
PNOA-H_AMS_1956-57_33k_ES_PAN_21mic_H50_0317_fot_33B-38727_E_tif
  70
32
  10
517191.858
  20
4629511.671
  30
1138.836
  0
VERTEX
  8
PNOA-H_AMS_1956-57_33k_ES_PAN_21mic_H50_0317_fot_33B-38727_E_tif
  70
32
  10
517187.434
  20
4629512.851
  30
1138.99
  0
VERTEX
  8
PNOA-H_AMS_1956-57_33k_ES_PAN_21mic_H50_0317_fot_33B-38727_E_tif
  70
32
  10
517185.000
  20
4629513.500
  30
1139.074
  0
VERTEX
  8
PNOA-H_AMS_1956-57_33k_ES_PAN_21mic_H50_0317_fot_33B-38727_E_tif
  70
32
  10
516199.000
  20
4629887.000
  30
1166.983
  0
VERTEX
  8
PNOA-H_AMS_1956-57_33k_ES_PAN_21mic_H50_0317_fot_33B-38727_E_tif
  70
32
  10
516198.993
  20
4629887.313
  30
1166.976
  0
VERTEX
  8
PNOA-H_AMS_1956-57_33k_ES_PAN_21mic_H50_0317_fot_33B-38727_E_tif
  70
32
  10
516198.928
  20
4629890.423
  30
1166.913
  0
VERTEX
  8
PNOA-H_AMS_1956-57_33k_ES_PAN_21mic_H50_0317_fot_33B-38727_E_tif
  70
32
  10
516169.464
  20
4631290.133
  30
1138.354
  0
VERTEX
  8
PNOA-H_AMS_1956-57_33k_ES_PAN_21mic_H50_0317_fot_33B-38727_E_tif
  70
32
  10
516169.520
  20
4631290.133
  30
0
  0
VERTEX
  8
PNOA-H_AMS_1956-57_33k_ES_PAN_21mic_H50_0317_fot_33B-38727_E_tif
  70
32
  10
519004.504
  20
4631297.008
  30
1094.331
  0
VERTEX
  8
PNOA-H_AMS_1956-57_33k_ES_PAN_21mic_H50_0317_fot_33B-38727_E_tif
  70
32
  10
519058.000
  20
4629883.500
  30
1095.325
  0
VERTEX
  8
PNOA-H_AMS_1956-57_33k_ES_PAN_21mic_H50_0317_fot_33B-38727_E_tif
  70
32
  10
519057.668
  20
4629883.434
  30
1095.333
  0
SEQEND
  8
PNOA-H_AMS_1956-57_33k_ES_PAN_21mic_H50_0317_fot_33B-38727_E_tif
  0
INSERT
  8
FeatureAttribs
  2
FEATURE
  41
1
  42
1
  43
1
  50
0
  10
523155.868
  20
4630508.962
 66
1
  0
ATTRIB
  8
FeatureAttribs
 70
0
  1
PNOA-H_AMS_1956-57_33k_ES_PAN_21mic_H50_0317_fot_33B-38729_E.tif
  2
NAME
  10
523155.868
  20
4630508.962
 40
33.43520
  0
SEQEND
  0
POLYLINE
  8
PNOA-H_AMS_1956-57_33k_ES_PAN_21mic_H50_0317_fot_33B-38729_E_tif
  70
9
  66
1
  0
VERTEX
  8
PNOA-H_AMS_1956-57_33k_ES_PAN_21mic_H50_0317_fot_33B-38729_E_tif
  70
32
  10
524542.259
  20
4629970.348
  30
1109.497
  0
VERTEX
  8
PNOA-H_AMS_1956-57_33k_ES_PAN_21mic_H50_0317_fot_33B-38729_E_tif
  70
32
  10
522363.000
  20
4629704.000
  30
1165.097
  0
VERTEX
  8
PNOA-H_AMS_1956-57_33k_ES_PAN_21mic_H50_0317_fot_33B-38729_E_tif
  70
32
  10
522362.239
  20
4629704.152
  30
1165.034
  0
VERTEX
  8
PNOA-H_AMS_1956-57_33k_ES_PAN_21mic_H50_0317_fot_33B-38729_E_tif
  70
32
  10
522359.237
  20
4629704.753
  30
1164.788
  0
VERTEX
  8
PNOA-H_AMS_1956-57_33k_ES_PAN_21mic_H50_0317_fot_33B-38729_E_tif
  70
32
  10
522358.000
  20
4629705.000
  30
1164.687
  0
VERTEX
  8
PNOA-H_AMS_1956-57_33k_ES_PAN_21mic_H50_0317_fot_33B-38729_E_tif
  70
32
  10
521811.857
  20
4629937.995
  30
1099.038
  0
VERTEX
  8
PNOA-H_AMS_1956-57_33k_ES_PAN_21mic_H50_0317_fot_33B-38729_E_tif
  70
32
  10
521809.500
  20
4629939.000
  30
1098.755
  0
VERTEX
  8
PNOA-H_AMS_1956-57_33k_ES_PAN_21mic_H50_0317_fot_33B-38729_E_tif
  70
32
  10
521763.801
  20
4631305.026
  30
1093.011
  0
VERTEX
  8
PNOA-H_AMS_1956-57_33k_ES_PAN_21mic_H50_0317_fot_33B-38729_E_tif
  70
32
  10
522488.216
  20
4631307.135
  30
0
  0
VERTEX
  8
PNOA-H_AMS_1956-57_33k_ES_PAN_21mic_H50_0317_fot_33B-38729_E_tif
  70
32
  10
524487.893
  20
4631313.924
  30
0
  0
VERTEX
  8
PNOA-H_AMS_1956-57_33k_ES_PAN_21mic_H50_0317_fot_33B-38729_E_tif
  70
32
  10
524488.119
  20
4631313.925
  30
1106.586
  0
VERTEX
  8
PNOA-H_AMS_1956-57_33k_ES_PAN_21mic_H50_0317_fot_33B-38729_E_tif
  70
32
  10
524543.500
  20
4629970.500
  30
1109.465
  0
VERTEX
  8
PNOA-H_AMS_1956-57_33k_ES_PAN_21mic_H50_0317_fot_33B-38729_E_tif
  70
32
  10
524542.259
  20
4629970.348
  30
1109.497
  0
SEQEND
  8
PNOA-H_AMS_1956-57_33k_ES_PAN_21mic_H50_0317_fot_33B-38729_E_tif
  0
INSERT
  8
FeatureAttribs
  2
FEATURE
  41
1
  42
1
  43
1
  50
0
  10
525877.788
  20
4630554.390
 66
1
  0
ATTRIB
  8
FeatureAttribs
 70
0
  1
PNOA-H_AMS_1956-57_33k_ES_PAN_21mic_H50_0317_fot_33B-38730_E.tif
  2
NAME
  10
525877.788
  20
4630554.390
 40
33.43520
  0
SEQEND
  0
POLYLINE
  8
PNOA-H_AMS_1956-57_33k_ES_PAN_21mic_H50_0317_fot_33B-38730_E_tif
  70
9
  66
1
  0
VERTEX
  8
PNOA-H_AMS_1956-57_33k_ES_PAN_21mic_H50_0317_fot_33B-38730_E_tif
  70
32
  10
524967.000
  20
4629785.000
  30
1117.025
  0
VERTEX
  8
PNOA-H_AMS_1956-57_33k_ES_PAN_21mic_H50_0317_fot_33B-38730_E_tif
  70
32
  10
524966.000
  20
4629785.000
  30
1117.08
  0
VERTEX
  8
PNOA-H_AMS_1956-57_33k_ES_PAN_21mic_H50_0317_fot_33B-38730_E_tif
  70
32
  10
524545.000
  20
4629969.500
  30
1109.526
  0
VERTEX
  8
PNOA-H_AMS_1956-57_33k_ES_PAN_21mic_H50_0317_fot_33B-38730_E_tif
  70
32
  10
524544.357
  20
4629969.929
  30
1109.5
  0
VERTEX
  8
PNOA-H_AMS_1956-57_33k_ES_PAN_21mic_H50_0317_fot_33B-38730_E_tif
  70
32
  10
524543.500
  20
4629970.500
  30
1109.465
  0
VERTEX
  8
PNOA-H_AMS_1956-57_33k_ES_PAN_21mic_H50_0317_fot_33B-38730_E_tif
  70
32
  10
524543.000
  20
4629975.000
  30
1109.395
  0
VERTEX
  8
PNOA-H_AMS_1956-57_33k_ES_PAN_21mic_H50_0317_fot_33B-38730_E_tif
  70
32
  10
524542.000
  20
4629999.000
  30
1109.784
  0
VERTEX
  8
PNOA-H_AMS_1956-57_33k_ES_PAN_21mic_H50_0317_fot_33B-38730_E_tif
  70
32
  10
524487.893
  20
4631313.924
  30
1106.85
  0
VERTEX
  8
PNOA-H_AMS_1956-57_33k_ES_PAN_21mic_H50_0317_fot_33B-38730_E_tif
  70
32
  10
524488.119
  20
4631313.925
  30
1106.586
  0
VERTEX
  8
PNOA-H_AMS_1956-57_33k_ES_PAN_21mic_H50_0317_fot_33B-38730_E_tif
  70
32
  10
525947.945
  20
4631318.881
  30
0
  0
VERTEX
  8
PNOA-H_AMS_1956-57_33k_ES_PAN_21mic_H50_0317_fot_33B-38730_E_tif
  70
32
  10
527210.334
  20
4631323.780
  30
0
  0
VERTEX
  8
PNOA-H_AMS_1956-57_33k_ES_PAN_21mic_H50_0317_fot_33B-38730_E_tif
  70
32
  10
527210.472
  20
4631323.780
  30
1154.298
  0
VERTEX
  8
PNOA-H_AMS_1956-57_33k_ES_PAN_21mic_H50_0317_fot_33B-38730_E_tif
  70
32
  10
527255.000
  20
4630004.000
  30
1123.806
  0
VERTEX
  8
PNOA-H_AMS_1956-57_33k_ES_PAN_21mic_H50_0317_fot_33B-38730_E_tif
  70
32
  10
527253.234
  20
4630003.831
  30
1123.8
  0
VERTEX
  8
PNOA-H_AMS_1956-57_33k_ES_PAN_21mic_H50_0317_fot_33B-38730_E_tif
  70
32
  10
524970.000
  20
4629785.000
  30
1116.86
  0
VERTEX
  8
PNOA-H_AMS_1956-57_33k_ES_PAN_21mic_H50_0317_fot_33B-38730_E_tif
  70
32
  10
524967.000
  20
4629785.000
  30
1117.025
  0
SEQEND
  8
PNOA-H_AMS_1956-57_33k_ES_PAN_21mic_H50_0317_fot_33B-38730_E_tif
  0
INSERT
  8
FeatureAttribs
  2
FEATURE
  41
1
  42
1
  43
1
  50
0
  10
528592.028
  20
4630612.542
 66
1
  0
ATTRIB
  8
FeatureAttribs
 70
0
  1
PNOA-H_AMS_1956-57_33k_ES_PAN_21mic_H50_0317_fot_33B-38731_E.tif
  2
NAME
  10
528592.028
  20
4630612.542
 40
33.43520
  0
SEQEND
  0
POLYLINE
  8
PNOA-H_AMS_1956-57_33k_ES_PAN_21mic_H50_0317_fot_33B-38731_E_tif
  70
9
  66
1
  0
VERTEX
  8
PNOA-H_AMS_1956-57_33k_ES_PAN_21mic_H50_0317_fot_33B-38731_E_tif
  70
32
  10
527497.500
  20
4629890.500
  30
1114.342
  0
VERTEX
  8
PNOA-H_AMS_1956-57_33k_ES_PAN_21mic_H50_0317_fot_33B-38731_E_tif
  70
32
  10
527496.500
  20
4629890.500
  30
1114.35
  0
VERTEX
  8
PNOA-H_AMS_1956-57_33k_ES_PAN_21mic_H50_0317_fot_33B-38731_E_tif
  70
32
  10
527257.412
  20
4630002.867
  30
1123.711
  0
VERTEX
  8
PNOA-H_AMS_1956-57_33k_ES_PAN_21mic_H50_0317_fot_33B-38731_E_tif
  70
32
  10
527255.000
  20
4630004.000
  30
1123.806
  0
VERTEX
  8
PNOA-H_AMS_1956-57_33k_ES_PAN_21mic_H50_0317_fot_33B-38731_E_tif
  70
32
  10
527210.334
  20
4631323.780
  30
1154.362
  0
VERTEX
  8
PNOA-H_AMS_1956-57_33k_ES_PAN_21mic_H50_0317_fot_33B-38731_E_tif
  70
32
  10
527210.472
  20
4631323.780
  30
0
  0
VERTEX
  8
PNOA-H_AMS_1956-57_33k_ES_PAN_21mic_H50_0317_fot_33B-38731_E_tif
  70
32
  10
529407.676
  20
4631332.306
  30
0
  0
VERTEX
  8
PNOA-H_AMS_1956-57_33k_ES_PAN_21mic_H50_0317_fot_33B-38731_E_tif
  70
32
  10
529929.152
  20
4631334.582
  30
0
  0
VERTEX
  8
PNOA-H_AMS_1956-57_33k_ES_PAN_21mic_H50_0317_fot_33B-38731_E_tif
  70
32
  10
529929.488
  20
4631334.584
  30
1097.802
  0
VERTEX
  8
PNOA-H_AMS_1956-57_33k_ES_PAN_21mic_H50_0317_fot_33B-38731_E_tif
  70
32
  10
529965.500
  20
4630045.000
  30
1092.804
  0
VERTEX
  8
PNOA-H_AMS_1956-57_33k_ES_PAN_21mic_H50_0317_fot_33B-38731_E_tif
  70
32
  10
529965.260
  20
4630036.613
  30
1092.925
  0
VERTEX
  8
PNOA-H_AMS_1956-57_33k_ES_PAN_21mic_H50_0317_fot_33B-38731_E_tif
  70
32
  10
529965.014
  20
4630027.993
  30
1093.05
  0
VERTEX
  8
PNOA-H_AMS_1956-57_33k_ES_PAN_21mic_H50_0317_fot_33B-38731_E_tif
  70
32
  10
529965.000
  20
4630027.500
  30
1093.057
  0
VERTEX
  8
PNOA-H_AMS_1956-57_33k_ES_PAN_21mic_H50_0317_fot_33B-38731_E_tif
  70
32
  10
527506.500
  20
4629890.500
  30
1114.269
  0
VERTEX
  8
PNOA-H_AMS_1956-57_33k_ES_PAN_21mic_H50_0317_fot_33B-38731_E_tif
  70
32
  10
527497.500
  20
4629890.500
  30
1114.342
  0
SEQEND
  8
PNOA-H_AMS_1956-57_33k_ES_PAN_21mic_H50_0317_fot_33B-38731_E_tif
  0
INSERT
  8
FeatureAttribs
  2
FEATURE
  41
1
  42
1
  43
1
  50
0
  10
531331.320
  20
4630652.791
 66
1
  0
ATTRIB
  8
FeatureAttribs
 70
0
  1
PNOA-H_AMS_1956-57_33k_ES_PAN_21mic_H50_0317_fot_33B-38732_E.tif
  2
NAME
  10
531331.320
  20
4630652.791
 40
33.43520
  0
SEQEND
  0
POLYLINE
  8
PNOA-H_AMS_1956-57_33k_ES_PAN_21mic_H50_0317_fot_33B-38732_E_tif
  70
9
  66
1
  0
VERTEX
  8
PNOA-H_AMS_1956-57_33k_ES_PAN_21mic_H50_0317_fot_33B-38732_E_tif
  70
32
  10
532744.500
  20
4630081.000
  30
1063.327
  0
VERTEX
  8
PNOA-H_AMS_1956-57_33k_ES_PAN_21mic_H50_0317_fot_33B-38732_E_tif
  70
32
  10
530112.500
  20
4629959.000
  30
1091.474
  0
VERTEX
  8
PNOA-H_AMS_1956-57_33k_ES_PAN_21mic_H50_0317_fot_33B-38732_E_tif
  70
32
  10
530110.243
  20
4629959.150
  30
1091.489
  0
VERTEX
  8
PNOA-H_AMS_1956-57_33k_ES_PAN_21mic_H50_0317_fot_33B-38732_E_tif
  70
32
  10
530106.125
  20
4629959.425
  30
1091.517
  0
VERTEX
  8
PNOA-H_AMS_1956-57_33k_ES_PAN_21mic_H50_0317_fot_33B-38732_E_tif
  70
32
  10
530105.000
  20
4629959.500
  30
1091.525
  0
VERTEX
  8
PNOA-H_AMS_1956-57_33k_ES_PAN_21mic_H50_0317_fot_33B-38732_E_tif
  70
32
  10
530012.916
  20
4630004.717
  30
1092.511
  0
VERTEX
  8
PNOA-H_AMS_1956-57_33k_ES_PAN_21mic_H50_0317_fot_33B-38732_E_tif
  70
32
  10
529965.500
  20
4630028.000
  30
1093.018
  0
VERTEX
  8
PNOA-H_AMS_1956-57_33k_ES_PAN_21mic_H50_0317_fot_33B-38732_E_tif
  70
32
  10
529965.260
  20
4630036.613
  30
1093.051
  0
VERTEX
  8
PNOA-H_AMS_1956-57_33k_ES_PAN_21mic_H50_0317_fot_33B-38732_E_tif
  70
32
  10
529929.152
  20
4631334.582
  30
1098.007
  0
VERTEX
  8
PNOA-H_AMS_1956-57_33k_ES_PAN_21mic_H50_0317_fot_33B-38732_E_tif
  70
32
  10
529929.488
  20
4631334.584
  30
0
  0
VERTEX
  8
PNOA-H_AMS_1956-57_33k_ES_PAN_21mic_H50_0317_fot_33B-38732_E_tif
  70
32
  10
532678.146
  20
4631346.583
  30
1053.742
  0
VERTEX
  8
PNOA-H_AMS_1956-57_33k_ES_PAN_21mic_H50_0317_fot_33B-38732_E_tif
  70
32
  10
532744.500
  20
4630081.000
  30
1063.327
  0
SEQEND
  8
PNOA-H_AMS_1956-57_33k_ES_PAN_21mic_H50_0317_fot_33B-38732_E_tif
  0
INSERT
  8
FeatureAttribs
  2
FEATURE
  41
1
  42
1
  43
1
  50
0
  10
534083.421
  20
4630710.460
 66
1
  0
ATTRIB
  8
FeatureAttribs
 70
0
  1
PNOA-H_AMS_1956-57_33k_ES_PAN_21mic_H50_0317_fot_33B-38733_E.tif
  2
NAME
  10
534083.421
  20
4630710.460
 40
33.43520
  0
SEQEND
  0
POLYLINE
  8
PNOA-H_AMS_1956-57_33k_ES_PAN_21mic_H50_0317_fot_33B-38733_E_tif
  70
9
  66
1
  0
VERTEX
  8
PNOA-H_AMS_1956-57_33k_ES_PAN_21mic_H50_0317_fot_33B-38733_E_tif
  70
32
  10
535462.493
  20
4630157.500
  30
1065.277
  0
VERTEX
  8
PNOA-H_AMS_1956-57_33k_ES_PAN_21mic_H50_0317_fot_33B-38733_E_tif
  70
32
  10
532785.500
  20
4630061.000
  30
1063.824
  0
VERTEX
  8
PNOA-H_AMS_1956-57_33k_ES_PAN_21mic_H50_0317_fot_33B-38733_E_tif
  70
32
  10
532785.397
  20
4630061.050
  30
1063.823
  0
VERTEX
  8
PNOA-H_AMS_1956-57_33k_ES_PAN_21mic_H50_0317_fot_33B-38733_E_tif
  70
32
  10
532765.000
  20
4630071.000
  30
1063.576
  0
VERTEX
  8
PNOA-H_AMS_1956-57_33k_ES_PAN_21mic_H50_0317_fot_33B-38733_E_tif
  70
32
  10
532744.500
  20
4630081.000
  30
1063.327
  0
VERTEX
  8
PNOA-H_AMS_1956-57_33k_ES_PAN_21mic_H50_0317_fot_33B-38733_E_tif
  70
32
  10
532678.146
  20
4631346.583
  30
1053.742
  0
VERTEX
  8
PNOA-H_AMS_1956-57_33k_ES_PAN_21mic_H50_0317_fot_33B-38733_E_tif
  70
32
  10
532867.408
  20
4631347.409
  30
0
  0
VERTEX
  8
PNOA-H_AMS_1956-57_33k_ES_PAN_21mic_H50_0317_fot_33B-38733_E_tif
  70
32
  10
535446.794
  20
4631359.920
  30
0
  0
VERTEX
  8
PNOA-H_AMS_1956-57_33k_ES_PAN_21mic_H50_0317_fot_33B-38733_E_tif
  70
32
  10
535446.940
  20
4631359.921
  30
1054.378
  0
VERTEX
  8
PNOA-H_AMS_1956-57_33k_ES_PAN_21mic_H50_0317_fot_33B-38733_E_tif
  70
32
  10
535462.500
  20
4630157.500
  30
1065.277
  0
VERTEX
  8
PNOA-H_AMS_1956-57_33k_ES_PAN_21mic_H50_0317_fot_33B-38733_E_tif
  70
32
  10
535462.493
  20
4630157.500
  30
1065.277
  0
SEQEND
  8
PNOA-H_AMS_1956-57_33k_ES_PAN_21mic_H50_0317_fot_33B-38733_E_tif
  0
INSERT
  8
FeatureAttribs
  2
FEATURE
  41
1
  42
1
  43
1
  50
0
  10
536902.077
  20
4630747.749
 66
1
  0
ATTRIB
  8
FeatureAttribs
 70
0
  1
PNOA-H_AMS_1956-57_33k_ES_PAN_21mic_H50_0317_fot_33B-38734_E.tif
  2
NAME
  10
536902.077
  20
4630747.749
 40
33.43520
  0
SEQEND
  0
POLYLINE
  8
PNOA-H_AMS_1956-57_33k_ES_PAN_21mic_H50_0317_fot_33B-38734_E_tif
  70
9
  66
1
  0
VERTEX
  8
PNOA-H_AMS_1956-57_33k_ES_PAN_21mic_H50_0317_fot_33B-38734_E_tif
  70
32
  10
535531.494
  20
4630120.503
  30
1062.169
  0
VERTEX
  8
PNOA-H_AMS_1956-57_33k_ES_PAN_21mic_H50_0317_fot_33B-38734_E_tif
  70
32
  10
535531.000
  20
4630120.500
  30
1062.167
  0
VERTEX
  8
PNOA-H_AMS_1956-57_33k_ES_PAN_21mic_H50_0317_fot_33B-38734_E_tif
  70
32
  10
535462.500
  20
4630157.000
  30
1065.248
  0
VERTEX
  8
PNOA-H_AMS_1956-57_33k_ES_PAN_21mic_H50_0317_fot_33B-38734_E_tif
  70
32
  10
535462.493
  20
4630157.500
  30
1065.243
  0
VERTEX
  8
PNOA-H_AMS_1956-57_33k_ES_PAN_21mic_H50_0317_fot_33B-38734_E_tif
  70
32
  10
535446.794
  20
4631359.920
  30
1054.358
  0
VERTEX
  8
PNOA-H_AMS_1956-57_33k_ES_PAN_21mic_H50_0317_fot_33B-38734_E_tif
  70
32
  10
535446.940
  20
4631359.921
  30
0
  0
VERTEX
  8
PNOA-H_AMS_1956-57_33k_ES_PAN_21mic_H50_0317_fot_33B-38734_E_tif
  70
32
  10
536327.142
  20
4631364.190
  30
0
  0
VERTEX
  8
PNOA-H_AMS_1956-57_33k_ES_PAN_21mic_H50_0317_fot_33B-38734_E_tif
  70
32
  10
538352.635
  20
4631374.997
  30
1063.901
  0
VERTEX
  8
PNOA-H_AMS_1956-57_33k_ES_PAN_21mic_H50_0317_fot_33B-38734_E_tif
  70
32
  10
538346.500
  20
4630197.500
  30
1067.704
  0
VERTEX
  8
PNOA-H_AMS_1956-57_33k_ES_PAN_21mic_H50_0317_fot_33B-38734_E_tif
  70
32
  10
538346.450
  20
4630197.473
  30
1067.704
  0
VERTEX
  8
PNOA-H_AMS_1956-57_33k_ES_PAN_21mic_H50_0317_fot_33B-38734_E_tif
  70
32
  10
538237.000
  20
4630139.000
  30
1069.066
  0
VERTEX
  8
PNOA-H_AMS_1956-57_33k_ES_PAN_21mic_H50_0317_fot_33B-38734_E_tif
  70
32
  10
538236.000
  20
4630138.993
  30
1069.063
  0
VERTEX
  8
PNOA-H_AMS_1956-57_33k_ES_PAN_21mic_H50_0317_fot_33B-38734_E_tif
  70
32
  10
535561.787
  20
4630120.710
  30
1062.246
  0
VERTEX
  8
PNOA-H_AMS_1956-57_33k_ES_PAN_21mic_H50_0317_fot_33B-38734_E_tif
  70
32
  10
535531.494
  20
4630120.503
  30
1062.169
  0
SEQEND
  8
PNOA-H_AMS_1956-57_33k_ES_PAN_21mic_H50_0317_fot_33B-38734_E_tif
  0
INSERT
  8
FeatureAttribs
  2
FEATURE
  41
1
  42
1
  43
1
  50
0
  10
539069.893
  20
4630746.966
 66
1
  0
ATTRIB
  8
FeatureAttribs
 70
0
  1
PNOA-H_AMS_1956-57_33k_ES_PAN_21mic_H50_0318_fot_33B-38735_E.tif
  2
NAME
  10
539069.893
  20
4630746.966
 40
33.43520
  0
SEQEND
  0
POLYLINE
  8
PNOA-H_AMS_1956-57_33k_ES_PAN_21mic_H50_0318_fot_33B-38735_E_tif
  70
9
  66
1
  0
VERTEX
  8
PNOA-H_AMS_1956-57_33k_ES_PAN_21mic_H50_0318_fot_33B-38735_E_tif
  70
32
  10
538346.500
  20
4630197.500
  30
1067.704
  0
VERTEX
  8
PNOA-H_AMS_1956-57_33k_ES_PAN_21mic_H50_0318_fot_33B-38735_E_tif
  70
32
  10
538352.635
  20
4631374.997
  30
1063.906
  0
VERTEX
  8
PNOA-H_AMS_1956-57_33k_ES_PAN_21mic_H50_0318_fot_33B-38735_E_tif
  70
32
  10
539786.879
  20
4631382.649
  30
0
  0
VERTEX
  8
PNOA-H_AMS_1956-57_33k_ES_PAN_21mic_H50_0318_fot_33B-38735_E_tif
  70
32
  10
539793.969
  20
4630111.284
  30
1040.266
  0
VERTEX
  8
PNOA-H_AMS_1956-57_33k_ES_PAN_21mic_H50_0318_fot_33B-38735_E_tif
  70
32
  10
538346.500
  20
4630197.500
  30
1067.704
  0
SEQEND
  8
PNOA-H_AMS_1956-57_33k_ES_PAN_21mic_H50_0318_fot_33B-38735_E_tif
  0
INSERT
  8
FeatureAttribs
  2
FEATURE
  41
1
  42
1
  43
1
  50
0
  10
512642.836
  20
4614494.228
 66
1
  0
ATTRIB
  8
FeatureAttribs
 70
0
  1
PNOA-H_AMS_1956-57_33k_ES_PAN_21mic_H50_0348_fot_38988.tif
  2
NAME
  10
512642.836
  20
4614494.228
 40
33.43520
  0
SEQEND
  0
POLYLINE
  8
PNOA-H_AMS_1956-57_33k_ES_PAN_21mic_H50_0348_fot_38988_tif
  70
9
  66
1
  0
VERTEX
  8
PNOA-H_AMS_1956-57_33k_ES_PAN_21mic_H50_0348_fot_38988_tif
  70
32
  10
512298.500
  20
4616210.500
  30
1067.505
  0
VERTEX
  8
PNOA-H_AMS_1956-57_33k_ES_PAN_21mic_H50_0348_fot_38988_tif
  70
32
  10
512300.000
  20
4616210.500
  30
1067.505
  0
VERTEX
  8
PNOA-H_AMS_1956-57_33k_ES_PAN_21mic_H50_0348_fot_38988_tif
  70
32
  10
512301.000
  20
4616210.500
  30
1067.505
  0
VERTEX
  8
PNOA-H_AMS_1956-57_33k_ES_PAN_21mic_H50_0348_fot_38988_tif
  70
32
  10
512307.000
  20
4616207.500
  30
1067.554
  0
VERTEX
  8
PNOA-H_AMS_1956-57_33k_ES_PAN_21mic_H50_0348_fot_38988_tif
  70
32
  10
513134.500
  20
4615774.000
  30
1063.584
  0
VERTEX
  8
PNOA-H_AMS_1956-57_33k_ES_PAN_21mic_H50_0348_fot_38988_tif
  70
32
  10
513134.503
  20
4615773.760
  30
1063.583
  0
VERTEX
  8
PNOA-H_AMS_1956-57_33k_ES_PAN_21mic_H50_0348_fot_38988_tif
  70
32
  10
513134.505
  20
4615773.501
  30
1063.582
  0
VERTEX
  8
PNOA-H_AMS_1956-57_33k_ES_PAN_21mic_H50_0348_fot_38988_tif
  70
32
  10
513166.501
  20
4612779.940
  30
1054.177
  0
VERTEX
  8
PNOA-H_AMS_1956-57_33k_ES_PAN_21mic_H50_0348_fot_38988_tif
  70
32
  10
513166.202
  20
4612779.939
  30
0
  0
VERTEX
  8
PNOA-H_AMS_1956-57_33k_ES_PAN_21mic_H50_0348_fot_38988_tif
  70
32
  10
512140.397
  20
4612777.956
  30
0
  0
VERTEX
  8
PNOA-H_AMS_1956-57_33k_ES_PAN_21mic_H50_0348_fot_38988_tif
  70
32
  10
512136.483
  20
4615090.927
  30
0
  0
VERTEX
  8
PNOA-H_AMS_1956-57_33k_ES_PAN_21mic_H50_0348_fot_38988_tif
  70
32
  10
512134.657
  20
4616169.143
  30
0
  0
VERTEX
  8
PNOA-H_AMS_1956-57_33k_ES_PAN_21mic_H50_0348_fot_38988_tif
  70
32
  10
512134.657
  20
4616169.528
  30
1061.069
  0
VERTEX
  8
PNOA-H_AMS_1956-57_33k_ES_PAN_21mic_H50_0348_fot_38988_tif
  70
32
  10
512298.500
  20
4616210.500
  30
1067.505
  0
SEQEND
  8
PNOA-H_AMS_1956-57_33k_ES_PAN_21mic_H50_0348_fot_38988_tif
  0
INSERT
  8
FeatureAttribs
  2
FEATURE
  41
1
  42
1
  43
1
  50
0
  10
514537.192
  20
4614533.970
 66
1
  0
ATTRIB
  8
FeatureAttribs
 70
0
  1
PNOA-H_AMS_1956-57_33k_ES_PAN_21mic_H50_0349_fot_38989.tif
  2
NAME
  10
514537.192
  20
4614533.970
 40
33.43520
  0
SEQEND
  0
POLYLINE
  8
PNOA-H_AMS_1956-57_33k_ES_PAN_21mic_H50_0349_fot_38989_tif
  70
9
  66
1
  0
VERTEX
  8
PNOA-H_AMS_1956-57_33k_ES_PAN_21mic_H50_0349_fot_38989_tif
  70
32
  10
515170.000
  20
4616288.000
  30
1036.851
  0
VERTEX
  8
PNOA-H_AMS_1956-57_33k_ES_PAN_21mic_H50_0349_fot_38989_tif
  70
32
  10
515171.500
  20
4616288.000
  30
1036.458
  0
VERTEX
  8
PNOA-H_AMS_1956-57_33k_ES_PAN_21mic_H50_0349_fot_38989_tif
  70
32
  10
515172.000
  20
4616288.000
  30
1036.327
  0
VERTEX
  8
PNOA-H_AMS_1956-57_33k_ES_PAN_21mic_H50_0349_fot_38989_tif
  70
32
  10
515191.000
  20
4616278.500
  30
1028.005
  0
VERTEX
  8
PNOA-H_AMS_1956-57_33k_ES_PAN_21mic_H50_0349_fot_38989_tif
  70
32
  10
515538.491
  20
4616100.626
  30
1057.61
  0
VERTEX
  8
PNOA-H_AMS_1956-57_33k_ES_PAN_21mic_H50_0349_fot_38989_tif
  70
32
  10
515927.500
  20
4615901.500
  30
1090.752
  0
VERTEX
  8
PNOA-H_AMS_1956-57_33k_ES_PAN_21mic_H50_0349_fot_38989_tif
  70
32
  10
515925.806
  20
4612785.429
  30
1067.314
  0
VERTEX
  8
PNOA-H_AMS_1956-57_33k_ES_PAN_21mic_H50_0349_fot_38989_tif
  70
32
  10
515609.084
  20
4612784.664
  30
0
  0
VERTEX
  8
PNOA-H_AMS_1956-57_33k_ES_PAN_21mic_H50_0349_fot_38989_tif
  70
32
  10
513166.501
  20
4612779.940
  30
0
  0
VERTEX
  8
PNOA-H_AMS_1956-57_33k_ES_PAN_21mic_H50_0349_fot_38989_tif
  70
32
  10
513166.202
  20
4612779.939
  30
1054.448
  0
VERTEX
  8
PNOA-H_AMS_1956-57_33k_ES_PAN_21mic_H50_0349_fot_38989_tif
  70
32
  10
513134.500
  20
4615773.500
  30
1063.569
  0
VERTEX
  8
PNOA-H_AMS_1956-57_33k_ES_PAN_21mic_H50_0349_fot_38989_tif
  70
32
  10
513134.505
  20
4615773.501
  30
1063.569
  0
VERTEX
  8
PNOA-H_AMS_1956-57_33k_ES_PAN_21mic_H50_0349_fot_38989_tif
  70
32
  10
513134.837
  20
4615773.585
  30
1063.565
  0
VERTEX
  8
PNOA-H_AMS_1956-57_33k_ES_PAN_21mic_H50_0349_fot_38989_tif
  70
32
  10
515168.000
  20
4616287.500
  30
1036.855
  0
VERTEX
  8
PNOA-H_AMS_1956-57_33k_ES_PAN_21mic_H50_0349_fot_38989_tif
  70
32
  10
515170.000
  20
4616288.000
  30
1036.851
  0
SEQEND
  8
PNOA-H_AMS_1956-57_33k_ES_PAN_21mic_H50_0349_fot_38989_tif
  0
INSERT
  8
FeatureAttribs
  2
FEATURE
  41
1
  42
1
  43
1
  50
0
  10
520147.115
  20
4614558.342
 66
1
  0
ATTRIB
  8
FeatureAttribs
 70
0
  1
PNOA-H_AMS_1956-57_33k_ES_PAN_21mic_H50_0349_fot_38991.tif
  2
NAME
  10
520147.115
  20
4614558.342
 40
33.43520
  0
SEQEND
  0
POLYLINE
  8
PNOA-H_AMS_1956-57_33k_ES_PAN_21mic_H50_0349_fot_38991_tif
  70
9
  66
1
  0
VERTEX
  8
PNOA-H_AMS_1956-57_33k_ES_PAN_21mic_H50_0349_fot_38991_tif
  70
32
  10
519077.771
  20
4612793.048
  30
0
  0
VERTEX
  8
PNOA-H_AMS_1956-57_33k_ES_PAN_21mic_H50_0349_fot_38991_tif
  70
32
  10
518720.364
  20
4612792.184
  30
1072.627
  0
VERTEX
  8
PNOA-H_AMS_1956-57_33k_ES_PAN_21mic_H50_0349_fot_38991_tif
  70
32
  10
518740.500
  20
4615995.500
  30
1158.97
  0
VERTEX
  8
PNOA-H_AMS_1956-57_33k_ES_PAN_21mic_H50_0349_fot_38991_tif
  70
32
  10
518741.271
  20
4615995.623
  30
1158.971
  0
VERTEX
  8
PNOA-H_AMS_1956-57_33k_ES_PAN_21mic_H50_0349_fot_38991_tif
  70
32
  10
520806.500
  20
4616324.000
  30
1161.274
  0
VERTEX
  8
PNOA-H_AMS_1956-57_33k_ES_PAN_21mic_H50_0349_fot_38991_tif
  70
32
  10
520809.500
  20
4616324.500
  30
1161.208
  0
VERTEX
  8
PNOA-H_AMS_1956-57_33k_ES_PAN_21mic_H50_0349_fot_38991_tif
  70
32
  10
520812.000
  20
4616324.500
  30
1161.252
  0
VERTEX
  8
PNOA-H_AMS_1956-57_33k_ES_PAN_21mic_H50_0349_fot_38991_tif
  70
32
  10
520812.500
  20
4616324.500
  30
1161.261
  0
VERTEX
  8
PNOA-H_AMS_1956-57_33k_ES_PAN_21mic_H50_0349_fot_38991_tif
  70
32
  10
520822.000
  20
4616320.500
  30
1162.752
  0
VERTEX
  8
PNOA-H_AMS_1956-57_33k_ES_PAN_21mic_H50_0349_fot_38991_tif
  70
32
  10
521293.600
  20
4616111.700
  30
1186.727
  0
VERTEX
  8
PNOA-H_AMS_1956-57_33k_ES_PAN_21mic_H50_0349_fot_38991_tif
  70
32
  10
521542.500
  20
4616001.500
  30
1199.38
  0
VERTEX
  8
PNOA-H_AMS_1956-57_33k_ES_PAN_21mic_H50_0349_fot_38991_tif
  70
32
  10
521587.450
  20
4612800.328
  30
1088.904
  0
VERTEX
  8
PNOA-H_AMS_1956-57_33k_ES_PAN_21mic_H50_0349_fot_38991_tif
  70
32
  10
519077.771
  20
4612793.048
  30
0
  0
SEQEND
  8
PNOA-H_AMS_1956-57_33k_ES_PAN_21mic_H50_0349_fot_38991_tif
  0
INSERT
  8
FeatureAttribs
  2
FEATURE
  41
1
  42
1
  43
1
  50
0
  10
517329.154
  20
4614568.965
 66
1
  0
ATTRIB
  8
FeatureAttribs
 70
0
  1
PNOA-H_AMS_1956-57_33k_ES_PAN_21mic_H50_0349_fot_38990.tif
  2
NAME
  10
517329.154
  20
4614568.965
 40
33.43520
  0
SEQEND
  0
POLYLINE
  8
PNOA-H_AMS_1956-57_33k_ES_PAN_21mic_H50_0349_fot_38990_tif
  70
9
  66
1
  0
VERTEX
  8
PNOA-H_AMS_1956-57_33k_ES_PAN_21mic_H50_0349_fot_38990_tif
  70
32
  10
518720.364
  20
4612792.184
  30
1072.627
  0
VERTEX
  8
PNOA-H_AMS_1956-57_33k_ES_PAN_21mic_H50_0349_fot_38990_tif
  70
32
  10
515925.806
  20
4612785.429
  30
1067.314
  0
VERTEX
  8
PNOA-H_AMS_1956-57_33k_ES_PAN_21mic_H50_0349_fot_38990_tif
  70
32
  10
515927.500
  20
4615901.500
  30
1090.752
  0
VERTEX
  8
PNOA-H_AMS_1956-57_33k_ES_PAN_21mic_H50_0349_fot_38990_tif
  70
32
  10
515928.212
  20
4615901.647
  30
1090.742
  0
VERTEX
  8
PNOA-H_AMS_1956-57_33k_ES_PAN_21mic_H50_0349_fot_38990_tif
  70
32
  10
516551.500
  20
4616030.500
  30
1081.98
  0
VERTEX
  8
PNOA-H_AMS_1956-57_33k_ES_PAN_21mic_H50_0349_fot_38990_tif
  70
32
  10
516554.000
  20
4616031.000
  30
1081.86
  0
VERTEX
  8
PNOA-H_AMS_1956-57_33k_ES_PAN_21mic_H50_0349_fot_38990_tif
  70
32
  10
517602.153
  20
4616246.875
  30
1086.15
  0
VERTEX
  8
PNOA-H_AMS_1956-57_33k_ES_PAN_21mic_H50_0349_fot_38990_tif
  70
32
  10
518114.265
  20
4616352.349
  30
1088.245
  0
VERTEX
  8
PNOA-H_AMS_1956-57_33k_ES_PAN_21mic_H50_0349_fot_38990_tif
  70
32
  10
518115.000
  20
4616352.500
  30
1088.248
  0
VERTEX
  8
PNOA-H_AMS_1956-57_33k_ES_PAN_21mic_H50_0349_fot_38990_tif
  70
32
  10
518725.207
  20
4616004.229
  30
1157.241
  0
VERTEX
  8
PNOA-H_AMS_1956-57_33k_ES_PAN_21mic_H50_0349_fot_38990_tif
  70
32
  10
518740.500
  20
4615995.500
  30
1158.97
  0
VERTEX
  8
PNOA-H_AMS_1956-57_33k_ES_PAN_21mic_H50_0349_fot_38990_tif
  70
32
  10
518720.364
  20
4612792.184
  30
1072.627
  0
SEQEND
  8
PNOA-H_AMS_1956-57_33k_ES_PAN_21mic_H50_0349_fot_38990_tif
  0
INSERT
  8
FeatureAttribs
  2
FEATURE
  41
1
  42
1
  43
1
  50
0
  10
522045.357
  20
4618402.000
 66
1
  0
ATTRIB
  8
FeatureAttribs
 70
0
  1
PNOA-H_AMS_1956-57_33k_ES_PAN_21mic_H50_0349_fot_37211.tif
  2
NAME
  10
522045.357
  20
4618402.000
 40
33.43520
  0
SEQEND
  0
POLYLINE
  8
PNOA-H_AMS_1956-57_33k_ES_PAN_21mic_H50_0349_fot_37211_tif
  70
9
  66
1
  0
VERTEX
  8
PNOA-H_AMS_1956-57_33k_ES_PAN_21mic_H50_0349_fot_37211_tif
  70
32
  10
523422.184
  20
4616471.921
  30
1165.736
  0
VERTEX
  8
PNOA-H_AMS_1956-57_33k_ES_PAN_21mic_H50_0349_fot_37211_tif
  70
32
  10
521543.000
  20
4616001.500
  30
1199.388
  0
VERTEX
  8
PNOA-H_AMS_1956-57_33k_ES_PAN_21mic_H50_0349_fot_37211_tif
  70
32
  10
521542.819
  20
4616001.580
  30
1199.379
  0
VERTEX
  8
PNOA-H_AMS_1956-57_33k_ES_PAN_21mic_H50_0349_fot_37211_tif
  70
32
  10
521293.600
  20
4616111.700
  30
1186.377
  0
VERTEX
  8
PNOA-H_AMS_1956-57_33k_ES_PAN_21mic_H50_0349_fot_37211_tif
  70
32
  10
520812.000
  20
4616324.500
  30
1161.252
  0
VERTEX
  8
PNOA-H_AMS_1956-57_33k_ES_PAN_21mic_H50_0349_fot_37211_tif
  70
32
  10
520669.000
  20
4620726.000
  30
1101.743
  0
VERTEX
  8
PNOA-H_AMS_1956-57_33k_ES_PAN_21mic_H50_0349_fot_37211_tif
  70
32
  10
520745.717
  20
4620728.357
  30
1102.378
  0
VERTEX
  8
PNOA-H_AMS_1956-57_33k_ES_PAN_21mic_H50_0349_fot_37211_tif
  70
32
  10
523142.500
  20
4620802.000
  30
1122.203
  0
VERTEX
  8
PNOA-H_AMS_1956-57_33k_ES_PAN_21mic_H50_0349_fot_37211_tif
  70
32
  10
523159.000
  20
4620802.500
  30
1127.996
  0
VERTEX
  8
PNOA-H_AMS_1956-57_33k_ES_PAN_21mic_H50_0349_fot_37211_tif
  70
32
  10
523174.500
  20
4620802.500
  30
1131.845
  0
VERTEX
  8
PNOA-H_AMS_1956-57_33k_ES_PAN_21mic_H50_0349_fot_37211_tif
  70
32
  10
523175.500
  20
4620802.500
  30
1132.093
  0
VERTEX
  8
PNOA-H_AMS_1956-57_33k_ES_PAN_21mic_H50_0349_fot_37211_tif
  70
32
  10
523252.500
  20
4620764.000
  30
1139.251
  0
VERTEX
  8
PNOA-H_AMS_1956-57_33k_ES_PAN_21mic_H50_0349_fot_37211_tif
  70
32
  10
523253.000
  20
4620760.000
  30
1138.65
  0
VERTEX
  8
PNOA-H_AMS_1956-57_33k_ES_PAN_21mic_H50_0349_fot_37211_tif
  70
32
  10
523422.500
  20
4616472.000
  30
1165.73
  0
VERTEX
  8
PNOA-H_AMS_1956-57_33k_ES_PAN_21mic_H50_0349_fot_37211_tif
  70
32
  10
523422.480
  20
4616471.995
  30
1165.731
  0
VERTEX
  8
PNOA-H_AMS_1956-57_33k_ES_PAN_21mic_H50_0349_fot_37211_tif
  70
32
  10
523422.184
  20
4616471.921
  30
1165.736
  0
SEQEND
  8
PNOA-H_AMS_1956-57_33k_ES_PAN_21mic_H50_0349_fot_37211_tif
  0
INSERT
  8
FeatureAttribs
  2
FEATURE
  41
1
  42
1
  43
1
  50
0
  10
524716.157
  20
4618512.750
 66
1
  0
ATTRIB
  8
FeatureAttribs
 70
0
  1
PNOA-H_AMS_1956-57_33k_ES_PAN_21mic_H50_0349_fot_37212.tif
  2
NAME
  10
524716.157
  20
4618512.750
 40
33.43520
  0
SEQEND
  0
POLYLINE
  8
PNOA-H_AMS_1956-57_33k_ES_PAN_21mic_H50_0349_fot_37212_tif
  70
9
  66
1
  0
VERTEX
  8
PNOA-H_AMS_1956-57_33k_ES_PAN_21mic_H50_0349_fot_37212_tif
  70
32
  10
525900.888
  20
4616476.742
  30
1150.871
  0
VERTEX
  8
PNOA-H_AMS_1956-57_33k_ES_PAN_21mic_H50_0349_fot_37212_tif
  70
32
  10
524199.000
  20
4616137.500
  30
1173.578
  0
VERTEX
  8
PNOA-H_AMS_1956-57_33k_ES_PAN_21mic_H50_0349_fot_37212_tif
  70
32
  10
524198.683
  20
4616137.636
  30
1173.575
  0
VERTEX
  8
PNOA-H_AMS_1956-57_33k_ES_PAN_21mic_H50_0349_fot_37212_tif
  70
32
  10
524198.002
  20
4616137.929
  30
1173.568
  0
VERTEX
  8
PNOA-H_AMS_1956-57_33k_ES_PAN_21mic_H50_0349_fot_37212_tif
  70
32
  10
523422.500
  20
4616471.500
  30
1165.734
  0
VERTEX
  8
PNOA-H_AMS_1956-57_33k_ES_PAN_21mic_H50_0349_fot_37212_tif
  70
32
  10
523422.489
  20
4616471.790
  30
1165.732
  0
VERTEX
  8
PNOA-H_AMS_1956-57_33k_ES_PAN_21mic_H50_0349_fot_37212_tif
  70
32
  10
523422.480
  20
4616471.995
  30
1165.731
  0
VERTEX
  8
PNOA-H_AMS_1956-57_33k_ES_PAN_21mic_H50_0349_fot_37212_tif
  70
32
  10
523252.500
  20
4620764.000
  30
1139.251
  0
VERTEX
  8
PNOA-H_AMS_1956-57_33k_ES_PAN_21mic_H50_0349_fot_37212_tif
  70
32
  10
525801.000
  20
4620887.500
  30
1149.488
  0
VERTEX
  8
PNOA-H_AMS_1956-57_33k_ES_PAN_21mic_H50_0349_fot_37212_tif
  70
32
  10
525811.500
  20
4620888.000
  30
1149.884
  0
VERTEX
  8
PNOA-H_AMS_1956-57_33k_ES_PAN_21mic_H50_0349_fot_37212_tif
  70
32
  10
525818.500
  20
4620888.000
  30
1150.04
  0
VERTEX
  8
PNOA-H_AMS_1956-57_33k_ES_PAN_21mic_H50_0349_fot_37212_tif
  70
32
  10
525819.000
  20
4620888.000
  30
1150.051
  0
VERTEX
  8
PNOA-H_AMS_1956-57_33k_ES_PAN_21mic_H50_0349_fot_37212_tif
  70
32
  10
525827.500
  20
4620884.000
  30
1150.115
  0
VERTEX
  8
PNOA-H_AMS_1956-57_33k_ES_PAN_21mic_H50_0349_fot_37212_tif
  70
32
  10
526025.000
  20
4620787.500
  30
1150.17
  0
VERTEX
  8
PNOA-H_AMS_1956-57_33k_ES_PAN_21mic_H50_0349_fot_37212_tif
  70
32
  10
526148.000
  20
4616526.000
  30
1147.574
  0
VERTEX
  8
PNOA-H_AMS_1956-57_33k_ES_PAN_21mic_H50_0349_fot_37212_tif
  70
32
  10
525900.888
  20
4616476.742
  30
1150.871
  0
SEQEND
  8
PNOA-H_AMS_1956-57_33k_ES_PAN_21mic_H50_0349_fot_37212_tif
  0
INSERT
  8
FeatureAttribs
  2
FEATURE
  41
1
  42
1
  43
1
  50
0
  10
527493.667
  20
4618588.000
 66
1
  0
ATTRIB
  8
FeatureAttribs
 70
0
  1
PNOA-H_AMS_1956-57_33k_ES_PAN_21mic_H50_0349_fot_37213.tif
  2
NAME
  10
527493.667
  20
4618588.000
 40
33.43520
  0
SEQEND
  0
POLYLINE
  8
PNOA-H_AMS_1956-57_33k_ES_PAN_21mic_H50_0349_fot_37213_tif
  70
9
  66
1
  0
VERTEX
  8
PNOA-H_AMS_1956-57_33k_ES_PAN_21mic_H50_0349_fot_37213_tif
  70
32
  10
526764.000
  20
4616241.500
  30
1146.567
  0
VERTEX
  8
PNOA-H_AMS_1956-57_33k_ES_PAN_21mic_H50_0349_fot_37213_tif
  70
32
  10
526763.000
  20
4616241.500
  30
1146.541
  0
VERTEX
  8
PNOA-H_AMS_1956-57_33k_ES_PAN_21mic_H50_0349_fot_37213_tif
  70
32
  10
526758.500
  20
4616243.500
  30
1146.633
  0
VERTEX
  8
PNOA-H_AMS_1956-57_33k_ES_PAN_21mic_H50_0349_fot_37213_tif
  70
32
  10
526148.150
  20
4616525.930
  30
1147.573
  0
VERTEX
  8
PNOA-H_AMS_1956-57_33k_ES_PAN_21mic_H50_0349_fot_37213_tif
  70
32
  10
526148.000
  20
4616526.000
  30
1147.574
  0
VERTEX
  8
PNOA-H_AMS_1956-57_33k_ES_PAN_21mic_H50_0349_fot_37213_tif
  70
32
  10
526025.000
  20
4620787.500
  30
1150.17
  0
VERTEX
  8
PNOA-H_AMS_1956-57_33k_ES_PAN_21mic_H50_0349_fot_37213_tif
  70
32
  10
526780.500
  20
4620833.000
  30
1151.531
  0
VERTEX
  8
PNOA-H_AMS_1956-57_33k_ES_PAN_21mic_H50_0349_fot_37213_tif
  70
32
  10
526789.000
  20
4620833.500
  30
1151.714
  0
VERTEX
  8
PNOA-H_AMS_1956-57_33k_ES_PAN_21mic_H50_0349_fot_37213_tif
  70
32
  10
528372.282
  20
4620928.290
  30
1152.442
  0
VERTEX
  8
PNOA-H_AMS_1956-57_33k_ES_PAN_21mic_H50_0349_fot_37213_tif
  70
32
  10
528475.553
  20
4620934.473
  30
1152.489
  0
VERTEX
  8
PNOA-H_AMS_1956-57_33k_ES_PAN_21mic_H50_0349_fot_37213_tif
  70
32
  10
528476.000
  20
4620934.500
  30
1152.49
  0
VERTEX
  8
PNOA-H_AMS_1956-57_33k_ES_PAN_21mic_H50_0349_fot_37213_tif
  70
32
  10
528821.000
  20
4620760.000
  30
1151.647
  0
VERTEX
  8
PNOA-H_AMS_1956-57_33k_ES_PAN_21mic_H50_0349_fot_37213_tif
  70
32
  10
528970.500
  20
4616589.000
  30
1116.864
  0
VERTEX
  8
PNOA-H_AMS_1956-57_33k_ES_PAN_21mic_H50_0349_fot_37213_tif
  70
32
  10
528968.958
  20
4616588.757
  30
1116.885
  0
VERTEX
  8
PNOA-H_AMS_1956-57_33k_ES_PAN_21mic_H50_0349_fot_37213_tif
  70
32
  10
526766.500
  20
4616241.500
  30
1146.632
  0
VERTEX
  8
PNOA-H_AMS_1956-57_33k_ES_PAN_21mic_H50_0349_fot_37213_tif
  70
32
  10
526764.000
  20
4616241.500
  30
1146.567
  0
SEQEND
  8
PNOA-H_AMS_1956-57_33k_ES_PAN_21mic_H50_0349_fot_37213_tif
  0
INSERT
  8
FeatureAttribs
  2
FEATURE
  41
1
  42
1
  43
1
  50
0
  10
522902.574
  20
4614636.165
 66
1
  0
ATTRIB
  8
FeatureAttribs
 70
0
  1
PNOA-H_AMS_1956-57_33k_ES_PAN_21mic_H50_0349_fot_38992.tif
  2
NAME
  10
522902.574
  20
4614636.165
 40
33.43520
  0
SEQEND
  0
POLYLINE
  8
PNOA-H_AMS_1956-57_33k_ES_PAN_21mic_H50_0349_fot_38992_tif
  70
9
  66
1
  0
VERTEX
  8
PNOA-H_AMS_1956-57_33k_ES_PAN_21mic_H50_0349_fot_38992_tif
  70
32
  10
522546.459
  20
4612803.110
  30
0
  0
VERTEX
  8
PNOA-H_AMS_1956-57_33k_ES_PAN_21mic_H50_0349_fot_38992_tif
  70
32
  10
521587.874
  20
4612800.330
  30
1088.924
  0
VERTEX
  8
PNOA-H_AMS_1956-57_33k_ES_PAN_21mic_H50_0349_fot_38992_tif
  70
32
  10
521542.500
  20
4616001.500
  30
1199.38
  0
VERTEX
  8
PNOA-H_AMS_1956-57_33k_ES_PAN_21mic_H50_0349_fot_38992_tif
  70
32
  10
521542.819
  20
4616001.580
  30
1199.374
  0
VERTEX
  8
PNOA-H_AMS_1956-57_33k_ES_PAN_21mic_H50_0349_fot_38992_tif
  70
32
  10
523420.000
  20
4616471.500
  30
1165.796
  0
VERTEX
  8
PNOA-H_AMS_1956-57_33k_ES_PAN_21mic_H50_0349_fot_38992_tif
  70
32
  10
523422.000
  20
4616472.000
  30
1165.743
  0
VERTEX
  8
PNOA-H_AMS_1956-57_33k_ES_PAN_21mic_H50_0349_fot_38992_tif
  70
32
  10
523422.184
  20
4616471.921
  30
1165.745
  0
VERTEX
  8
PNOA-H_AMS_1956-57_33k_ES_PAN_21mic_H50_0349_fot_38992_tif
  70
32
  10
523422.489
  20
4616471.790
  30
1165.748
  0
VERTEX
  8
PNOA-H_AMS_1956-57_33k_ES_PAN_21mic_H50_0349_fot_38992_tif
  70
32
  10
524198.000
  20
4616138.000
  30
1173.631
  0
VERTEX
  8
PNOA-H_AMS_1956-57_33k_ES_PAN_21mic_H50_0349_fot_38992_tif
  70
32
  10
524198.002
  20
4616137.929
  30
1173.63
  0
VERTEX
  8
PNOA-H_AMS_1956-57_33k_ES_PAN_21mic_H50_0349_fot_38992_tif
  70
32
  10
524198.015
  20
4616137.503
  30
1173.62
  0
VERTEX
  8
PNOA-H_AMS_1956-57_33k_ES_PAN_21mic_H50_0349_fot_38992_tif
  70
32
  10
524298.401
  20
4612809.039
  30
1101.21
  0
VERTEX
  8
PNOA-H_AMS_1956-57_33k_ES_PAN_21mic_H50_0349_fot_38992_tif
  70
32
  10
524298.219
  20
4612809.038
  30
0
  0
VERTEX
  8
PNOA-H_AMS_1956-57_33k_ES_PAN_21mic_H50_0349_fot_38992_tif
  70
32
  10
522546.459
  20
4612803.110
  30
0
  0
SEQEND
  8
PNOA-H_AMS_1956-57_33k_ES_PAN_21mic_H50_0349_fot_38992_tif
  0
INSERT
  8
FeatureAttribs
  2
FEATURE
  41
1
  42
1
  43
1
  50
0
  10
525524.782
  20
4614667.519
 66
1
  0
ATTRIB
  8
FeatureAttribs
 70
0
  1
PNOA-H_AMS_1956-57_33k_ES_PAN_21mic_H50_0349_fot_38993.tif
  2
NAME
  10
525524.782
  20
4614667.519
 40
33.43520
  0
SEQEND
  0
POLYLINE
  8
PNOA-H_AMS_1956-57_33k_ES_PAN_21mic_H50_0349_fot_38993_tif
  70
9
  66
1
  0
VERTEX
  8
PNOA-H_AMS_1956-57_33k_ES_PAN_21mic_H50_0349_fot_38993_tif
  70
32
  10
524298.401
  20
4612809.039
  30
0
  0
VERTEX
  8
PNOA-H_AMS_1956-57_33k_ES_PAN_21mic_H50_0349_fot_38993_tif
  70
32
  10
524298.219
  20
4612809.038
  30
1100.977
  0
VERTEX
  8
PNOA-H_AMS_1956-57_33k_ES_PAN_21mic_H50_0349_fot_38993_tif
  70
32
  10
524198.000
  20
4616137.500
  30
1173.66
  0
VERTEX
  8
PNOA-H_AMS_1956-57_33k_ES_PAN_21mic_H50_0349_fot_38993_tif
  70
32
  10
524198.015
  20
4616137.503
  30
1173.66
  0
VERTEX
  8
PNOA-H_AMS_1956-57_33k_ES_PAN_21mic_H50_0349_fot_38993_tif
  70
32
  10
524198.683
  20
4616137.636
  30
1173.651
  0
VERTEX
  8
PNOA-H_AMS_1956-57_33k_ES_PAN_21mic_H50_0349_fot_38993_tif
  70
32
  10
524743.500
  20
4616246.500
  30
1166.823
  0
VERTEX
  8
PNOA-H_AMS_1956-57_33k_ES_PAN_21mic_H50_0349_fot_38993_tif
  70
32
  10
524746.000
  20
4616247.000
  30
1166.649
  0
VERTEX
  8
PNOA-H_AMS_1956-57_33k_ES_PAN_21mic_H50_0349_fot_38993_tif
  70
32
  10
525900.888
  20
4616476.742
  30
1150.945
  0
VERTEX
  8
PNOA-H_AMS_1956-57_33k_ES_PAN_21mic_H50_0349_fot_38993_tif
  70
32
  10
526148.150
  20
4616525.930
  30
1147.583
  0
VERTEX
  8
PNOA-H_AMS_1956-57_33k_ES_PAN_21mic_H50_0349_fot_38993_tif
  70
32
  10
526148.500
  20
4616526.000
  30
1147.578
  0
VERTEX
  8
PNOA-H_AMS_1956-57_33k_ES_PAN_21mic_H50_0349_fot_38993_tif
  70
32
  10
526764.000
  20
4616241.500
  30
1146.567
  0
VERTEX
  8
PNOA-H_AMS_1956-57_33k_ES_PAN_21mic_H50_0349_fot_38993_tif
  70
32
  10
526858.182
  20
4612818.109
  30
1083.675
  0
VERTEX
  8
PNOA-H_AMS_1956-57_33k_ES_PAN_21mic_H50_0349_fot_38993_tif
  70
32
  10
526858.135
  20
4612818.109
  30
0
  0
VERTEX
  8
PNOA-H_AMS_1956-57_33k_ES_PAN_21mic_H50_0349_fot_38993_tif
  70
32
  10
526015.149
  20
4612814.849
  30
0
  0
VERTEX
  8
PNOA-H_AMS_1956-57_33k_ES_PAN_21mic_H50_0349_fot_38993_tif
  70
32
  10
524298.401
  20
4612809.039
  30
0
  0
SEQEND
  8
PNOA-H_AMS_1956-57_33k_ES_PAN_21mic_H50_0349_fot_38993_tif
  0
INSERT
  8
FeatureAttribs
  2
FEATURE
  41
1
  42
1
  43
1
  50
0
  10
530406.174
  20
4618680.500
 66
1
  0
ATTRIB
  8
FeatureAttribs
 70
0
  1
PNOA-H_AMS_1956-57_33k_ES_PAN_21mic_H50_0349_fot_37214.tif
  2
NAME
  10
530406.174
  20
4618680.500
 40
33.43520
  0
SEQEND
  0
POLYLINE
  8
PNOA-H_AMS_1956-57_33k_ES_PAN_21mic_H50_0349_fot_37214_tif
  70
9
  66
1
  0
VERTEX
  8
PNOA-H_AMS_1956-57_33k_ES_PAN_21mic_H50_0349_fot_37214_tif
  70
32
  10
531891.500
  20
4616602.500
  30
1101.584
  0
VERTEX
  8
PNOA-H_AMS_1956-57_33k_ES_PAN_21mic_H50_0349_fot_37214_tif
  70
32
  10
529373.000
  20
4616370.000
  30
1133.558
  0
VERTEX
  8
PNOA-H_AMS_1956-57_33k_ES_PAN_21mic_H50_0349_fot_37214_tif
  70
32
  10
529372.855
  20
4616370.079
  30
1133.552
  0
VERTEX
  8
PNOA-H_AMS_1956-57_33k_ES_PAN_21mic_H50_0349_fot_37214_tif
  70
32
  10
529187.688
  20
4616470.828
  30
1125.872
  0
VERTEX
  8
PNOA-H_AMS_1956-57_33k_ES_PAN_21mic_H50_0349_fot_37214_tif
  70
32
  10
528971.825
  20
4616588.279
  30
1116.919
  0
VERTEX
  8
PNOA-H_AMS_1956-57_33k_ES_PAN_21mic_H50_0349_fot_37214_tif
  70
32
  10
528970.500
  20
4616589.000
  30
1116.864
  0
VERTEX
  8
PNOA-H_AMS_1956-57_33k_ES_PAN_21mic_H50_0349_fot_37214_tif
  70
32
  10
528821.000
  20
4620752.000
  30
1151.671
  0
VERTEX
  8
PNOA-H_AMS_1956-57_33k_ES_PAN_21mic_H50_0349_fot_37214_tif
  70
32
  10
528821.000
  20
4620760.000
  30
1151.647
  0
VERTEX
  8
PNOA-H_AMS_1956-57_33k_ES_PAN_21mic_H50_0349_fot_37214_tif
  70
32
  10
528824.500
  20
4620760.500
  30
1151.675
  0
VERTEX
  8
PNOA-H_AMS_1956-57_33k_ES_PAN_21mic_H50_0349_fot_37214_tif
  70
32
  10
530938.344
  20
4620970.156
  30
1173.948
  0
VERTEX
  8
PNOA-H_AMS_1956-57_33k_ES_PAN_21mic_H50_0349_fot_37214_tif
  70
32
  10
531148.088
  20
4620990.959
  30
1176.158
  0
VERTEX
  8
PNOA-H_AMS_1956-57_33k_ES_PAN_21mic_H50_0349_fot_37214_tif
  70
32
  10
531148.500
  20
4620991.000
  30
1176.162
  0
VERTEX
  8
PNOA-H_AMS_1956-57_33k_ES_PAN_21mic_H50_0349_fot_37214_tif
  70
32
  10
531941.000
  20
4620624.500
  30
1164.259
  0
VERTEX
  8
PNOA-H_AMS_1956-57_33k_ES_PAN_21mic_H50_0349_fot_37214_tif
  70
32
  10
531941.000
  20
4620624.462
  30
1164.258
  0
VERTEX
  8
PNOA-H_AMS_1956-57_33k_ES_PAN_21mic_H50_0349_fot_37214_tif
  70
32
  10
531906.000
  20
4617794.500
  30
1090.504
  0
VERTEX
  8
PNOA-H_AMS_1956-57_33k_ES_PAN_21mic_H50_0349_fot_37214_tif
  70
32
  10
531906.000
  20
4617768.735
  30
1090.512
  0
VERTEX
  8
PNOA-H_AMS_1956-57_33k_ES_PAN_21mic_H50_0349_fot_37214_tif
  70
32
  10
531906.000
  20
4617765.000
  30
1090.514
  0
VERTEX
  8
PNOA-H_AMS_1956-57_33k_ES_PAN_21mic_H50_0349_fot_37214_tif
  70
32
  10
531891.500
  20
4616602.500
  30
1101.584
  0
SEQEND
  8
PNOA-H_AMS_1956-57_33k_ES_PAN_21mic_H50_0349_fot_37214_tif
  0
INSERT
  8
FeatureAttribs
  2
FEATURE
  41
1
  42
1
  43
1
  50
0
  10
528105.750
  20
4614703.555
 66
1
  0
ATTRIB
  8
FeatureAttribs
 70
0
  1
PNOA-H_AMS_1956-57_33k_ES_PAN_21mic_H50_0349_fot_38994.tif
  2
NAME
  10
528105.750
  20
4614703.555
 40
33.43520
  0
SEQEND
  0
POLYLINE
  8
PNOA-H_AMS_1956-57_33k_ES_PAN_21mic_H50_0349_fot_38994_tif
  70
9
  66
1
  0
VERTEX
  8
PNOA-H_AMS_1956-57_33k_ES_PAN_21mic_H50_0349_fot_38994_tif
  70
32
  10
526858.182
  20
4612818.109
  30
1083.675
  0
VERTEX
  8
PNOA-H_AMS_1956-57_33k_ES_PAN_21mic_H50_0349_fot_38994_tif
  70
32
  10
526858.135
  20
4612818.109
  30
1083.632
  0
VERTEX
  8
PNOA-H_AMS_1956-57_33k_ES_PAN_21mic_H50_0349_fot_38994_tif
  70
32
  10
526764.000
  20
4616229.000
  30
1146.027
  0
VERTEX
  8
PNOA-H_AMS_1956-57_33k_ES_PAN_21mic_H50_0349_fot_38994_tif
  70
32
  10
526764.000
  20
4616241.500
  30
1146.567
  0
VERTEX
  8
PNOA-H_AMS_1956-57_33k_ES_PAN_21mic_H50_0349_fot_38994_tif
  70
32
  10
526792.000
  20
4616246.000
  30
1147.724
  0
VERTEX
  8
PNOA-H_AMS_1956-57_33k_ES_PAN_21mic_H50_0349_fot_38994_tif
  70
32
  10
526795.000
  20
4616246.500
  30
1147.793
  0
VERTEX
  8
PNOA-H_AMS_1956-57_33k_ES_PAN_21mic_H50_0349_fot_38994_tif
  70
32
  10
528967.500
  20
4616589.000
  30
1117.112
  0
VERTEX
  8
PNOA-H_AMS_1956-57_33k_ES_PAN_21mic_H50_0349_fot_38994_tif
  70
32
  10
528968.958
  20
4616588.757
  30
1117.013
  0
VERTEX
  8
PNOA-H_AMS_1956-57_33k_ES_PAN_21mic_H50_0349_fot_38994_tif
  70
32
  10
528971.825
  20
4616588.279
  30
1116.819
  0
VERTEX
  8
PNOA-H_AMS_1956-57_33k_ES_PAN_21mic_H50_0349_fot_38994_tif
  70
32
  10
528973.500
  20
4616588.000
  30
1116.706
  0
VERTEX
  8
PNOA-H_AMS_1956-57_33k_ES_PAN_21mic_H50_0349_fot_38994_tif
  70
32
  10
529187.688
  20
4616470.828
  30
1125.768
  0
VERTEX
  8
PNOA-H_AMS_1956-57_33k_ES_PAN_21mic_H50_0349_fot_38994_tif
  70
32
  10
529372.000
  20
4616370.000
  30
1133.566
  0
VERTEX
  8
PNOA-H_AMS_1956-57_33k_ES_PAN_21mic_H50_0349_fot_38994_tif
  70
32
  10
529442.988
  20
4612828.107
  30
1094.792
  0
VERTEX
  8
PNOA-H_AMS_1956-57_33k_ES_PAN_21mic_H50_0349_fot_38994_tif
  70
32
  10
526858.182
  20
4612818.109
  30
1083.675
  0
SEQEND
  8
PNOA-H_AMS_1956-57_33k_ES_PAN_21mic_H50_0349_fot_38994_tif
  0
INSERT
  8
FeatureAttribs
  2
FEATURE
  41
1
  42
1
  43
1
  50
0
  10
533525.262
  20
4614656.377
 66
1
  0
ATTRIB
  8
FeatureAttribs
 70
0
  1
PNOA-H_AMS_1956-57_33k_ES_PAN_21mic_H50_0349_fot_38996.tif
  2
NAME
  10
533525.262
  20
4614656.377
 40
33.43520
  0
SEQEND
  0
POLYLINE
  8
PNOA-H_AMS_1956-57_33k_ES_PAN_21mic_H50_0349_fot_38996_tif
  70
9
  66
1
  0
VERTEX
  8
PNOA-H_AMS_1956-57_33k_ES_PAN_21mic_H50_0349_fot_38996_tif
  70
32
  10
532952.534
  20
4612843.357
  30
0
  0
VERTEX
  8
PNOA-H_AMS_1956-57_33k_ES_PAN_21mic_H50_0349_fot_38996_tif
  70
32
  10
532124.602
  20
4612839.755
  30
1053.886
  0
VERTEX
  8
PNOA-H_AMS_1956-57_33k_ES_PAN_21mic_H50_0349_fot_38996_tif
  70
32
  10
532129.500
  20
4616442.000
  30
1094.718
  0
VERTEX
  8
PNOA-H_AMS_1956-57_33k_ES_PAN_21mic_H50_0349_fot_38996_tif
  70
32
  10
534871.500
  20
4616472.500
  30
1100.415
  0
VERTEX
  8
PNOA-H_AMS_1956-57_33k_ES_PAN_21mic_H50_0349_fot_38996_tif
  70
32
  10
534917.000
  20
4616473.000
  30
1094.305
  0
VERTEX
  8
PNOA-H_AMS_1956-57_33k_ES_PAN_21mic_H50_0349_fot_38996_tif
  70
32
  10
534933.000
  20
4616473.000
  30
1092.855
  0
VERTEX
  8
PNOA-H_AMS_1956-57_33k_ES_PAN_21mic_H50_0349_fot_38996_tif
  70
32
  10
534933.000
  20
4616472.994
  30
1092.855
  0
VERTEX
  8
PNOA-H_AMS_1956-57_33k_ES_PAN_21mic_H50_0349_fot_38996_tif
  70
32
  10
534933.000
  20
4616441.000
  30
1089.78
  0
VERTEX
  8
PNOA-H_AMS_1956-57_33k_ES_PAN_21mic_H50_0349_fot_38996_tif
  70
32
  10
534913.805
  20
4612852.839
  30
1049.23
  0
VERTEX
  8
PNOA-H_AMS_1956-57_33k_ES_PAN_21mic_H50_0349_fot_38996_tif
  70
32
  10
534913.789
  20
4612852.839
  30
1049.481
  0
VERTEX
  8
PNOA-H_AMS_1956-57_33k_ES_PAN_21mic_H50_0349_fot_38996_tif
  70
32
  10
532952.534
  20
4612843.357
  30
0
  0
SEQEND
  8
PNOA-H_AMS_1956-57_33k_ES_PAN_21mic_H50_0349_fot_38996_tif
  0
INSERT
  8
FeatureAttribs
  2
FEATURE
  41
1
  42
1
  43
1
  50
0
  10
530766.158
  20
4614715.303
 66
1
  0
ATTRIB
  8
FeatureAttribs
 70
0
  1
PNOA-H_AMS_1956-57_33k_ES_PAN_21mic_H50_0349_fot_38995.tif
  2
NAME
  10
530766.158
  20
4614715.303
 40
33.43520
  0
SEQEND
  0
POLYLINE
  8
PNOA-H_AMS_1956-57_33k_ES_PAN_21mic_H50_0349_fot_38995_tif
  70
9
  66
1
  0
VERTEX
  8
PNOA-H_AMS_1956-57_33k_ES_PAN_21mic_H50_0349_fot_38995_tif
  70
32
  10
529483.840
  20
4612828.265
  30
0
  0
VERTEX
  8
PNOA-H_AMS_1956-57_33k_ES_PAN_21mic_H50_0349_fot_38995_tif
  70
32
  10
529442.988
  20
4612828.107
  30
1094.792
  0
VERTEX
  8
PNOA-H_AMS_1956-57_33k_ES_PAN_21mic_H50_0349_fot_38995_tif
  70
32
  10
529372.000
  20
4616370.000
  30
1133.566
  0
VERTEX
  8
PNOA-H_AMS_1956-57_33k_ES_PAN_21mic_H50_0349_fot_38995_tif
  70
32
  10
529372.855
  20
4616370.079
  30
1133.555
  0
VERTEX
  8
PNOA-H_AMS_1956-57_33k_ES_PAN_21mic_H50_0349_fot_38995_tif
  70
32
  10
531882.500
  20
4616602.000
  30
1102.024
  0
VERTEX
  8
PNOA-H_AMS_1956-57_33k_ES_PAN_21mic_H50_0349_fot_38995_tif
  70
32
  10
531888.000
  20
4616602.500
  30
1101.74
  0
VERTEX
  8
PNOA-H_AMS_1956-57_33k_ES_PAN_21mic_H50_0349_fot_38995_tif
  70
32
  10
531891.500
  20
4616602.500
  30
1101.584
  0
VERTEX
  8
PNOA-H_AMS_1956-57_33k_ES_PAN_21mic_H50_0349_fot_38995_tif
  70
32
  10
531892.000
  20
4616602.500
  30
1101.562
  0
VERTEX
  8
PNOA-H_AMS_1956-57_33k_ES_PAN_21mic_H50_0349_fot_38995_tif
  70
32
  10
532129.500
  20
4616442.500
  30
1094.697
  0
VERTEX
  8
PNOA-H_AMS_1956-57_33k_ES_PAN_21mic_H50_0349_fot_38995_tif
  70
32
  10
532129.500
  20
4616442.000
  30
1094.691
  0
VERTEX
  8
PNOA-H_AMS_1956-57_33k_ES_PAN_21mic_H50_0349_fot_38995_tif
  70
32
  10
532124.602
  20
4612839.755
  30
1053.883
  0
VERTEX
  8
PNOA-H_AMS_1956-57_33k_ES_PAN_21mic_H50_0349_fot_38995_tif
  70
32
  10
529483.840
  20
4612828.265
  30
0
  0
SEQEND
  8
PNOA-H_AMS_1956-57_33k_ES_PAN_21mic_H50_0349_fot_38995_tif
  0
INSERT
  8
FeatureAttribs
  2
FEATURE
  41
1
  42
1
  43
1
  50
0
  10
538808.665
  20
4614742.086
 66
1
  0
ATTRIB
  8
FeatureAttribs
 70
0
  1
PNOA-H_AMS_1956-57_33k_ES_PAN_21mic_H50_0349_fot_38998.tif
  2
NAME
  10
538808.665
  20
4614742.086
 40
33.43520
  0
SEQEND
  0
POLYLINE
  8
PNOA-H_AMS_1956-57_33k_ES_PAN_21mic_H50_0349_fot_38998_tif
  70
9
  66
1
  0
VERTEX
  8
PNOA-H_AMS_1956-57_33k_ES_PAN_21mic_H50_0349_fot_38998_tif
  70
32
  10
539889.927
  20
4612878.574
  30
0
  0
VERTEX
  8
PNOA-H_AMS_1956-57_33k_ES_PAN_21mic_H50_0349_fot_38998_tif
  70
32
  10
537745.938
  20
4612867.172
  30
1065.096
  0
VERTEX
  8
PNOA-H_AMS_1956-57_33k_ES_PAN_21mic_H50_0349_fot_38998_tif
  70
32
  10
537730.502
  20
4616408.501
  30
1068.366
  0
VERTEX
  8
PNOA-H_AMS_1956-57_33k_ES_PAN_21mic_H50_0349_fot_38998_tif
  70
32
  10
537730.500
  20
4616409.000
  30
1068.367
  0
VERTEX
  8
PNOA-H_AMS_1956-57_33k_ES_PAN_21mic_H50_0349_fot_38998_tif
  70
32
  10
538051.000
  20
4616617.000
  30
1080.607
  0
VERTEX
  8
PNOA-H_AMS_1956-57_33k_ES_PAN_21mic_H50_0349_fot_38998_tif
  70
32
  10
538051.448
  20
4616616.966
  30
1080.608
  0
VERTEX
  8
PNOA-H_AMS_1956-57_33k_ES_PAN_21mic_H50_0349_fot_38998_tif
  70
32
  10
539077.500
  20
4616539.500
  30
1083.592
  0
VERTEX
  8
PNOA-H_AMS_1956-57_33k_ES_PAN_21mic_H50_0349_fot_38998_tif
  70
32
  10
539084.000
  20
4616539.000
  30
1083.601
  0
VERTEX
  8
PNOA-H_AMS_1956-57_33k_ES_PAN_21mic_H50_0349_fot_38998_tif
  70
32
  10
539850.716
  20
4616481.269
  30
1081.038
  0
VERTEX
  8
PNOA-H_AMS_1956-57_33k_ES_PAN_21mic_H50_0349_fot_38998_tif
  70
32
  10
539869.897
  20
4616479.825
  30
1080.974
  0
VERTEX
  8
PNOA-H_AMS_1956-57_33k_ES_PAN_21mic_H50_0349_fot_38998_tif
  70
32
  10
539869.897
  20
4616479.822
  30
0
  0
VERTEX
  8
PNOA-H_AMS_1956-57_33k_ES_PAN_21mic_H50_0349_fot_38998_tif
  70
32
  10
539877.064
  20
4615191.554
  30
0
  0
VERTEX
  8
PNOA-H_AMS_1956-57_33k_ES_PAN_21mic_H50_0349_fot_38998_tif
  70
32
  10
539889.927
  20
4612878.574
  30
0
  0
SEQEND
  8
PNOA-H_AMS_1956-57_33k_ES_PAN_21mic_H50_0349_fot_38998_tif
  0
INSERT
  8
FeatureAttribs
  2
FEATURE
  41
1
  42
1
  43
1
  50
0
  10
536330.763
  20
4614687.170
 66
1
  0
ATTRIB
  8
FeatureAttribs
 70
0
  1
PNOA-H_AMS_1956-57_33k_ES_PAN_21mic_H50_0349_fot_38997.tif
  2
NAME
  10
536330.763
  20
4614687.170
 40
33.43520
  0
SEQEND
  0
POLYLINE
  8
PNOA-H_AMS_1956-57_33k_ES_PAN_21mic_H50_0349_fot_38997_tif
  70
9
  66
1
  0
VERTEX
  8
PNOA-H_AMS_1956-57_33k_ES_PAN_21mic_H50_0349_fot_38997_tif
  70
32
  10
534913.805
  20
4612852.839
  30
0
  0
VERTEX
  8
PNOA-H_AMS_1956-57_33k_ES_PAN_21mic_H50_0349_fot_38997_tif
  70
32
  10
534913.789
  20
4612852.839
  30
1049.52
  0
VERTEX
  8
PNOA-H_AMS_1956-57_33k_ES_PAN_21mic_H50_0349_fot_38997_tif
  70
32
  10
534933.000
  20
4616472.994
  30
1092.855
  0
VERTEX
  8
PNOA-H_AMS_1956-57_33k_ES_PAN_21mic_H50_0349_fot_38997_tif
  70
32
  10
534933.000
  20
4616473.000
  30
1092.855
  0
VERTEX
  8
PNOA-H_AMS_1956-57_33k_ES_PAN_21mic_H50_0349_fot_38997_tif
  70
32
  10
534971.328
  20
4616499.507
  30
1093.716
  0
VERTEX
  8
PNOA-H_AMS_1956-57_33k_ES_PAN_21mic_H50_0349_fot_38997_tif
  70
32
  10
534986.500
  20
4616510.000
  30
1094.057
  0
VERTEX
  8
PNOA-H_AMS_1956-57_33k_ES_PAN_21mic_H50_0349_fot_38997_tif
  70
32
  10
534986.607
  20
4616510.213
  30
1094.101
  0
VERTEX
  8
PNOA-H_AMS_1956-57_33k_ES_PAN_21mic_H50_0349_fot_38997_tif
  70
32
  10
534987.000
  20
4616511.000
  30
1094.261
  0
VERTEX
  8
PNOA-H_AMS_1956-57_33k_ES_PAN_21mic_H50_0349_fot_38997_tif
  70
32
  10
534998.487
  20
4616518.538
  30
1093.788
  0
VERTEX
  8
PNOA-H_AMS_1956-57_33k_ES_PAN_21mic_H50_0349_fot_38997_tif
  70
32
  10
535002.941
  20
4616521.461
  30
1093.605
  0
VERTEX
  8
PNOA-H_AMS_1956-57_33k_ES_PAN_21mic_H50_0349_fot_38997_tif
  70
32
  10
535003.000
  20
4616521.500
  30
1093.602
  0
VERTEX
  8
PNOA-H_AMS_1956-57_33k_ES_PAN_21mic_H50_0349_fot_38997_tif
  70
32
  10
537730.500
  20
4616408.500
  30
1068.344
  0
VERTEX
  8
PNOA-H_AMS_1956-57_33k_ES_PAN_21mic_H50_0349_fot_38997_tif
  70
32
  10
537745.938
  20
4612867.172
  30
1065.094
  0
VERTEX
  8
PNOA-H_AMS_1956-57_33k_ES_PAN_21mic_H50_0349_fot_38997_tif
  70
32
  10
536421.229
  20
4612860.127
  30
0
  0
VERTEX
  8
PNOA-H_AMS_1956-57_33k_ES_PAN_21mic_H50_0349_fot_38997_tif
  70
32
  10
534913.805
  20
4612852.839
  30
0
  0
SEQEND
  8
PNOA-H_AMS_1956-57_33k_ES_PAN_21mic_H50_0349_fot_38997_tif
  0
ENDSEC
  0
EOF
