  0
SECTION
  2
HEADER
  9
$ACADVER
  1
AC1009
  9
$LUNITS
  70
2
  9
$LIMMIN
  10
484390.916
  20
4612767.894
  9
$LIMMAX
  10
512140.397
  20
4631288.676
  9
$EXTMIN
  10
484390.916
  20
4612767.894
  9
$EXTMAX
  10
512140.397
  20
4631288.676
  999
Created by Global Mapper
  999
Projection: UTM
  999
Datum: ETRS89
  999
Ground Units: meters
  999
ZONE: 30
  0
ENDSEC
  0
SECTION
  2
TABLES
  0
ENDSEC
  0
SECTION
  2
BLOCKS
  0
BLOCK
  8
FeatureAttribs
  70
0
  2
FEATURE
  3
FEATURE
  10
0.00000000
  20
0.00000000
  0
ATTDEF
  8
FeatureAttribs
  70
0
  1
 
  2
NAME
  3
NAME
  10
0.00000000
  20
0.00000000
  40
1.00000000
  0
ENDBLK
  0
ENDSEC
  0
SECTION
  2
ENTITIES
  0
INSERT
  8
FeatureAttribs
  2
FEATURE
  41
1
  42
1
  43
1
  50
0
  10
494226.480
  20
4627552.750
 66
1
  0
ATTRIB
  8
FeatureAttribs
 70
0
  1
PNOA-H_AMS_1956-57_33k_ES_PAN_21mic_H50_0348_fot_34C-40386_E.tif
  2
NAME
  10
494226.480
  20
4627552.750
 40
33.36245
  0
SEQEND
  0
POLYLINE
  8
PNOA-H_AMS_1956-57_33k_ES_PAN_21mic_H50_0348_fot_34C-40386_E_tif
  70
9
  66
1
  0
VERTEX
  8
PNOA-H_AMS_1956-57_33k_ES_PAN_21mic_H50_0348_fot_34C-40386_E_tif
  70
32
  10
495518.500
  20
4625524.500
  30
1086.889
  0
VERTEX
  8
PNOA-H_AMS_1956-57_33k_ES_PAN_21mic_H50_0348_fot_34C-40386_E_tif
  70
32
  10
493824.500
  20
4625147.500
  30
1090.056
  0
VERTEX
  8
PNOA-H_AMS_1956-57_33k_ES_PAN_21mic_H50_0348_fot_34C-40386_E_tif
  70
32
  10
493824.315
  20
4625147.571
  30
1090.054
  0
VERTEX
  8
PNOA-H_AMS_1956-57_33k_ES_PAN_21mic_H50_0348_fot_34C-40386_E_tif
  70
32
  10
492971.000
  20
4625474.000
  30
1080.84
  0
VERTEX
  8
PNOA-H_AMS_1956-57_33k_ES_PAN_21mic_H50_0348_fot_34C-40386_E_tif
  70
32
  10
492843.000
  20
4629539.500
  30
1024.84
  0
VERTEX
  8
PNOA-H_AMS_1956-57_33k_ES_PAN_21mic_H50_0348_fot_34C-40386_E_tif
  70
32
  10
492843.270
  20
4629539.572
  30
1024.856
  0
VERTEX
  8
PNOA-H_AMS_1956-57_33k_ES_PAN_21mic_H50_0348_fot_34C-40386_E_tif
  70
32
  10
494407.500
  20
4629957.500
  30
1118.819
  0
VERTEX
  8
PNOA-H_AMS_1956-57_33k_ES_PAN_21mic_H50_0348_fot_34C-40386_E_tif
  70
32
  10
494409.500
  20
4629958.000
  30
1118.779
  0
VERTEX
  8
PNOA-H_AMS_1956-57_33k_ES_PAN_21mic_H50_0348_fot_34C-40386_E_tif
  70
32
  10
494409.952
  20
4629957.854
  30
1118.76
  0
VERTEX
  8
PNOA-H_AMS_1956-57_33k_ES_PAN_21mic_H50_0348_fot_34C-40386_E_tif
  70
32
  10
495574.906
  20
4629580.530
  30
1071.084
  0
VERTEX
  8
PNOA-H_AMS_1956-57_33k_ES_PAN_21mic_H50_0348_fot_34C-40386_E_tif
  70
32
  10
495575.000
  20
4629580.500
  30
1071.08
  0
VERTEX
  8
PNOA-H_AMS_1956-57_33k_ES_PAN_21mic_H50_0348_fot_34C-40386_E_tif
  70
32
  10
495520.000
  20
4625538.500
  30
1087.516
  0
VERTEX
  8
PNOA-H_AMS_1956-57_33k_ES_PAN_21mic_H50_0348_fot_34C-40386_E_tif
  70
32
  10
495519.500
  20
4625525.000
  30
1086.859
  0
VERTEX
  8
PNOA-H_AMS_1956-57_33k_ES_PAN_21mic_H50_0348_fot_34C-40386_E_tif
  70
32
  10
495519.100
  20
4625524.800
  30
1086.871
  0
VERTEX
  8
PNOA-H_AMS_1956-57_33k_ES_PAN_21mic_H50_0348_fot_34C-40386_E_tif
  70
32
  10
495518.500
  20
4625524.500
  30
1086.889
  0
SEQEND
  8
PNOA-H_AMS_1956-57_33k_ES_PAN_21mic_H50_0348_fot_34C-40386_E_tif
  0
INSERT
  8
FeatureAttribs
  2
FEATURE
  41
1
  42
1
  43
1
  50
0
  10
491514.628
  20
4627521.000
 66
1
  0
ATTRIB
  8
FeatureAttribs
 70
0
  1
PNOA-H_AMS_1956-57_33k_ES_PAN_21mic_H50_0348_fot_34C-40385_E.tif
  2
NAME
  10
491514.628
  20
4627521.000
 40
33.36245
  0
SEQEND
  0
POLYLINE
  8
PNOA-H_AMS_1956-57_33k_ES_PAN_21mic_H50_0348_fot_34C-40385_E_tif
  70
9
  66
1
  0
VERTEX
  8
PNOA-H_AMS_1956-57_33k_ES_PAN_21mic_H50_0348_fot_34C-40385_E_tif
  70
32
  10
491194.826
  20
4625096.569
  30
1092.505
  0
VERTEX
  8
PNOA-H_AMS_1956-57_33k_ES_PAN_21mic_H50_0348_fot_34C-40385_E_tif
  70
32
  10
491194.500
  20
4625096.500
  30
1092.507
  0
VERTEX
  8
PNOA-H_AMS_1956-57_33k_ES_PAN_21mic_H50_0348_fot_34C-40385_E_tif
  70
32
  10
490072.076
  20
4625541.780
  30
1127.46
  0
VERTEX
  8
PNOA-H_AMS_1956-57_33k_ES_PAN_21mic_H50_0348_fot_34C-40385_E_tif
  70
32
  10
490069.000
  20
4625543.000
  30
1127.556
  0
VERTEX
  8
PNOA-H_AMS_1956-57_33k_ES_PAN_21mic_H50_0348_fot_34C-40385_E_tif
  70
32
  10
490175.500
  20
4629465.500
  30
1103.499
  0
VERTEX
  8
PNOA-H_AMS_1956-57_33k_ES_PAN_21mic_H50_0348_fot_34C-40385_E_tif
  70
32
  10
490179.304
  20
4629466.826
  30
1103.603
  0
VERTEX
  8
PNOA-H_AMS_1956-57_33k_ES_PAN_21mic_H50_0348_fot_34C-40385_E_tif
  70
32
  10
491552.500
  20
4629945.500
  30
1141.042
  0
VERTEX
  8
PNOA-H_AMS_1956-57_33k_ES_PAN_21mic_H50_0348_fot_34C-40385_E_tif
  70
32
  10
491552.506
  20
4629945.498
  30
1141.042
  0
VERTEX
  8
PNOA-H_AMS_1956-57_33k_ES_PAN_21mic_H50_0348_fot_34C-40385_E_tif
  70
32
  10
491978.000
  20
4629811.500
  30
1144.14
  0
VERTEX
  8
PNOA-H_AMS_1956-57_33k_ES_PAN_21mic_H50_0348_fot_34C-40385_E_tif
  70
32
  10
491980.000
  20
4629811.000
  30
1143.978
  0
VERTEX
  8
PNOA-H_AMS_1956-57_33k_ES_PAN_21mic_H50_0348_fot_34C-40385_E_tif
  70
32
  10
492843.000
  20
4629539.500
  30
1024.84
  0
VERTEX
  8
PNOA-H_AMS_1956-57_33k_ES_PAN_21mic_H50_0348_fot_34C-40385_E_tif
  70
32
  10
492971.000
  20
4625474.000
  30
1080.84
  0
VERTEX
  8
PNOA-H_AMS_1956-57_33k_ES_PAN_21mic_H50_0348_fot_34C-40385_E_tif
  70
32
  10
492970.679
  20
4625473.932
  30
1080.842
  0
VERTEX
  8
PNOA-H_AMS_1956-57_33k_ES_PAN_21mic_H50_0348_fot_34C-40385_E_tif
  70
32
  10
491967.872
  20
4625260.839
  30
1087.428
  0
VERTEX
  8
PNOA-H_AMS_1956-57_33k_ES_PAN_21mic_H50_0348_fot_34C-40385_E_tif
  70
32
  10
491194.826
  20
4625096.569
  30
1092.505
  0
SEQEND
  8
PNOA-H_AMS_1956-57_33k_ES_PAN_21mic_H50_0348_fot_34C-40385_E_tif
  0
INSERT
  8
FeatureAttribs
  2
FEATURE
  41
1
  42
1
  43
1
  50
0
  10
499634.080
  20
4627578.000
 66
1
  0
ATTRIB
  8
FeatureAttribs
 70
0
  1
PNOA-H_AMS_1956-57_33k_ES_PAN_21mic_H50_0348_fot_34C-40388_E.tif
  2
NAME
  10
499634.080
  20
4627578.000
 40
33.36245
  0
SEQEND
  0
POLYLINE
  8
PNOA-H_AMS_1956-57_33k_ES_PAN_21mic_H50_0348_fot_34C-40388_E_tif
  70
9
  66
1
  0
VERTEX
  8
PNOA-H_AMS_1956-57_33k_ES_PAN_21mic_H50_0348_fot_34C-40388_E_tif
  70
32
  10
499141.854
  20
4625176.568
  30
1110.375
  0
VERTEX
  8
PNOA-H_AMS_1956-57_33k_ES_PAN_21mic_H50_0348_fot_34C-40388_E_tif
  70
32
  10
499141.500
  20
4625176.500
  30
1110.367
  0
VERTEX
  8
PNOA-H_AMS_1956-57_33k_ES_PAN_21mic_H50_0348_fot_34C-40388_E_tif
  70
32
  10
498285.967
  20
4625524.589
  30
1152.952
  0
VERTEX
  8
PNOA-H_AMS_1956-57_33k_ES_PAN_21mic_H50_0348_fot_34C-40388_E_tif
  70
32
  10
498282.500
  20
4625526.000
  30
1153.125
  0
VERTEX
  8
PNOA-H_AMS_1956-57_33k_ES_PAN_21mic_H50_0348_fot_34C-40388_E_tif
  70
32
  10
498232.000
  20
4629563.500
  30
1180.207
  0
VERTEX
  8
PNOA-H_AMS_1956-57_33k_ES_PAN_21mic_H50_0348_fot_34C-40388_E_tif
  70
32
  10
498232.582
  20
4629563.648
  30
1180.204
  0
VERTEX
  8
PNOA-H_AMS_1956-57_33k_ES_PAN_21mic_H50_0348_fot_34C-40388_E_tif
  70
32
  10
499865.500
  20
4629979.500
  30
1172.434
  0
VERTEX
  8
PNOA-H_AMS_1956-57_33k_ES_PAN_21mic_H50_0348_fot_34C-40388_E_tif
  70
32
  10
499866.506
  20
4629979.374
  30
1172.512
  0
VERTEX
  8
PNOA-H_AMS_1956-57_33k_ES_PAN_21mic_H50_0348_fot_34C-40388_E_tif
  70
32
  10
499867.725
  20
4629979.222
  30
1172.608
  0
VERTEX
  8
PNOA-H_AMS_1956-57_33k_ES_PAN_21mic_H50_0348_fot_34C-40388_E_tif
  70
32
  10
499869.500
  20
4629979.000
  30
1172.746
  0
VERTEX
  8
PNOA-H_AMS_1956-57_33k_ES_PAN_21mic_H50_0348_fot_34C-40388_E_tif
  70
32
  10
500130.658
  20
4629878.354
  30
1197.094
  0
VERTEX
  8
PNOA-H_AMS_1956-57_33k_ES_PAN_21mic_H50_0348_fot_34C-40388_E_tif
  70
32
  10
500170.500
  20
4629863.000
  30
1200.808
  0
VERTEX
  8
PNOA-H_AMS_1956-57_33k_ES_PAN_21mic_H50_0348_fot_34C-40388_E_tif
  70
32
  10
500171.893
  20
4629862.536
  30
1200.93
  0
VERTEX
  8
PNOA-H_AMS_1956-57_33k_ES_PAN_21mic_H50_0348_fot_34C-40388_E_tif
  70
32
  10
500172.000
  20
4629862.500
  30
1200.94
  0
VERTEX
  8
PNOA-H_AMS_1956-57_33k_ES_PAN_21mic_H50_0348_fot_34C-40388_E_tif
  70
32
  10
501084.500
  20
4629513.000
  30
1227.705
  0
VERTEX
  8
PNOA-H_AMS_1956-57_33k_ES_PAN_21mic_H50_0348_fot_34C-40388_E_tif
  70
32
  10
500933.500
  20
4625520.000
  30
1150.318
  0
VERTEX
  8
PNOA-H_AMS_1956-57_33k_ES_PAN_21mic_H50_0348_fot_34C-40388_E_tif
  70
32
  10
500932.766
  20
4625519.859
  30
1150.302
  0
VERTEX
  8
PNOA-H_AMS_1956-57_33k_ES_PAN_21mic_H50_0348_fot_34C-40388_E_tif
  70
32
  10
499450.917
  20
4625235.811
  30
1117.265
  0
VERTEX
  8
PNOA-H_AMS_1956-57_33k_ES_PAN_21mic_H50_0348_fot_34C-40388_E_tif
  70
32
  10
499141.854
  20
4625176.568
  30
1110.375
  0
SEQEND
  8
PNOA-H_AMS_1956-57_33k_ES_PAN_21mic_H50_0348_fot_34C-40388_E_tif
  0
INSERT
  8
FeatureAttribs
  2
FEATURE
  41
1
  42
1
  43
1
  50
0
  10
496902.180
  20
4627554.250
 66
1
  0
ATTRIB
  8
FeatureAttribs
 70
0
  1
PNOA-H_AMS_1956-57_33k_ES_PAN_21mic_H50_0348_fot_34C-40387_E.tif
  2
NAME
  10
496902.180
  20
4627554.250
 40
33.36245
  0
SEQEND
  0
POLYLINE
  8
PNOA-H_AMS_1956-57_33k_ES_PAN_21mic_H50_0348_fot_34C-40387_E_tif
  70
9
  66
1
  0
VERTEX
  8
PNOA-H_AMS_1956-57_33k_ES_PAN_21mic_H50_0348_fot_34C-40387_E_tif
  70
32
  10
496523.500
  20
4625132.000
  30
1112.839
  0
VERTEX
  8
PNOA-H_AMS_1956-57_33k_ES_PAN_21mic_H50_0348_fot_34C-40387_E_tif
  70
32
  10
496522.000
  20
4625132.000
  30
1112.607
  0
VERTEX
  8
PNOA-H_AMS_1956-57_33k_ES_PAN_21mic_H50_0348_fot_34C-40387_E_tif
  70
32
  10
495519.681
  20
4625524.929
  30
1086.863
  0
VERTEX
  8
PNOA-H_AMS_1956-57_33k_ES_PAN_21mic_H50_0348_fot_34C-40387_E_tif
  70
32
  10
495519.500
  20
4625525.000
  30
1086.859
  0
VERTEX
  8
PNOA-H_AMS_1956-57_33k_ES_PAN_21mic_H50_0348_fot_34C-40387_E_tif
  70
32
  10
495574.500
  20
4629578.500
  30
1071.915
  0
VERTEX
  8
PNOA-H_AMS_1956-57_33k_ES_PAN_21mic_H50_0348_fot_34C-40387_E_tif
  70
32
  10
495574.906
  20
4629580.530
  30
1071.083
  0
VERTEX
  8
PNOA-H_AMS_1956-57_33k_ES_PAN_21mic_H50_0348_fot_34C-40387_E_tif
  70
32
  10
495575.000
  20
4629581.000
  30
1070.891
  0
VERTEX
  8
PNOA-H_AMS_1956-57_33k_ES_PAN_21mic_H50_0348_fot_34C-40387_E_tif
  70
32
  10
495578.500
  20
4629582.000
  30
1069.937
  0
VERTEX
  8
PNOA-H_AMS_1956-57_33k_ES_PAN_21mic_H50_0348_fot_34C-40387_E_tif
  70
32
  10
496072.500
  20
4629713.000
  30
1058.94
  0
VERTEX
  8
PNOA-H_AMS_1956-57_33k_ES_PAN_21mic_H50_0348_fot_34C-40387_E_tif
  70
32
  10
496074.500
  20
4629713.500
  30
1058.863
  0
VERTEX
  8
PNOA-H_AMS_1956-57_33k_ES_PAN_21mic_H50_0348_fot_34C-40387_E_tif
  70
32
  10
497011.229
  20
4629961.471
  30
1112.056
  0
VERTEX
  8
PNOA-H_AMS_1956-57_33k_ES_PAN_21mic_H50_0348_fot_34C-40387_E_tif
  70
32
  10
497067.428
  20
4629976.349
  30
1115.248
  0
VERTEX
  8
PNOA-H_AMS_1956-57_33k_ES_PAN_21mic_H50_0348_fot_34C-40387_E_tif
  70
32
  10
497068.000
  20
4629976.500
  30
1115.28
  0
VERTEX
  8
PNOA-H_AMS_1956-57_33k_ES_PAN_21mic_H50_0348_fot_34C-40387_E_tif
  70
32
  10
497650.000
  20
4629770.000
  30
1147.743
  0
VERTEX
  8
PNOA-H_AMS_1956-57_33k_ES_PAN_21mic_H50_0348_fot_34C-40387_E_tif
  70
32
  10
498232.000
  20
4629563.500
  30
1180.207
  0
VERTEX
  8
PNOA-H_AMS_1956-57_33k_ES_PAN_21mic_H50_0348_fot_34C-40387_E_tif
  70
32
  10
498282.500
  20
4625557.000
  30
1148.365
  0
VERTEX
  8
PNOA-H_AMS_1956-57_33k_ES_PAN_21mic_H50_0348_fot_34C-40387_E_tif
  70
32
  10
498282.500
  20
4625526.000
  30
1153.125
  0
VERTEX
  8
PNOA-H_AMS_1956-57_33k_ES_PAN_21mic_H50_0348_fot_34C-40387_E_tif
  70
32
  10
498282.113
  20
4625525.806
  30
1153.198
  0
VERTEX
  8
PNOA-H_AMS_1956-57_33k_ES_PAN_21mic_H50_0348_fot_34C-40387_E_tif
  70
32
  10
498281.500
  20
4625525.500
  30
1153.314
  0
VERTEX
  8
PNOA-H_AMS_1956-57_33k_ES_PAN_21mic_H50_0348_fot_34C-40387_E_tif
  70
32
  10
496525.500
  20
4625132.000
  30
1113.149
  0
VERTEX
  8
PNOA-H_AMS_1956-57_33k_ES_PAN_21mic_H50_0348_fot_34C-40387_E_tif
  70
32
  10
496523.500
  20
4625132.000
  30
1112.839
  0
SEQEND
  8
PNOA-H_AMS_1956-57_33k_ES_PAN_21mic_H50_0348_fot_34C-40387_E_tif
  0
INSERT
  8
FeatureAttribs
  2
FEATURE
  41
1
  42
1
  43
1
  50
0
  10
497841.354
  20
4622929.000
 66
1
  0
ATTRIB
  8
FeatureAttribs
 70
0
  1
PNOA-H_AMS_1956-57_33k_ES_PAN_21mic_H50_0348_fot_40504.tif
  2
NAME
  10
497841.354
  20
4622929.000
 40
33.36245
  0
SEQEND
  0
POLYLINE
  8
PNOA-H_AMS_1956-57_33k_ES_PAN_21mic_H50_0348_fot_40504_tif
  70
9
  66
1
  0
VERTEX
  8
PNOA-H_AMS_1956-57_33k_ES_PAN_21mic_H50_0348_fot_40504_tif
  70
32
  10
499185.236
  20
4620623.905
  30
1104.131
  0
VERTEX
  8
PNOA-H_AMS_1956-57_33k_ES_PAN_21mic_H50_0348_fot_40504_tif
  70
32
  10
498376.500
  20
4620332.000
  30
1078.775
  0
VERTEX
  8
PNOA-H_AMS_1956-57_33k_ES_PAN_21mic_H50_0348_fot_40504_tif
  70
32
  10
498375.859
  20
4620332.130
  30
1078.78
  0
VERTEX
  8
PNOA-H_AMS_1956-57_33k_ES_PAN_21mic_H50_0348_fot_40504_tif
  70
32
  10
497755.833
  20
4620457.500
  30
1083.672
  0
VERTEX
  8
PNOA-H_AMS_1956-57_33k_ES_PAN_21mic_H50_0348_fot_40504_tif
  70
32
  10
496514.500
  20
4620708.500
  30
1093.465
  0
VERTEX
  8
PNOA-H_AMS_1956-57_33k_ES_PAN_21mic_H50_0348_fot_40504_tif
  70
32
  10
496523.500
  20
4625132.000
  30
1112.85
  0
VERTEX
  8
PNOA-H_AMS_1956-57_33k_ES_PAN_21mic_H50_0348_fot_40504_tif
  70
32
  10
498279.000
  20
4625525.500
  30
1153.692
  0
VERTEX
  8
PNOA-H_AMS_1956-57_33k_ES_PAN_21mic_H50_0348_fot_40504_tif
  70
32
  10
498281.500
  20
4625526.000
  30
1153.277
  0
VERTEX
  8
PNOA-H_AMS_1956-57_33k_ES_PAN_21mic_H50_0348_fot_40504_tif
  70
32
  10
498282.113
  20
4625525.806
  30
1153.186
  0
VERTEX
  8
PNOA-H_AMS_1956-57_33k_ES_PAN_21mic_H50_0348_fot_40504_tif
  70
32
  10
498285.967
  20
4625524.589
  30
1152.612
  0
VERTEX
  8
PNOA-H_AMS_1956-57_33k_ES_PAN_21mic_H50_0348_fot_40504_tif
  70
32
  10
498291.000
  20
4625523.000
  30
1151.863
  0
VERTEX
  8
PNOA-H_AMS_1956-57_33k_ES_PAN_21mic_H50_0348_fot_40504_tif
  70
32
  10
499134.500
  20
4625180.000
  30
1111.238
  0
VERTEX
  8
PNOA-H_AMS_1956-57_33k_ES_PAN_21mic_H50_0348_fot_40504_tif
  70
32
  10
499141.854
  20
4625176.568
  30
1110.319
  0
VERTEX
  8
PNOA-H_AMS_1956-57_33k_ES_PAN_21mic_H50_0348_fot_40504_tif
  70
32
  10
499142.000
  20
4625176.500
  30
1110.301
  0
VERTEX
  8
PNOA-H_AMS_1956-57_33k_ES_PAN_21mic_H50_0348_fot_40504_tif
  70
32
  10
499142.500
  20
4625168.500
  30
1110.622
  0
VERTEX
  8
PNOA-H_AMS_1956-57_33k_ES_PAN_21mic_H50_0348_fot_40504_tif
  70
32
  10
499185.500
  20
4620624.000
  30
1104.14
  0
VERTEX
  8
PNOA-H_AMS_1956-57_33k_ES_PAN_21mic_H50_0348_fot_40504_tif
  70
32
  10
499185.236
  20
4620623.905
  30
1104.131
  0
SEQEND
  8
PNOA-H_AMS_1956-57_33k_ES_PAN_21mic_H50_0348_fot_40504_tif
  0
INSERT
  8
FeatureAttribs
  2
FEATURE
  41
1
  42
1
  43
1
  50
0
  10
492530.703
  20
4622927.000
 66
1
  0
ATTRIB
  8
FeatureAttribs
 70
0
  1
PNOA-H_AMS_1956-57_33k_ES_PAN_21mic_H50_0348_fot_40506.tif
  2
NAME
  10
492530.703
  20
4622927.000
 40
33.36245
  0
SEQEND
  0
POLYLINE
  8
PNOA-H_AMS_1956-57_33k_ES_PAN_21mic_H50_0348_fot_40506_tif
  70
9
  66
1
  0
VERTEX
  8
PNOA-H_AMS_1956-57_33k_ES_PAN_21mic_H50_0348_fot_40506_tif
  70
32
  10
493889.256
  20
4620750.935
  30
1123.941
  0
VERTEX
  8
PNOA-H_AMS_1956-57_33k_ES_PAN_21mic_H50_0348_fot_40506_tif
  70
32
  10
492497.500
  20
4620380.000
  30
1054.468
  0
VERTEX
  8
PNOA-H_AMS_1956-57_33k_ES_PAN_21mic_H50_0348_fot_40506_tif
  70
32
  10
492496.358
  20
4620380.228
  30
1054.402
  0
VERTEX
  8
PNOA-H_AMS_1956-57_33k_ES_PAN_21mic_H50_0348_fot_40506_tif
  70
32
  10
492492.208
  20
4620381.058
  30
1054.164
  0
VERTEX
  8
PNOA-H_AMS_1956-57_33k_ES_PAN_21mic_H50_0348_fot_40506_tif
  70
32
  10
492487.500
  20
4620382.000
  30
1053.895
  0
VERTEX
  8
PNOA-H_AMS_1956-57_33k_ES_PAN_21mic_H50_0348_fot_40506_tif
  70
32
  10
491213.697
  20
4620791.937
  30
1040.405
  0
VERTEX
  8
PNOA-H_AMS_1956-57_33k_ES_PAN_21mic_H50_0348_fot_40506_tif
  70
32
  10
491213.500
  20
4620792.000
  30
1040.403
  0
VERTEX
  8
PNOA-H_AMS_1956-57_33k_ES_PAN_21mic_H50_0348_fot_40506_tif
  70
32
  10
491195.000
  20
4625096.500
  30
1092.529
  0
VERTEX
  8
PNOA-H_AMS_1956-57_33k_ES_PAN_21mic_H50_0348_fot_40506_tif
  70
32
  10
491967.872
  20
4625260.839
  30
1087.472
  0
VERTEX
  8
PNOA-H_AMS_1956-57_33k_ES_PAN_21mic_H50_0348_fot_40506_tif
  70
32
  10
492968.000
  20
4625473.500
  30
1080.929
  0
VERTEX
  8
PNOA-H_AMS_1956-57_33k_ES_PAN_21mic_H50_0348_fot_40506_tif
  70
32
  10
492970.500
  20
4625474.000
  30
1080.849
  0
VERTEX
  8
PNOA-H_AMS_1956-57_33k_ES_PAN_21mic_H50_0348_fot_40506_tif
  70
32
  10
492970.679
  20
4625473.932
  30
1080.851
  0
VERTEX
  8
PNOA-H_AMS_1956-57_33k_ES_PAN_21mic_H50_0348_fot_40506_tif
  70
32
  10
493824.000
  20
4625147.500
  30
1090.081
  0
VERTEX
  8
PNOA-H_AMS_1956-57_33k_ES_PAN_21mic_H50_0348_fot_40506_tif
  70
32
  10
493889.500
  20
4620751.000
  30
1123.953
  0
VERTEX
  8
PNOA-H_AMS_1956-57_33k_ES_PAN_21mic_H50_0348_fot_40506_tif
  70
32
  10
493889.256
  20
4620750.935
  30
1123.941
  0
SEQEND
  8
PNOA-H_AMS_1956-57_33k_ES_PAN_21mic_H50_0348_fot_40506_tif
  0
INSERT
  8
FeatureAttribs
  2
FEATURE
  41
1
  42
1
  43
1
  50
0
  10
495187.929
  20
4622945.500
 66
1
  0
ATTRIB
  8
FeatureAttribs
 70
0
  1
PNOA-H_AMS_1956-57_33k_ES_PAN_21mic_H50_0348_fot_40505.tif
  2
NAME
  10
495187.929
  20
4622945.500
 40
33.36245
  0
SEQEND
  0
POLYLINE
  8
PNOA-H_AMS_1956-57_33k_ES_PAN_21mic_H50_0348_fot_40505_tif
  70
9
  66
1
  0
VERTEX
  8
PNOA-H_AMS_1956-57_33k_ES_PAN_21mic_H50_0348_fot_40505_tif
  70
32
  10
496514.500
  20
4620708.500
  30
1093.465
  0
VERTEX
  8
PNOA-H_AMS_1956-57_33k_ES_PAN_21mic_H50_0348_fot_40505_tif
  70
32
  10
495408.000
  20
4620366.000
  30
1125.704
  0
VERTEX
  8
PNOA-H_AMS_1956-57_33k_ES_PAN_21mic_H50_0348_fot_40505_tif
  70
32
  10
495407.450
  20
4620366.139
  30
1125.703
  0
VERTEX
  8
PNOA-H_AMS_1956-57_33k_ES_PAN_21mic_H50_0348_fot_40505_tif
  70
32
  10
493889.500
  20
4620751.000
  30
1123.953
  0
VERTEX
  8
PNOA-H_AMS_1956-57_33k_ES_PAN_21mic_H50_0348_fot_40505_tif
  70
32
  10
493824.000
  20
4625147.500
  30
1090.081
  0
VERTEX
  8
PNOA-H_AMS_1956-57_33k_ES_PAN_21mic_H50_0348_fot_40505_tif
  70
32
  10
493824.315
  20
4625147.571
  30
1090.084
  0
VERTEX
  8
PNOA-H_AMS_1956-57_33k_ES_PAN_21mic_H50_0348_fot_40505_tif
  70
32
  10
494024.500
  20
4625192.500
  30
1092.148
  0
VERTEX
  8
PNOA-H_AMS_1956-57_33k_ES_PAN_21mic_H50_0348_fot_40505_tif
  70
32
  10
494027.000
  20
4625193.000
  30
1092.183
  0
VERTEX
  8
PNOA-H_AMS_1956-57_33k_ES_PAN_21mic_H50_0348_fot_40505_tif
  70
32
  10
495519.100
  20
4625524.800
  30
1086.827
  0
VERTEX
  8
PNOA-H_AMS_1956-57_33k_ES_PAN_21mic_H50_0348_fot_40505_tif
  70
32
  10
495519.681
  20
4625524.929
  30
1086.825
  0
VERTEX
  8
PNOA-H_AMS_1956-57_33k_ES_PAN_21mic_H50_0348_fot_40505_tif
  70
32
  10
495520.000
  20
4625525.000
  30
1086.824
  0
VERTEX
  8
PNOA-H_AMS_1956-57_33k_ES_PAN_21mic_H50_0348_fot_40505_tif
  70
32
  10
496523.500
  20
4625132.000
  30
1112.85
  0
VERTEX
  8
PNOA-H_AMS_1956-57_33k_ES_PAN_21mic_H50_0348_fot_40505_tif
  70
32
  10
496514.500
  20
4620708.500
  30
1093.465
  0
SEQEND
  8
PNOA-H_AMS_1956-57_33k_ES_PAN_21mic_H50_0348_fot_40505_tif
  0
INSERT
  8
FeatureAttribs
  2
FEATURE
  41
1
  42
1
  43
1
  50
0
  10
502357.538
  20
4627504.250
 66
1
  0
ATTRIB
  8
FeatureAttribs
 70
0
  1
PNOA-H_AMS_1956-57_33k_ES_PAN_21mic_H50_0348_fot_34C-40389_E.tif
  2
NAME
  10
502357.538
  20
4627504.250
 40
33.36245
  0
SEQEND
  0
POLYLINE
  8
PNOA-H_AMS_1956-57_33k_ES_PAN_21mic_H50_0348_fot_34C-40389_E_tif
  70
9
  66
1
  0
VERTEX
  8
PNOA-H_AMS_1956-57_33k_ES_PAN_21mic_H50_0348_fot_34C-40389_E_tif
  70
32
  10
501755.217
  20
4625150.128
  30
1153.218
  0
VERTEX
  8
PNOA-H_AMS_1956-57_33k_ES_PAN_21mic_H50_0348_fot_34C-40389_E_tif
  70
32
  10
501754.500
  20
4625150.000
  30
1153.222
  0
VERTEX
  8
PNOA-H_AMS_1956-57_33k_ES_PAN_21mic_H50_0348_fot_34C-40389_E_tif
  70
32
  10
500934.154
  20
4625519.705
  30
1150.32
  0
VERTEX
  8
PNOA-H_AMS_1956-57_33k_ES_PAN_21mic_H50_0348_fot_34C-40389_E_tif
  70
32
  10
500933.500
  20
4625520.000
  30
1150.318
  0
VERTEX
  8
PNOA-H_AMS_1956-57_33k_ES_PAN_21mic_H50_0348_fot_34C-40389_E_tif
  70
32
  10
501084.500
  20
4629513.000
  30
1227.705
  0
VERTEX
  8
PNOA-H_AMS_1956-57_33k_ES_PAN_21mic_H50_0348_fot_34C-40389_E_tif
  70
32
  10
502579.000
  20
4629858.000
  30
1255.34
  0
VERTEX
  8
PNOA-H_AMS_1956-57_33k_ES_PAN_21mic_H50_0348_fot_34C-40389_E_tif
  70
32
  10
502581.500
  20
4629858.500
  30
1255.4
  0
VERTEX
  8
PNOA-H_AMS_1956-57_33k_ES_PAN_21mic_H50_0348_fot_34C-40389_E_tif
  70
32
  10
502583.500
  20
4629858.500
  30
1255.486
  0
VERTEX
  8
PNOA-H_AMS_1956-57_33k_ES_PAN_21mic_H50_0348_fot_34C-40389_E_tif
  70
32
  10
502584.500
  20
4629858.500
  30
1255.529
  0
VERTEX
  8
PNOA-H_AMS_1956-57_33k_ES_PAN_21mic_H50_0348_fot_34C-40389_E_tif
  70
32
  10
502602.000
  20
4629852.500
  30
1256.328
  0
VERTEX
  8
PNOA-H_AMS_1956-57_33k_ES_PAN_21mic_H50_0348_fot_34C-40389_E_tif
  70
32
  10
503411.036
  20
4629567.633
  30
1179.778
  0
VERTEX
  8
PNOA-H_AMS_1956-57_33k_ES_PAN_21mic_H50_0348_fot_34C-40389_E_tif
  70
32
  10
503694.000
  20
4629468.000
  30
1153.005
  0
VERTEX
  8
PNOA-H_AMS_1956-57_33k_ES_PAN_21mic_H50_0348_fot_34C-40389_E_tif
  70
32
  10
503719.000
  20
4625552.500
  30
1138.416
  0
VERTEX
  8
PNOA-H_AMS_1956-57_33k_ES_PAN_21mic_H50_0348_fot_34C-40389_E_tif
  70
32
  10
503718.803
  20
4625531.795
  30
1139.339
  0
VERTEX
  8
PNOA-H_AMS_1956-57_33k_ES_PAN_21mic_H50_0348_fot_34C-40389_E_tif
  70
32
  10
503718.503
  20
4625500.322
  30
1140.742
  0
VERTEX
  8
PNOA-H_AMS_1956-57_33k_ES_PAN_21mic_H50_0348_fot_34C-40389_E_tif
  70
32
  10
503718.500
  20
4625500.000
  30
1140.756
  0
VERTEX
  8
PNOA-H_AMS_1956-57_33k_ES_PAN_21mic_H50_0348_fot_34C-40389_E_tif
  70
32
  10
502075.351
  20
4625207.178
  30
1151.186
  0
VERTEX
  8
PNOA-H_AMS_1956-57_33k_ES_PAN_21mic_H50_0348_fot_34C-40389_E_tif
  70
32
  10
501755.217
  20
4625150.128
  30
1153.218
  0
SEQEND
  8
PNOA-H_AMS_1956-57_33k_ES_PAN_21mic_H50_0348_fot_34C-40389_E_tif
  0
INSERT
  8
FeatureAttribs
  2
FEATURE
  41
1
  42
1
  43
1
  50
0
  10
505066.618
  20
4627503.500
 66
1
  0
ATTRIB
  8
FeatureAttribs
 70
0
  1
PNOA-H_AMS_1956-57_33k_ES_PAN_21mic_H50_0348_fot_34C-40390_E.tif
  2
NAME
  10
505066.618
  20
4627503.500
 40
33.36245
  0
SEQEND
  0
POLYLINE
  8
PNOA-H_AMS_1956-57_33k_ES_PAN_21mic_H50_0348_fot_34C-40390_E_tif
  70
9
  66
1
  0
VERTEX
  8
PNOA-H_AMS_1956-57_33k_ES_PAN_21mic_H50_0348_fot_34C-40390_E_tif
  70
32
  10
506388.000
  20
4625513.000
  30
1129.509
  0
VERTEX
  8
PNOA-H_AMS_1956-57_33k_ES_PAN_21mic_H50_0348_fot_34C-40390_E_tif
  70
32
  10
504461.500
  20
4625164.500
  30
1196.719
  0
VERTEX
  8
PNOA-H_AMS_1956-57_33k_ES_PAN_21mic_H50_0348_fot_34C-40390_E_tif
  70
32
  10
504461.214
  20
4625164.629
  30
1196.698
  0
VERTEX
  8
PNOA-H_AMS_1956-57_33k_ES_PAN_21mic_H50_0348_fot_34C-40390_E_tif
  70
32
  10
504460.500
  20
4625164.953
  30
1196.644
  0
VERTEX
  8
PNOA-H_AMS_1956-57_33k_ES_PAN_21mic_H50_0348_fot_34C-40390_E_tif
  70
32
  10
503719.141
  20
4625500.436
  30
1141.042
  0
VERTEX
  8
PNOA-H_AMS_1956-57_33k_ES_PAN_21mic_H50_0348_fot_34C-40390_E_tif
  70
32
  10
503719.000
  20
4625500.500
  30
1141.032
  0
VERTEX
  8
PNOA-H_AMS_1956-57_33k_ES_PAN_21mic_H50_0348_fot_34C-40390_E_tif
  70
32
  10
503718.803
  20
4625531.795
  30
1141.126
  0
VERTEX
  8
PNOA-H_AMS_1956-57_33k_ES_PAN_21mic_H50_0348_fot_34C-40390_E_tif
  70
32
  10
503694.000
  20
4629468.000
  30
1153.005
  0
VERTEX
  8
PNOA-H_AMS_1956-57_33k_ES_PAN_21mic_H50_0348_fot_34C-40390_E_tif
  70
32
  10
503694.295
  20
4629468.072
  30
1153.009
  0
VERTEX
  8
PNOA-H_AMS_1956-57_33k_ES_PAN_21mic_H50_0348_fot_34C-40390_E_tif
  70
32
  10
504264.000
  20
4629607.000
  30
1160.928
  0
VERTEX
  8
PNOA-H_AMS_1956-57_33k_ES_PAN_21mic_H50_0348_fot_34C-40390_E_tif
  70
32
  10
504266.000
  20
4629607.500
  30
1161.351
  0
VERTEX
  8
PNOA-H_AMS_1956-57_33k_ES_PAN_21mic_H50_0348_fot_34C-40390_E_tif
  70
32
  10
505219.500
  20
4629839.500
  30
1208.749
  0
VERTEX
  8
PNOA-H_AMS_1956-57_33k_ES_PAN_21mic_H50_0348_fot_34C-40390_E_tif
  70
32
  10
505228.956
  20
4629841.273
  30
1208.019
  0
VERTEX
  8
PNOA-H_AMS_1956-57_33k_ES_PAN_21mic_H50_0348_fot_34C-40390_E_tif
  70
32
  10
505234.521
  20
4629842.316
  30
1207.589
  0
VERTEX
  8
PNOA-H_AMS_1956-57_33k_ES_PAN_21mic_H50_0348_fot_34C-40390_E_tif
  70
32
  10
505235.500
  20
4629842.500
  30
1207.513
  0
VERTEX
  8
PNOA-H_AMS_1956-57_33k_ES_PAN_21mic_H50_0348_fot_34C-40390_E_tif
  70
32
  10
506156.125
  20
4629517.375
  30
1210.225
  0
VERTEX
  8
PNOA-H_AMS_1956-57_33k_ES_PAN_21mic_H50_0348_fot_34C-40390_E_tif
  70
32
  10
506463.000
  20
4629409.000
  30
1211.129
  0
VERTEX
  8
PNOA-H_AMS_1956-57_33k_ES_PAN_21mic_H50_0348_fot_34C-40390_E_tif
  70
32
  10
506389.500
  20
4625534.000
  30
1131.138
  0
VERTEX
  8
PNOA-H_AMS_1956-57_33k_ES_PAN_21mic_H50_0348_fot_34C-40390_E_tif
  70
32
  10
506389.043
  20
4625515.260
  30
1129.653
  0
VERTEX
  8
PNOA-H_AMS_1956-57_33k_ES_PAN_21mic_H50_0348_fot_34C-40390_E_tif
  70
32
  10
506389.000
  20
4625513.500
  30
1129.514
  0
VERTEX
  8
PNOA-H_AMS_1956-57_33k_ES_PAN_21mic_H50_0348_fot_34C-40390_E_tif
  70
32
  10
506388.506
  20
4625513.253
  30
1129.511
  0
VERTEX
  8
PNOA-H_AMS_1956-57_33k_ES_PAN_21mic_H50_0348_fot_34C-40390_E_tif
  70
32
  10
506388.000
  20
4625513.000
  30
1129.509
  0
SEQEND
  8
PNOA-H_AMS_1956-57_33k_ES_PAN_21mic_H50_0348_fot_34C-40390_E_tif
  0
INSERT
  8
FeatureAttribs
  2
FEATURE
  41
1
  42
1
  43
1
  50
0
  10
505796.834
  20
4622930.250
 66
1
  0
ATTRIB
  8
FeatureAttribs
 70
0
  1
PNOA-H_AMS_1956-57_33k_ES_PAN_21mic_H50_0348_fot_40501.tif
  2
NAME
  10
505796.834
  20
4622930.250
 40
33.36245
  0
SEQEND
  0
POLYLINE
  8
PNOA-H_AMS_1956-57_33k_ES_PAN_21mic_H50_0348_fot_40501_tif
  70
9
  66
1
  0
VERTEX
  8
PNOA-H_AMS_1956-57_33k_ES_PAN_21mic_H50_0348_fot_40501_tif
  70
32
  10
507146.449
  20
4620499.478
  30
1118.716
  0
VERTEX
  8
PNOA-H_AMS_1956-57_33k_ES_PAN_21mic_H50_0348_fot_40501_tif
  70
32
  10
506792.000
  20
4620347.000
  30
1121.229
  0
VERTEX
  8
PNOA-H_AMS_1956-57_33k_ES_PAN_21mic_H50_0348_fot_40501_tif
  70
32
  10
506791.990
  20
4620347.001
  30
1121.229
  0
VERTEX
  8
PNOA-H_AMS_1956-57_33k_ES_PAN_21mic_H50_0348_fot_40501_tif
  70
32
  10
506558.900
  20
4620361.700
  30
1113.797
  0
VERTEX
  8
PNOA-H_AMS_1956-57_33k_ES_PAN_21mic_H50_0348_fot_40501_tif
  70
32
  10
504463.473
  20
4620493.844
  30
1046.994
  0
VERTEX
  8
PNOA-H_AMS_1956-57_33k_ES_PAN_21mic_H50_0348_fot_40501_tif
  70
32
  10
504461.000
  20
4620494.000
  30
1046.915
  0
VERTEX
  8
PNOA-H_AMS_1956-57_33k_ES_PAN_21mic_H50_0348_fot_40501_tif
  70
32
  10
504460.500
  20
4625164.500
  30
1196.657
  0
VERTEX
  8
PNOA-H_AMS_1956-57_33k_ES_PAN_21mic_H50_0348_fot_40501_tif
  70
32
  10
504461.214
  20
4625164.629
  30
1196.632
  0
VERTEX
  8
PNOA-H_AMS_1956-57_33k_ES_PAN_21mic_H50_0348_fot_40501_tif
  70
32
  10
506385.500
  20
4625513.000
  30
1129.598
  0
VERTEX
  8
PNOA-H_AMS_1956-57_33k_ES_PAN_21mic_H50_0348_fot_40501_tif
  70
32
  10
506388.000
  20
4625513.500
  30
1129.546
  0
VERTEX
  8
PNOA-H_AMS_1956-57_33k_ES_PAN_21mic_H50_0348_fot_40501_tif
  70
32
  10
506388.506
  20
4625513.253
  30
1129.512
  0
VERTEX
  8
PNOA-H_AMS_1956-57_33k_ES_PAN_21mic_H50_0348_fot_40501_tif
  70
32
  10
506389.000
  20
4625513.013
  30
1129.479
  0
VERTEX
  8
PNOA-H_AMS_1956-57_33k_ES_PAN_21mic_H50_0348_fot_40501_tif
  70
32
  10
506407.500
  20
4625503.996
  30
1128.234
  0
VERTEX
  8
PNOA-H_AMS_1956-57_33k_ES_PAN_21mic_H50_0348_fot_40501_tif
  70
32
  10
507120.500
  20
4625156.500
  30
1080.278
  0
VERTEX
  8
PNOA-H_AMS_1956-57_33k_ES_PAN_21mic_H50_0348_fot_40501_tif
  70
32
  10
507146.500
  20
4620499.500
  30
1118.716
  0
VERTEX
  8
PNOA-H_AMS_1956-57_33k_ES_PAN_21mic_H50_0348_fot_40501_tif
  70
32
  10
507146.449
  20
4620499.478
  30
1118.716
  0
SEQEND
  8
PNOA-H_AMS_1956-57_33k_ES_PAN_21mic_H50_0348_fot_40501_tif
  0
INSERT
  8
FeatureAttribs
  2
FEATURE
  41
1
  42
1
  43
1
  50
0
  10
500483.865
  20
4622934.250
 66
1
  0
ATTRIB
  8
FeatureAttribs
 70
0
  1
PNOA-H_AMS_1956-57_33k_ES_PAN_21mic_H50_0348_fot_40503.tif
  2
NAME
  10
500483.865
  20
4622934.250
 40
33.36245
  0
SEQEND
  0
POLYLINE
  8
PNOA-H_AMS_1956-57_33k_ES_PAN_21mic_H50_0348_fot_40503_tif
  70
9
  66
1
  0
VERTEX
  8
PNOA-H_AMS_1956-57_33k_ES_PAN_21mic_H50_0348_fot_40503_tif
  70
32
  10
501856.500
  20
4620564.500
  30
1088.557
  0
VERTEX
  8
PNOA-H_AMS_1956-57_33k_ES_PAN_21mic_H50_0348_fot_40503_tif
  70
32
  10
501312.500
  20
4620348.500
  30
1091.065
  0
VERTEX
  8
PNOA-H_AMS_1956-57_33k_ES_PAN_21mic_H50_0348_fot_40503_tif
  70
32
  10
501312.123
  20
4620348.549
  30
1091.067
  0
VERTEX
  8
PNOA-H_AMS_1956-57_33k_ES_PAN_21mic_H50_0348_fot_40503_tif
  70
32
  10
499185.500
  20
4620624.000
  30
1104.14
  0
VERTEX
  8
PNOA-H_AMS_1956-57_33k_ES_PAN_21mic_H50_0348_fot_40503_tif
  70
32
  10
499142.000
  20
4625176.500
  30
1110.301
  0
VERTEX
  8
PNOA-H_AMS_1956-57_33k_ES_PAN_21mic_H50_0348_fot_40503_tif
  70
32
  10
499450.917
  20
4625235.811
  30
1117.306
  0
VERTEX
  8
PNOA-H_AMS_1956-57_33k_ES_PAN_21mic_H50_0348_fot_40503_tif
  70
32
  10
500928.500
  20
4625519.500
  30
1150.811
  0
VERTEX
  8
PNOA-H_AMS_1956-57_33k_ES_PAN_21mic_H50_0348_fot_40503_tif
  70
32
  10
500931.500
  20
4625520.000
  30
1150.514
  0
VERTEX
  8
PNOA-H_AMS_1956-57_33k_ES_PAN_21mic_H50_0348_fot_40503_tif
  70
32
  10
500932.766
  20
4625519.859
  30
1150.391
  0
VERTEX
  8
PNOA-H_AMS_1956-57_33k_ES_PAN_21mic_H50_0348_fot_40503_tif
  70
32
  10
500934.154
  20
4625519.705
  30
1150.256
  0
VERTEX
  8
PNOA-H_AMS_1956-57_33k_ES_PAN_21mic_H50_0348_fot_40503_tif
  70
32
  10
500936.000
  20
4625519.500
  30
1150.076
  0
VERTEX
  8
PNOA-H_AMS_1956-57_33k_ES_PAN_21mic_H50_0348_fot_40503_tif
  70
32
  10
501755.217
  20
4625150.128
  30
1153.217
  0
VERTEX
  8
PNOA-H_AMS_1956-57_33k_ES_PAN_21mic_H50_0348_fot_40503_tif
  70
32
  10
501755.500
  20
4625150.000
  30
1153.218
  0
VERTEX
  8
PNOA-H_AMS_1956-57_33k_ES_PAN_21mic_H50_0348_fot_40503_tif
  70
32
  10
501856.489
  20
4620564.996
  30
1088.563
  0
VERTEX
  8
PNOA-H_AMS_1956-57_33k_ES_PAN_21mic_H50_0348_fot_40503_tif
  70
32
  10
501856.500
  20
4620564.500
  30
1088.557
  0
SEQEND
  8
PNOA-H_AMS_1956-57_33k_ES_PAN_21mic_H50_0348_fot_40503_tif
  0
INSERT
  8
FeatureAttribs
  2
FEATURE
  41
1
  42
1
  43
1
  50
0
  10
503132.557
  20
4622931.250
 66
1
  0
ATTRIB
  8
FeatureAttribs
 70
0
  1
PNOA-H_AMS_1956-57_33k_ES_PAN_21mic_H50_0348_fot_40502.tif
  2
NAME
  10
503132.557
  20
4622931.250
 40
33.36245
  0
SEQEND
  0
POLYLINE
  8
PNOA-H_AMS_1956-57_33k_ES_PAN_21mic_H50_0348_fot_40502_tif
  70
9
  66
1
  0
VERTEX
  8
PNOA-H_AMS_1956-57_33k_ES_PAN_21mic_H50_0348_fot_40502_tif
  70
32
  10
504162.335
  20
4620371.184
  30
1060.449
  0
VERTEX
  8
PNOA-H_AMS_1956-57_33k_ES_PAN_21mic_H50_0348_fot_40502_tif
  70
32
  10
504140.000
  20
4620362.000
  30
1061.462
  0
VERTEX
  8
PNOA-H_AMS_1956-57_33k_ES_PAN_21mic_H50_0348_fot_40502_tif
  70
32
  10
501856.500
  20
4620565.000
  30
1088.562
  0
VERTEX
  8
PNOA-H_AMS_1956-57_33k_ES_PAN_21mic_H50_0348_fot_40502_tif
  70
32
  10
501755.500
  20
4625150.000
  30
1153.218
  0
VERTEX
  8
PNOA-H_AMS_1956-57_33k_ES_PAN_21mic_H50_0348_fot_40502_tif
  70
32
  10
502075.351
  20
4625207.178
  30
1161.235
  0
VERTEX
  8
PNOA-H_AMS_1956-57_33k_ES_PAN_21mic_H50_0348_fot_40502_tif
  70
32
  10
502217.000
  20
4625232.500
  30
1164.785
  0
VERTEX
  8
PNOA-H_AMS_1956-57_33k_ES_PAN_21mic_H50_0348_fot_40502_tif
  70
32
  10
502219.500
  20
4625233.000
  30
1164.094
  0
VERTEX
  8
PNOA-H_AMS_1956-57_33k_ES_PAN_21mic_H50_0348_fot_40502_tif
  70
32
  10
503718.503
  20
4625500.322
  30
1141.246
  0
VERTEX
  8
PNOA-H_AMS_1956-57_33k_ES_PAN_21mic_H50_0348_fot_40502_tif
  70
32
  10
503719.141
  20
4625500.436
  30
1141.236
  0
VERTEX
  8
PNOA-H_AMS_1956-57_33k_ES_PAN_21mic_H50_0348_fot_40502_tif
  70
32
  10
503719.500
  20
4625500.500
  30
1141.231
  0
VERTEX
  8
PNOA-H_AMS_1956-57_33k_ES_PAN_21mic_H50_0348_fot_40502_tif
  70
32
  10
504460.500
  20
4625165.000
  30
1196.493
  0
VERTEX
  8
PNOA-H_AMS_1956-57_33k_ES_PAN_21mic_H50_0348_fot_40502_tif
  70
32
  10
504460.500
  20
4625164.953
  30
1196.492
  0
VERTEX
  8
PNOA-H_AMS_1956-57_33k_ES_PAN_21mic_H50_0348_fot_40502_tif
  70
32
  10
504460.500
  20
4625164.500
  30
1196.477
  0
VERTEX
  8
PNOA-H_AMS_1956-57_33k_ES_PAN_21mic_H50_0348_fot_40502_tif
  70
32
  10
504461.000
  20
4620494.000
  30
1046.915
  0
VERTEX
  8
PNOA-H_AMS_1956-57_33k_ES_PAN_21mic_H50_0348_fot_40502_tif
  70
32
  10
504459.965
  20
4620493.574
  30
1046.962
  0
VERTEX
  8
PNOA-H_AMS_1956-57_33k_ES_PAN_21mic_H50_0348_fot_40502_tif
  70
32
  10
504162.335
  20
4620371.184
  30
1060.449
  0
SEQEND
  8
PNOA-H_AMS_1956-57_33k_ES_PAN_21mic_H50_0348_fot_40502_tif
  0
INSERT
  8
FeatureAttribs
  2
FEATURE
  41
1
  42
1
  43
1
  50
0
  10
507789.312
  20
4627481.750
 66
1
  0
ATTRIB
  8
FeatureAttribs
 70
0
  1
PNOA-H_AMS_1956-57_33k_ES_PAN_21mic_H50_0348_fot_34C-40391_E.tif
  2
NAME
  10
507789.312
  20
4627481.750
 40
33.36245
  0
SEQEND
  0
POLYLINE
  8
PNOA-H_AMS_1956-57_33k_ES_PAN_21mic_H50_0348_fot_34C-40391_E_tif
  70
9
  66
1
  0
VERTEX
  8
PNOA-H_AMS_1956-57_33k_ES_PAN_21mic_H50_0348_fot_34C-40391_E_tif
  70
32
  10
507901.966
  20
4629806.852
  30
1174.156
  0
VERTEX
  8
PNOA-H_AMS_1956-57_33k_ES_PAN_21mic_H50_0348_fot_34C-40391_E_tif
  70
32
  10
508363.000
  20
4629660.500
  30
1157.224
  0
VERTEX
  8
PNOA-H_AMS_1956-57_33k_ES_PAN_21mic_H50_0348_fot_34C-40391_E_tif
  70
32
  10
508363.739
  20
4629660.500
  30
1157.217
  0
VERTEX
  8
PNOA-H_AMS_1956-57_33k_ES_PAN_21mic_H50_0348_fot_34C-40391_E_tif
  70
32
  10
508364.000
  20
4629660.500
  30
1157.215
  0
VERTEX
  8
PNOA-H_AMS_1956-57_33k_ES_PAN_21mic_H50_0348_fot_34C-40391_E_tif
  70
32
  10
509131.399
  20
4629417.275
  30
1219.708
  0
VERTEX
  8
PNOA-H_AMS_1956-57_33k_ES_PAN_21mic_H50_0348_fot_34C-40391_E_tif
  70
32
  10
509137.000
  20
4629415.500
  30
1220.164
  0
VERTEX
  8
PNOA-H_AMS_1956-57_33k_ES_PAN_21mic_H50_0348_fot_34C-40391_E_tif
  70
32
  10
509168.000
  20
4625479.500
  30
1294.402
  0
VERTEX
  8
PNOA-H_AMS_1956-57_33k_ES_PAN_21mic_H50_0348_fot_34C-40391_E_tif
  70
32
  10
507121.500
  20
4625156.500
  30
1080.156
  0
VERTEX
  8
PNOA-H_AMS_1956-57_33k_ES_PAN_21mic_H50_0348_fot_34C-40391_E_tif
  70
32
  10
507121.255
  20
4625156.619
  30
1080.172
  0
VERTEX
  8
PNOA-H_AMS_1956-57_33k_ES_PAN_21mic_H50_0348_fot_34C-40391_E_tif
  70
32
  10
506407.500
  20
4625503.996
  30
1128.233
  0
VERTEX
  8
PNOA-H_AMS_1956-57_33k_ES_PAN_21mic_H50_0348_fot_34C-40391_E_tif
  70
32
  10
506389.000
  20
4625513.000
  30
1129.478
  0
VERTEX
  8
PNOA-H_AMS_1956-57_33k_ES_PAN_21mic_H50_0348_fot_34C-40391_E_tif
  70
32
  10
506389.000
  20
4625513.013
  30
1129.479
  0
VERTEX
  8
PNOA-H_AMS_1956-57_33k_ES_PAN_21mic_H50_0348_fot_34C-40391_E_tif
  70
32
  10
506389.043
  20
4625515.260
  30
1129.526
  0
VERTEX
  8
PNOA-H_AMS_1956-57_33k_ES_PAN_21mic_H50_0348_fot_34C-40391_E_tif
  70
32
  10
506463.000
  20
4629409.000
  30
1211.129
  0
VERTEX
  8
PNOA-H_AMS_1956-57_33k_ES_PAN_21mic_H50_0348_fot_34C-40391_E_tif
  70
32
  10
506463.280
  20
4629409.078
  30
1211.122
  0
VERTEX
  8
PNOA-H_AMS_1956-57_33k_ES_PAN_21mic_H50_0348_fot_34C-40391_E_tif
  70
32
  10
507901.500
  20
4629807.000
  30
1174.173
  0
VERTEX
  8
PNOA-H_AMS_1956-57_33k_ES_PAN_21mic_H50_0348_fot_34C-40391_E_tif
  70
32
  10
507901.966
  20
4629806.852
  30
1174.156
  0
SEQEND
  8
PNOA-H_AMS_1956-57_33k_ES_PAN_21mic_H50_0348_fot_34C-40391_E_tif
  0
INSERT
  8
FeatureAttribs
  2
FEATURE
  41
1
  42
1
  43
1
  50
0
  10
510494.197
  20
4627504.750
 66
1
  0
ATTRIB
  8
FeatureAttribs
 70
0
  1
PNOA-H_AMS_1956-57_33k_ES_PAN_21mic_H50_0348_fot_34C-40392_E.tif
  2
NAME
  10
510494.197
  20
4627504.750
 40
33.36245
  0
SEQEND
  0
POLYLINE
  8
PNOA-H_AMS_1956-57_33k_ES_PAN_21mic_H50_0348_fot_34C-40392_E_tif
  70
9
  66
1
  0
VERTEX
  8
PNOA-H_AMS_1956-57_33k_ES_PAN_21mic_H50_0348_fot_34C-40392_E_tif
  70
32
  10
511845.000
  20
4625502.000
  30
1141.114
  0
VERTEX
  8
PNOA-H_AMS_1956-57_33k_ES_PAN_21mic_H50_0348_fot_34C-40392_E_tif
  70
32
  10
509764.000
  20
4625190.000
  30
1235.512
  0
VERTEX
  8
PNOA-H_AMS_1956-57_33k_ES_PAN_21mic_H50_0348_fot_34C-40392_E_tif
  70
32
  10
509763.882
  20
4625190.057
  30
1235.524
  0
VERTEX
  8
PNOA-H_AMS_1956-57_33k_ES_PAN_21mic_H50_0348_fot_34C-40392_E_tif
  70
32
  10
509763.503
  20
4625190.241
  30
1235.561
  0
VERTEX
  8
PNOA-H_AMS_1956-57_33k_ES_PAN_21mic_H50_0348_fot_34C-40392_E_tif
  70
32
  10
509168.000
  20
4625479.500
  30
1294.402
  0
VERTEX
  8
PNOA-H_AMS_1956-57_33k_ES_PAN_21mic_H50_0348_fot_34C-40392_E_tif
  70
32
  10
509137.000
  20
4629415.500
  30
1220.164
  0
VERTEX
  8
PNOA-H_AMS_1956-57_33k_ES_PAN_21mic_H50_0348_fot_34C-40392_E_tif
  70
32
  10
509137.702
  20
4629415.700
  30
1220.129
  0
VERTEX
  8
PNOA-H_AMS_1956-57_33k_ES_PAN_21mic_H50_0348_fot_34C-40392_E_tif
  70
32
  10
510555.000
  20
4629819.000
  30
1149.611
  0
VERTEX
  8
PNOA-H_AMS_1956-57_33k_ES_PAN_21mic_H50_0348_fot_34C-40392_E_tif
  70
32
  10
510556.494
  20
4629819.498
  30
1149.535
  0
VERTEX
  8
PNOA-H_AMS_1956-57_33k_ES_PAN_21mic_H50_0348_fot_34C-40392_E_tif
  70
32
  10
510556.500
  20
4629819.500
  30
1149.535
  0
VERTEX
  8
PNOA-H_AMS_1956-57_33k_ES_PAN_21mic_H50_0348_fot_34C-40392_E_tif
  70
32
  10
510925.598
  20
4629708.175
  30
1153.872
  0
VERTEX
  8
PNOA-H_AMS_1956-57_33k_ES_PAN_21mic_H50_0348_fot_34C-40392_E_tif
  70
32
  10
511823.414
  20
4629437.383
  30
1164.423
  0
VERTEX
  8
PNOA-H_AMS_1956-57_33k_ES_PAN_21mic_H50_0348_fot_34C-40392_E_tif
  70
32
  10
511828.000
  20
4629436.000
  30
1164.477
  0
VERTEX
  8
PNOA-H_AMS_1956-57_33k_ES_PAN_21mic_H50_0348_fot_34C-40392_E_tif
  70
32
  10
511845.000
  20
4625502.000
  30
1141.114
  0
SEQEND
  8
PNOA-H_AMS_1956-57_33k_ES_PAN_21mic_H50_0348_fot_34C-40392_E_tif
  0
INSERT
  8
FeatureAttribs
  2
FEATURE
  41
1
  42
1
  43
1
  50
0
  10
511976.081
  20
4627443.197
 66
1
  0
ATTRIB
  8
FeatureAttribs
 70
0
  1
PNOA-H_AMS_1956-57_33k_ES_PAN_21mic_H50_0349_fot_34C-40393_E.tif
  2
NAME
  10
511976.081
  20
4627443.197
 40
33.36245
  0
SEQEND
  0
POLYLINE
  8
PNOA-H_AMS_1956-57_33k_ES_PAN_21mic_H50_0349_fot_34C-40393_E_tif
  70
9
  66
1
  0
VERTEX
  8
PNOA-H_AMS_1956-57_33k_ES_PAN_21mic_H50_0349_fot_34C-40393_E_tif
  70
32
  10
512119.076
  20
4625364.542
  30
0
  0
VERTEX
  8
PNOA-H_AMS_1956-57_33k_ES_PAN_21mic_H50_0349_fot_34C-40393_E_tif
  70
32
  10
512119.077
  20
4625364.059
  30
1128.389
  0
VERTEX
  8
PNOA-H_AMS_1956-57_33k_ES_PAN_21mic_H50_0349_fot_34C-40393_E_tif
  70
32
  10
511845.000
  20
4625502.000
  30
1141.114
  0
VERTEX
  8
PNOA-H_AMS_1956-57_33k_ES_PAN_21mic_H50_0349_fot_34C-40393_E_tif
  70
32
  10
511828.000
  20
4629436.000
  30
1164.477
  0
VERTEX
  8
PNOA-H_AMS_1956-57_33k_ES_PAN_21mic_H50_0349_fot_34C-40393_E_tif
  70
32
  10
511828.642
  20
4629436.195
  30
1164.432
  0
VERTEX
  8
PNOA-H_AMS_1956-57_33k_ES_PAN_21mic_H50_0349_fot_34C-40393_E_tif
  70
32
  10
512112.022
  20
4629522.334
  30
1144.494
  0
VERTEX
  8
PNOA-H_AMS_1956-57_33k_ES_PAN_21mic_H50_0349_fot_34C-40393_E_tif
  70
32
  10
512112.023
  20
4629521.866
  30
0
  0
VERTEX
  8
PNOA-H_AMS_1956-57_33k_ES_PAN_21mic_H50_0349_fot_34C-40393_E_tif
  70
32
  10
512112.962
  20
4628968.933
  30
0
  0
VERTEX
  8
PNOA-H_AMS_1956-57_33k_ES_PAN_21mic_H50_0349_fot_34C-40393_E_tif
  70
32
  10
512116.886
  20
4626655.911
  30
0
  0
VERTEX
  8
PNOA-H_AMS_1956-57_33k_ES_PAN_21mic_H50_0349_fot_34C-40393_E_tif
  70
32
  10
512119.076
  20
4625364.542
  30
0
  0
SEQEND
  8
PNOA-H_AMS_1956-57_33k_ES_PAN_21mic_H50_0349_fot_34C-40393_E_tif
  0
INSERT
  8
FeatureAttribs
  2
FEATURE
  41
1
  42
1
  43
1
  50
0
  10
510957.291
  20
4622979.505
 66
1
  0
ATTRIB
  8
FeatureAttribs
 70
0
  1
PNOA-H_AMS_1956-57_33k_ES_PAN_21mic_H50_0348_fot_40499.tif
  2
NAME
  10
510957.291
  20
4622979.505
 40
33.36245
  0
SEQEND
  0
POLYLINE
  8
PNOA-H_AMS_1956-57_33k_ES_PAN_21mic_H50_0348_fot_40499_tif
  70
9
  66
1
  0
VERTEX
  8
PNOA-H_AMS_1956-57_33k_ES_PAN_21mic_H50_0348_fot_40499_tif
  70
32
  10
512127.395
  20
4620457.016
  30
0
  0
VERTEX
  8
PNOA-H_AMS_1956-57_33k_ES_PAN_21mic_H50_0348_fot_40499_tif
  70
32
  10
512127.395
  20
4620457.011
  30
1108.629
  0
VERTEX
  8
PNOA-H_AMS_1956-57_33k_ES_PAN_21mic_H50_0348_fot_40499_tif
  70
32
  10
510406.375
  20
4620538.000
  30
1082.529
  0
VERTEX
  8
PNOA-H_AMS_1956-57_33k_ES_PAN_21mic_H50_0348_fot_40499_tif
  70
32
  10
509822.000
  20
4620565.500
  30
1073.667
  0
VERTEX
  8
PNOA-H_AMS_1956-57_33k_ES_PAN_21mic_H50_0348_fot_40499_tif
  70
32
  10
509763.500
  20
4625190.000
  30
1235.555
  0
VERTEX
  8
PNOA-H_AMS_1956-57_33k_ES_PAN_21mic_H50_0348_fot_40499_tif
  70
32
  10
509763.506
  20
4625190.001
  30
1235.555
  0
VERTEX
  8
PNOA-H_AMS_1956-57_33k_ES_PAN_21mic_H50_0348_fot_40499_tif
  70
32
  10
509763.882
  20
4625190.057
  30
1235.538
  0
VERTEX
  8
PNOA-H_AMS_1956-57_33k_ES_PAN_21mic_H50_0348_fot_40499_tif
  70
32
  10
511839.000
  20
4625501.500
  30
1141.514
  0
VERTEX
  8
PNOA-H_AMS_1956-57_33k_ES_PAN_21mic_H50_0348_fot_40499_tif
  70
32
  10
511842.000
  20
4625502.000
  30
1141.317
  0
VERTEX
  8
PNOA-H_AMS_1956-57_33k_ES_PAN_21mic_H50_0348_fot_40499_tif
  70
32
  10
511845.000
  20
4625502.000
  30
1141.114
  0
VERTEX
  8
PNOA-H_AMS_1956-57_33k_ES_PAN_21mic_H50_0348_fot_40499_tif
  70
32
  10
511845.500
  20
4625502.000
  30
1141.08
  0
VERTEX
  8
PNOA-H_AMS_1956-57_33k_ES_PAN_21mic_H50_0348_fot_40499_tif
  70
32
  10
512119.076
  20
4625364.542
  30
1127.874
  0
VERTEX
  8
PNOA-H_AMS_1956-57_33k_ES_PAN_21mic_H50_0348_fot_40499_tif
  70
32
  10
512119.077
  20
4625364.059
  30
0
  0
VERTEX
  8
PNOA-H_AMS_1956-57_33k_ES_PAN_21mic_H50_0348_fot_40499_tif
  70
32
  10
512120.808
  20
4624342.897
  30
0
  0
VERTEX
  8
PNOA-H_AMS_1956-57_33k_ES_PAN_21mic_H50_0348_fot_40499_tif
  70
32
  10
512124.729
  20
4622029.892
  30
0
  0
VERTEX
  8
PNOA-H_AMS_1956-57_33k_ES_PAN_21mic_H50_0348_fot_40499_tif
  70
32
  10
512127.395
  20
4620457.016
  30
0
  0
SEQEND
  8
PNOA-H_AMS_1956-57_33k_ES_PAN_21mic_H50_0348_fot_40499_tif
  0
INSERT
  8
FeatureAttribs
  2
FEATURE
  41
1
  42
1
  43
1
  50
0
  10
508462.470
  20
4622934.500
 66
1
  0
ATTRIB
  8
FeatureAttribs
 70
0
  1
PNOA-H_AMS_1956-57_33k_ES_PAN_21mic_H50_0348_fot_40500.tif
  2
NAME
  10
508462.470
  20
4622934.500
 40
33.36245
  0
SEQEND
  0
POLYLINE
  8
PNOA-H_AMS_1956-57_33k_ES_PAN_21mic_H50_0348_fot_40500_tif
  70
9
  66
1
  0
VERTEX
  8
PNOA-H_AMS_1956-57_33k_ES_PAN_21mic_H50_0348_fot_40500_tif
  70
32
  10
509821.902
  20
4620565.458
  30
1073.654
  0
VERTEX
  8
PNOA-H_AMS_1956-57_33k_ES_PAN_21mic_H50_0348_fot_40500_tif
  70
32
  10
509414.000
  20
4620389.500
  30
1021.772
  0
VERTEX
  8
PNOA-H_AMS_1956-57_33k_ES_PAN_21mic_H50_0348_fot_40500_tif
  70
32
  10
509413.550
  20
4620389.522
  30
1021.791
  0
VERTEX
  8
PNOA-H_AMS_1956-57_33k_ES_PAN_21mic_H50_0348_fot_40500_tif
  70
32
  10
507146.500
  20
4620499.500
  30
1118.716
  0
VERTEX
  8
PNOA-H_AMS_1956-57_33k_ES_PAN_21mic_H50_0348_fot_40500_tif
  70
32
  10
507120.500
  20
4625156.500
  30
1080.278
  0
VERTEX
  8
PNOA-H_AMS_1956-57_33k_ES_PAN_21mic_H50_0348_fot_40500_tif
  70
32
  10
507121.255
  20
4625156.619
  30
1080.357
  0
VERTEX
  8
PNOA-H_AMS_1956-57_33k_ES_PAN_21mic_H50_0348_fot_40500_tif
  70
32
  10
509163.500
  20
4625479.000
  30
1294.135
  0
VERTEX
  8
PNOA-H_AMS_1956-57_33k_ES_PAN_21mic_H50_0348_fot_40500_tif
  70
32
  10
509166.500
  20
4625479.500
  30
1294.311
  0
VERTEX
  8
PNOA-H_AMS_1956-57_33k_ES_PAN_21mic_H50_0348_fot_40500_tif
  70
32
  10
509168.000
  20
4625479.500
  30
1294.408
  0
VERTEX
  8
PNOA-H_AMS_1956-57_33k_ES_PAN_21mic_H50_0348_fot_40500_tif
  70
32
  10
509168.500
  20
4625479.500
  30
1294.44
  0
VERTEX
  8
PNOA-H_AMS_1956-57_33k_ES_PAN_21mic_H50_0348_fot_40500_tif
  70
32
  10
509763.500
  20
4625190.500
  30
1235.619
  0
VERTEX
  8
PNOA-H_AMS_1956-57_33k_ES_PAN_21mic_H50_0348_fot_40500_tif
  70
32
  10
509763.503
  20
4625190.241
  30
1235.609
  0
VERTEX
  8
PNOA-H_AMS_1956-57_33k_ES_PAN_21mic_H50_0348_fot_40500_tif
  70
32
  10
509763.506
  20
4625190.001
  30
1235.601
  0
VERTEX
  8
PNOA-H_AMS_1956-57_33k_ES_PAN_21mic_H50_0348_fot_40500_tif
  70
32
  10
509822.000
  20
4620565.500
  30
1073.667
  0
VERTEX
  8
PNOA-H_AMS_1956-57_33k_ES_PAN_21mic_H50_0348_fot_40500_tif
  70
32
  10
509821.902
  20
4620565.458
  30
1073.654
  0
SEQEND
  8
PNOA-H_AMS_1956-57_33k_ES_PAN_21mic_H50_0348_fot_40500_tif
  0
INSERT
  8
FeatureAttribs
  2
FEATURE
  41
1
  42
1
  43
1
  50
0
  10
508159.743
  20
4618068.500
 66
1
  0
ATTRIB
  8
FeatureAttribs
 70
0
  1
PNOA-H_AMS_1956-57_33k_ES_PAN_21mic_H50_0348_fot_37206.tif
  2
NAME
  10
508159.743
  20
4618068.500
 40
33.36245
  0
SEQEND
  0
POLYLINE
  8
PNOA-H_AMS_1956-57_33k_ES_PAN_21mic_H50_0348_fot_37206_tif
  70
9
  66
1
  0
VERTEX
  8
PNOA-H_AMS_1956-57_33k_ES_PAN_21mic_H50_0348_fot_37206_tif
  70
32
  10
509584.313
  20
4616095.342
  30
1012.457
  0
VERTEX
  8
PNOA-H_AMS_1956-57_33k_ES_PAN_21mic_H50_0348_fot_37206_tif
  70
32
  10
507590.500
  20
4615637.500
  30
1024.149
  0
VERTEX
  8
PNOA-H_AMS_1956-57_33k_ES_PAN_21mic_H50_0348_fot_37206_tif
  70
32
  10
507590.307
  20
4615637.602
  30
1024.16
  0
VERTEX
  8
PNOA-H_AMS_1956-57_33k_ES_PAN_21mic_H50_0348_fot_37206_tif
  70
32
  10
506833.500
  20
4616038.000
  30
1064.144
  0
VERTEX
  8
PNOA-H_AMS_1956-57_33k_ES_PAN_21mic_H50_0348_fot_37206_tif
  70
32
  10
506832.937
  20
4616045.037
  30
1063.382
  0
VERTEX
  8
PNOA-H_AMS_1956-57_33k_ES_PAN_21mic_H50_0348_fot_37206_tif
  70
32
  10
506832.500
  20
4616050.500
  30
1062.79
  0
VERTEX
  8
PNOA-H_AMS_1956-57_33k_ES_PAN_21mic_H50_0348_fot_37206_tif
  70
32
  10
506791.500
  20
4620321.500
  30
1124.014
  0
VERTEX
  8
PNOA-H_AMS_1956-57_33k_ES_PAN_21mic_H50_0348_fot_37206_tif
  70
32
  10
506791.664
  20
4620330.010
  30
1123.081
  0
VERTEX
  8
PNOA-H_AMS_1956-57_33k_ES_PAN_21mic_H50_0348_fot_37206_tif
  70
32
  10
506791.990
  20
4620347.001
  30
1121.22
  0
VERTEX
  8
PNOA-H_AMS_1956-57_33k_ES_PAN_21mic_H50_0348_fot_37206_tif
  70
32
  10
506792.000
  20
4620347.500
  30
1121.165
  0
VERTEX
  8
PNOA-H_AMS_1956-57_33k_ES_PAN_21mic_H50_0348_fot_37206_tif
  70
32
  10
507146.000
  20
4620499.500
  30
1118.762
  0
VERTEX
  8
PNOA-H_AMS_1956-57_33k_ES_PAN_21mic_H50_0348_fot_37206_tif
  70
32
  10
507146.449
  20
4620499.478
  30
1118.743
  0
VERTEX
  8
PNOA-H_AMS_1956-57_33k_ES_PAN_21mic_H50_0348_fot_37206_tif
  70
32
  10
509413.500
  20
4620389.500
  30
1021.77
  0
VERTEX
  8
PNOA-H_AMS_1956-57_33k_ES_PAN_21mic_H50_0348_fot_37206_tif
  70
32
  10
509518.000
  20
4617777.500
  30
1024.354
  0
VERTEX
  8
PNOA-H_AMS_1956-57_33k_ES_PAN_21mic_H50_0348_fot_37206_tif
  70
32
  10
509518.000
  20
4617766.000
  30
1019.92
  0
VERTEX
  8
PNOA-H_AMS_1956-57_33k_ES_PAN_21mic_H50_0348_fot_37206_tif
  70
32
  10
509518.000
  20
4617765.000
  30
1020.464
  0
VERTEX
  8
PNOA-H_AMS_1956-57_33k_ES_PAN_21mic_H50_0348_fot_37206_tif
  70
32
  10
509523.338
  20
4617632.000
  30
1019.826
  0
VERTEX
  8
PNOA-H_AMS_1956-57_33k_ES_PAN_21mic_H50_0348_fot_37206_tif
  70
32
  10
509585.000
  20
4616095.500
  30
1012.453
  0
VERTEX
  8
PNOA-H_AMS_1956-57_33k_ES_PAN_21mic_H50_0348_fot_37206_tif
  70
32
  10
509584.845
  20
4616095.464
  30
1012.454
  0
VERTEX
  8
PNOA-H_AMS_1956-57_33k_ES_PAN_21mic_H50_0348_fot_37206_tif
  70
32
  10
509584.313
  20
4616095.342
  30
1012.457
  0
SEQEND
  8
PNOA-H_AMS_1956-57_33k_ES_PAN_21mic_H50_0348_fot_37206_tif
  0
INSERT
  8
FeatureAttribs
  2
FEATURE
  41
1
  42
1
  43
1
  50
0
  10
505432.912
  20
4618040.000
 66
1
  0
ATTRIB
  8
FeatureAttribs
 70
0
  1
PNOA-H_AMS_1956-57_33k_ES_PAN_21mic_H50_0348_fot_37205.tif
  2
NAME
  10
505432.912
  20
4618040.000
 40
33.36245
  0
SEQEND
  0
POLYLINE
  8
PNOA-H_AMS_1956-57_33k_ES_PAN_21mic_H50_0348_fot_37205_tif
  70
9
  66
1
  0
VERTEX
  8
PNOA-H_AMS_1956-57_33k_ES_PAN_21mic_H50_0348_fot_37205_tif
  70
32
  10
504899.681
  20
4615586.159
  30
1070.953
  0
VERTEX
  8
PNOA-H_AMS_1956-57_33k_ES_PAN_21mic_H50_0348_fot_37205_tif
  70
32
  10
504899.000
  20
4615586.000
  30
1070.955
  0
VERTEX
  8
PNOA-H_AMS_1956-57_33k_ES_PAN_21mic_H50_0348_fot_37205_tif
  70
32
  10
504429.128
  20
4615821.063
  30
1066.894
  0
VERTEX
  8
PNOA-H_AMS_1956-57_33k_ES_PAN_21mic_H50_0348_fot_37205_tif
  70
32
  10
503977.500
  20
4616047.000
  30
1062.99
  0
VERTEX
  8
PNOA-H_AMS_1956-57_33k_ES_PAN_21mic_H50_0348_fot_37205_tif
  70
32
  10
504139.000
  20
4620361.500
  30
1061.616
  0
VERTEX
  8
PNOA-H_AMS_1956-57_33k_ES_PAN_21mic_H50_0348_fot_37205_tif
  70
32
  10
504139.489
  20
4620361.703
  30
1061.574
  0
VERTEX
  8
PNOA-H_AMS_1956-57_33k_ES_PAN_21mic_H50_0348_fot_37205_tif
  70
32
  10
504162.335
  20
4620371.184
  30
1059.642
  0
VERTEX
  8
PNOA-H_AMS_1956-57_33k_ES_PAN_21mic_H50_0348_fot_37205_tif
  70
32
  10
504265.500
  20
4620414.000
  30
1050.918
  0
VERTEX
  8
PNOA-H_AMS_1956-57_33k_ES_PAN_21mic_H50_0348_fot_37205_tif
  70
32
  10
504266.500
  20
4620414.500
  30
1050.894
  0
VERTEX
  8
PNOA-H_AMS_1956-57_33k_ES_PAN_21mic_H50_0348_fot_37205_tif
  70
32
  10
504459.000
  20
4620493.500
  30
1046.886
  0
VERTEX
  8
PNOA-H_AMS_1956-57_33k_ES_PAN_21mic_H50_0348_fot_37205_tif
  70
32
  10
504459.965
  20
4620493.574
  30
1046.897
  0
VERTEX
  8
PNOA-H_AMS_1956-57_33k_ES_PAN_21mic_H50_0348_fot_37205_tif
  70
32
  10
504463.473
  20
4620493.844
  30
1046.941
  0
VERTEX
  8
PNOA-H_AMS_1956-57_33k_ES_PAN_21mic_H50_0348_fot_37205_tif
  70
32
  10
504465.500
  20
4620494.000
  30
1046.966
  0
VERTEX
  8
PNOA-H_AMS_1956-57_33k_ES_PAN_21mic_H50_0348_fot_37205_tif
  70
32
  10
506558.900
  20
4620361.700
  30
1113.827
  0
VERTEX
  8
PNOA-H_AMS_1956-57_33k_ES_PAN_21mic_H50_0348_fot_37205_tif
  70
32
  10
506791.500
  20
4620347.000
  30
1121.256
  0
VERTEX
  8
PNOA-H_AMS_1956-57_33k_ES_PAN_21mic_H50_0348_fot_37205_tif
  70
32
  10
506791.664
  20
4620330.010
  30
1121.031
  0
VERTEX
  8
PNOA-H_AMS_1956-57_33k_ES_PAN_21mic_H50_0348_fot_37205_tif
  70
32
  10
506832.937
  20
4616045.037
  30
1064.201
  0
VERTEX
  8
PNOA-H_AMS_1956-57_33k_ES_PAN_21mic_H50_0348_fot_37205_tif
  70
32
  10
506833.000
  20
4616038.500
  30
1064.114
  0
VERTEX
  8
PNOA-H_AMS_1956-57_33k_ES_PAN_21mic_H50_0348_fot_37205_tif
  70
32
  10
506832.307
  20
4616038.338
  30
1064.116
  0
VERTEX
  8
PNOA-H_AMS_1956-57_33k_ES_PAN_21mic_H50_0348_fot_37205_tif
  70
32
  10
505716.552
  20
4615777.284
  30
1068.063
  0
VERTEX
  8
PNOA-H_AMS_1956-57_33k_ES_PAN_21mic_H50_0348_fot_37205_tif
  70
32
  10
504899.681
  20
4615586.159
  30
1070.953
  0
SEQEND
  8
PNOA-H_AMS_1956-57_33k_ES_PAN_21mic_H50_0348_fot_37205_tif
  0
INSERT
  8
FeatureAttribs
  2
FEATURE
  41
1
  42
1
  43
1
  50
0
  10
511207.500
  20
4620725.000
 66
1
  0
ATTRIB
  8
FeatureAttribs
 70
0
  1
PNOA-H_AMS_1956-57_33k_ES_PAN_21mic_H50_0348_fot_37207.tif
  2
NAME
  10
511207.500
  20
4620725.000
 40
33.36245
  0
SEQEND
  0
POLYLINE
  8
PNOA-H_AMS_1956-57_33k_ES_PAN_21mic_H50_0348_fot_37207_tif
  70
9
  66
1
  0
VERTEX
  8
PNOA-H_AMS_1956-57_33k_ES_PAN_21mic_H50_0348_fot_37207_tif
  70
32
  10
511214.000
  20
4620715.500
  30
1041.658
  0
VERTEX
  8
PNOA-H_AMS_1956-57_33k_ES_PAN_21mic_H50_0348_fot_37207_tif
  70
32
  10
511201.000
  20
4620715.500
  30
1048.686
  0
VERTEX
  8
PNOA-H_AMS_1956-57_33k_ES_PAN_21mic_H50_0348_fot_37207_tif
  70
32
  10
511197.906
  20
4620717.906
  30
1051.919
  0
VERTEX
  8
PNOA-H_AMS_1956-57_33k_ES_PAN_21mic_H50_0348_fot_37207_tif
  70
32
  10
511196.500
  20
4620719.000
  30
1053.389
  0
VERTEX
  8
PNOA-H_AMS_1956-57_33k_ES_PAN_21mic_H50_0348_fot_37207_tif
  70
32
  10
511195.500
  20
4620721.000
  30
1055.891
  0
VERTEX
  8
PNOA-H_AMS_1956-57_33k_ES_PAN_21mic_H50_0348_fot_37207_tif
  70
32
  10
511195.500
  20
4620729.000
  30
1068.57
  0
VERTEX
  8
PNOA-H_AMS_1956-57_33k_ES_PAN_21mic_H50_0348_fot_37207_tif
  70
32
  10
511199.167
  20
4620733.074
  30
1071.632
  0
VERTEX
  8
PNOA-H_AMS_1956-57_33k_ES_PAN_21mic_H50_0348_fot_37207_tif
  70
32
  10
511200.000
  20
4620734.000
  30
1072.328
  0
VERTEX
  8
PNOA-H_AMS_1956-57_33k_ES_PAN_21mic_H50_0348_fot_37207_tif
  70
32
  10
511201.000
  20
4620734.500
  30
1071.989
  0
VERTEX
  8
PNOA-H_AMS_1956-57_33k_ES_PAN_21mic_H50_0348_fot_37207_tif
  70
32
  10
511214.000
  20
4620734.500
  30
1065.031
  0
VERTEX
  8
PNOA-H_AMS_1956-57_33k_ES_PAN_21mic_H50_0348_fot_37207_tif
  70
32
  10
511215.833
  20
4620733.074
  30
1061.975
  0
VERTEX
  8
PNOA-H_AMS_1956-57_33k_ES_PAN_21mic_H50_0348_fot_37207_tif
  70
32
  10
511218.500
  20
4620731.000
  30
1057.531
  0
VERTEX
  8
PNOA-H_AMS_1956-57_33k_ES_PAN_21mic_H50_0348_fot_37207_tif
  70
32
  10
511219.500
  20
4620729.000
  30
1053.297
  0
VERTEX
  8
PNOA-H_AMS_1956-57_33k_ES_PAN_21mic_H50_0348_fot_37207_tif
  70
32
  10
511219.500
  20
4620721.000
  30
1042.226
  0
VERTEX
  8
PNOA-H_AMS_1956-57_33k_ES_PAN_21mic_H50_0348_fot_37207_tif
  70
32
  10
511217.094
  20
4620717.906
  30
1041.369
  0
VERTEX
  8
PNOA-H_AMS_1956-57_33k_ES_PAN_21mic_H50_0348_fot_37207_tif
  70
32
  10
511216.000
  20
4620716.500
  30
1040.979
  0
VERTEX
  8
PNOA-H_AMS_1956-57_33k_ES_PAN_21mic_H50_0348_fot_37207_tif
  70
32
  10
511214.000
  20
4620715.500
  30
1041.658
  0
SEQEND
  8
PNOA-H_AMS_1956-57_33k_ES_PAN_21mic_H50_0348_fot_37207_tif
  0
INSERT
  8
FeatureAttribs
  2
FEATURE
  41
1
  42
1
  43
1
  50
0
  10
511374.862
  20
4620635.000
 66
1
  0
ATTRIB
  8
FeatureAttribs
 70
0
  1
PNOA-H_AMS_1956-57_33k_ES_PAN_21mic_H50_0348_fot_37207.tif
  2
NAME
  10
511374.862
  20
4620635.000
 40
33.36245
  0
SEQEND
  0
POLYLINE
  8
PNOA-H_AMS_1956-57_33k_ES_PAN_21mic_H50_0348_fot_37207_tif
  70
9
  66
1
  0
VERTEX
  8
PNOA-H_AMS_1956-57_33k_ES_PAN_21mic_H50_0348_fot_37207_tif
  70
32
  10
511372.500
  20
4620620.733
  30
1057.162
  0
VERTEX
  8
PNOA-H_AMS_1956-57_33k_ES_PAN_21mic_H50_0348_fot_37207_tif
  70
32
  10
511365.500
  20
4620620.500
  30
1055.113
  0
VERTEX
  8
PNOA-H_AMS_1956-57_33k_ES_PAN_21mic_H50_0348_fot_37207_tif
  70
32
  10
511364.989
  20
4620620.984
  30
1055.202
  0
VERTEX
  8
PNOA-H_AMS_1956-57_33k_ES_PAN_21mic_H50_0348_fot_37207_tif
  70
32
  10
511360.365
  20
4620625.365
  30
1056.002
  0
VERTEX
  8
PNOA-H_AMS_1956-57_33k_ES_PAN_21mic_H50_0348_fot_37207_tif
  70
32
  10
511356.000
  20
4620629.500
  30
1056.758
  0
VERTEX
  8
PNOA-H_AMS_1956-57_33k_ES_PAN_21mic_H50_0348_fot_37207_tif
  70
32
  10
511355.975
  20
4620629.999
  30
1057.09
  0
VERTEX
  8
PNOA-H_AMS_1956-57_33k_ES_PAN_21mic_H50_0348_fot_37207_tif
  70
32
  10
511355.725
  20
4620635.000
  30
1060.419
  0
VERTEX
  8
PNOA-H_AMS_1956-57_33k_ES_PAN_21mic_H50_0348_fot_37207_tif
  70
32
  10
511355.500
  20
4620639.500
  30
1063.415
  0
VERTEX
  8
PNOA-H_AMS_1956-57_33k_ES_PAN_21mic_H50_0348_fot_37207_tif
  70
32
  10
511355.975
  20
4620640.001
  30
1064.89
  0
VERTEX
  8
PNOA-H_AMS_1956-57_33k_ES_PAN_21mic_H50_0348_fot_37207_tif
  70
32
  10
511360.365
  20
4620644.635
  30
1078.521
  0
VERTEX
  8
PNOA-H_AMS_1956-57_33k_ES_PAN_21mic_H50_0348_fot_37207_tif
  70
32
  10
511364.500
  20
4620649.000
  30
1091.362
  0
VERTEX
  8
PNOA-H_AMS_1956-57_33k_ES_PAN_21mic_H50_0348_fot_37207_tif
  70
32
  10
511365.500
  20
4620649.500
  30
1093.369
  0
VERTEX
  8
PNOA-H_AMS_1956-57_33k_ES_PAN_21mic_H50_0348_fot_37207_tif
  70
32
  10
511389.500
  20
4620649.500
  30
1097.775
  0
VERTEX
  8
PNOA-H_AMS_1956-57_33k_ES_PAN_21mic_H50_0348_fot_37207_tif
  70
32
  10
511392.147
  20
4620647.147
  30
1096.114
  0
VERTEX
  8
PNOA-H_AMS_1956-57_33k_ES_PAN_21mic_H50_0348_fot_37207_tif
  70
32
  10
511394.000
  20
4620645.500
  30
1094.951
  0
VERTEX
  8
PNOA-H_AMS_1956-57_33k_ES_PAN_21mic_H50_0348_fot_37207_tif
  70
32
  10
511394.000
  20
4620645.062
  30
1094.271
  0
VERTEX
  8
PNOA-H_AMS_1956-57_33k_ES_PAN_21mic_H50_0348_fot_37207_tif
  70
32
  10
511394.000
  20
4620634.500
  30
1077.844
  0
VERTEX
  8
PNOA-H_AMS_1956-57_33k_ES_PAN_21mic_H50_0348_fot_37207_tif
  70
32
  10
511380.500
  20
4620621.000
  30
1059.503
  0
VERTEX
  8
PNOA-H_AMS_1956-57_33k_ES_PAN_21mic_H50_0348_fot_37207_tif
  70
32
  10
511380.001
  20
4620620.983
  30
1059.357
  0
VERTEX
  8
PNOA-H_AMS_1956-57_33k_ES_PAN_21mic_H50_0348_fot_37207_tif
  70
32
  10
511372.500
  20
4620620.733
  30
1057.162
  0
SEQEND
  8
PNOA-H_AMS_1956-57_33k_ES_PAN_21mic_H50_0348_fot_37207_tif
  0
INSERT
  8
FeatureAttribs
  2
FEATURE
  41
1
  42
1
  43
1
  50
0
  10
511422.500
  20
4620607.500
 66
1
  0
ATTRIB
  8
FeatureAttribs
 70
0
  1
PNOA-H_AMS_1956-57_33k_ES_PAN_21mic_H50_0348_fot_37207.tif
  2
NAME
  10
511422.500
  20
4620607.500
 40
33.36245
  0
SEQEND
  0
POLYLINE
  8
PNOA-H_AMS_1956-57_33k_ES_PAN_21mic_H50_0348_fot_37207_tif
  70
9
  66
1
  0
VERTEX
  8
PNOA-H_AMS_1956-57_33k_ES_PAN_21mic_H50_0348_fot_37207_tif
  70
32
  10
511437.500
  20
4620585.700
  30
1060.34
  0
VERTEX
  8
PNOA-H_AMS_1956-57_33k_ES_PAN_21mic_H50_0348_fot_37207_tif
  70
32
  10
511435.500
  20
4620585.500
  30
1059.326
  0
VERTEX
  8
PNOA-H_AMS_1956-57_33k_ES_PAN_21mic_H50_0348_fot_37207_tif
  70
32
  10
511435.104
  20
4620585.940
  30
1059.402
  0
VERTEX
  8
PNOA-H_AMS_1956-57_33k_ES_PAN_21mic_H50_0348_fot_37207_tif
  70
32
  10
511431.000
  20
4620590.500
  30
1060.189
  0
VERTEX
  8
PNOA-H_AMS_1956-57_33k_ES_PAN_21mic_H50_0348_fot_37207_tif
  70
32
  10
511424.500
  20
4620591.000
  30
1058.048
  0
VERTEX
  8
PNOA-H_AMS_1956-57_33k_ES_PAN_21mic_H50_0348_fot_37207_tif
  70
32
  10
511416.000
  20
4620600.500
  30
1059.887
  0
VERTEX
  8
PNOA-H_AMS_1956-57_33k_ES_PAN_21mic_H50_0348_fot_37207_tif
  70
32
  10
511409.500
  20
4620601.000
  30
1058.056
  0
VERTEX
  8
PNOA-H_AMS_1956-57_33k_ES_PAN_21mic_H50_0348_fot_37207_tif
  70
32
  10
511401.000
  20
4620609.500
  30
1059.29
  0
VERTEX
  8
PNOA-H_AMS_1956-57_33k_ES_PAN_21mic_H50_0348_fot_37207_tif
  70
32
  10
511400.984
  20
4620609.989
  30
1059.833
  0
VERTEX
  8
PNOA-H_AMS_1956-57_33k_ES_PAN_21mic_H50_0348_fot_37207_tif
  70
32
  10
511400.733
  20
4620617.500
  30
1068.166
  0
VERTEX
  8
PNOA-H_AMS_1956-57_33k_ES_PAN_21mic_H50_0348_fot_37207_tif
  70
32
  10
511400.500
  20
4620624.500
  30
1075.933
  0
VERTEX
  8
PNOA-H_AMS_1956-57_33k_ES_PAN_21mic_H50_0348_fot_37207_tif
  70
32
  10
511400.985
  20
4620625.045
  30
1077.399
  0
VERTEX
  8
PNOA-H_AMS_1956-57_33k_ES_PAN_21mic_H50_0348_fot_37207_tif
  70
32
  10
511402.853
  20
4620627.147
  30
1083.05
  0
VERTEX
  8
PNOA-H_AMS_1956-57_33k_ES_PAN_21mic_H50_0348_fot_37207_tif
  70
32
  10
511404.500
  20
4620629.000
  30
1088.032
  0
VERTEX
  8
PNOA-H_AMS_1956-57_33k_ES_PAN_21mic_H50_0348_fot_37207_tif
  70
32
  10
511405.500
  20
4620629.500
  30
1090.357
  0
VERTEX
  8
PNOA-H_AMS_1956-57_33k_ES_PAN_21mic_H50_0348_fot_37207_tif
  70
32
  10
511415.500
  20
4620629.000
  30
1100.349
  0
VERTEX
  8
PNOA-H_AMS_1956-57_33k_ES_PAN_21mic_H50_0348_fot_37207_tif
  70
32
  10
511424.000
  20
4620619.500
  30
1095.352
  0
VERTEX
  8
PNOA-H_AMS_1956-57_33k_ES_PAN_21mic_H50_0348_fot_37207_tif
  70
32
  10
511430.500
  20
4620619.000
  30
1099.749
  0
VERTEX
  8
PNOA-H_AMS_1956-57_33k_ES_PAN_21mic_H50_0348_fot_37207_tif
  70
32
  10
511449.000
  20
4620600.500
  30
1087.637
  0
VERTEX
  8
PNOA-H_AMS_1956-57_33k_ES_PAN_21mic_H50_0348_fot_37207_tif
  70
32
  10
511449.000
  20
4620600.013
  30
1086.927
  0
VERTEX
  8
PNOA-H_AMS_1956-57_33k_ES_PAN_21mic_H50_0348_fot_37207_tif
  70
32
  10
511449.000
  20
4620594.500
  30
1078.882
  0
VERTEX
  8
PNOA-H_AMS_1956-57_33k_ES_PAN_21mic_H50_0348_fot_37207_tif
  70
32
  10
511440.500
  20
4620586.000
  30
1061.861
  0
VERTEX
  8
PNOA-H_AMS_1956-57_33k_ES_PAN_21mic_H50_0348_fot_37207_tif
  70
32
  10
511439.972
  20
4620585.947
  30
1061.593
  0
VERTEX
  8
PNOA-H_AMS_1956-57_33k_ES_PAN_21mic_H50_0348_fot_37207_tif
  70
32
  10
511437.500
  20
4620585.700
  30
1060.34
  0
SEQEND
  8
PNOA-H_AMS_1956-57_33k_ES_PAN_21mic_H50_0348_fot_37207_tif
  0
INSERT
  8
FeatureAttribs
  2
FEATURE
  41
1
  42
1
  43
1
  50
0
  10
511492.381
  20
4620530.000
 66
1
  0
ATTRIB
  8
FeatureAttribs
 70
0
  1
PNOA-H_AMS_1956-57_33k_ES_PAN_21mic_H50_0348_fot_37207.tif
  2
NAME
  10
511492.381
  20
4620530.000
 40
33.36245
  0
SEQEND
  0
POLYLINE
  8
PNOA-H_AMS_1956-57_33k_ES_PAN_21mic_H50_0348_fot_37207_tif
  70
9
  66
1
  0
VERTEX
  8
PNOA-H_AMS_1956-57_33k_ES_PAN_21mic_H50_0348_fot_37207_tif
  70
32
  10
511504.500
  20
4620525.000
  30
1064.686
  0
VERTEX
  8
PNOA-H_AMS_1956-57_33k_ES_PAN_21mic_H50_0348_fot_37207_tif
  70
32
  10
511500.000
  20
4620520.500
  30
1055.716
  0
VERTEX
  8
PNOA-H_AMS_1956-57_33k_ES_PAN_21mic_H50_0348_fot_37207_tif
  70
32
  10
511490.000
  20
4620520.500
  30
1050.669
  0
VERTEX
  8
PNOA-H_AMS_1956-57_33k_ES_PAN_21mic_H50_0348_fot_37207_tif
  70
32
  10
511480.500
  20
4620530.000
  30
1052.785
  0
VERTEX
  8
PNOA-H_AMS_1956-57_33k_ES_PAN_21mic_H50_0348_fot_37207_tif
  70
32
  10
511480.500
  20
4620534.500
  30
1057.009
  0
VERTEX
  8
PNOA-H_AMS_1956-57_33k_ES_PAN_21mic_H50_0348_fot_37207_tif
  70
32
  10
511480.956
  20
4620535.013
  30
1058.305
  0
VERTEX
  8
PNOA-H_AMS_1956-57_33k_ES_PAN_21mic_H50_0348_fot_37207_tif
  70
32
  10
511482.853
  20
4620537.147
  30
1063.704
  0
VERTEX
  8
PNOA-H_AMS_1956-57_33k_ES_PAN_21mic_H50_0348_fot_37207_tif
  70
32
  10
511484.500
  20
4620539.000
  30
1068.39
  0
VERTEX
  8
PNOA-H_AMS_1956-57_33k_ES_PAN_21mic_H50_0348_fot_37207_tif
  70
32
  10
511485.500
  20
4620539.500
  30
1070.697
  0
VERTEX
  8
PNOA-H_AMS_1956-57_33k_ES_PAN_21mic_H50_0348_fot_37207_tif
  70
32
  10
511499.500
  20
4620539.500
  30
1083.43
  0
VERTEX
  8
PNOA-H_AMS_1956-57_33k_ES_PAN_21mic_H50_0348_fot_37207_tif
  70
32
  10
511502.147
  20
4620537.147
  30
1081.555
  0
VERTEX
  8
PNOA-H_AMS_1956-57_33k_ES_PAN_21mic_H50_0348_fot_37207_tif
  70
32
  10
511504.000
  20
4620535.500
  30
1080.243
  0
VERTEX
  8
PNOA-H_AMS_1956-57_33k_ES_PAN_21mic_H50_0348_fot_37207_tif
  70
32
  10
511504.022
  20
4620535.038
  30
1079.558
  0
VERTEX
  8
PNOA-H_AMS_1956-57_33k_ES_PAN_21mic_H50_0348_fot_37207_tif
  70
32
  10
511504.500
  20
4620525.000
  30
1064.686
  0
SEQEND
  8
PNOA-H_AMS_1956-57_33k_ES_PAN_21mic_H50_0348_fot_37207_tif
  0
INSERT
  8
FeatureAttribs
  2
FEATURE
  41
1
  42
1
  43
1
  50
0
  10
510817.175
  20
4618141.750
 66
1
  0
ATTRIB
  8
FeatureAttribs
 70
0
  1
PNOA-H_AMS_1956-57_33k_ES_PAN_21mic_H50_0348_fot_37207.tif
  2
NAME
  10
510817.175
  20
4618141.750
 40
33.36245
  0
SEQEND
  0
POLYLINE
  8
PNOA-H_AMS_1956-57_33k_ES_PAN_21mic_H50_0348_fot_37207_tif
  70
9
  66
1
  0
VERTEX
  8
PNOA-H_AMS_1956-57_33k_ES_PAN_21mic_H50_0348_fot_37207_tif
  70
32
  10
509821.902
  20
4620565.458
  30
1073.672
  0
VERTEX
  8
PNOA-H_AMS_1956-57_33k_ES_PAN_21mic_H50_0348_fot_37207_tif
  70
32
  10
510406.000
  20
4620538.000
  30
1110.864
  0
VERTEX
  8
PNOA-H_AMS_1956-57_33k_ES_PAN_21mic_H50_0348_fot_37207_tif
  70
32
  10
510406.375
  20
4620538.000
  30
1110.864
  0
VERTEX
  8
PNOA-H_AMS_1956-57_33k_ES_PAN_21mic_H50_0348_fot_37207_tif
  70
32
  10
510412.000
  20
4620538.000
  30
1110.865
  0
VERTEX
  8
PNOA-H_AMS_1956-57_33k_ES_PAN_21mic_H50_0348_fot_37207_tif
  70
32
  10
512127.395
  20
4620457.016
  30
1109.148
  0
VERTEX
  8
PNOA-H_AMS_1956-57_33k_ES_PAN_21mic_H50_0348_fot_37207_tif
  70
32
  10
512127.395
  20
4620457.011
  30
0
  0
VERTEX
  8
PNOA-H_AMS_1956-57_33k_ES_PAN_21mic_H50_0348_fot_37207_tif
  70
32
  10
512128.649
  20
4619716.896
  30
0
  0
VERTEX
  8
PNOA-H_AMS_1956-57_33k_ES_PAN_21mic_H50_0348_fot_37207_tif
  70
32
  10
512132.567
  20
4617403.907
  30
0
  0
VERTEX
  8
PNOA-H_AMS_1956-57_33k_ES_PAN_21mic_H50_0348_fot_37207_tif
  70
32
  10
512134.657
  20
4616169.528
  30
0
  0
VERTEX
  8
PNOA-H_AMS_1956-57_33k_ES_PAN_21mic_H50_0348_fot_37207_tif
  70
32
  10
512134.657
  20
4616169.143
  30
1060.335
  0
VERTEX
  8
PNOA-H_AMS_1956-57_33k_ES_PAN_21mic_H50_0348_fot_37207_tif
  70
32
  10
510331.000
  20
4615718.000
  30
982.121
  0
VERTEX
  8
PNOA-H_AMS_1956-57_33k_ES_PAN_21mic_H50_0348_fot_37207_tif
  70
32
  10
510330.968
  20
4615718.016
  30
982.122
  0
VERTEX
  8
PNOA-H_AMS_1956-57_33k_ES_PAN_21mic_H50_0348_fot_37207_tif
  70
32
  10
510330.507
  20
4615718.249
  30
982.141
  0
VERTEX
  8
PNOA-H_AMS_1956-57_33k_ES_PAN_21mic_H50_0348_fot_37207_tif
  70
32
  10
509619.500
  20
4616077.500
  30
1011.591
  0
VERTEX
  8
PNOA-H_AMS_1956-57_33k_ES_PAN_21mic_H50_0348_fot_37207_tif
  70
32
  10
509587.260
  20
4616093.854
  30
1012.47
  0
VERTEX
  8
PNOA-H_AMS_1956-57_33k_ES_PAN_21mic_H50_0348_fot_37207_tif
  70
32
  10
509585.000
  20
4616095.000
  30
1012.532
  0
VERTEX
  8
PNOA-H_AMS_1956-57_33k_ES_PAN_21mic_H50_0348_fot_37207_tif
  70
32
  10
509584.845
  20
4616095.464
  30
1012.47
  0
VERTEX
  8
PNOA-H_AMS_1956-57_33k_ES_PAN_21mic_H50_0348_fot_37207_tif
  70
32
  10
509584.500
  20
4616096.500
  30
1012.332
  0
VERTEX
  8
PNOA-H_AMS_1956-57_33k_ES_PAN_21mic_H50_0348_fot_37207_tif
  70
32
  10
509523.338
  20
4617632.000
  30
1015.708
  0
VERTEX
  8
PNOA-H_AMS_1956-57_33k_ES_PAN_21mic_H50_0348_fot_37207_tif
  70
32
  10
509518.000
  20
4617766.000
  30
1016.003
  0
VERTEX
  8
PNOA-H_AMS_1956-57_33k_ES_PAN_21mic_H50_0348_fot_37207_tif
  70
32
  10
509413.500
  20
4620389.500
  30
1021.77
  0
VERTEX
  8
PNOA-H_AMS_1956-57_33k_ES_PAN_21mic_H50_0348_fot_37207_tif
  70
32
  10
509413.550
  20
4620389.522
  30
1021.776
  0
VERTEX
  8
PNOA-H_AMS_1956-57_33k_ES_PAN_21mic_H50_0348_fot_37207_tif
  70
32
  10
509821.000
  20
4620565.500
  30
1073.615
  0
VERTEX
  8
PNOA-H_AMS_1956-57_33k_ES_PAN_21mic_H50_0348_fot_37207_tif
  70
32
  10
509821.902
  20
4620565.458
  30
1073.672
  0
SEQEND
  8
PNOA-H_AMS_1956-57_33k_ES_PAN_21mic_H50_0348_fot_37207_tif
  0
INSERT
  8
FeatureAttribs
  2
FEATURE
  41
1
  42
1
  43
1
  50
0
  10
511207.500
  20
4620725.000
 66
1
  0
ATTRIB
  8
FeatureAttribs
 70
0
  1
PNOA-H_AMS_1956-57_33k_ES_PAN_21mic_H50_0348_fot_40499.tif
  2
NAME
  10
511207.500
  20
4620725.000
 40
33.36245
  0
SEQEND
  0
POLYLINE
  8
PNOA-H_AMS_1956-57_33k_ES_PAN_21mic_H50_0348_fot_40499_tif
  70
9
  66
1
  0
VERTEX
  8
PNOA-H_AMS_1956-57_33k_ES_PAN_21mic_H50_0348_fot_40499_tif
  70
32
  10
511214.000
  20
4620715.500
  30
1041.658
  0
VERTEX
  8
PNOA-H_AMS_1956-57_33k_ES_PAN_21mic_H50_0348_fot_40499_tif
  70
32
  10
511201.000
  20
4620715.500
  30
1048.686
  0
VERTEX
  8
PNOA-H_AMS_1956-57_33k_ES_PAN_21mic_H50_0348_fot_40499_tif
  70
32
  10
511199.000
  20
4620716.500
  30
1050.19
  0
VERTEX
  8
PNOA-H_AMS_1956-57_33k_ES_PAN_21mic_H50_0348_fot_40499_tif
  70
32
  10
511197.906
  20
4620717.906
  30
1051.972
  0
VERTEX
  8
PNOA-H_AMS_1956-57_33k_ES_PAN_21mic_H50_0348_fot_40499_tif
  70
32
  10
511195.500
  20
4620721.000
  30
1055.891
  0
VERTEX
  8
PNOA-H_AMS_1956-57_33k_ES_PAN_21mic_H50_0348_fot_40499_tif
  70
32
  10
511195.500
  20
4620729.000
  30
1068.57
  0
VERTEX
  8
PNOA-H_AMS_1956-57_33k_ES_PAN_21mic_H50_0348_fot_40499_tif
  70
32
  10
511196.500
  20
4620731.000
  30
1071.192
  0
VERTEX
  8
PNOA-H_AMS_1956-57_33k_ES_PAN_21mic_H50_0348_fot_40499_tif
  70
32
  10
511199.167
  20
4620733.074
  30
1071.664
  0
VERTEX
  8
PNOA-H_AMS_1956-57_33k_ES_PAN_21mic_H50_0348_fot_40499_tif
  70
32
  10
511201.000
  20
4620734.500
  30
1071.989
  0
VERTEX
  8
PNOA-H_AMS_1956-57_33k_ES_PAN_21mic_H50_0348_fot_40499_tif
  70
32
  10
511214.000
  20
4620734.500
  30
1065.031
  0
VERTEX
  8
PNOA-H_AMS_1956-57_33k_ES_PAN_21mic_H50_0348_fot_40499_tif
  70
32
  10
511215.000
  20
4620734.000
  30
1063.99
  0
VERTEX
  8
PNOA-H_AMS_1956-57_33k_ES_PAN_21mic_H50_0348_fot_40499_tif
  70
32
  10
511215.833
  20
4620733.074
  30
1062.01
  0
VERTEX
  8
PNOA-H_AMS_1956-57_33k_ES_PAN_21mic_H50_0348_fot_40499_tif
  70
32
  10
511219.500
  20
4620729.000
  30
1053.297
  0
VERTEX
  8
PNOA-H_AMS_1956-57_33k_ES_PAN_21mic_H50_0348_fot_40499_tif
  70
32
  10
511219.500
  20
4620721.000
  30
1042.226
  0
VERTEX
  8
PNOA-H_AMS_1956-57_33k_ES_PAN_21mic_H50_0348_fot_40499_tif
  70
32
  10
511218.500
  20
4620719.000
  30
1041.19
  0
VERTEX
  8
PNOA-H_AMS_1956-57_33k_ES_PAN_21mic_H50_0348_fot_40499_tif
  70
32
  10
511217.094
  20
4620717.906
  30
1041.336
  0
VERTEX
  8
PNOA-H_AMS_1956-57_33k_ES_PAN_21mic_H50_0348_fot_40499_tif
  70
32
  10
511214.000
  20
4620715.500
  30
1041.658
  0
SEQEND
  8
PNOA-H_AMS_1956-57_33k_ES_PAN_21mic_H50_0348_fot_40499_tif
  0
INSERT
  8
FeatureAttribs
  2
FEATURE
  41
1
  42
1
  43
1
  50
0
  10
511374.875
  20
4620635.000
 66
1
  0
ATTRIB
  8
FeatureAttribs
 70
0
  1
PNOA-H_AMS_1956-57_33k_ES_PAN_21mic_H50_0348_fot_40499.tif
  2
NAME
  10
511374.875
  20
4620635.000
 40
33.36245
  0
SEQEND
  0
POLYLINE
  8
PNOA-H_AMS_1956-57_33k_ES_PAN_21mic_H50_0348_fot_40499_tif
  70
9
  66
1
  0
VERTEX
  8
PNOA-H_AMS_1956-57_33k_ES_PAN_21mic_H50_0348_fot_40499_tif
  70
32
  10
511380.001
  20
4620620.983
  30
1059.656
  0
VERTEX
  8
PNOA-H_AMS_1956-57_33k_ES_PAN_21mic_H50_0348_fot_40499_tif
  70
32
  10
511379.500
  20
4620620.500
  30
1059.005
  0
VERTEX
  8
PNOA-H_AMS_1956-57_33k_ES_PAN_21mic_H50_0348_fot_40499_tif
  70
32
  10
511372.500
  20
4620620.733
  30
1057.152
  0
VERTEX
  8
PNOA-H_AMS_1956-57_33k_ES_PAN_21mic_H50_0348_fot_40499_tif
  70
32
  10
511364.989
  20
4620620.984
  30
1055.162
  0
VERTEX
  8
PNOA-H_AMS_1956-57_33k_ES_PAN_21mic_H50_0348_fot_40499_tif
  70
32
  10
511364.500
  20
4620621.000
  30
1055.033
  0
VERTEX
  8
PNOA-H_AMS_1956-57_33k_ES_PAN_21mic_H50_0348_fot_40499_tif
  70
32
  10
511360.365
  20
4620625.365
  30
1056.004
  0
VERTEX
  8
PNOA-H_AMS_1956-57_33k_ES_PAN_21mic_H50_0348_fot_40499_tif
  70
32
  10
511355.975
  20
4620629.999
  30
1057.035
  0
VERTEX
  8
PNOA-H_AMS_1956-57_33k_ES_PAN_21mic_H50_0348_fot_40499_tif
  70
32
  10
511355.500
  20
4620630.500
  30
1057.147
  0
VERTEX
  8
PNOA-H_AMS_1956-57_33k_ES_PAN_21mic_H50_0348_fot_40499_tif
  70
32
  10
511355.725
  20
4620635.000
  30
1060.554
  0
VERTEX
  8
PNOA-H_AMS_1956-57_33k_ES_PAN_21mic_H50_0348_fot_40499_tif
  70
32
  10
511355.975
  20
4620640.001
  30
1064.34
  0
VERTEX
  8
PNOA-H_AMS_1956-57_33k_ES_PAN_21mic_H50_0348_fot_40499_tif
  70
32
  10
511356.000
  20
4620640.500
  30
1064.718
  0
VERTEX
  8
PNOA-H_AMS_1956-57_33k_ES_PAN_21mic_H50_0348_fot_40499_tif
  70
32
  10
511360.365
  20
4620644.635
  30
1077.882
  0
VERTEX
  8
PNOA-H_AMS_1956-57_33k_ES_PAN_21mic_H50_0348_fot_40499_tif
  70
32
  10
511365.500
  20
4620649.500
  30
1093.369
  0
VERTEX
  8
PNOA-H_AMS_1956-57_33k_ES_PAN_21mic_H50_0348_fot_40499_tif
  70
32
  10
511389.500
  20
4620649.500
  30
1097.775
  0
VERTEX
  8
PNOA-H_AMS_1956-57_33k_ES_PAN_21mic_H50_0348_fot_40499_tif
  70
32
  10
511390.500
  20
4620649.000
  30
1097.663
  0
VERTEX
  8
PNOA-H_AMS_1956-57_33k_ES_PAN_21mic_H50_0348_fot_40499_tif
  70
32
  10
511392.147
  20
4620647.147
  30
1096.089
  0
VERTEX
  8
PNOA-H_AMS_1956-57_33k_ES_PAN_21mic_H50_0348_fot_40499_tif
  70
32
  10
511394.000
  20
4620645.062
  30
1094.318
  0
VERTEX
  8
PNOA-H_AMS_1956-57_33k_ES_PAN_21mic_H50_0348_fot_40499_tif
  70
32
  10
511394.500
  20
4620644.500
  30
1093.841
  0
VERTEX
  8
PNOA-H_AMS_1956-57_33k_ES_PAN_21mic_H50_0348_fot_40499_tif
  70
32
  10
511394.000
  20
4620634.500
  30
1077.844
  0
VERTEX
  8
PNOA-H_AMS_1956-57_33k_ES_PAN_21mic_H50_0348_fot_40499_tif
  70
32
  10
511380.001
  20
4620620.983
  30
1059.656
  0
SEQEND
  8
PNOA-H_AMS_1956-57_33k_ES_PAN_21mic_H50_0348_fot_40499_tif
  0
INSERT
  8
FeatureAttribs
  2
FEATURE
  41
1
  42
1
  43
1
  50
0
  10
511422.524
  20
4620607.500
 66
1
  0
ATTRIB
  8
FeatureAttribs
 70
0
  1
PNOA-H_AMS_1956-57_33k_ES_PAN_21mic_H50_0348_fot_40499.tif
  2
NAME
  10
511422.524
  20
4620607.500
 40
33.36245
  0
SEQEND
  0
POLYLINE
  8
PNOA-H_AMS_1956-57_33k_ES_PAN_21mic_H50_0348_fot_40499_tif
  70
9
  66
1
  0
VERTEX
  8
PNOA-H_AMS_1956-57_33k_ES_PAN_21mic_H50_0348_fot_40499_tif
  70
32
  10
511439.972
  20
4620585.947
  30
1061.991
  0
VERTEX
  8
PNOA-H_AMS_1956-57_33k_ES_PAN_21mic_H50_0348_fot_40499_tif
  70
32
  10
511439.500
  20
4620585.500
  30
1061.108
  0
VERTEX
  8
PNOA-H_AMS_1956-57_33k_ES_PAN_21mic_H50_0348_fot_40499_tif
  70
32
  10
511437.500
  20
4620585.700
  30
1060.325
  0
VERTEX
  8
PNOA-H_AMS_1956-57_33k_ES_PAN_21mic_H50_0348_fot_40499_tif
  70
32
  10
511435.104
  20
4620585.940
  30
1059.387
  0
VERTEX
  8
PNOA-H_AMS_1956-57_33k_ES_PAN_21mic_H50_0348_fot_40499_tif
  70
32
  10
511434.500
  20
4620586.000
  30
1059.151
  0
VERTEX
  8
PNOA-H_AMS_1956-57_33k_ES_PAN_21mic_H50_0348_fot_40499_tif
  70
32
  10
511431.000
  20
4620590.500
  30
1060.189
  0
VERTEX
  8
PNOA-H_AMS_1956-57_33k_ES_PAN_21mic_H50_0348_fot_40499_tif
  70
32
  10
511424.500
  20
4620591.000
  30
1058.048
  0
VERTEX
  8
PNOA-H_AMS_1956-57_33k_ES_PAN_21mic_H50_0348_fot_40499_tif
  70
32
  10
511416.000
  20
4620600.500
  30
1059.887
  0
VERTEX
  8
PNOA-H_AMS_1956-57_33k_ES_PAN_21mic_H50_0348_fot_40499_tif
  70
32
  10
511409.500
  20
4620601.000
  30
1058.056
  0
VERTEX
  8
PNOA-H_AMS_1956-57_33k_ES_PAN_21mic_H50_0348_fot_40499_tif
  70
32
  10
511400.984
  20
4620609.989
  30
1059.551
  0
VERTEX
  8
PNOA-H_AMS_1956-57_33k_ES_PAN_21mic_H50_0348_fot_40499_tif
  70
32
  10
511400.500
  20
4620610.500
  30
1059.635
  0
VERTEX
  8
PNOA-H_AMS_1956-57_33k_ES_PAN_21mic_H50_0348_fot_40499_tif
  70
32
  10
511400.733
  20
4620617.500
  30
1068.134
  0
VERTEX
  8
PNOA-H_AMS_1956-57_33k_ES_PAN_21mic_H50_0348_fot_40499_tif
  70
32
  10
511400.985
  20
4620625.045
  30
1077.295
  0
VERTEX
  8
PNOA-H_AMS_1956-57_33k_ES_PAN_21mic_H50_0348_fot_40499_tif
  70
32
  10
511401.000
  20
4620625.500
  30
1077.847
  0
VERTEX
  8
PNOA-H_AMS_1956-57_33k_ES_PAN_21mic_H50_0348_fot_40499_tif
  70
32
  10
511402.853
  20
4620627.147
  30
1082.998
  0
VERTEX
  8
PNOA-H_AMS_1956-57_33k_ES_PAN_21mic_H50_0348_fot_40499_tif
  70
32
  10
511405.500
  20
4620629.500
  30
1090.357
  0
VERTEX
  8
PNOA-H_AMS_1956-57_33k_ES_PAN_21mic_H50_0348_fot_40499_tif
  70
32
  10
511414.500
  20
4620629.500
  30
1100.183
  0
VERTEX
  8
PNOA-H_AMS_1956-57_33k_ES_PAN_21mic_H50_0348_fot_40499_tif
  70
32
  10
511415.500
  20
4620629.000
  30
1100.349
  0
VERTEX
  8
PNOA-H_AMS_1956-57_33k_ES_PAN_21mic_H50_0348_fot_40499_tif
  70
32
  10
511424.000
  20
4620619.500
  30
1095.352
  0
VERTEX
  8
PNOA-H_AMS_1956-57_33k_ES_PAN_21mic_H50_0348_fot_40499_tif
  70
32
  10
511430.500
  20
4620619.000
  30
1099.749
  0
VERTEX
  8
PNOA-H_AMS_1956-57_33k_ES_PAN_21mic_H50_0348_fot_40499_tif
  70
32
  10
511449.000
  20
4620600.013
  30
1086.928
  0
VERTEX
  8
PNOA-H_AMS_1956-57_33k_ES_PAN_21mic_H50_0348_fot_40499_tif
  70
32
  10
511449.500
  20
4620599.500
  30
1086.581
  0
VERTEX
  8
PNOA-H_AMS_1956-57_33k_ES_PAN_21mic_H50_0348_fot_40499_tif
  70
32
  10
511449.000
  20
4620594.500
  30
1078.882
  0
VERTEX
  8
PNOA-H_AMS_1956-57_33k_ES_PAN_21mic_H50_0348_fot_40499_tif
  70
32
  10
511439.972
  20
4620585.947
  30
1061.991
  0
SEQEND
  8
PNOA-H_AMS_1956-57_33k_ES_PAN_21mic_H50_0348_fot_40499_tif
  0
INSERT
  8
FeatureAttribs
  2
FEATURE
  41
1
  42
1
  43
1
  50
0
  10
511492.500
  20
4620530.000
 66
1
  0
ATTRIB
  8
FeatureAttribs
 70
0
  1
PNOA-H_AMS_1956-57_33k_ES_PAN_21mic_H50_0348_fot_40499.tif
  2
NAME
  10
511492.500
  20
4620530.000
 40
33.36245
  0
SEQEND
  0
POLYLINE
  8
PNOA-H_AMS_1956-57_33k_ES_PAN_21mic_H50_0348_fot_40499_tif
  70
9
  66
1
  0
VERTEX
  8
PNOA-H_AMS_1956-57_33k_ES_PAN_21mic_H50_0348_fot_40499_tif
  70
32
  10
511504.500
  20
4620525.000
  30
1064.686
  0
VERTEX
  8
PNOA-H_AMS_1956-57_33k_ES_PAN_21mic_H50_0348_fot_40499_tif
  70
32
  10
511500.000
  20
4620520.500
  30
1055.716
  0
VERTEX
  8
PNOA-H_AMS_1956-57_33k_ES_PAN_21mic_H50_0348_fot_40499_tif
  70
32
  10
511490.000
  20
4620520.500
  30
1050.669
  0
VERTEX
  8
PNOA-H_AMS_1956-57_33k_ES_PAN_21mic_H50_0348_fot_40499_tif
  70
32
  10
511480.500
  20
4620530.000
  30
1052.785
  0
VERTEX
  8
PNOA-H_AMS_1956-57_33k_ES_PAN_21mic_H50_0348_fot_40499_tif
  70
32
  10
511480.956
  20
4620535.013
  30
1058.19
  0
VERTEX
  8
PNOA-H_AMS_1956-57_33k_ES_PAN_21mic_H50_0348_fot_40499_tif
  70
32
  10
511481.000
  20
4620535.500
  30
1058.716
  0
VERTEX
  8
PNOA-H_AMS_1956-57_33k_ES_PAN_21mic_H50_0348_fot_40499_tif
  70
32
  10
511482.853
  20
4620537.147
  30
1063.649
  0
VERTEX
  8
PNOA-H_AMS_1956-57_33k_ES_PAN_21mic_H50_0348_fot_40499_tif
  70
32
  10
511485.500
  20
4620539.500
  30
1070.697
  0
VERTEX
  8
PNOA-H_AMS_1956-57_33k_ES_PAN_21mic_H50_0348_fot_40499_tif
  70
32
  10
511499.500
  20
4620539.500
  30
1083.43
  0
VERTEX
  8
PNOA-H_AMS_1956-57_33k_ES_PAN_21mic_H50_0348_fot_40499_tif
  70
32
  10
511500.500
  20
4620539.000
  30
1083.302
  0
VERTEX
  8
PNOA-H_AMS_1956-57_33k_ES_PAN_21mic_H50_0348_fot_40499_tif
  70
32
  10
511502.147
  20
4620537.147
  30
1081.542
  0
VERTEX
  8
PNOA-H_AMS_1956-57_33k_ES_PAN_21mic_H50_0348_fot_40499_tif
  70
32
  10
511504.022
  20
4620535.038
  30
1079.538
  0
VERTEX
  8
PNOA-H_AMS_1956-57_33k_ES_PAN_21mic_H50_0348_fot_40499_tif
  70
32
  10
511504.500
  20
4620534.500
  30
1079.027
  0
VERTEX
  8
PNOA-H_AMS_1956-57_33k_ES_PAN_21mic_H50_0348_fot_40499_tif
  70
32
  10
511504.500
  20
4620525.000
  30
1064.686
  0
SEQEND
  8
PNOA-H_AMS_1956-57_33k_ES_PAN_21mic_H50_0348_fot_40499_tif
  0
INSERT
  8
FeatureAttribs
  2
FEATURE
  41
1
  42
1
  43
1
  50
0
  10
495733.644
  20
4630427.249
 66
1
  0
ATTRIB
  8
FeatureAttribs
 70
0
  1
PNOA-H_AMS_1956-57_33k_ES_PAN_21mic_H50_0316_fot_33B-38719_E.tif
  2
NAME
  10
495733.644
  20
4630427.249
 40
33.36245
  0
SEQEND
  0
POLYLINE
  8
PNOA-H_AMS_1956-57_33k_ES_PAN_21mic_H50_0316_fot_33B-38719_E_tif
  70
9
  66
1
  0
VERTEX
  8
PNOA-H_AMS_1956-57_33k_ES_PAN_21mic_H50_0316_fot_33B-38719_E_tif
  70
32
  10
497011.229
  20
4629961.471
  30
1113.845
  0
VERTEX
  8
PNOA-H_AMS_1956-57_33k_ES_PAN_21mic_H50_0316_fot_33B-38719_E_tif
  70
32
  10
495575.000
  20
4629580.500
  30
1071.08
  0
VERTEX
  8
PNOA-H_AMS_1956-57_33k_ES_PAN_21mic_H50_0316_fot_33B-38719_E_tif
  70
32
  10
495574.906
  20
4629580.530
  30
1071.084
  0
VERTEX
  8
PNOA-H_AMS_1956-57_33k_ES_PAN_21mic_H50_0316_fot_33B-38719_E_tif
  70
32
  10
494410.500
  20
4629958.000
  30
1118.776
  0
VERTEX
  8
PNOA-H_AMS_1956-57_33k_ES_PAN_21mic_H50_0316_fot_33B-38719_E_tif
  70
32
  10
494371.945
  20
4631273.998
  30
1112.059
  0
VERTEX
  8
PNOA-H_AMS_1956-57_33k_ES_PAN_21mic_H50_0316_fot_33B-38719_E_tif
  70
32
  10
494810.414
  20
4631273.573
  30
0
  0
VERTEX
  8
PNOA-H_AMS_1956-57_33k_ES_PAN_21mic_H50_0316_fot_33B-38719_E_tif
  70
32
  10
497076.226
  20
4631272.474
  30
1120.098
  0
VERTEX
  8
PNOA-H_AMS_1956-57_33k_ES_PAN_21mic_H50_0316_fot_33B-38719_E_tif
  70
32
  10
497076.476
  20
4631272.474
  30
1118.842
  0
VERTEX
  8
PNOA-H_AMS_1956-57_33k_ES_PAN_21mic_H50_0316_fot_33B-38719_E_tif
  70
32
  10
497067.500
  20
4629995.500
  30
1113.587
  0
VERTEX
  8
PNOA-H_AMS_1956-57_33k_ES_PAN_21mic_H50_0316_fot_33B-38719_E_tif
  70
32
  10
497067.000
  20
4629976.500
  30
1115.351
  0
VERTEX
  8
PNOA-H_AMS_1956-57_33k_ES_PAN_21mic_H50_0316_fot_33B-38719_E_tif
  70
32
  10
497066.000
  20
4629976.000
  30
1115.476
  0
VERTEX
  8
PNOA-H_AMS_1956-57_33k_ES_PAN_21mic_H50_0316_fot_33B-38719_E_tif
  70
32
  10
497011.229
  20
4629961.471
  30
1113.845
  0
SEQEND
  8
PNOA-H_AMS_1956-57_33k_ES_PAN_21mic_H50_0316_fot_33B-38719_E_tif
  0
INSERT
  8
FeatureAttribs
  2
FEATURE
  41
1
  42
1
  43
1
  50
0
  10
498473.412
  20
4630417.987
 66
1
  0
ATTRIB
  8
FeatureAttribs
 70
0
  1
PNOA-H_AMS_1956-57_33k_ES_PAN_21mic_H50_0316_fot_33B-38720_E.tif
  2
NAME
  10
498473.412
  20
4630417.987
 40
33.36245
  0
SEQEND
  0
POLYLINE
  8
PNOA-H_AMS_1956-57_33k_ES_PAN_21mic_H50_0316_fot_33B-38720_E_tif
  70
9
  66
1
  0
VERTEX
  8
PNOA-H_AMS_1956-57_33k_ES_PAN_21mic_H50_0316_fot_33B-38720_E_tif
  70
32
  10
497076.476
  20
4631272.474
  30
0
  0
VERTEX
  8
PNOA-H_AMS_1956-57_33k_ES_PAN_21mic_H50_0316_fot_33B-38720_E_tif
  70
32
  10
498270.138
  20
4631271.895
  30
0
  0
VERTEX
  8
PNOA-H_AMS_1956-57_33k_ES_PAN_21mic_H50_0316_fot_33B-38720_E_tif
  70
32
  10
499895.535
  20
4631271.895
  30
1156.275
  0
VERTEX
  8
PNOA-H_AMS_1956-57_33k_ES_PAN_21mic_H50_0316_fot_33B-38720_E_tif
  70
32
  10
499867.000
  20
4629979.500
  30
1172.565
  0
VERTEX
  8
PNOA-H_AMS_1956-57_33k_ES_PAN_21mic_H50_0316_fot_33B-38720_E_tif
  70
32
  10
499866.506
  20
4629979.374
  30
1172.568
  0
VERTEX
  8
PNOA-H_AMS_1956-57_33k_ES_PAN_21mic_H50_0316_fot_33B-38720_E_tif
  70
32
  10
498233.000
  20
4629563.500
  30
1180.368
  0
VERTEX
  8
PNOA-H_AMS_1956-57_33k_ES_PAN_21mic_H50_0316_fot_33B-38720_E_tif
  70
32
  10
498232.582
  20
4629563.648
  30
1180.345
  0
VERTEX
  8
PNOA-H_AMS_1956-57_33k_ES_PAN_21mic_H50_0316_fot_33B-38720_E_tif
  70
32
  10
497650.000
  20
4629770.000
  30
1147.86
  0
VERTEX
  8
PNOA-H_AMS_1956-57_33k_ES_PAN_21mic_H50_0316_fot_33B-38720_E_tif
  70
32
  10
497067.428
  20
4629976.349
  30
1115.375
  0
VERTEX
  8
PNOA-H_AMS_1956-57_33k_ES_PAN_21mic_H50_0316_fot_33B-38720_E_tif
  70
32
  10
497067.000
  20
4629976.500
  30
1115.351
  0
VERTEX
  8
PNOA-H_AMS_1956-57_33k_ES_PAN_21mic_H50_0316_fot_33B-38720_E_tif
  70
32
  10
497076.226
  20
4631272.474
  30
1120.098
  0
VERTEX
  8
PNOA-H_AMS_1956-57_33k_ES_PAN_21mic_H50_0316_fot_33B-38720_E_tif
  70
32
  10
497076.476
  20
4631272.474
  30
0
  0
SEQEND
  8
PNOA-H_AMS_1956-57_33k_ES_PAN_21mic_H50_0316_fot_33B-38720_E_tif
  0
INSERT
  8
FeatureAttribs
  2
FEATURE
  41
1
  42
1
  43
1
  50
0
  10
492972.823
  20
4630408.123
 66
1
  0
ATTRIB
  8
FeatureAttribs
 70
0
  1
PNOA-H_AMS_1956-57_33k_ES_PAN_21mic_H50_0316_fot_33B-38718_E.tif
  2
NAME
  10
492972.823
  20
4630408.123
 40
33.36245
  0
SEQEND
  0
POLYLINE
  8
PNOA-H_AMS_1956-57_33k_ES_PAN_21mic_H50_0316_fot_33B-38718_E_tif
  70
9
  66
1
  0
VERTEX
  8
PNOA-H_AMS_1956-57_33k_ES_PAN_21mic_H50_0316_fot_33B-38718_E_tif
  70
32
  10
494409.952
  20
4629957.854
  30
1118.744
  0
VERTEX
  8
PNOA-H_AMS_1956-57_33k_ES_PAN_21mic_H50_0316_fot_33B-38718_E_tif
  70
32
  10
492843.500
  20
4629539.500
  30
1025.029
  0
VERTEX
  8
PNOA-H_AMS_1956-57_33k_ES_PAN_21mic_H50_0316_fot_33B-38718_E_tif
  70
32
  10
492843.270
  20
4629539.572
  30
1025.05
  0
VERTEX
  8
PNOA-H_AMS_1956-57_33k_ES_PAN_21mic_H50_0316_fot_33B-38718_E_tif
  70
32
  10
491553.000
  20
4629945.500
  30
1141.039
  0
VERTEX
  8
PNOA-H_AMS_1956-57_33k_ES_PAN_21mic_H50_0316_fot_33B-38718_E_tif
  70
32
  10
491552.770
  20
4629968.255
  30
1140.836
  0
VERTEX
  8
PNOA-H_AMS_1956-57_33k_ES_PAN_21mic_H50_0316_fot_33B-38718_E_tif
  70
32
  10
491539.568
  20
4631276.746
  30
1129.188
  0
VERTEX
  8
PNOA-H_AMS_1956-57_33k_ES_PAN_21mic_H50_0316_fot_33B-38718_E_tif
  70
32
  10
491539.856
  20
4631276.746
  30
0
  0
VERTEX
  8
PNOA-H_AMS_1956-57_33k_ES_PAN_21mic_H50_0316_fot_33B-38718_E_tif
  70
32
  10
494371.945
  20
4631273.998
  30
1112.059
  0
VERTEX
  8
PNOA-H_AMS_1956-57_33k_ES_PAN_21mic_H50_0316_fot_33B-38718_E_tif
  70
32
  10
494410.500
  20
4629958.000
  30
1118.776
  0
VERTEX
  8
PNOA-H_AMS_1956-57_33k_ES_PAN_21mic_H50_0316_fot_33B-38718_E_tif
  70
32
  10
494409.952
  20
4629957.854
  30
1118.744
  0
SEQEND
  8
PNOA-H_AMS_1956-57_33k_ES_PAN_21mic_H50_0316_fot_33B-38718_E_tif
  0
INSERT
  8
FeatureAttribs
  2
FEATURE
  41
1
  42
1
  43
1
  50
0
  10
490097.755
  20
4630373.177
 66
1
  0
ATTRIB
  8
FeatureAttribs
 70
0
  1
PNOA-H_AMS_1956-57_33k_ES_PAN_21mic_H50_0316_fot_33B-38717_E.tif
  2
NAME
  10
490097.755
  20
4630373.177
 40
33.36245
  0
SEQEND
  0
POLYLINE
  8
PNOA-H_AMS_1956-57_33k_ES_PAN_21mic_H50_0316_fot_33B-38717_E_tif
  70
9
  66
1
  0
VERTEX
  8
PNOA-H_AMS_1956-57_33k_ES_PAN_21mic_H50_0316_fot_33B-38717_E_tif
  70
32
  10
490174.839
  20
4629465.710
  30
1103.379
  0
VERTEX
  8
PNOA-H_AMS_1956-57_33k_ES_PAN_21mic_H50_0316_fot_33B-38717_E_tif
  70
32
  10
490174.000
  20
4629465.500
  30
1103.344
  0
VERTEX
  8
PNOA-H_AMS_1956-57_33k_ES_PAN_21mic_H50_0316_fot_33B-38717_E_tif
  70
32
  10
488643.844
  20
4629951.391
  30
1030.865
  0
VERTEX
  8
PNOA-H_AMS_1956-57_33k_ES_PAN_21mic_H50_0316_fot_33B-38717_E_tif
  70
32
  10
488643.500
  20
4629951.500
  30
1030.848
  0
VERTEX
  8
PNOA-H_AMS_1956-57_33k_ES_PAN_21mic_H50_0316_fot_33B-38717_E_tif
  70
32
  10
488652.765
  20
4631280.855
  30
1053.484
  0
VERTEX
  8
PNOA-H_AMS_1956-57_33k_ES_PAN_21mic_H50_0316_fot_33B-38717_E_tif
  70
32
  10
491350.689
  20
4631276.929
  30
0
  0
VERTEX
  8
PNOA-H_AMS_1956-57_33k_ES_PAN_21mic_H50_0316_fot_33B-38717_E_tif
  70
32
  10
491539.568
  20
4631276.746
  30
1132.771
  0
VERTEX
  8
PNOA-H_AMS_1956-57_33k_ES_PAN_21mic_H50_0316_fot_33B-38717_E_tif
  70
32
  10
491539.856
  20
4631276.746
  30
1135.874
  0
VERTEX
  8
PNOA-H_AMS_1956-57_33k_ES_PAN_21mic_H50_0316_fot_33B-38717_E_tif
  70
32
  10
491553.000
  20
4629988.000
  30
1150.575
  0
VERTEX
  8
PNOA-H_AMS_1956-57_33k_ES_PAN_21mic_H50_0316_fot_33B-38717_E_tif
  70
32
  10
491552.770
  20
4629968.255
  30
1146.158
  0
VERTEX
  8
PNOA-H_AMS_1956-57_33k_ES_PAN_21mic_H50_0316_fot_33B-38717_E_tif
  70
32
  10
491552.506
  20
4629945.498
  30
1141.066
  0
VERTEX
  8
PNOA-H_AMS_1956-57_33k_ES_PAN_21mic_H50_0316_fot_33B-38717_E_tif
  70
32
  10
491552.500
  20
4629945.000
  30
1140.955
  0
VERTEX
  8
PNOA-H_AMS_1956-57_33k_ES_PAN_21mic_H50_0316_fot_33B-38717_E_tif
  70
32
  10
490186.000
  20
4629468.500
  30
1103.844
  0
VERTEX
  8
PNOA-H_AMS_1956-57_33k_ES_PAN_21mic_H50_0316_fot_33B-38717_E_tif
  70
32
  10
490179.304
  20
4629466.826
  30
1103.565
  0
VERTEX
  8
PNOA-H_AMS_1956-57_33k_ES_PAN_21mic_H50_0316_fot_33B-38717_E_tif
  70
32
  10
490174.839
  20
4629465.710
  30
1103.379
  0
SEQEND
  8
PNOA-H_AMS_1956-57_33k_ES_PAN_21mic_H50_0316_fot_33B-38717_E_tif
  0
INSERT
  8
FeatureAttribs
  2
FEATURE
  41
1
  42
1
  43
1
  50
0
  10
503920.595
  20
4630370.820
 66
1
  0
ATTRIB
  8
FeatureAttribs
 70
0
  1
PNOA-H_AMS_1956-57_33k_ES_PAN_21mic_H50_0316_fot_33B-38722_E.tif
  2
NAME
  10
503920.595
  20
4630370.820
 40
33.36245
  0
SEQEND
  0
POLYLINE
  8
PNOA-H_AMS_1956-57_33k_ES_PAN_21mic_H50_0316_fot_33B-38722_E_tif
  70
9
  66
1
  0
VERTEX
  8
PNOA-H_AMS_1956-57_33k_ES_PAN_21mic_H50_0316_fot_33B-38722_E_tif
  70
32
  10
505228.956
  20
4629841.273
  30
1207.424
  0
VERTEX
  8
PNOA-H_AMS_1956-57_33k_ES_PAN_21mic_H50_0316_fot_33B-38722_E_tif
  70
32
  10
503694.500
  20
4629468.000
  30
1153.064
  0
VERTEX
  8
PNOA-H_AMS_1956-57_33k_ES_PAN_21mic_H50_0316_fot_33B-38722_E_tif
  70
32
  10
503694.295
  20
4629468.072
  30
1153.083
  0
VERTEX
  8
PNOA-H_AMS_1956-57_33k_ES_PAN_21mic_H50_0316_fot_33B-38722_E_tif
  70
32
  10
503411.036
  20
4629567.633
  30
1179.197
  0
VERTEX
  8
PNOA-H_AMS_1956-57_33k_ES_PAN_21mic_H50_0316_fot_33B-38722_E_tif
  70
32
  10
502583.500
  20
4629858.500
  30
1255.489
  0
VERTEX
  8
PNOA-H_AMS_1956-57_33k_ES_PAN_21mic_H50_0316_fot_33B-38722_E_tif
  70
32
  10
502623.947
  20
4631272.329
  30
1227.334
  0
VERTEX
  8
PNOA-H_AMS_1956-57_33k_ES_PAN_21mic_H50_0316_fot_33B-38722_E_tif
  70
32
  10
505189.586
  20
4631273.573
  30
0
  0
VERTEX
  8
PNOA-H_AMS_1956-57_33k_ES_PAN_21mic_H50_0316_fot_33B-38722_E_tif
  70
32
  10
505258.468
  20
4631273.640
  30
0
  0
VERTEX
  8
PNOA-H_AMS_1956-57_33k_ES_PAN_21mic_H50_0316_fot_33B-38722_E_tif
  70
32
  10
505258.471
  20
4631273.640
  30
1182.532
  0
VERTEX
  8
PNOA-H_AMS_1956-57_33k_ES_PAN_21mic_H50_0316_fot_33B-38722_E_tif
  70
32
  10
505234.000
  20
4629842.500
  30
1207.603
  0
VERTEX
  8
PNOA-H_AMS_1956-57_33k_ES_PAN_21mic_H50_0316_fot_33B-38722_E_tif
  70
32
  10
505228.956
  20
4629841.273
  30
1207.424
  0
SEQEND
  8
PNOA-H_AMS_1956-57_33k_ES_PAN_21mic_H50_0316_fot_33B-38722_E_tif
  0
INSERT
  8
FeatureAttribs
  2
FEATURE
  41
1
  42
1
  43
1
  50
0
  10
506573.177
  20
4630342.604
 66
1
  0
ATTRIB
  8
FeatureAttribs
 70
0
  1
PNOA-H_AMS_1956-57_33k_ES_PAN_21mic_H50_0316_fot_33B-38723_E.tif
  2
NAME
  10
506573.177
  20
4630342.604
 40
33.36245
  0
SEQEND
  0
POLYLINE
  8
PNOA-H_AMS_1956-57_33k_ES_PAN_21mic_H50_0316_fot_33B-38723_E_tif
  70
9
  66
1
  0
VERTEX
  8
PNOA-H_AMS_1956-57_33k_ES_PAN_21mic_H50_0316_fot_33B-38723_E_tif
  70
32
  10
507901.966
  20
4629806.852
  30
1174.162
  0
VERTEX
  8
PNOA-H_AMS_1956-57_33k_ES_PAN_21mic_H50_0316_fot_33B-38723_E_tif
  70
32
  10
506463.500
  20
4629409.000
  30
1211.116
  0
VERTEX
  8
PNOA-H_AMS_1956-57_33k_ES_PAN_21mic_H50_0316_fot_33B-38723_E_tif
  70
32
  10
506463.280
  20
4629409.078
  30
1211.115
  0
VERTEX
  8
PNOA-H_AMS_1956-57_33k_ES_PAN_21mic_H50_0316_fot_33B-38723_E_tif
  70
32
  10
506156.125
  20
4629517.375
  30
1210.238
  0
VERTEX
  8
PNOA-H_AMS_1956-57_33k_ES_PAN_21mic_H50_0316_fot_33B-38723_E_tif
  70
32
  10
505234.521
  20
4629842.316
  30
1207.605
  0
VERTEX
  8
PNOA-H_AMS_1956-57_33k_ES_PAN_21mic_H50_0316_fot_33B-38723_E_tif
  70
32
  10
505234.000
  20
4629842.500
  30
1207.603
  0
VERTEX
  8
PNOA-H_AMS_1956-57_33k_ES_PAN_21mic_H50_0316_fot_33B-38723_E_tif
  70
32
  10
505258.468
  20
4631273.640
  30
1182.542
  0
VERTEX
  8
PNOA-H_AMS_1956-57_33k_ES_PAN_21mic_H50_0316_fot_33B-38723_E_tif
  70
32
  10
505258.471
  20
4631273.640
  30
0
  0
VERTEX
  8
PNOA-H_AMS_1956-57_33k_ES_PAN_21mic_H50_0316_fot_33B-38723_E_tif
  70
32
  10
507905.932
  20
4631276.208
  30
0
  0
VERTEX
  8
PNOA-H_AMS_1956-57_33k_ES_PAN_21mic_H50_0316_fot_33B-38723_E_tif
  70
32
  10
507906.073
  20
4631276.208
  30
1162.169
  0
VERTEX
  8
PNOA-H_AMS_1956-57_33k_ES_PAN_21mic_H50_0316_fot_33B-38723_E_tif
  70
32
  10
507902.500
  20
4629807.000
  30
1174.148
  0
VERTEX
  8
PNOA-H_AMS_1956-57_33k_ES_PAN_21mic_H50_0316_fot_33B-38723_E_tif
  70
32
  10
507901.966
  20
4629806.852
  30
1174.162
  0
SEQEND
  8
PNOA-H_AMS_1956-57_33k_ES_PAN_21mic_H50_0316_fot_33B-38723_E_tif
  0
INSERT
  8
FeatureAttribs
  2
FEATURE
  41
1
  42
1
  43
1
  50
0
  10
501237.452
  20
4630392.664
 66
1
  0
ATTRIB
  8
FeatureAttribs
 70
0
  1
PNOA-H_AMS_1956-57_33k_ES_PAN_21mic_H50_0316_fot_33B-38721_E.tif
  2
NAME
  10
501237.452
  20
4630392.664
 40
33.36245
  0
SEQEND
  0
POLYLINE
  8
PNOA-H_AMS_1956-57_33k_ES_PAN_21mic_H50_0316_fot_33B-38721_E_tif
  70
9
  66
1
  0
VERTEX
  8
PNOA-H_AMS_1956-57_33k_ES_PAN_21mic_H50_0316_fot_33B-38721_E_tif
  70
32
  10
501084.500
  20
4629513.000
  30
1227.705
  0
VERTEX
  8
PNOA-H_AMS_1956-57_33k_ES_PAN_21mic_H50_0316_fot_33B-38721_E_tif
  70
32
  10
501083.500
  20
4629513.000
  30
1227.618
  0
VERTEX
  8
PNOA-H_AMS_1956-57_33k_ES_PAN_21mic_H50_0316_fot_33B-38721_E_tif
  70
32
  10
501070.000
  20
4629518.000
  30
1225.864
  0
VERTEX
  8
PNOA-H_AMS_1956-57_33k_ES_PAN_21mic_H50_0316_fot_33B-38721_E_tif
  70
32
  10
500171.893
  20
4629862.536
  30
1186.073
  0
VERTEX
  8
PNOA-H_AMS_1956-57_33k_ES_PAN_21mic_H50_0316_fot_33B-38721_E_tif
  70
32
  10
500130.658
  20
4629878.354
  30
1184.246
  0
VERTEX
  8
PNOA-H_AMS_1956-57_33k_ES_PAN_21mic_H50_0316_fot_33B-38721_E_tif
  70
32
  10
499867.725
  20
4629979.222
  30
1172.597
  0
VERTEX
  8
PNOA-H_AMS_1956-57_33k_ES_PAN_21mic_H50_0316_fot_33B-38721_E_tif
  70
32
  10
499867.000
  20
4629979.500
  30
1172.565
  0
VERTEX
  8
PNOA-H_AMS_1956-57_33k_ES_PAN_21mic_H50_0316_fot_33B-38721_E_tif
  70
32
  10
499895.535
  20
4631271.895
  30
1156.275
  0
VERTEX
  8
PNOA-H_AMS_1956-57_33k_ES_PAN_21mic_H50_0316_fot_33B-38721_E_tif
  70
32
  10
501729.862
  20
4631271.895
  30
0
  0
VERTEX
  8
PNOA-H_AMS_1956-57_33k_ES_PAN_21mic_H50_0316_fot_33B-38721_E_tif
  70
32
  10
502623.947
  20
4631272.329
  30
1227.334
  0
VERTEX
  8
PNOA-H_AMS_1956-57_33k_ES_PAN_21mic_H50_0316_fot_33B-38721_E_tif
  70
32
  10
502583.500
  20
4629858.500
  30
1255.489
  0
VERTEX
  8
PNOA-H_AMS_1956-57_33k_ES_PAN_21mic_H50_0316_fot_33B-38721_E_tif
  70
32
  10
501086.500
  20
4629513.000
  30
1227.88
  0
VERTEX
  8
PNOA-H_AMS_1956-57_33k_ES_PAN_21mic_H50_0316_fot_33B-38721_E_tif
  70
32
  10
501084.500
  20
4629513.000
  30
1227.705
  0
SEQEND
  8
PNOA-H_AMS_1956-57_33k_ES_PAN_21mic_H50_0316_fot_33B-38721_E_tif
  0
INSERT
  8
FeatureAttribs
  2
FEATURE
  41
1
  42
1
  43
1
  50
0
  10
509226.784
  20
4630347.589
 66
1
  0
ATTRIB
  8
FeatureAttribs
 70
0
  1
PNOA-H_AMS_1956-57_33k_ES_PAN_21mic_H50_0316_fot_33B-38724_E.tif
  2
NAME
  10
509226.784
  20
4630347.589
 40
33.36245
  0
SEQEND
  0
POLYLINE
  8
PNOA-H_AMS_1956-57_33k_ES_PAN_21mic_H50_0316_fot_33B-38724_E_tif
  70
9
  66
1
  0
VERTEX
  8
PNOA-H_AMS_1956-57_33k_ES_PAN_21mic_H50_0316_fot_33B-38724_E_tif
  70
32
  10
510556.500
  20
4629819.000
  30
1149.58
  0
VERTEX
  8
PNOA-H_AMS_1956-57_33k_ES_PAN_21mic_H50_0316_fot_33B-38724_E_tif
  70
32
  10
509138.500
  20
4629415.500
  30
1220.198
  0
VERTEX
  8
PNOA-H_AMS_1956-57_33k_ES_PAN_21mic_H50_0316_fot_33B-38724_E_tif
  70
32
  10
509137.702
  20
4629415.700
  30
1220.194
  0
VERTEX
  8
PNOA-H_AMS_1956-57_33k_ES_PAN_21mic_H50_0316_fot_33B-38724_E_tif
  70
32
  10
509131.399
  20
4629417.275
  30
1220.158
  0
VERTEX
  8
PNOA-H_AMS_1956-57_33k_ES_PAN_21mic_H50_0316_fot_33B-38724_E_tif
  70
32
  10
509122.500
  20
4629419.500
  30
1220.107
  0
VERTEX
  8
PNOA-H_AMS_1956-57_33k_ES_PAN_21mic_H50_0316_fot_33B-38724_E_tif
  70
32
  10
508363.739
  20
4629660.500
  30
1191.523
  0
VERTEX
  8
PNOA-H_AMS_1956-57_33k_ES_PAN_21mic_H50_0316_fot_33B-38724_E_tif
  70
32
  10
507902.500
  20
4629807.000
  30
1174.148
  0
VERTEX
  8
PNOA-H_AMS_1956-57_33k_ES_PAN_21mic_H50_0316_fot_33B-38724_E_tif
  70
32
  10
507905.932
  20
4631276.208
  30
1162.881
  0
VERTEX
  8
PNOA-H_AMS_1956-57_33k_ES_PAN_21mic_H50_0316_fot_33B-38724_E_tif
  70
32
  10
507906.073
  20
4631276.208
  30
0
  0
VERTEX
  8
PNOA-H_AMS_1956-57_33k_ES_PAN_21mic_H50_0316_fot_33B-38724_E_tif
  70
32
  10
508649.311
  20
4631276.929
  30
0
  0
VERTEX
  8
PNOA-H_AMS_1956-57_33k_ES_PAN_21mic_H50_0316_fot_33B-38724_E_tif
  70
32
  10
510538.000
  20
4631279.677
  30
1153.437
  0
VERTEX
  8
PNOA-H_AMS_1956-57_33k_ES_PAN_21mic_H50_0316_fot_33B-38724_E_tif
  70
32
  10
510556.494
  20
4629819.498
  30
1149.581
  0
VERTEX
  8
PNOA-H_AMS_1956-57_33k_ES_PAN_21mic_H50_0316_fot_33B-38724_E_tif
  70
32
  10
510556.500
  20
4629819.000
  30
1149.58
  0
SEQEND
  8
PNOA-H_AMS_1956-57_33k_ES_PAN_21mic_H50_0316_fot_33B-38724_E_tif
  0
INSERT
  8
FeatureAttribs
  2
FEATURE
  41
1
  42
1
  43
1
  50
0
  10
511330.335
  20
4630358.982
 66
1
  0
ATTRIB
  8
FeatureAttribs
 70
0
  1
PNOA-H_AMS_1956-57_33k_ES_PAN_21mic_H50_0317_fot_33B-38725_E.tif
  2
NAME
  10
511330.335
  20
4630358.982
 40
33.36245
  0
SEQEND
  0
POLYLINE
  8
PNOA-H_AMS_1956-57_33k_ES_PAN_21mic_H50_0317_fot_33B-38725_E_tif
  70
9
  66
1
  0
VERTEX
  8
PNOA-H_AMS_1956-57_33k_ES_PAN_21mic_H50_0317_fot_33B-38725_E_tif
  70
32
  10
512112.023
  20
4629521.866
  30
1160.558
  0
VERTEX
  8
PNOA-H_AMS_1956-57_33k_ES_PAN_21mic_H50_0317_fot_33B-38725_E_tif
  70
32
  10
511829.500
  20
4629436.000
  30
1164.398
  0
VERTEX
  8
PNOA-H_AMS_1956-57_33k_ES_PAN_21mic_H50_0317_fot_33B-38725_E_tif
  70
32
  10
511828.642
  20
4629436.195
  30
1164.435
  0
VERTEX
  8
PNOA-H_AMS_1956-57_33k_ES_PAN_21mic_H50_0317_fot_33B-38725_E_tif
  70
32
  10
511823.414
  20
4629437.383
  30
1164.659
  0
VERTEX
  8
PNOA-H_AMS_1956-57_33k_ES_PAN_21mic_H50_0317_fot_33B-38725_E_tif
  70
32
  10
511818.500
  20
4629438.500
  30
1164.869
  0
VERTEX
  8
PNOA-H_AMS_1956-57_33k_ES_PAN_21mic_H50_0317_fot_33B-38725_E_tif
  70
32
  10
510925.598
  20
4629708.175
  30
1154.007
  0
VERTEX
  8
PNOA-H_AMS_1956-57_33k_ES_PAN_21mic_H50_0317_fot_33B-38725_E_tif
  70
32
  10
510557.000
  20
4629819.500
  30
1149.523
  0
VERTEX
  8
PNOA-H_AMS_1956-57_33k_ES_PAN_21mic_H50_0317_fot_33B-38725_E_tif
  70
32
  10
510538.238
  20
4631279.678
  30
1153.494
  0
VERTEX
  8
PNOA-H_AMS_1956-57_33k_ES_PAN_21mic_H50_0317_fot_33B-38725_E_tif
  70
32
  10
512109.036
  20
4631281.963
  30
0
  0
VERTEX
  8
PNOA-H_AMS_1956-57_33k_ES_PAN_21mic_H50_0317_fot_33B-38725_E_tif
  70
32
  10
512112.022
  20
4629522.334
  30
0
  0
VERTEX
  8
PNOA-H_AMS_1956-57_33k_ES_PAN_21mic_H50_0317_fot_33B-38725_E_tif
  70
32
  10
512112.023
  20
4629521.866
  30
1160.558
  0
SEQEND
  8
PNOA-H_AMS_1956-57_33k_ES_PAN_21mic_H50_0317_fot_33B-38725_E_tif
  0
INSERT
  8
FeatureAttribs
  2
FEATURE
  41
1
  42
1
  43
1
  50
0
  10
493877.509
  20
4618227.750
 66
1
  0
ATTRIB
  8
FeatureAttribs
 70
0
  1
PNOA-H_AMS_1956-57_33k_ES_PAN_21mic_H50_0348_fot_37201.tif
  2
NAME
  10
493877.509
  20
4618227.750
 40
33.36245
  0
SEQEND
  0
POLYLINE
  8
PNOA-H_AMS_1956-57_33k_ES_PAN_21mic_H50_0348_fot_37201_tif
  70
9
  66
1
  0
VERTEX
  8
PNOA-H_AMS_1956-57_33k_ES_PAN_21mic_H50_0348_fot_37201_tif
  70
32
  10
494218.194
  20
4615704.578
  30
984.864
  0
VERTEX
  8
PNOA-H_AMS_1956-57_33k_ES_PAN_21mic_H50_0348_fot_37201_tif
  70
32
  10
494218.000
  20
4615704.500
  30
984.878
  0
VERTEX
  8
PNOA-H_AMS_1956-57_33k_ES_PAN_21mic_H50_0348_fot_37201_tif
  70
32
  10
492329.635
  20
4616187.814
  30
1006.967
  0
VERTEX
  8
PNOA-H_AMS_1956-57_33k_ES_PAN_21mic_H50_0348_fot_37201_tif
  70
32
  10
492325.000
  20
4616189.000
  30
1007.021
  0
VERTEX
  8
PNOA-H_AMS_1956-57_33k_ES_PAN_21mic_H50_0348_fot_37201_tif
  70
32
  10
492495.500
  20
4620380.000
  30
1054.347
  0
VERTEX
  8
PNOA-H_AMS_1956-57_33k_ES_PAN_21mic_H50_0348_fot_37201_tif
  70
32
  10
492496.358
  20
4620380.228
  30
1054.39
  0
VERTEX
  8
PNOA-H_AMS_1956-57_33k_ES_PAN_21mic_H50_0348_fot_37201_tif
  70
32
  10
493889.000
  20
4620751.000
  30
1123.865
  0
VERTEX
  8
PNOA-H_AMS_1956-57_33k_ES_PAN_21mic_H50_0348_fot_37201_tif
  70
32
  10
493889.256
  20
4620750.935
  30
1123.866
  0
VERTEX
  8
PNOA-H_AMS_1956-57_33k_ES_PAN_21mic_H50_0348_fot_37201_tif
  70
32
  10
495407.000
  20
4620366.000
  30
1125.747
  0
VERTEX
  8
PNOA-H_AMS_1956-57_33k_ES_PAN_21mic_H50_0348_fot_37201_tif
  70
32
  10
495288.500
  20
4616137.500
  30
956.863
  0
VERTEX
  8
PNOA-H_AMS_1956-57_33k_ES_PAN_21mic_H50_0348_fot_37201_tif
  70
32
  10
494250.000
  20
4615717.000
  30
982.623
  0
VERTEX
  8
PNOA-H_AMS_1956-57_33k_ES_PAN_21mic_H50_0348_fot_37201_tif
  70
32
  10
494249.000
  20
4615717.000
  30
982.731
  0
VERTEX
  8
PNOA-H_AMS_1956-57_33k_ES_PAN_21mic_H50_0348_fot_37201_tif
  70
32
  10
494218.999
  20
4615704.903
  30
984.809
  0
VERTEX
  8
PNOA-H_AMS_1956-57_33k_ES_PAN_21mic_H50_0348_fot_37201_tif
  70
32
  10
494218.194
  20
4615704.578
  30
984.864
  0
SEQEND
  8
PNOA-H_AMS_1956-57_33k_ES_PAN_21mic_H50_0348_fot_37201_tif
  0
INSERT
  8
FeatureAttribs
  2
FEATURE
  41
1
  42
1
  43
1
  50
0
  10
499758.481
  20
4618127.750
 66
1
  0
ATTRIB
  8
FeatureAttribs
 70
0
  1
PNOA-H_AMS_1956-57_33k_ES_PAN_21mic_H50_0348_fot_37203.tif
  2
NAME
  10
499758.481
  20
4618127.750
 40
33.36245
  0
SEQEND
  0
POLYLINE
  8
PNOA-H_AMS_1956-57_33k_ES_PAN_21mic_H50_0348_fot_37203_tif
  70
9
  66
1
  0
VERTEX
  8
PNOA-H_AMS_1956-57_33k_ES_PAN_21mic_H50_0348_fot_37203_tif
  70
32
  10
499662.031
  20
4615631.659
  30
1034.346
  0
VERTEX
  8
PNOA-H_AMS_1956-57_33k_ES_PAN_21mic_H50_0348_fot_37203_tif
  70
32
  10
499661.500
  20
4615631.500
  30
1034.317
  0
VERTEX
  8
PNOA-H_AMS_1956-57_33k_ES_PAN_21mic_H50_0348_fot_37203_tif
  70
32
  10
498702.833
  20
4615956.167
  30
1009.158
  0
VERTEX
  8
PNOA-H_AMS_1956-57_33k_ES_PAN_21mic_H50_0348_fot_37203_tif
  70
32
  10
498223.500
  20
4616118.500
  30
996.578
  0
VERTEX
  8
PNOA-H_AMS_1956-57_33k_ES_PAN_21mic_H50_0348_fot_37203_tif
  70
32
  10
498375.500
  20
4620332.000
  30
1078.693
  0
VERTEX
  8
PNOA-H_AMS_1956-57_33k_ES_PAN_21mic_H50_0348_fot_37203_tif
  70
32
  10
498375.859
  20
4620332.130
  30
1078.704
  0
VERTEX
  8
PNOA-H_AMS_1956-57_33k_ES_PAN_21mic_H50_0348_fot_37203_tif
  70
32
  10
499184.500
  20
4620624.000
  30
1103.989
  0
VERTEX
  8
PNOA-H_AMS_1956-57_33k_ES_PAN_21mic_H50_0348_fot_37203_tif
  70
32
  10
499185.236
  20
4620623.905
  30
1103.985
  0
VERTEX
  8
PNOA-H_AMS_1956-57_33k_ES_PAN_21mic_H50_0348_fot_37203_tif
  70
32
  10
501312.000
  20
4620348.500
  30
1091.194
  0
VERTEX
  8
PNOA-H_AMS_1956-57_33k_ES_PAN_21mic_H50_0348_fot_37203_tif
  70
32
  10
501206.500
  20
4617774.500
  30
1061.072
  0
VERTEX
  8
PNOA-H_AMS_1956-57_33k_ES_PAN_21mic_H50_0348_fot_37203_tif
  70
32
  10
501206.500
  20
4617770.381
  30
1105.744
  0
VERTEX
  8
PNOA-H_AMS_1956-57_33k_ES_PAN_21mic_H50_0348_fot_37203_tif
  70
32
  10
501206.500
  20
4617765.000
  30
1059.723
  0
VERTEX
  8
PNOA-H_AMS_1956-57_33k_ES_PAN_21mic_H50_0348_fot_37203_tif
  70
32
  10
501137.000
  20
4616072.000
  30
1115.329
  0
VERTEX
  8
PNOA-H_AMS_1956-57_33k_ES_PAN_21mic_H50_0348_fot_37203_tif
  70
32
  10
501127.087
  20
4616069.041
  30
1114.785
  0
VERTEX
  8
PNOA-H_AMS_1956-57_33k_ES_PAN_21mic_H50_0348_fot_37203_tif
  70
32
  10
500007.937
  20
4615734.926
  30
1053.338
  0
VERTEX
  8
PNOA-H_AMS_1956-57_33k_ES_PAN_21mic_H50_0348_fot_37203_tif
  70
32
  10
499662.031
  20
4615631.659
  30
1034.346
  0
SEQEND
  8
PNOA-H_AMS_1956-57_33k_ES_PAN_21mic_H50_0348_fot_37203_tif
  0
INSERT
  8
FeatureAttribs
  2
FEATURE
  41
1
  42
1
  43
1
  50
0
  10
490910.687
  20
4618283.500
 66
1
  0
ATTRIB
  8
FeatureAttribs
 70
0
  1
PNOA-H_AMS_1956-57_33k_ES_PAN_21mic_H50_0348_fot_37200.tif
  2
NAME
  10
490910.687
  20
4618283.500
 40
33.36245
  0
SEQEND
  0
POLYLINE
  8
PNOA-H_AMS_1956-57_33k_ES_PAN_21mic_H50_0348_fot_37200_tif
  70
9
  66
1
  0
VERTEX
  8
PNOA-H_AMS_1956-57_33k_ES_PAN_21mic_H50_0348_fot_37200_tif
  70
32
  10
492324.676
  20
4616188.858
  30
1007.01
  0
VERTEX
  8
PNOA-H_AMS_1956-57_33k_ES_PAN_21mic_H50_0348_fot_37200_tif
  70
32
  10
491381.500
  20
4615775.000
  30
975.4
  0
VERTEX
  8
PNOA-H_AMS_1956-57_33k_ES_PAN_21mic_H50_0348_fot_37200_tif
  70
32
  10
491380.257
  20
4615775.113
  30
975.316
  0
VERTEX
  8
PNOA-H_AMS_1956-57_33k_ES_PAN_21mic_H50_0348_fot_37200_tif
  70
32
  10
491379.124
  20
4615775.216
  30
975.24
  0
VERTEX
  8
PNOA-H_AMS_1956-57_33k_ES_PAN_21mic_H50_0348_fot_37200_tif
  70
32
  10
491376.000
  20
4615775.500
  30
975.029
  0
VERTEX
  8
PNOA-H_AMS_1956-57_33k_ES_PAN_21mic_H50_0348_fot_37200_tif
  70
32
  10
489428.654
  20
4616255.839
  30
1018.066
  0
VERTEX
  8
PNOA-H_AMS_1956-57_33k_ES_PAN_21mic_H50_0348_fot_37200_tif
  70
32
  10
489428.000
  20
4616256.000
  30
1018.08
  0
VERTEX
  8
PNOA-H_AMS_1956-57_33k_ES_PAN_21mic_H50_0348_fot_37200_tif
  70
32
  10
489410.750
  20
4618333.500
  30
1025.771
  0
VERTEX
  8
PNOA-H_AMS_1956-57_33k_ES_PAN_21mic_H50_0348_fot_37200_tif
  70
32
  10
489393.500
  20
4620411.000
  30
1033.462
  0
VERTEX
  8
PNOA-H_AMS_1956-57_33k_ES_PAN_21mic_H50_0348_fot_37200_tif
  70
32
  10
489393.504
  20
4620411.001
  30
1033.462
  0
VERTEX
  8
PNOA-H_AMS_1956-57_33k_ES_PAN_21mic_H50_0348_fot_37200_tif
  70
32
  10
489394.154
  20
4620411.137
  30
1033.46
  0
VERTEX
  8
PNOA-H_AMS_1956-57_33k_ES_PAN_21mic_H50_0348_fot_37200_tif
  70
32
  10
489927.000
  20
4620523.000
  30
1031.723
  0
VERTEX
  8
PNOA-H_AMS_1956-57_33k_ES_PAN_21mic_H50_0348_fot_37200_tif
  70
32
  10
489929.500
  20
4620523.500
  30
1031.707
  0
VERTEX
  8
PNOA-H_AMS_1956-57_33k_ES_PAN_21mic_H50_0348_fot_37200_tif
  70
32
  10
490967.578
  20
4620740.490
  30
1038.744
  0
VERTEX
  8
PNOA-H_AMS_1956-57_33k_ES_PAN_21mic_H50_0348_fot_37200_tif
  70
32
  10
491213.697
  20
4620791.937
  30
1040.413
  0
VERTEX
  8
PNOA-H_AMS_1956-57_33k_ES_PAN_21mic_H50_0348_fot_37200_tif
  70
32
  10
491214.000
  20
4620792.000
  30
1040.415
  0
VERTEX
  8
PNOA-H_AMS_1956-57_33k_ES_PAN_21mic_H50_0348_fot_37200_tif
  70
32
  10
492492.208
  20
4620381.058
  30
1054.311
  0
VERTEX
  8
PNOA-H_AMS_1956-57_33k_ES_PAN_21mic_H50_0348_fot_37200_tif
  70
32
  10
492495.500
  20
4620380.000
  30
1054.347
  0
VERTEX
  8
PNOA-H_AMS_1956-57_33k_ES_PAN_21mic_H50_0348_fot_37200_tif
  70
32
  10
492325.000
  20
4616189.000
  30
1007.021
  0
VERTEX
  8
PNOA-H_AMS_1956-57_33k_ES_PAN_21mic_H50_0348_fot_37200_tif
  70
32
  10
492324.676
  20
4616188.858
  30
1007.01
  0
SEQEND
  8
PNOA-H_AMS_1956-57_33k_ES_PAN_21mic_H50_0348_fot_37200_tif
  0
INSERT
  8
FeatureAttribs
  2
FEATURE
  41
1
  42
1
  43
1
  50
0
  10
496821.563
  20
4618172.500
 66
1
  0
ATTRIB
  8
FeatureAttribs
 70
0
  1
PNOA-H_AMS_1956-57_33k_ES_PAN_21mic_H50_0348_fot_37202.tif
  2
NAME
  10
496821.563
  20
4618172.500
 40
33.36245
  0
SEQEND
  0
POLYLINE
  8
PNOA-H_AMS_1956-57_33k_ES_PAN_21mic_H50_0348_fot_37202_tif
  70
9
  66
1
  0
VERTEX
  8
PNOA-H_AMS_1956-57_33k_ES_PAN_21mic_H50_0348_fot_37202_tif
  70
32
  10
498223.269
  20
4616118.409
  30
996.571
  0
VERTEX
  8
PNOA-H_AMS_1956-57_33k_ES_PAN_21mic_H50_0348_fot_37202_tif
  70
32
  10
496996.000
  20
4615636.500
  30
957.53
  0
VERTEX
  8
PNOA-H_AMS_1956-57_33k_ES_PAN_21mic_H50_0348_fot_37202_tif
  70
32
  10
496995.428
  20
4615636.668
  30
957.53
  0
VERTEX
  8
PNOA-H_AMS_1956-57_33k_ES_PAN_21mic_H50_0348_fot_37202_tif
  70
32
  10
496313.000
  20
4615836.900
  30
957.263
  0
VERTEX
  8
PNOA-H_AMS_1956-57_33k_ES_PAN_21mic_H50_0348_fot_37202_tif
  70
32
  10
495288.500
  20
4616137.500
  30
956.863
  0
VERTEX
  8
PNOA-H_AMS_1956-57_33k_ES_PAN_21mic_H50_0348_fot_37202_tif
  70
32
  10
495407.000
  20
4620366.000
  30
1125.747
  0
VERTEX
  8
PNOA-H_AMS_1956-57_33k_ES_PAN_21mic_H50_0348_fot_37202_tif
  70
32
  10
495407.450
  20
4620366.139
  30
1125.699
  0
VERTEX
  8
PNOA-H_AMS_1956-57_33k_ES_PAN_21mic_H50_0348_fot_37202_tif
  70
32
  10
496073.500
  20
4620572.500
  30
1054.096
  0
VERTEX
  8
PNOA-H_AMS_1956-57_33k_ES_PAN_21mic_H50_0348_fot_37202_tif
  70
32
  10
496075.500
  20
4620573.000
  30
1055.413
  0
VERTEX
  8
PNOA-H_AMS_1956-57_33k_ES_PAN_21mic_H50_0348_fot_37202_tif
  70
32
  10
496513.000
  20
4620708.500
  30
1093.531
  0
VERTEX
  8
PNOA-H_AMS_1956-57_33k_ES_PAN_21mic_H50_0348_fot_37202_tif
  70
32
  10
496514.500
  20
4620708.500
  30
1093.465
  0
VERTEX
  8
PNOA-H_AMS_1956-57_33k_ES_PAN_21mic_H50_0348_fot_37202_tif
  70
32
  10
496516.500
  20
4620708.500
  30
1093.377
  0
VERTEX
  8
PNOA-H_AMS_1956-57_33k_ES_PAN_21mic_H50_0348_fot_37202_tif
  70
32
  10
497755.833
  20
4620457.500
  30
1083.587
  0
VERTEX
  8
PNOA-H_AMS_1956-57_33k_ES_PAN_21mic_H50_0348_fot_37202_tif
  70
32
  10
498375.500
  20
4620332.000
  30
1078.693
  0
VERTEX
  8
PNOA-H_AMS_1956-57_33k_ES_PAN_21mic_H50_0348_fot_37202_tif
  70
32
  10
498223.500
  20
4616118.500
  30
996.578
  0
VERTEX
  8
PNOA-H_AMS_1956-57_33k_ES_PAN_21mic_H50_0348_fot_37202_tif
  70
32
  10
498223.269
  20
4616118.409
  30
996.571
  0
SEQEND
  8
PNOA-H_AMS_1956-57_33k_ES_PAN_21mic_H50_0348_fot_37202_tif
  0
INSERT
  8
FeatureAttribs
  2
FEATURE
  41
1
  42
1
  43
1
  50
0
  10
495602.252
  20
4614453.002
 66
1
  0
ATTRIB
  8
FeatureAttribs
 70
0
  1
PNOA-H_AMS_1956-57_33k_ES_PAN_21mic_H50_0348_fot_38982.tif
  2
NAME
  10
495602.252
  20
4614453.002
 40
33.36245
  0
SEQEND
  0
POLYLINE
  8
PNOA-H_AMS_1956-57_33k_ES_PAN_21mic_H50_0348_fot_38982_tif
  70
9
  66
1
  0
VERTEX
  8
PNOA-H_AMS_1956-57_33k_ES_PAN_21mic_H50_0348_fot_38982_tif
  70
32
  10
497002.000
  20
4613669.000
  30
960.161
  0
VERTEX
  8
PNOA-H_AMS_1956-57_33k_ES_PAN_21mic_H50_0348_fot_38982_tif
  70
32
  10
497005.008
  20
4612768.504
  30
976.194
  0
VERTEX
  8
PNOA-H_AMS_1956-57_33k_ES_PAN_21mic_H50_0348_fot_38982_tif
  70
32
  10
497004.905
  20
4612768.504
  30
983.914
  0
VERTEX
  8
PNOA-H_AMS_1956-57_33k_ES_PAN_21mic_H50_0348_fot_38982_tif
  70
32
  10
494796.973
  20
4612769.571
  30
0
  0
VERTEX
  8
PNOA-H_AMS_1956-57_33k_ES_PAN_21mic_H50_0348_fot_38982_tif
  70
32
  10
494186.807
  20
4612770.161
  30
982.647
  0
VERTEX
  8
PNOA-H_AMS_1956-57_33k_ES_PAN_21mic_H50_0348_fot_38982_tif
  70
32
  10
494218.999
  20
4615704.903
  30
984.796
  0
VERTEX
  8
PNOA-H_AMS_1956-57_33k_ES_PAN_21mic_H50_0348_fot_38982_tif
  70
32
  10
494219.000
  20
4615705.000
  30
984.796
  0
VERTEX
  8
PNOA-H_AMS_1956-57_33k_ES_PAN_21mic_H50_0348_fot_38982_tif
  70
32
  10
495277.500
  20
4616133.500
  30
958.05
  0
VERTEX
  8
PNOA-H_AMS_1956-57_33k_ES_PAN_21mic_H50_0348_fot_38982_tif
  70
32
  10
495287.500
  20
4616137.500
  30
956.946
  0
VERTEX
  8
PNOA-H_AMS_1956-57_33k_ES_PAN_21mic_H50_0348_fot_38982_tif
  70
32
  10
495288.500
  20
4616137.500
  30
956.863
  0
VERTEX
  8
PNOA-H_AMS_1956-57_33k_ES_PAN_21mic_H50_0348_fot_38982_tif
  70
32
  10
495290.000
  20
4616137.500
  30
956.739
  0
VERTEX
  8
PNOA-H_AMS_1956-57_33k_ES_PAN_21mic_H50_0348_fot_38982_tif
  70
32
  10
496313.000
  20
4615836.900
  30
957.231
  0
VERTEX
  8
PNOA-H_AMS_1956-57_33k_ES_PAN_21mic_H50_0348_fot_38982_tif
  70
32
  10
496995.000
  20
4615636.500
  30
957.559
  0
VERTEX
  8
PNOA-H_AMS_1956-57_33k_ES_PAN_21mic_H50_0348_fot_38982_tif
  70
32
  10
497002.000
  20
4613681.000
  30
959.834
  0
VERTEX
  8
PNOA-H_AMS_1956-57_33k_ES_PAN_21mic_H50_0348_fot_38982_tif
  70
32
  10
497002.000
  20
4613669.000
  30
960.161
  0
SEQEND
  8
PNOA-H_AMS_1956-57_33k_ES_PAN_21mic_H50_0348_fot_38982_tif
  0
INSERT
  8
FeatureAttribs
  2
FEATURE
  41
1
  42
1
  43
1
  50
0
  10
489883.451
  20
4614514.467
 66
1
  0
ATTRIB
  8
FeatureAttribs
 70
0
  1
PNOA-H_AMS_1956-57_33k_ES_PAN_21mic_H50_0348_fot_38980.tif
  2
NAME
  10
489883.451
  20
4614514.467
 40
33.36245
  0
SEQEND
  0
POLYLINE
  8
PNOA-H_AMS_1956-57_33k_ES_PAN_21mic_H50_0348_fot_38980_tif
  70
9
  66
1
  0
VERTEX
  8
PNOA-H_AMS_1956-57_33k_ES_PAN_21mic_H50_0348_fot_38980_tif
  70
32
  10
491339.500
  20
4613669.000
  30
999.3
  0
VERTEX
  8
PNOA-H_AMS_1956-57_33k_ES_PAN_21mic_H50_0348_fot_38980_tif
  70
32
  10
491322.382
  20
4612772.933
  30
1006.643
  0
VERTEX
  8
PNOA-H_AMS_1956-57_33k_ES_PAN_21mic_H50_0348_fot_38980_tif
  70
32
  10
488383.676
  20
4612777.196
  30
0
  0
VERTEX
  8
PNOA-H_AMS_1956-57_33k_ES_PAN_21mic_H50_0348_fot_38980_tif
  70
32
  10
488383.563
  20
4612777.196
  30
997.443
  0
VERTEX
  8
PNOA-H_AMS_1956-57_33k_ES_PAN_21mic_H50_0348_fot_38980_tif
  70
32
  10
488431.500
  20
4615788.500
  30
998.587
  0
VERTEX
  8
PNOA-H_AMS_1956-57_33k_ES_PAN_21mic_H50_0348_fot_38980_tif
  70
32
  10
488431.992
  20
4615789.483
  30
998.549
  0
VERTEX
  8
PNOA-H_AMS_1956-57_33k_ES_PAN_21mic_H50_0348_fot_38980_tif
  70
32
  10
488432.276
  20
4615790.052
  30
998.528
  0
VERTEX
  8
PNOA-H_AMS_1956-57_33k_ES_PAN_21mic_H50_0348_fot_38980_tif
  70
32
  10
488432.500
  20
4615790.500
  30
998.511
  0
VERTEX
  8
PNOA-H_AMS_1956-57_33k_ES_PAN_21mic_H50_0348_fot_38980_tif
  70
32
  10
489428.000
  20
4616255.533
  30
1018.013
  0
VERTEX
  8
PNOA-H_AMS_1956-57_33k_ES_PAN_21mic_H50_0348_fot_38980_tif
  70
32
  10
489428.654
  20
4616255.839
  30
1018.026
  0
VERTEX
  8
PNOA-H_AMS_1956-57_33k_ES_PAN_21mic_H50_0348_fot_38980_tif
  70
32
  10
489429.000
  20
4616256.000
  30
1018.033
  0
VERTEX
  8
PNOA-H_AMS_1956-57_33k_ES_PAN_21mic_H50_0348_fot_38980_tif
  70
32
  10
491379.124
  20
4615775.216
  30
975.326
  0
VERTEX
  8
PNOA-H_AMS_1956-57_33k_ES_PAN_21mic_H50_0348_fot_38980_tif
  70
32
  10
491380.000
  20
4615775.000
  30
975.306
  0
VERTEX
  8
PNOA-H_AMS_1956-57_33k_ES_PAN_21mic_H50_0348_fot_38980_tif
  70
32
  10
491339.500
  20
4613675.500
  30
998.808
  0
VERTEX
  8
PNOA-H_AMS_1956-57_33k_ES_PAN_21mic_H50_0348_fot_38980_tif
  70
32
  10
491339.500
  20
4613669.000
  30
999.3
  0
SEQEND
  8
PNOA-H_AMS_1956-57_33k_ES_PAN_21mic_H50_0348_fot_38980_tif
  0
INSERT
  8
FeatureAttribs
  2
FEATURE
  41
1
  42
1
  43
1
  50
0
  10
498339.896
  20
4614443.197
 66
1
  0
ATTRIB
  8
FeatureAttribs
 70
0
  1
PNOA-H_AMS_1956-57_33k_ES_PAN_21mic_H50_0348_fot_38983.tif
  2
NAME
  10
498339.896
  20
4614443.197
 40
33.36245
  0
SEQEND
  0
POLYLINE
  8
PNOA-H_AMS_1956-57_33k_ES_PAN_21mic_H50_0348_fot_38983_tif
  70
9
  66
1
  0
VERTEX
  8
PNOA-H_AMS_1956-57_33k_ES_PAN_21mic_H50_0348_fot_38983_tif
  70
32
  10
499706.286
  20
4612767.894
  30
1016.594
  0
VERTEX
  8
PNOA-H_AMS_1956-57_33k_ES_PAN_21mic_H50_0348_fot_38983_tif
  70
32
  10
498265.658
  20
4612767.894
  30
0
  0
VERTEX
  8
PNOA-H_AMS_1956-57_33k_ES_PAN_21mic_H50_0348_fot_38983_tif
  70
32
  10
497005.008
  20
4612768.504
  30
0
  0
VERTEX
  8
PNOA-H_AMS_1956-57_33k_ES_PAN_21mic_H50_0348_fot_38983_tif
  70
32
  10
497004.905
  20
4612768.504
  30
983.914
  0
VERTEX
  8
PNOA-H_AMS_1956-57_33k_ES_PAN_21mic_H50_0348_fot_38983_tif
  70
32
  10
496995.000
  20
4615636.500
  30
957.559
  0
VERTEX
  8
PNOA-H_AMS_1956-57_33k_ES_PAN_21mic_H50_0348_fot_38983_tif
  70
32
  10
496995.428
  20
4615636.668
  30
957.573
  0
VERTEX
  8
PNOA-H_AMS_1956-57_33k_ES_PAN_21mic_H50_0348_fot_38983_tif
  70
32
  10
498221.500
  20
4616118.000
  30
996.294
  0
VERTEX
  8
PNOA-H_AMS_1956-57_33k_ES_PAN_21mic_H50_0348_fot_38983_tif
  70
32
  10
498223.000
  20
4616118.500
  30
996.491
  0
VERTEX
  8
PNOA-H_AMS_1956-57_33k_ES_PAN_21mic_H50_0348_fot_38983_tif
  70
32
  10
498223.269
  20
4616118.409
  30
996.498
  0
VERTEX
  8
PNOA-H_AMS_1956-57_33k_ES_PAN_21mic_H50_0348_fot_38983_tif
  70
32
  10
498702.833
  20
4615956.167
  30
1009.138
  0
VERTEX
  8
PNOA-H_AMS_1956-57_33k_ES_PAN_21mic_H50_0348_fot_38983_tif
  70
32
  10
499662.031
  20
4615631.659
  30
1034.42
  0
VERTEX
  8
PNOA-H_AMS_1956-57_33k_ES_PAN_21mic_H50_0348_fot_38983_tif
  70
32
  10
499662.500
  20
4615631.500
  30
1034.433
  0
VERTEX
  8
PNOA-H_AMS_1956-57_33k_ES_PAN_21mic_H50_0348_fot_38983_tif
  70
32
  10
499706.286
  20
4612767.894
  30
1016.594
  0
SEQEND
  8
PNOA-H_AMS_1956-57_33k_ES_PAN_21mic_H50_0348_fot_38983_tif
  0
INSERT
  8
FeatureAttribs
  2
FEATURE
  41
1
  42
1
  43
1
  50
0
  10
492780.195
  20
4614479.581
 66
1
  0
ATTRIB
  8
FeatureAttribs
 70
0
  1
PNOA-H_AMS_1956-57_33k_ES_PAN_21mic_H50_0348_fot_38981.tif
  2
NAME
  10
492780.195
  20
4614479.581
 40
33.36245
  0
SEQEND
  0
POLYLINE
  8
PNOA-H_AMS_1956-57_33k_ES_PAN_21mic_H50_0348_fot_38981_tif
  70
9
  66
1
  0
VERTEX
  8
PNOA-H_AMS_1956-57_33k_ES_PAN_21mic_H50_0348_fot_38981_tif
  70
32
  10
494218.500
  20
4615704.500
  30
984.807
  0
VERTEX
  8
PNOA-H_AMS_1956-57_33k_ES_PAN_21mic_H50_0348_fot_38981_tif
  70
32
  10
494186.687
  20
4612770.161
  30
982.65
  0
VERTEX
  8
PNOA-H_AMS_1956-57_33k_ES_PAN_21mic_H50_0348_fot_38981_tif
  70
32
  10
491328.288
  20
4612772.925
  30
0
  0
VERTEX
  8
PNOA-H_AMS_1956-57_33k_ES_PAN_21mic_H50_0348_fot_38981_tif
  70
32
  10
491322.456
  20
4612772.933
  30
1004.981
  0
VERTEX
  8
PNOA-H_AMS_1956-57_33k_ES_PAN_21mic_H50_0348_fot_38981_tif
  70
32
  10
491380.000
  20
4615775.000
  30
975.306
  0
VERTEX
  8
PNOA-H_AMS_1956-57_33k_ES_PAN_21mic_H50_0348_fot_38981_tif
  70
32
  10
491380.257
  20
4615775.113
  30
975.315
  0
VERTEX
  8
PNOA-H_AMS_1956-57_33k_ES_PAN_21mic_H50_0348_fot_38981_tif
  70
32
  10
492322.500
  20
4616188.500
  30
1007.23
  0
VERTEX
  8
PNOA-H_AMS_1956-57_33k_ES_PAN_21mic_H50_0348_fot_38981_tif
  70
32
  10
492324.000
  20
4616189.000
  30
1007.079
  0
VERTEX
  8
PNOA-H_AMS_1956-57_33k_ES_PAN_21mic_H50_0348_fot_38981_tif
  70
32
  10
492324.676
  20
4616188.858
  30
1007.042
  0
VERTEX
  8
PNOA-H_AMS_1956-57_33k_ES_PAN_21mic_H50_0348_fot_38981_tif
  70
32
  10
492329.635
  20
4616187.814
  30
1006.771
  0
VERTEX
  8
PNOA-H_AMS_1956-57_33k_ES_PAN_21mic_H50_0348_fot_38981_tif
  70
32
  10
492343.000
  20
4616185.000
  30
1006.04
  0
VERTEX
  8
PNOA-H_AMS_1956-57_33k_ES_PAN_21mic_H50_0348_fot_38981_tif
  70
32
  10
494218.194
  20
4615704.578
  30
984.811
  0
VERTEX
  8
PNOA-H_AMS_1956-57_33k_ES_PAN_21mic_H50_0348_fot_38981_tif
  70
32
  10
494218.500
  20
4615704.500
  30
984.807
  0
SEQEND
  8
PNOA-H_AMS_1956-57_33k_ES_PAN_21mic_H50_0348_fot_38981_tif
  0
INSERT
  8
FeatureAttribs
  2
FEATURE
  41
1
  42
1
  43
1
  50
0
  10
502636.613
  20
4618081.500
 66
1
  0
ATTRIB
  8
FeatureAttribs
 70
0
  1
PNOA-H_AMS_1956-57_33k_ES_PAN_21mic_H50_0348_fot_37204.tif
  2
NAME
  10
502636.613
  20
4618081.500
 40
33.36245
  0
SEQEND
  0
POLYLINE
  8
PNOA-H_AMS_1956-57_33k_ES_PAN_21mic_H50_0348_fot_37204_tif
  70
9
  66
1
  0
VERTEX
  8
PNOA-H_AMS_1956-57_33k_ES_PAN_21mic_H50_0348_fot_37204_tif
  70
32
  10
502228.814
  20
4615598.081
  30
1057.58
  0
VERTEX
  8
PNOA-H_AMS_1956-57_33k_ES_PAN_21mic_H50_0348_fot_37204_tif
  70
32
  10
502228.500
  20
4615598.000
  30
1057.579
  0
VERTEX
  8
PNOA-H_AMS_1956-57_33k_ES_PAN_21mic_H50_0348_fot_37204_tif
  70
32
  10
501137.384
  20
4616071.833
  30
1115.309
  0
VERTEX
  8
PNOA-H_AMS_1956-57_33k_ES_PAN_21mic_H50_0348_fot_37204_tif
  70
32
  10
501137.000
  20
4616072.000
  30
1115.329
  0
VERTEX
  8
PNOA-H_AMS_1956-57_33k_ES_PAN_21mic_H50_0348_fot_37204_tif
  70
32
  10
501206.500
  20
4617770.381
  30
1105.744
  0
VERTEX
  8
PNOA-H_AMS_1956-57_33k_ES_PAN_21mic_H50_0348_fot_37204_tif
  70
32
  10
501312.000
  20
4620348.500
  30
1091.194
  0
VERTEX
  8
PNOA-H_AMS_1956-57_33k_ES_PAN_21mic_H50_0348_fot_37204_tif
  70
32
  10
501312.123
  20
4620348.549
  30
1091.193
  0
VERTEX
  8
PNOA-H_AMS_1956-57_33k_ES_PAN_21mic_H50_0348_fot_37204_tif
  70
32
  10
501855.000
  20
4620564.500
  30
1088.688
  0
VERTEX
  8
PNOA-H_AMS_1956-57_33k_ES_PAN_21mic_H50_0348_fot_37204_tif
  70
32
  10
501856.489
  20
4620564.996
  30
1088.563
  0
VERTEX
  8
PNOA-H_AMS_1956-57_33k_ES_PAN_21mic_H50_0348_fot_37204_tif
  70
32
  10
501856.500
  20
4620565.000
  30
1088.562
  0
VERTEX
  8
PNOA-H_AMS_1956-57_33k_ES_PAN_21mic_H50_0348_fot_37204_tif
  70
32
  10
504139.500
  20
4620362.000
  30
1061.526
  0
VERTEX
  8
PNOA-H_AMS_1956-57_33k_ES_PAN_21mic_H50_0348_fot_37204_tif
  70
32
  10
504139.489
  20
4620361.703
  30
1061.526
  0
VERTEX
  8
PNOA-H_AMS_1956-57_33k_ES_PAN_21mic_H50_0348_fot_37204_tif
  70
32
  10
503978.500
  20
4616068.000
  30
1063.353
  0
VERTEX
  8
PNOA-H_AMS_1956-57_33k_ES_PAN_21mic_H50_0348_fot_37204_tif
  70
32
  10
503977.500
  20
4616047.000
  30
1062.99
  0
VERTEX
  8
PNOA-H_AMS_1956-57_33k_ES_PAN_21mic_H50_0348_fot_37204_tif
  70
32
  10
503977.000
  20
4616046.750
  30
1063.058
  0
VERTEX
  8
PNOA-H_AMS_1956-57_33k_ES_PAN_21mic_H50_0348_fot_37204_tif
  70
32
  10
503976.500
  20
4616046.500
  30
1063.127
  0
VERTEX
  8
PNOA-H_AMS_1956-57_33k_ES_PAN_21mic_H50_0348_fot_37204_tif
  70
32
  10
502585.819
  20
4615689.681
  30
1058.713
  0
VERTEX
  8
PNOA-H_AMS_1956-57_33k_ES_PAN_21mic_H50_0348_fot_37204_tif
  70
32
  10
502228.814
  20
4615598.081
  30
1057.58
  0
SEQEND
  8
PNOA-H_AMS_1956-57_33k_ES_PAN_21mic_H50_0348_fot_37204_tif
  0
INSERT
  8
FeatureAttribs
  2
FEATURE
  41
1
  42
1
  43
1
  50
0
  10
503599.558
  20
4614407.589
 66
1
  0
ATTRIB
  8
FeatureAttribs
 70
0
  1
PNOA-H_AMS_1956-57_33k_ES_PAN_21mic_H50_0348_fot_38985.tif
  2
NAME
  10
503599.558
  20
4614407.589
 40
33.36245
  0
SEQEND
  0
POLYLINE
  8
PNOA-H_AMS_1956-57_33k_ES_PAN_21mic_H50_0348_fot_38985_tif
  70
9
  66
1
  0
VERTEX
  8
PNOA-H_AMS_1956-57_33k_ES_PAN_21mic_H50_0348_fot_38985_tif
  70
32
  10
502321.575
  20
4612768.178
  30
1021.806
  0
VERTEX
  8
PNOA-H_AMS_1956-57_33k_ES_PAN_21mic_H50_0348_fot_38985_tif
  70
32
  10
502321.221
  20
4612768.178
  30
1021.776
  0
VERTEX
  8
PNOA-H_AMS_1956-57_33k_ES_PAN_21mic_H50_0348_fot_38985_tif
  70
32
  10
502229.000
  20
4615598.000
  30
1057.582
  0
VERTEX
  8
PNOA-H_AMS_1956-57_33k_ES_PAN_21mic_H50_0348_fot_38985_tif
  70
32
  10
502585.819
  20
4615689.681
  30
1058.718
  0
VERTEX
  8
PNOA-H_AMS_1956-57_33k_ES_PAN_21mic_H50_0348_fot_38985_tif
  70
32
  10
503976.500
  20
4616047.000
  30
1063.144
  0
VERTEX
  8
PNOA-H_AMS_1956-57_33k_ES_PAN_21mic_H50_0348_fot_38985_tif
  70
32
  10
503977.000
  20
4616046.750
  30
1063.168
  0
VERTEX
  8
PNOA-H_AMS_1956-57_33k_ES_PAN_21mic_H50_0348_fot_38985_tif
  70
32
  10
504267.000
  20
4615902.000
  30
1076.782
  0
VERTEX
  8
PNOA-H_AMS_1956-57_33k_ES_PAN_21mic_H50_0348_fot_38985_tif
  70
32
  10
504268.000
  20
4615901.500
  30
1076.954
  0
VERTEX
  8
PNOA-H_AMS_1956-57_33k_ES_PAN_21mic_H50_0348_fot_38985_tif
  70
32
  10
504429.128
  20
4615821.063
  30
1075.389
  0
VERTEX
  8
PNOA-H_AMS_1956-57_33k_ES_PAN_21mic_H50_0348_fot_38985_tif
  70
32
  10
504899.681
  20
4615586.159
  30
1070.821
  0
VERTEX
  8
PNOA-H_AMS_1956-57_33k_ES_PAN_21mic_H50_0348_fot_38985_tif
  70
32
  10
504900.000
  20
4615586.000
  30
1070.818
  0
VERTEX
  8
PNOA-H_AMS_1956-57_33k_ES_PAN_21mic_H50_0348_fot_38985_tif
  70
32
  10
504974.861
  20
4612769.461
  30
1036.855
  0
VERTEX
  8
PNOA-H_AMS_1956-57_33k_ES_PAN_21mic_H50_0348_fot_38985_tif
  70
32
  10
502321.575
  20
4612768.178
  30
1021.806
  0
SEQEND
  8
PNOA-H_AMS_1956-57_33k_ES_PAN_21mic_H50_0348_fot_38985_tif
  0
INSERT
  8
FeatureAttribs
  2
FEATURE
  41
1
  42
1
  43
1
  50
0
  10
506281.580
  20
4614403.980
 66
1
  0
ATTRIB
  8
FeatureAttribs
 70
0
  1
PNOA-H_AMS_1956-57_33k_ES_PAN_21mic_H50_0348_fot_38986.tif
  2
NAME
  10
506281.580
  20
4614403.980
 40
33.36245
  0
SEQEND
  0
POLYLINE
  8
PNOA-H_AMS_1956-57_33k_ES_PAN_21mic_H50_0348_fot_38986_tif
  70
9
  66
1
  0
VERTEX
  8
PNOA-H_AMS_1956-57_33k_ES_PAN_21mic_H50_0348_fot_38986_tif
  70
32
  10
505203.027
  20
4612769.571
  30
0
  0
VERTEX
  8
PNOA-H_AMS_1956-57_33k_ES_PAN_21mic_H50_0348_fot_38986_tif
  70
32
  10
504974.861
  20
4612769.461
  30
1036.855
  0
VERTEX
  8
PNOA-H_AMS_1956-57_33k_ES_PAN_21mic_H50_0348_fot_38986_tif
  70
32
  10
504900.000
  20
4615586.000
  30
1070.818
  0
VERTEX
  8
PNOA-H_AMS_1956-57_33k_ES_PAN_21mic_H50_0348_fot_38986_tif
  70
32
  10
505716.552
  20
4615777.284
  30
1068.056
  0
VERTEX
  8
PNOA-H_AMS_1956-57_33k_ES_PAN_21mic_H50_0348_fot_38986_tif
  70
32
  10
506829.500
  20
4616038.000
  30
1064.291
  0
VERTEX
  8
PNOA-H_AMS_1956-57_33k_ES_PAN_21mic_H50_0348_fot_38986_tif
  70
32
  10
506832.000
  20
4616038.500
  30
1064.154
  0
VERTEX
  8
PNOA-H_AMS_1956-57_33k_ES_PAN_21mic_H50_0348_fot_38986_tif
  70
32
  10
506832.307
  20
4616038.338
  30
1064.138
  0
VERTEX
  8
PNOA-H_AMS_1956-57_33k_ES_PAN_21mic_H50_0348_fot_38986_tif
  70
32
  10
507590.000
  20
4615637.500
  30
1024.148
  0
VERTEX
  8
PNOA-H_AMS_1956-57_33k_ES_PAN_21mic_H50_0348_fot_38986_tif
  70
32
  10
507686.969
  20
4612771.973
  30
1001.917
  0
VERTEX
  8
PNOA-H_AMS_1956-57_33k_ES_PAN_21mic_H50_0348_fot_38986_tif
  70
32
  10
507686.879
  20
4612771.973
  30
0
  0
VERTEX
  8
PNOA-H_AMS_1956-57_33k_ES_PAN_21mic_H50_0348_fot_38986_tif
  70
32
  10
505203.027
  20
4612769.571
  30
0
  0
SEQEND
  8
PNOA-H_AMS_1956-57_33k_ES_PAN_21mic_H50_0348_fot_38986_tif
  0
INSERT
  8
FeatureAttribs
  2
FEATURE
  41
1
  42
1
  43
1
  50
0
  10
500974.282
  20
4614419.947
 66
1
  0
ATTRIB
  8
FeatureAttribs
 70
0
  1
PNOA-H_AMS_1956-57_33k_ES_PAN_21mic_H50_0348_fot_38984.tif
  2
NAME
  10
500974.282
  20
4614419.947
 40
33.36245
  0
SEQEND
  0
POLYLINE
  8
PNOA-H_AMS_1956-57_33k_ES_PAN_21mic_H50_0348_fot_38984_tif
  70
9
  66
1
  0
VERTEX
  8
PNOA-H_AMS_1956-57_33k_ES_PAN_21mic_H50_0348_fot_38984_tif
  70
32
  10
501734.342
  20
4612767.894
  30
0
  0
VERTEX
  8
PNOA-H_AMS_1956-57_33k_ES_PAN_21mic_H50_0348_fot_38984_tif
  70
32
  10
499706.286
  20
4612767.894
  30
1016.594
  0
VERTEX
  8
PNOA-H_AMS_1956-57_33k_ES_PAN_21mic_H50_0348_fot_38984_tif
  70
32
  10
499662.500
  20
4615631.500
  30
1034.433
  0
VERTEX
  8
PNOA-H_AMS_1956-57_33k_ES_PAN_21mic_H50_0348_fot_38984_tif
  70
32
  10
500007.937
  20
4615734.926
  30
1050.097
  0
VERTEX
  8
PNOA-H_AMS_1956-57_33k_ES_PAN_21mic_H50_0348_fot_38984_tif
  70
32
  10
500168.500
  20
4615783.000
  30
1057.378
  0
VERTEX
  8
PNOA-H_AMS_1956-57_33k_ES_PAN_21mic_H50_0348_fot_38984_tif
  70
32
  10
500170.000
  20
4615783.500
  30
1056.787
  0
VERTEX
  8
PNOA-H_AMS_1956-57_33k_ES_PAN_21mic_H50_0348_fot_38984_tif
  70
32
  10
501108.500
  20
4616064.000
  30
1111.929
  0
VERTEX
  8
PNOA-H_AMS_1956-57_33k_ES_PAN_21mic_H50_0348_fot_38984_tif
  70
32
  10
501127.087
  20
4616069.041
  30
1114.102
  0
VERTEX
  8
PNOA-H_AMS_1956-57_33k_ES_PAN_21mic_H50_0348_fot_38984_tif
  70
32
  10
501137.384
  20
4616071.833
  30
1115.305
  0
VERTEX
  8
PNOA-H_AMS_1956-57_33k_ES_PAN_21mic_H50_0348_fot_38984_tif
  70
32
  10
501138.000
  20
4616072.000
  30
1115.377
  0
VERTEX
  8
PNOA-H_AMS_1956-57_33k_ES_PAN_21mic_H50_0348_fot_38984_tif
  70
32
  10
502228.814
  20
4615598.081
  30
1057.592
  0
VERTEX
  8
PNOA-H_AMS_1956-57_33k_ES_PAN_21mic_H50_0348_fot_38984_tif
  70
32
  10
502229.000
  20
4615598.000
  30
1057.582
  0
VERTEX
  8
PNOA-H_AMS_1956-57_33k_ES_PAN_21mic_H50_0348_fot_38984_tif
  70
32
  10
502321.575
  20
4612768.178
  30
1021.775
  0
VERTEX
  8
PNOA-H_AMS_1956-57_33k_ES_PAN_21mic_H50_0348_fot_38984_tif
  70
32
  10
502321.221
  20
4612768.178
  30
0
  0
VERTEX
  8
PNOA-H_AMS_1956-57_33k_ES_PAN_21mic_H50_0348_fot_38984_tif
  70
32
  10
501734.342
  20
4612767.894
  30
0
  0
SEQEND
  8
PNOA-H_AMS_1956-57_33k_ES_PAN_21mic_H50_0348_fot_38984_tif
  0
INSERT
  8
FeatureAttribs
  2
FEATURE
  41
1
  42
1
  43
1
  50
0
  10
508997.250
  20
4614433.736
 66
1
  0
ATTRIB
  8
FeatureAttribs
 70
0
  1
PNOA-H_AMS_1956-57_33k_ES_PAN_21mic_H50_0348_fot_38987.tif
  2
NAME
  10
508997.250
  20
4614433.736
 40
33.36245
  0
SEQEND
  0
POLYLINE
  8
PNOA-H_AMS_1956-57_33k_ES_PAN_21mic_H50_0348_fot_38987_tif
  70
9
  66
1
  0
VERTEX
  8
PNOA-H_AMS_1956-57_33k_ES_PAN_21mic_H50_0348_fot_38987_tif
  70
32
  10
507686.969
  20
4612771.973
  30
1001.917
  0
VERTEX
  8
PNOA-H_AMS_1956-57_33k_ES_PAN_21mic_H50_0348_fot_38987_tif
  70
32
  10
507686.879
  20
4612771.973
  30
1001.799
  0
VERTEX
  8
PNOA-H_AMS_1956-57_33k_ES_PAN_21mic_H50_0348_fot_38987_tif
  70
32
  10
507590.000
  20
4615622.500
  30
1023.371
  0
VERTEX
  8
PNOA-H_AMS_1956-57_33k_ES_PAN_21mic_H50_0348_fot_38987_tif
  70
32
  10
507590.000
  20
4615637.500
  30
1024.148
  0
VERTEX
  8
PNOA-H_AMS_1956-57_33k_ES_PAN_21mic_H50_0348_fot_38987_tif
  70
32
  10
507590.307
  20
4615637.602
  30
1024.156
  0
VERTEX
  8
PNOA-H_AMS_1956-57_33k_ES_PAN_21mic_H50_0348_fot_38987_tif
  70
32
  10
507594.500
  20
4615639.000
  30
1024.258
  0
VERTEX
  8
PNOA-H_AMS_1956-57_33k_ES_PAN_21mic_H50_0348_fot_38987_tif
  70
32
  10
509584.000
  20
4616095.500
  30
1012.526
  0
VERTEX
  8
PNOA-H_AMS_1956-57_33k_ES_PAN_21mic_H50_0348_fot_38987_tif
  70
32
  10
509584.313
  20
4616095.342
  30
1012.513
  0
VERTEX
  8
PNOA-H_AMS_1956-57_33k_ES_PAN_21mic_H50_0348_fot_38987_tif
  70
32
  10
509587.260
  20
4616093.854
  30
1012.393
  0
VERTEX
  8
PNOA-H_AMS_1956-57_33k_ES_PAN_21mic_H50_0348_fot_38987_tif
  70
32
  10
510330.500
  20
4615718.500
  30
982.133
  0
VERTEX
  8
PNOA-H_AMS_1956-57_33k_ES_PAN_21mic_H50_0348_fot_38987_tif
  70
32
  10
510330.507
  20
4615718.249
  30
982.132
  0
VERTEX
  8
PNOA-H_AMS_1956-57_33k_ES_PAN_21mic_H50_0348_fot_38987_tif
  70
32
  10
510330.641
  20
4615713.113
  30
982.106
  0
VERTEX
  8
PNOA-H_AMS_1956-57_33k_ES_PAN_21mic_H50_0348_fot_38987_tif
  70
32
  10
510407.464
  20
4612775.442
  30
967.416
  0
VERTEX
  8
PNOA-H_AMS_1956-57_33k_ES_PAN_21mic_H50_0348_fot_38987_tif
  70
32
  10
510407.170
  20
4612775.442
  30
0
  0
VERTEX
  8
PNOA-H_AMS_1956-57_33k_ES_PAN_21mic_H50_0348_fot_38987_tif
  70
32
  10
508671.712
  20
4612772.925
  30
0
  0
VERTEX
  8
PNOA-H_AMS_1956-57_33k_ES_PAN_21mic_H50_0348_fot_38987_tif
  70
32
  10
507686.969
  20
4612771.973
  30
1001.917
  0
SEQEND
  8
PNOA-H_AMS_1956-57_33k_ES_PAN_21mic_H50_0348_fot_38987_tif
  0
INSERT
  8
FeatureAttribs
  2
FEATURE
  41
1
  42
1
  43
1
  50
0
  10
511250.188
  20
4614472.485
 66
1
  0
ATTRIB
  8
FeatureAttribs
 70
0
  1
PNOA-H_AMS_1956-57_33k_ES_PAN_21mic_H50_0348_fot_38988.tif
  2
NAME
  10
511250.188
  20
4614472.485
 40
33.36245
  0
SEQEND
  0
POLYLINE
  8
PNOA-H_AMS_1956-57_33k_ES_PAN_21mic_H50_0348_fot_38988_tif
  70
9
  66
1
  0
VERTEX
  8
PNOA-H_AMS_1956-57_33k_ES_PAN_21mic_H50_0348_fot_38988_tif
  70
32
  10
510407.464
  20
4612775.442
  30
0
  0
VERTEX
  8
PNOA-H_AMS_1956-57_33k_ES_PAN_21mic_H50_0348_fot_38988_tif
  70
32
  10
510407.170
  20
4612775.442
  30
970.899
  0
VERTEX
  8
PNOA-H_AMS_1956-57_33k_ES_PAN_21mic_H50_0348_fot_38988_tif
  70
32
  10
510330.500
  20
4615711.000
  30
982.049
  0
VERTEX
  8
PNOA-H_AMS_1956-57_33k_ES_PAN_21mic_H50_0348_fot_38988_tif
  70
32
  10
510330.641
  20
4615713.113
  30
982.073
  0
VERTEX
  8
PNOA-H_AMS_1956-57_33k_ES_PAN_21mic_H50_0348_fot_38988_tif
  70
32
  10
510330.968
  20
4615718.016
  30
982.129
  0
VERTEX
  8
PNOA-H_AMS_1956-57_33k_ES_PAN_21mic_H50_0348_fot_38988_tif
  70
32
  10
510331.000
  20
4615718.500
  30
982.134
  0
VERTEX
  8
PNOA-H_AMS_1956-57_33k_ES_PAN_21mic_H50_0348_fot_38988_tif
  70
32
  10
510409.000
  20
4615738.000
  30
993.038
  0
VERTEX
  8
PNOA-H_AMS_1956-57_33k_ES_PAN_21mic_H50_0348_fot_38988_tif
  70
32
  10
510411.000
  20
4615738.500
  30
993.359
  0
VERTEX
  8
PNOA-H_AMS_1956-57_33k_ES_PAN_21mic_H50_0348_fot_38988_tif
  70
32
  10
512134.657
  20
4616169.528
  30
1061.069
  0
VERTEX
  8
PNOA-H_AMS_1956-57_33k_ES_PAN_21mic_H50_0348_fot_38988_tif
  70
32
  10
512134.657
  20
4616169.143
  30
0
  0
VERTEX
  8
PNOA-H_AMS_1956-57_33k_ES_PAN_21mic_H50_0348_fot_38988_tif
  70
32
  10
512136.483
  20
4615090.927
  30
0
  0
VERTEX
  8
PNOA-H_AMS_1956-57_33k_ES_PAN_21mic_H50_0348_fot_38988_tif
  70
32
  10
512140.397
  20
4612777.956
  30
0
  0
VERTEX
  8
PNOA-H_AMS_1956-57_33k_ES_PAN_21mic_H50_0348_fot_38988_tif
  70
32
  10
510407.464
  20
4612775.442
  30
0
  0
SEQEND
  8
PNOA-H_AMS_1956-57_33k_ES_PAN_21mic_H50_0348_fot_38988_tif
  0
INSERT
  8
FeatureAttribs
  2
FEATURE
  41
1
  42
1
  43
1
  50
0
  10
484513.014
  20
4627482.169
 66
1
  0
ATTRIB
  8
FeatureAttribs
 70
0
  1
PNOA-H_AMS_1956-57_33k_ES_PAN_21mic_H50_0347_fot_34C-40382_E.tif
  2
NAME
  10
484513.014
  20
4627482.169
 40
33.36245
  0
SEQEND
  0
POLYLINE
  8
PNOA-H_AMS_1956-57_33k_ES_PAN_21mic_H50_0347_fot_34C-40382_E_tif
  70
9
  66
1
  0
VERTEX
  8
PNOA-H_AMS_1956-57_33k_ES_PAN_21mic_H50_0347_fot_34C-40382_E_tif
  70
32
  10
484663.348
  20
4625520.456
  30
1075.831
  0
VERTEX
  8
PNOA-H_AMS_1956-57_33k_ES_PAN_21mic_H50_0347_fot_34C-40382_E_tif
  70
32
  10
484418.501
  20
4625449.801
  30
1075.097
  0
VERTEX
  8
PNOA-H_AMS_1956-57_33k_ES_PAN_21mic_H50_0347_fot_34C-40382_E_tif
  70
32
  10
484418.501
  20
4625449.921
  30
0
  0
VERTEX
  8
PNOA-H_AMS_1956-57_33k_ES_PAN_21mic_H50_0347_fot_34C-40382_E_tif
  70
32
  10
484421.146
  20
4626662.622
  30
0
  0
VERTEX
  8
PNOA-H_AMS_1956-57_33k_ES_PAN_21mic_H50_0347_fot_34C-40382_E_tif
  70
32
  10
484426.191
  20
4628975.645
  30
0
  0
VERTEX
  8
PNOA-H_AMS_1956-57_33k_ES_PAN_21mic_H50_0347_fot_34C-40382_E_tif
  70
32
  10
484427.366
  20
4629514.113
  30
0
  0
VERTEX
  8
PNOA-H_AMS_1956-57_33k_ES_PAN_21mic_H50_0347_fot_34C-40382_E_tif
  70
32
  10
484427.367
  20
4629514.536
  30
1159.058
  0
VERTEX
  8
PNOA-H_AMS_1956-57_33k_ES_PAN_21mic_H50_0347_fot_34C-40382_E_tif
  70
32
  10
484534.922
  20
4629484.346
  30
1166.748
  0
VERTEX
  8
PNOA-H_AMS_1956-57_33k_ES_PAN_21mic_H50_0347_fot_34C-40382_E_tif
  70
32
  10
484541.500
  20
4629482.500
  30
1167.218
  0
VERTEX
  8
PNOA-H_AMS_1956-57_33k_ES_PAN_21mic_H50_0347_fot_34C-40382_E_tif
  70
32
  10
484663.500
  20
4625520.500
  30
1075.832
  0
VERTEX
  8
PNOA-H_AMS_1956-57_33k_ES_PAN_21mic_H50_0347_fot_34C-40382_E_tif
  70
32
  10
484663.348
  20
4625520.456
  30
1075.831
  0
SEQEND
  8
PNOA-H_AMS_1956-57_33k_ES_PAN_21mic_H50_0347_fot_34C-40382_E_tif
  0
INSERT
  8
FeatureAttribs
  2
FEATURE
  41
1
  42
1
  43
1
  50
0
  10
485144.404
  20
4623079.068
 66
1
  0
ATTRIB
  8
FeatureAttribs
 70
0
  1
PNOA-H_AMS_1956-57_33k_ES_PAN_21mic_H50_0347_fot_40509.tif
  2
NAME
  10
485144.404
  20
4623079.068
 40
33.36245
  0
SEQEND
  0
POLYLINE
  8
PNOA-H_AMS_1956-57_33k_ES_PAN_21mic_H50_0347_fot_40509_tif
  70
9
  66
1
  0
VERTEX
  8
PNOA-H_AMS_1956-57_33k_ES_PAN_21mic_H50_0347_fot_40509_tif
  70
32
  10
485826.500
  20
4620769.000
  30
1025.54
  0
VERTEX
  8
PNOA-H_AMS_1956-57_33k_ES_PAN_21mic_H50_0347_fot_40509_tif
  70
32
  10
484408.013
  20
4620637.635
  30
999.837
  0
VERTEX
  8
PNOA-H_AMS_1956-57_33k_ES_PAN_21mic_H50_0347_fot_40509_tif
  70
32
  10
484408.013
  20
4620637.774
  30
0
  0
VERTEX
  8
PNOA-H_AMS_1956-57_33k_ES_PAN_21mic_H50_0347_fot_40509_tif
  70
32
  10
484411.061
  20
4622036.602
  30
0
  0
VERTEX
  8
PNOA-H_AMS_1956-57_33k_ES_PAN_21mic_H50_0347_fot_40509_tif
  70
32
  10
484416.102
  20
4624349.608
  30
0
  0
VERTEX
  8
PNOA-H_AMS_1956-57_33k_ES_PAN_21mic_H50_0347_fot_40509_tif
  70
32
  10
484418.501
  20
4625449.801
  30
0
  0
VERTEX
  8
PNOA-H_AMS_1956-57_33k_ES_PAN_21mic_H50_0347_fot_40509_tif
  70
32
  10
484418.501
  20
4625449.921
  30
1085.793
  0
VERTEX
  8
PNOA-H_AMS_1956-57_33k_ES_PAN_21mic_H50_0347_fot_40509_tif
  70
32
  10
484663.348
  20
4625520.456
  30
1075.838
  0
VERTEX
  8
PNOA-H_AMS_1956-57_33k_ES_PAN_21mic_H50_0347_fot_40509_tif
  70
32
  10
484663.500
  20
4625520.500
  30
1075.832
  0
VERTEX
  8
PNOA-H_AMS_1956-57_33k_ES_PAN_21mic_H50_0347_fot_40509_tif
  70
32
  10
485918.500
  20
4625108.500
  30
1085.077
  0
VERTEX
  8
PNOA-H_AMS_1956-57_33k_ES_PAN_21mic_H50_0347_fot_40509_tif
  70
32
  10
485918.493
  20
4625108.166
  30
1085.073
  0
VERTEX
  8
PNOA-H_AMS_1956-57_33k_ES_PAN_21mic_H50_0347_fot_40509_tif
  70
32
  10
485826.500
  20
4620769.000
  30
1025.54
  0
SEQEND
  8
PNOA-H_AMS_1956-57_33k_ES_PAN_21mic_H50_0347_fot_40509_tif
  0
INSERT
  8
FeatureAttribs
  2
FEATURE
  41
1
  42
1
  43
1
  50
0
  10
485420.903
  20
4618326.500
 66
1
  0
ATTRIB
  8
FeatureAttribs
 70
0
  1
PNOA-H_AMS_1956-57_33k_ES_PAN_21mic_H50_0348_fot_37198.tif
  2
NAME
  10
485420.903
  20
4618326.500
 40
33.36245
  0
SEQEND
  0
POLYLINE
  8
PNOA-H_AMS_1956-57_33k_ES_PAN_21mic_H50_0348_fot_37198_tif
  70
9
  66
1
  0
VERTEX
  8
PNOA-H_AMS_1956-57_33k_ES_PAN_21mic_H50_0348_fot_37198_tif
  70
32
  10
486403.939
  20
4616263.240
  30
1007.683
  0
VERTEX
  8
PNOA-H_AMS_1956-57_33k_ES_PAN_21mic_H50_0348_fot_37198_tif
  70
32
  10
485586.500
  20
4615884.000
  30
1001.778
  0
VERTEX
  8
PNOA-H_AMS_1956-57_33k_ES_PAN_21mic_H50_0348_fot_37198_tif
  70
32
  10
485585.801
  20
4615884.140
  30
1001.766
  0
VERTEX
  8
PNOA-H_AMS_1956-57_33k_ES_PAN_21mic_H50_0348_fot_37198_tif
  70
32
  10
484398.179
  20
4616121.664
  30
982.542
  0
VERTEX
  8
PNOA-H_AMS_1956-57_33k_ES_PAN_21mic_H50_0348_fot_37198_tif
  70
32
  10
484400.985
  20
4617410.616
  30
0
  0
VERTEX
  8
PNOA-H_AMS_1956-57_33k_ES_PAN_21mic_H50_0348_fot_37198_tif
  70
32
  10
484406.022
  20
4619723.605
  30
0
  0
VERTEX
  8
PNOA-H_AMS_1956-57_33k_ES_PAN_21mic_H50_0348_fot_37198_tif
  70
32
  10
484408.013
  20
4620637.635
  30
0
  0
VERTEX
  8
PNOA-H_AMS_1956-57_33k_ES_PAN_21mic_H50_0348_fot_37198_tif
  70
32
  10
484408.013
  20
4620637.774
  30
992.216
  0
VERTEX
  8
PNOA-H_AMS_1956-57_33k_ES_PAN_21mic_H50_0348_fot_37198_tif
  70
32
  10
485826.500
  20
4620769.000
  30
1025.54
  0
VERTEX
  8
PNOA-H_AMS_1956-57_33k_ES_PAN_21mic_H50_0348_fot_37198_tif
  70
32
  10
485826.511
  20
4620768.995
  30
1025.54
  0
VERTEX
  8
PNOA-H_AMS_1956-57_33k_ES_PAN_21mic_H50_0348_fot_37198_tif
  70
32
  10
486474.279
  20
4620470.602
  30
1031.173
  0
VERTEX
  8
PNOA-H_AMS_1956-57_33k_ES_PAN_21mic_H50_0348_fot_37198_tif
  70
32
  10
486474.500
  20
4620470.500
  30
1031.175
  0
VERTEX
  8
PNOA-H_AMS_1956-57_33k_ES_PAN_21mic_H50_0348_fot_37198_tif
  70
32
  10
486404.500
  20
4616263.500
  30
1007.687
  0
VERTEX
  8
PNOA-H_AMS_1956-57_33k_ES_PAN_21mic_H50_0348_fot_37198_tif
  70
32
  10
486403.939
  20
4616263.240
  30
1007.683
  0
SEQEND
  8
PNOA-H_AMS_1956-57_33k_ES_PAN_21mic_H50_0348_fot_37198_tif
  0
INSERT
  8
FeatureAttribs
  2
FEATURE
  41
1
  42
1
  43
1
  50
0
  10
485942.665
  20
4627517.750
 66
1
  0
ATTRIB
  8
FeatureAttribs
 70
0
  1
PNOA-H_AMS_1956-57_33k_ES_PAN_21mic_H50_0348_fot_34C-40383_E.tif
  2
NAME
  10
485942.665
  20
4627517.750
 40
33.36245
  0
SEQEND
  0
POLYLINE
  8
PNOA-H_AMS_1956-57_33k_ES_PAN_21mic_H50_0348_fot_34C-40383_E_tif
  70
9
  66
1
  0
VERTEX
  8
PNOA-H_AMS_1956-57_33k_ES_PAN_21mic_H50_0348_fot_34C-40383_E_tif
  70
32
  10
487298.770
  20
4625523.280
  30
1118.691
  0
VERTEX
  8
PNOA-H_AMS_1956-57_33k_ES_PAN_21mic_H50_0348_fot_34C-40383_E_tif
  70
32
  10
485919.000
  20
4625108.000
  30
1084.943
  0
VERTEX
  8
PNOA-H_AMS_1956-57_33k_ES_PAN_21mic_H50_0348_fot_34C-40383_E_tif
  70
32
  10
485918.989
  20
4625108.003
  30
1084.943
  0
VERTEX
  8
PNOA-H_AMS_1956-57_33k_ES_PAN_21mic_H50_0348_fot_34C-40383_E_tif
  70
32
  10
485918.493
  20
4625108.166
  30
1084.941
  0
VERTEX
  8
PNOA-H_AMS_1956-57_33k_ES_PAN_21mic_H50_0348_fot_34C-40383_E_tif
  70
32
  10
484675.500
  20
4625516.000
  30
1079.195
  0
VERTEX
  8
PNOA-H_AMS_1956-57_33k_ES_PAN_21mic_H50_0348_fot_34C-40383_E_tif
  70
32
  10
484663.500
  20
4625520.000
  30
1075.829
  0
VERTEX
  8
PNOA-H_AMS_1956-57_33k_ES_PAN_21mic_H50_0348_fot_34C-40383_E_tif
  70
32
  10
484663.348
  20
4625520.456
  30
1075.788
  0
VERTEX
  8
PNOA-H_AMS_1956-57_33k_ES_PAN_21mic_H50_0348_fot_34C-40383_E_tif
  70
32
  10
484663.000
  20
4625521.500
  30
1075.694
  0
VERTEX
  8
PNOA-H_AMS_1956-57_33k_ES_PAN_21mic_H50_0348_fot_34C-40383_E_tif
  70
32
  10
484541.500
  20
4629482.500
  30
1167.218
  0
VERTEX
  8
PNOA-H_AMS_1956-57_33k_ES_PAN_21mic_H50_0348_fot_34C-40383_E_tif
  70
32
  10
484542.129
  20
4629482.699
  30
1167.212
  0
VERTEX
  8
PNOA-H_AMS_1956-57_33k_ES_PAN_21mic_H50_0348_fot_34C-40383_E_tif
  70
32
  10
485946.000
  20
4629927.000
  30
1152.982
  0
VERTEX
  8
PNOA-H_AMS_1956-57_33k_ES_PAN_21mic_H50_0348_fot_34C-40383_E_tif
  70
32
  10
485948.000
  20
4629927.500
  30
1152.901
  0
VERTEX
  8
PNOA-H_AMS_1956-57_33k_ES_PAN_21mic_H50_0348_fot_34C-40383_E_tif
  70
32
  10
485948.013
  20
4629927.496
  30
1152.9
  0
VERTEX
  8
PNOA-H_AMS_1956-57_33k_ES_PAN_21mic_H50_0348_fot_34C-40383_E_tif
  70
32
  10
487267.500
  20
4629528.000
  30
1118.198
  0
VERTEX
  8
PNOA-H_AMS_1956-57_33k_ES_PAN_21mic_H50_0348_fot_34C-40383_E_tif
  70
32
  10
487299.500
  20
4625523.500
  30
1118.709
  0
VERTEX
  8
PNOA-H_AMS_1956-57_33k_ES_PAN_21mic_H50_0348_fot_34C-40383_E_tif
  70
32
  10
487298.770
  20
4625523.280
  30
1118.691
  0
SEQEND
  8
PNOA-H_AMS_1956-57_33k_ES_PAN_21mic_H50_0348_fot_34C-40383_E_tif
  0
INSERT
  8
FeatureAttribs
  2
FEATURE
  41
1
  42
1
  43
1
  50
0
  10
488703.272
  20
4627536.750
 66
1
  0
ATTRIB
  8
FeatureAttribs
 70
0
  1
PNOA-H_AMS_1956-57_33k_ES_PAN_21mic_H50_0348_fot_34C-40384_E.tif
  2
NAME
  10
488703.272
  20
4627536.750
 40
33.36245
  0
SEQEND
  0
POLYLINE
  8
PNOA-H_AMS_1956-57_33k_ES_PAN_21mic_H50_0348_fot_34C-40384_E_tif
  70
9
  66
1
  0
VERTEX
  8
PNOA-H_AMS_1956-57_33k_ES_PAN_21mic_H50_0348_fot_34C-40384_E_tif
  70
32
  10
490068.270
  20
4625542.795
  30
1127.535
  0
VERTEX
  8
PNOA-H_AMS_1956-57_33k_ES_PAN_21mic_H50_0348_fot_34C-40384_E_tif
  70
32
  10
488573.500
  20
4625122.000
  30
1084.303
  0
VERTEX
  8
PNOA-H_AMS_1956-57_33k_ES_PAN_21mic_H50_0348_fot_34C-40384_E_tif
  70
32
  10
488573.264
  20
4625122.074
  30
1084.309
  0
VERTEX
  8
PNOA-H_AMS_1956-57_33k_ES_PAN_21mic_H50_0348_fot_34C-40384_E_tif
  70
32
  10
488186.978
  20
4625243.812
  30
1094.741
  0
VERTEX
  8
PNOA-H_AMS_1956-57_33k_ES_PAN_21mic_H50_0348_fot_34C-40384_E_tif
  70
32
  10
487314.060
  20
4625518.911
  30
1118.316
  0
VERTEX
  8
PNOA-H_AMS_1956-57_33k_ES_PAN_21mic_H50_0348_fot_34C-40384_E_tif
  70
32
  10
487299.500
  20
4625523.500
  30
1118.709
  0
VERTEX
  8
PNOA-H_AMS_1956-57_33k_ES_PAN_21mic_H50_0348_fot_34C-40384_E_tif
  70
32
  10
487267.500
  20
4629528.000
  30
1118.198
  0
VERTEX
  8
PNOA-H_AMS_1956-57_33k_ES_PAN_21mic_H50_0348_fot_34C-40384_E_tif
  70
32
  10
487267.995
  20
4629528.153
  30
1118.177
  0
VERTEX
  8
PNOA-H_AMS_1956-57_33k_ES_PAN_21mic_H50_0348_fot_34C-40384_E_tif
  70
32
  10
487880.500
  20
4629717.000
  30
1092.491
  0
VERTEX
  8
PNOA-H_AMS_1956-57_33k_ES_PAN_21mic_H50_0348_fot_34C-40384_E_tif
  70
32
  10
487882.000
  20
4629717.500
  30
1092.432
  0
VERTEX
  8
PNOA-H_AMS_1956-57_33k_ES_PAN_21mic_H50_0348_fot_34C-40384_E_tif
  70
32
  10
488638.500
  20
4629950.500
  30
1029.735
  0
VERTEX
  8
PNOA-H_AMS_1956-57_33k_ES_PAN_21mic_H50_0348_fot_34C-40384_E_tif
  70
32
  10
488642.321
  20
4629951.137
  30
1030.547
  0
VERTEX
  8
PNOA-H_AMS_1956-57_33k_ES_PAN_21mic_H50_0348_fot_34C-40384_E_tif
  70
32
  10
488643.844
  20
4629951.391
  30
1030.871
  0
VERTEX
  8
PNOA-H_AMS_1956-57_33k_ES_PAN_21mic_H50_0348_fot_34C-40384_E_tif
  70
32
  10
488644.500
  20
4629951.500
  30
1031.011
  0
VERTEX
  8
PNOA-H_AMS_1956-57_33k_ES_PAN_21mic_H50_0348_fot_34C-40384_E_tif
  70
32
  10
490174.839
  20
4629465.710
  30
1103.468
  0
VERTEX
  8
PNOA-H_AMS_1956-57_33k_ES_PAN_21mic_H50_0348_fot_34C-40384_E_tif
  70
32
  10
490175.500
  20
4629465.500
  30
1103.499
  0
VERTEX
  8
PNOA-H_AMS_1956-57_33k_ES_PAN_21mic_H50_0348_fot_34C-40384_E_tif
  70
32
  10
490069.000
  20
4625543.000
  30
1127.556
  0
VERTEX
  8
PNOA-H_AMS_1956-57_33k_ES_PAN_21mic_H50_0348_fot_34C-40384_E_tif
  70
32
  10
490068.270
  20
4625542.795
  30
1127.535
  0
SEQEND
  8
PNOA-H_AMS_1956-57_33k_ES_PAN_21mic_H50_0348_fot_34C-40384_E_tif
  0
INSERT
  8
FeatureAttribs
  2
FEATURE
  41
1
  42
1
  43
1
  50
0
  10
487219.748
  20
4622997.000
 66
1
  0
ATTRIB
  8
FeatureAttribs
 70
0
  1
PNOA-H_AMS_1956-57_33k_ES_PAN_21mic_H50_0348_fot_40508.tif
  2
NAME
  10
487219.748
  20
4622997.000
 40
33.36245
  0
SEQEND
  0
POLYLINE
  8
PNOA-H_AMS_1956-57_33k_ES_PAN_21mic_H50_0348_fot_40508_tif
  70
9
  66
1
  0
VERTEX
  8
PNOA-H_AMS_1956-57_33k_ES_PAN_21mic_H50_0348_fot_40508_tif
  70
32
  10
486474.279
  20
4620470.602
  30
1031.163
  0
VERTEX
  8
PNOA-H_AMS_1956-57_33k_ES_PAN_21mic_H50_0348_fot_40508_tif
  70
32
  10
486473.500
  20
4620470.500
  30
1031.163
  0
VERTEX
  8
PNOA-H_AMS_1956-57_33k_ES_PAN_21mic_H50_0348_fot_40508_tif
  70
32
  10
485826.500
  20
4620768.500
  30
1025.527
  0
VERTEX
  8
PNOA-H_AMS_1956-57_33k_ES_PAN_21mic_H50_0348_fot_40508_tif
  70
32
  10
485826.511
  20
4620768.995
  30
1025.534
  0
VERTEX
  8
PNOA-H_AMS_1956-57_33k_ES_PAN_21mic_H50_0348_fot_40508_tif
  70
32
  10
485918.989
  20
4625108.003
  30
1084.941
  0
VERTEX
  8
PNOA-H_AMS_1956-57_33k_ES_PAN_21mic_H50_0348_fot_40508_tif
  70
32
  10
485919.000
  20
4625108.500
  30
1084.948
  0
VERTEX
  8
PNOA-H_AMS_1956-57_33k_ES_PAN_21mic_H50_0348_fot_40508_tif
  70
32
  10
487298.000
  20
4625523.500
  30
1118.474
  0
VERTEX
  8
PNOA-H_AMS_1956-57_33k_ES_PAN_21mic_H50_0348_fot_40508_tif
  70
32
  10
487298.770
  20
4625523.280
  30
1118.742
  0
VERTEX
  8
PNOA-H_AMS_1956-57_33k_ES_PAN_21mic_H50_0348_fot_40508_tif
  70
32
  10
487314.060
  20
4625518.911
  30
1124.068
  0
VERTEX
  8
PNOA-H_AMS_1956-57_33k_ES_PAN_21mic_H50_0348_fot_40508_tif
  70
32
  10
487326.000
  20
4625515.500
  30
1128.226
  0
VERTEX
  8
PNOA-H_AMS_1956-57_33k_ES_PAN_21mic_H50_0348_fot_40508_tif
  70
32
  10
488186.978
  20
4625243.812
  30
1097.894
  0
VERTEX
  8
PNOA-H_AMS_1956-57_33k_ES_PAN_21mic_H50_0348_fot_40508_tif
  70
32
  10
488573.000
  20
4625122.000
  30
1084.295
  0
VERTEX
  8
PNOA-H_AMS_1956-57_33k_ES_PAN_21mic_H50_0348_fot_40508_tif
  70
32
  10
488561.500
  20
4621864.000
  30
1050.624
  0
VERTEX
  8
PNOA-H_AMS_1956-57_33k_ES_PAN_21mic_H50_0348_fot_40508_tif
  70
32
  10
488561.500
  20
4621861.000
  30
1050.41
  0
VERTEX
  8
PNOA-H_AMS_1956-57_33k_ES_PAN_21mic_H50_0348_fot_40508_tif
  70
32
  10
488559.607
  20
4621211.630
  30
1033.389
  0
VERTEX
  8
PNOA-H_AMS_1956-57_33k_ES_PAN_21mic_H50_0348_fot_40508_tif
  70
32
  10
488558.500
  20
4620832.000
  30
1023.438
  0
VERTEX
  8
PNOA-H_AMS_1956-57_33k_ES_PAN_21mic_H50_0348_fot_40508_tif
  70
32
  10
488558.004
  20
4620743.781
  30
1029.582
  0
VERTEX
  8
PNOA-H_AMS_1956-57_33k_ES_PAN_21mic_H50_0348_fot_40508_tif
  70
32
  10
488558.000
  20
4620743.000
  30
1029.636
  0
VERTEX
  8
PNOA-H_AMS_1956-57_33k_ES_PAN_21mic_H50_0348_fot_40508_tif
  70
32
  10
488557.558
  20
4620742.779
  30
1029.608
  0
VERTEX
  8
PNOA-H_AMS_1956-57_33k_ES_PAN_21mic_H50_0348_fot_40508_tif
  70
32
  10
488557.000
  20
4620742.500
  30
1029.573
  0
VERTEX
  8
PNOA-H_AMS_1956-57_33k_ES_PAN_21mic_H50_0348_fot_40508_tif
  70
32
  10
486476.380
  20
4620470.876
  30
1031.161
  0
VERTEX
  8
PNOA-H_AMS_1956-57_33k_ES_PAN_21mic_H50_0348_fot_40508_tif
  70
32
  10
486474.279
  20
4620470.602
  30
1031.163
  0
SEQEND
  8
PNOA-H_AMS_1956-57_33k_ES_PAN_21mic_H50_0348_fot_40508_tif
  0
INSERT
  8
FeatureAttribs
  2
FEATURE
  41
1
  42
1
  43
1
  50
0
  10
489884.881
  20
4622977.000
 66
1
  0
ATTRIB
  8
FeatureAttribs
 70
0
  1
PNOA-H_AMS_1956-57_33k_ES_PAN_21mic_H50_0348_fot_40507.tif
  2
NAME
  10
489884.881
  20
4622977.000
 40
33.36245
  0
SEQEND
  0
POLYLINE
  8
PNOA-H_AMS_1956-57_33k_ES_PAN_21mic_H50_0348_fot_40507_tif
  70
9
  66
1
  0
VERTEX
  8
PNOA-H_AMS_1956-57_33k_ES_PAN_21mic_H50_0348_fot_40507_tif
  70
32
  10
490967.578
  20
4620740.490
  30
1039.457
  0
VERTEX
  8
PNOA-H_AMS_1956-57_33k_ES_PAN_21mic_H50_0348_fot_40507_tif
  70
32
  10
489394.500
  20
4620411.000
  30
1033.408
  0
VERTEX
  8
PNOA-H_AMS_1956-57_33k_ES_PAN_21mic_H50_0348_fot_40507_tif
  70
32
  10
489394.154
  20
4620411.137
  30
1033.407
  0
VERTEX
  8
PNOA-H_AMS_1956-57_33k_ES_PAN_21mic_H50_0348_fot_40507_tif
  70
32
  10
489393.501
  20
4620411.396
  30
1033.404
  0
VERTEX
  8
PNOA-H_AMS_1956-57_33k_ES_PAN_21mic_H50_0348_fot_40507_tif
  70
32
  10
488558.000
  20
4620742.500
  30
1029.668
  0
VERTEX
  8
PNOA-H_AMS_1956-57_33k_ES_PAN_21mic_H50_0348_fot_40507_tif
  70
32
  10
488558.000
  20
4620742.604
  30
1029.669
  0
VERTEX
  8
PNOA-H_AMS_1956-57_33k_ES_PAN_21mic_H50_0348_fot_40507_tif
  70
32
  10
488558.004
  20
4620743.781
  30
1029.684
  0
VERTEX
  8
PNOA-H_AMS_1956-57_33k_ES_PAN_21mic_H50_0348_fot_40507_tif
  70
32
  10
488559.607
  20
4621211.630
  30
1035.52
  0
VERTEX
  8
PNOA-H_AMS_1956-57_33k_ES_PAN_21mic_H50_0348_fot_40507_tif
  70
32
  10
488573.000
  20
4625122.000
  30
1084.295
  0
VERTEX
  8
PNOA-H_AMS_1956-57_33k_ES_PAN_21mic_H50_0348_fot_40507_tif
  70
32
  10
488573.264
  20
4625122.074
  30
1084.302
  0
VERTEX
  8
PNOA-H_AMS_1956-57_33k_ES_PAN_21mic_H50_0348_fot_40507_tif
  70
32
  10
490066.000
  20
4625542.500
  30
1127.863
  0
VERTEX
  8
PNOA-H_AMS_1956-57_33k_ES_PAN_21mic_H50_0348_fot_40507_tif
  70
32
  10
490067.500
  20
4625543.000
  30
1127.717
  0
VERTEX
  8
PNOA-H_AMS_1956-57_33k_ES_PAN_21mic_H50_0348_fot_40507_tif
  70
32
  10
490068.270
  20
4625542.795
  30
1127.641
  0
VERTEX
  8
PNOA-H_AMS_1956-57_33k_ES_PAN_21mic_H50_0348_fot_40507_tif
  70
32
  10
490072.076
  20
4625541.780
  30
1127.265
  0
VERTEX
  8
PNOA-H_AMS_1956-57_33k_ES_PAN_21mic_H50_0348_fot_40507_tif
  70
32
  10
490075.000
  20
4625541.000
  30
1126.975
  0
VERTEX
  8
PNOA-H_AMS_1956-57_33k_ES_PAN_21mic_H50_0348_fot_40507_tif
  70
32
  10
491194.826
  20
4625096.569
  30
1092.534
  0
VERTEX
  8
PNOA-H_AMS_1956-57_33k_ES_PAN_21mic_H50_0348_fot_40507_tif
  70
32
  10
491195.000
  20
4625096.500
  30
1092.529
  0
VERTEX
  8
PNOA-H_AMS_1956-57_33k_ES_PAN_21mic_H50_0348_fot_40507_tif
  70
32
  10
491213.500
  20
4620792.000
  30
1040.403
  0
VERTEX
  8
PNOA-H_AMS_1956-57_33k_ES_PAN_21mic_H50_0348_fot_40507_tif
  70
32
  10
490967.578
  20
4620740.490
  30
1039.457
  0
SEQEND
  8
PNOA-H_AMS_1956-57_33k_ES_PAN_21mic_H50_0348_fot_40507_tif
  0
INSERT
  8
FeatureAttribs
  2
FEATURE
  41
1
  42
1
  43
1
  50
0
  10
487924.505
  20
4618266.500
 66
1
  0
ATTRIB
  8
FeatureAttribs
 70
0
  1
PNOA-H_AMS_1956-57_33k_ES_PAN_21mic_H50_0348_fot_37199.tif
  2
NAME
  10
487924.505
  20
4618266.500
 40
33.36245
  0
SEQEND
  0
POLYLINE
  8
PNOA-H_AMS_1956-57_33k_ES_PAN_21mic_H50_0348_fot_37199_tif
  70
9
  66
1
  0
VERTEX
  8
PNOA-H_AMS_1956-57_33k_ES_PAN_21mic_H50_0348_fot_37199_tif
  70
32
  10
489428.000
  20
4616255.500
  30
1018.042
  0
VERTEX
  8
PNOA-H_AMS_1956-57_33k_ES_PAN_21mic_H50_0348_fot_37199_tif
  70
32
  10
488432.500
  20
4615790.000
  30
998.52
  0
VERTEX
  8
PNOA-H_AMS_1956-57_33k_ES_PAN_21mic_H50_0348_fot_37199_tif
  70
32
  10
488432.276
  20
4615790.052
  30
998.521
  0
VERTEX
  8
PNOA-H_AMS_1956-57_33k_ES_PAN_21mic_H50_0348_fot_37199_tif
  70
32
  10
487756.500
  20
4615947.833
  30
1001.576
  0
VERTEX
  8
PNOA-H_AMS_1956-57_33k_ES_PAN_21mic_H50_0348_fot_37199_tif
  70
32
  10
486404.917
  20
4616263.403
  30
1007.685
  0
VERTEX
  8
PNOA-H_AMS_1956-57_33k_ES_PAN_21mic_H50_0348_fot_37199_tif
  70
32
  10
486404.500
  20
4616263.500
  30
1007.687
  0
VERTEX
  8
PNOA-H_AMS_1956-57_33k_ES_PAN_21mic_H50_0348_fot_37199_tif
  70
32
  10
486474.000
  20
4620456.000
  30
1030.456
  0
VERTEX
  8
PNOA-H_AMS_1956-57_33k_ES_PAN_21mic_H50_0348_fot_37199_tif
  70
32
  10
486474.500
  20
4620470.500
  30
1031.175
  0
VERTEX
  8
PNOA-H_AMS_1956-57_33k_ES_PAN_21mic_H50_0348_fot_37199_tif
  70
32
  10
486476.380
  20
4620470.876
  30
1031.22
  0
VERTEX
  8
PNOA-H_AMS_1956-57_33k_ES_PAN_21mic_H50_0348_fot_37199_tif
  70
32
  10
486477.000
  20
4620471.000
  30
1031.235
  0
VERTEX
  8
PNOA-H_AMS_1956-57_33k_ES_PAN_21mic_H50_0348_fot_37199_tif
  70
32
  10
488553.500
  20
4620742.500
  30
1029.244
  0
VERTEX
  8
PNOA-H_AMS_1956-57_33k_ES_PAN_21mic_H50_0348_fot_37199_tif
  70
32
  10
488557.000
  20
4620743.000
  30
1029.541
  0
VERTEX
  8
PNOA-H_AMS_1956-57_33k_ES_PAN_21mic_H50_0348_fot_37199_tif
  70
32
  10
488557.558
  20
4620742.779
  30
1029.544
  0
VERTEX
  8
PNOA-H_AMS_1956-57_33k_ES_PAN_21mic_H50_0348_fot_37199_tif
  70
32
  10
488558.000
  20
4620742.604
  30
1029.546
  0
VERTEX
  8
PNOA-H_AMS_1956-57_33k_ES_PAN_21mic_H50_0348_fot_37199_tif
  70
32
  10
489393.500
  20
4620411.500
  30
1033.495
  0
VERTEX
  8
PNOA-H_AMS_1956-57_33k_ES_PAN_21mic_H50_0348_fot_37199_tif
  70
32
  10
489393.501
  20
4620411.396
  30
1033.495
  0
VERTEX
  8
PNOA-H_AMS_1956-57_33k_ES_PAN_21mic_H50_0348_fot_37199_tif
  70
32
  10
489393.504
  20
4620411.001
  30
1033.493
  0
VERTEX
  8
PNOA-H_AMS_1956-57_33k_ES_PAN_21mic_H50_0348_fot_37199_tif
  70
32
  10
489410.750
  20
4618333.500
  30
1025.769
  0
VERTEX
  8
PNOA-H_AMS_1956-57_33k_ES_PAN_21mic_H50_0348_fot_37199_tif
  70
32
  10
489428.000
  20
4616255.533
  30
1018.042
  0
VERTEX
  8
PNOA-H_AMS_1956-57_33k_ES_PAN_21mic_H50_0348_fot_37199_tif
  70
32
  10
489428.000
  20
4616255.500
  30
1018.042
  0
SEQEND
  8
PNOA-H_AMS_1956-57_33k_ES_PAN_21mic_H50_0348_fot_37199_tif
  0
INSERT
  8
FeatureAttribs
  2
FEATURE
  41
1
  42
1
  43
1
  50
0
  10
485184.262
  20
4630385.588
 66
1
  0
ATTRIB
  8
FeatureAttribs
 70
0
  1
PNOA-H_AMS_1956-57_33k_ES_PAN_21mic_H50_0316_fot_33B-38715_E.tif
  2
NAME
  10
485184.262
  20
4630385.588
 40
33.36245
  0
SEQEND
  0
POLYLINE
  8
PNOA-H_AMS_1956-57_33k_ES_PAN_21mic_H50_0316_fot_33B-38715_E_tif
  70
9
  66
1
  0
VERTEX
  8
PNOA-H_AMS_1956-57_33k_ES_PAN_21mic_H50_0316_fot_33B-38715_E_tif
  70
32
  10
485948.000
  20
4629927.000
  30
1152.915
  0
VERTEX
  8
PNOA-H_AMS_1956-57_33k_ES_PAN_21mic_H50_0316_fot_33B-38715_E_tif
  70
32
  10
484543.000
  20
4629482.500
  30
1167.308
  0
VERTEX
  8
PNOA-H_AMS_1956-57_33k_ES_PAN_21mic_H50_0316_fot_33B-38715_E_tif
  70
32
  10
484542.129
  20
4629482.699
  30
1167.291
  0
VERTEX
  8
PNOA-H_AMS_1956-57_33k_ES_PAN_21mic_H50_0316_fot_33B-38715_E_tif
  70
32
  10
484534.922
  20
4629484.346
  30
1167.146
  0
VERTEX
  8
PNOA-H_AMS_1956-57_33k_ES_PAN_21mic_H50_0316_fot_33B-38715_E_tif
  70
32
  10
484525.500
  20
4629486.500
  30
1166.958
  0
VERTEX
  8
PNOA-H_AMS_1956-57_33k_ES_PAN_21mic_H50_0316_fot_33B-38715_E_tif
  70
32
  10
484427.366
  20
4629514.113
  30
1164.181
  0
VERTEX
  8
PNOA-H_AMS_1956-57_33k_ES_PAN_21mic_H50_0316_fot_33B-38715_E_tif
  70
32
  10
484427.367
  20
4629514.536
  30
0
  0
VERTEX
  8
PNOA-H_AMS_1956-57_33k_ES_PAN_21mic_H50_0316_fot_33B-38715_E_tif
  70
32
  10
484431.239
  20
4631288.676
  30
0
  0
VERTEX
  8
PNOA-H_AMS_1956-57_33k_ES_PAN_21mic_H50_0316_fot_33B-38715_E_tif
  70
32
  10
485920.100
  20
4631285.787
  30
1142.087
  0
VERTEX
  8
PNOA-H_AMS_1956-57_33k_ES_PAN_21mic_H50_0316_fot_33B-38715_E_tif
  70
32
  10
485920.347
  20
4631285.787
  30
1139.356
  0
VERTEX
  8
PNOA-H_AMS_1956-57_33k_ES_PAN_21mic_H50_0316_fot_33B-38715_E_tif
  70
32
  10
485946.000
  20
4630064.500
  30
1147.579
  0
VERTEX
  8
PNOA-H_AMS_1956-57_33k_ES_PAN_21mic_H50_0316_fot_33B-38715_E_tif
  70
32
  10
485946.000
  20
4630053.000
  30
1147.986
  0
VERTEX
  8
PNOA-H_AMS_1956-57_33k_ES_PAN_21mic_H50_0316_fot_33B-38715_E_tif
  70
32
  10
485948.500
  20
4629945.500
  30
1152.381
  0
VERTEX
  8
PNOA-H_AMS_1956-57_33k_ES_PAN_21mic_H50_0316_fot_33B-38715_E_tif
  70
32
  10
485948.288
  20
4629937.649
  30
1152.608
  0
VERTEX
  8
PNOA-H_AMS_1956-57_33k_ES_PAN_21mic_H50_0316_fot_33B-38715_E_tif
  70
32
  10
485948.013
  20
4629927.496
  30
1152.901
  0
VERTEX
  8
PNOA-H_AMS_1956-57_33k_ES_PAN_21mic_H50_0316_fot_33B-38715_E_tif
  70
32
  10
485948.000
  20
4629927.000
  30
1152.915
  0
SEQEND
  8
PNOA-H_AMS_1956-57_33k_ES_PAN_21mic_H50_0316_fot_33B-38715_E_tif
  0
INSERT
  8
FeatureAttribs
  2
FEATURE
  41
1
  42
1
  43
1
  50
0
  10
487292.575
  20
4630406.894
 66
1
  0
ATTRIB
  8
FeatureAttribs
 70
0
  1
PNOA-H_AMS_1956-57_33k_ES_PAN_21mic_H50_0316_fot_33B-38716_E.tif
  2
NAME
  10
487292.575
  20
4630406.894
 40
33.36245
  0
SEQEND
  0
POLYLINE
  8
PNOA-H_AMS_1956-57_33k_ES_PAN_21mic_H50_0316_fot_33B-38716_E_tif
  70
9
  66
1
  0
VERTEX
  8
PNOA-H_AMS_1956-57_33k_ES_PAN_21mic_H50_0316_fot_33B-38716_E_tif
  70
32
  10
488642.321
  20
4629951.137
  30
1030.923
  0
VERTEX
  8
PNOA-H_AMS_1956-57_33k_ES_PAN_21mic_H50_0316_fot_33B-38716_E_tif
  70
32
  10
487268.500
  20
4629528.000
  30
1118.175
  0
VERTEX
  8
PNOA-H_AMS_1956-57_33k_ES_PAN_21mic_H50_0316_fot_33B-38716_E_tif
  70
32
  10
487267.995
  20
4629528.153
  30
1118.188
  0
VERTEX
  8
PNOA-H_AMS_1956-57_33k_ES_PAN_21mic_H50_0316_fot_33B-38716_E_tif
  70
32
  10
485948.500
  20
4629927.500
  30
1152.883
  0
VERTEX
  8
PNOA-H_AMS_1956-57_33k_ES_PAN_21mic_H50_0316_fot_33B-38716_E_tif
  70
32
  10
485948.288
  20
4629937.649
  30
1152.803
  0
VERTEX
  8
PNOA-H_AMS_1956-57_33k_ES_PAN_21mic_H50_0316_fot_33B-38716_E_tif
  70
32
  10
485920.100
  20
4631285.787
  30
1142.245
  0
VERTEX
  8
PNOA-H_AMS_1956-57_33k_ES_PAN_21mic_H50_0316_fot_33B-38716_E_tif
  70
32
  10
485920.347
  20
4631285.787
  30
0
  0
VERTEX
  8
PNOA-H_AMS_1956-57_33k_ES_PAN_21mic_H50_0316_fot_33B-38716_E_tif
  70
32
  10
487890.964
  20
4631281.963
  30
0
  0
VERTEX
  8
PNOA-H_AMS_1956-57_33k_ES_PAN_21mic_H50_0316_fot_33B-38716_E_tif
  70
32
  10
488652.765
  20
4631280.855
  30
1053.484
  0
VERTEX
  8
PNOA-H_AMS_1956-57_33k_ES_PAN_21mic_H50_0316_fot_33B-38716_E_tif
  70
32
  10
488643.500
  20
4629951.500
  30
1030.848
  0
VERTEX
  8
PNOA-H_AMS_1956-57_33k_ES_PAN_21mic_H50_0316_fot_33B-38716_E_tif
  70
32
  10
488642.321
  20
4629951.137
  30
1030.923
  0
SEQEND
  8
PNOA-H_AMS_1956-57_33k_ES_PAN_21mic_H50_0316_fot_33B-38716_E_tif
  0
INSERT
  8
FeatureAttribs
  2
FEATURE
  41
1
  42
1
  43
1
  50
0
  10
484970.277
  20
4614451.992
 66
1
  0
ATTRIB
  8
FeatureAttribs
 70
0
  1
PNOA-H_AMS_1956-57_33k_ES_PAN_21mic_H50_0347_fot_38978.tif
  2
NAME
  10
484970.277
  20
4614451.992
 40
33.36245
  0
SEQEND
  0
POLYLINE
  8
PNOA-H_AMS_1956-57_33k_ES_PAN_21mic_H50_0347_fot_38978_tif
  70
9
  66
1
  0
VERTEX
  8
PNOA-H_AMS_1956-57_33k_ES_PAN_21mic_H50_0347_fot_38978_tif
  70
32
  10
485585.500
  20
4615884.000
  30
1001.785
  0
VERTEX
  8
PNOA-H_AMS_1956-57_33k_ES_PAN_21mic_H50_0347_fot_38978_tif
  70
32
  10
485499.968
  20
4612782.519
  30
955.861
  0
VERTEX
  8
PNOA-H_AMS_1956-57_33k_ES_PAN_21mic_H50_0347_fot_38978_tif
  70
32
  10
484390.916
  20
4612784.664
  30
0
  0
VERTEX
  8
PNOA-H_AMS_1956-57_33k_ES_PAN_21mic_H50_0347_fot_38978_tif
  70
32
  10
484395.949
  20
4615097.636
  30
0
  0
VERTEX
  8
PNOA-H_AMS_1956-57_33k_ES_PAN_21mic_H50_0347_fot_38978_tif
  70
32
  10
484398.178
  20
4616121.464
  30
982.542
  0
VERTEX
  8
PNOA-H_AMS_1956-57_33k_ES_PAN_21mic_H50_0347_fot_38978_tif
  70
32
  10
485585.500
  20
4615884.000
  30
1001.785
  0
SEQEND
  8
PNOA-H_AMS_1956-57_33k_ES_PAN_21mic_H50_0347_fot_38978_tif
  0
INSERT
  8
FeatureAttribs
  2
FEATURE
  41
1
  42
1
  43
1
  50
0
  10
486979.765
  20
4614520.348
 66
1
  0
ATTRIB
  8
FeatureAttribs
 70
0
  1
PNOA-H_AMS_1956-57_33k_ES_PAN_21mic_H50_0348_fot_38979.tif
  2
NAME
  10
486979.765
  20
4614520.348
 40
33.36245
  0
SEQEND
  0
POLYLINE
  8
PNOA-H_AMS_1956-57_33k_ES_PAN_21mic_H50_0348_fot_38979_tif
  70
9
  66
1
  0
VERTEX
  8
PNOA-H_AMS_1956-57_33k_ES_PAN_21mic_H50_0348_fot_38979_tif
  70
32
  10
488431.992
  20
4615789.483
  30
998.539
  0
VERTEX
  8
PNOA-H_AMS_1956-57_33k_ES_PAN_21mic_H50_0348_fot_38979_tif
  70
32
  10
488383.676
  20
4612777.196
  30
997.432
  0
VERTEX
  8
PNOA-H_AMS_1956-57_33k_ES_PAN_21mic_H50_0348_fot_38979_tif
  70
32
  10
488383.563
  20
4612777.196
  30
0
  0
VERTEX
  8
PNOA-H_AMS_1956-57_33k_ES_PAN_21mic_H50_0348_fot_38979_tif
  70
32
  10
487859.603
  20
4612777.956
  30
0
  0
VERTEX
  8
PNOA-H_AMS_1956-57_33k_ES_PAN_21mic_H50_0348_fot_38979_tif
  70
32
  10
485499.968
  20
4612782.519
  30
955.861
  0
VERTEX
  8
PNOA-H_AMS_1956-57_33k_ES_PAN_21mic_H50_0348_fot_38979_tif
  70
32
  10
485585.500
  20
4615884.000
  30
1001.785
  0
VERTEX
  8
PNOA-H_AMS_1956-57_33k_ES_PAN_21mic_H50_0348_fot_38979_tif
  70
32
  10
485585.801
  20
4615884.140
  30
1001.78
  0
VERTEX
  8
PNOA-H_AMS_1956-57_33k_ES_PAN_21mic_H50_0348_fot_38979_tif
  70
32
  10
485834.500
  20
4615999.500
  30
997.856
  0
VERTEX
  8
PNOA-H_AMS_1956-57_33k_ES_PAN_21mic_H50_0348_fot_38979_tif
  70
32
  10
485835.500
  20
4616000.000
  30
997.763
  0
VERTEX
  8
PNOA-H_AMS_1956-57_33k_ES_PAN_21mic_H50_0348_fot_38979_tif
  70
32
  10
486402.500
  20
4616263.000
  30
1007.489
  0
VERTEX
  8
PNOA-H_AMS_1956-57_33k_ES_PAN_21mic_H50_0348_fot_38979_tif
  70
32
  10
486403.939
  20
4616263.240
  30
1007.618
  0
VERTEX
  8
PNOA-H_AMS_1956-57_33k_ES_PAN_21mic_H50_0348_fot_38979_tif
  70
32
  10
486404.917
  20
4616263.403
  30
1007.706
  0
VERTEX
  8
PNOA-H_AMS_1956-57_33k_ES_PAN_21mic_H50_0348_fot_38979_tif
  70
32
  10
486405.500
  20
4616263.500
  30
1007.758
  0
VERTEX
  8
PNOA-H_AMS_1956-57_33k_ES_PAN_21mic_H50_0348_fot_38979_tif
  70
32
  10
487756.500
  20
4615947.833
  30
1001.612
  0
VERTEX
  8
PNOA-H_AMS_1956-57_33k_ES_PAN_21mic_H50_0348_fot_38979_tif
  70
32
  10
488432.000
  20
4615790.000
  30
998.539
  0
VERTEX
  8
PNOA-H_AMS_1956-57_33k_ES_PAN_21mic_H50_0348_fot_38979_tif
  70
32
  10
488431.992
  20
4615789.483
  30
998.539
  0
SEQEND
  8
PNOA-H_AMS_1956-57_33k_ES_PAN_21mic_H50_0348_fot_38979_tif
  0
ENDSEC
  0
EOF
