  0
SECTION
  2
HEADER
  9
$ACADVER
  1
AC1009
  9
$LUNITS
  70
2
  9
$LIMMIN
  10
456641.373
  20
4612784.664
  9
$LIMMAX
  10
484431.239
  20
4631332.840
  9
$EXTMIN
  10
456641.373
  20
4612784.664
  9
$EXTMAX
  10
484431.239
  20
4631332.840
  999
Created by Global Mapper
  999
Projection: UTM
  999
Datum: ETRS89
  999
Ground Units: meters
  999
ZONE: 30
  0
ENDSEC
  0
SECTION
  2
TABLES
  0
ENDSEC
  0
SECTION
  2
BLOCKS
  0
BLOCK
  8
FeatureAttribs
  70
0
  2
FEATURE
  3
FEATURE
  10
0.00000000
  20
0.00000000
  0
ATTDEF
  8
FeatureAttribs
  70
0
  1
 
  2
NAME
  3
NAME
  10
0.00000000
  20
0.00000000
  40
1.00000000
  0
ENDBLK
  0
ENDSEC
  0
SECTION
  2
ENTITIES
  0
INSERT
  8
FeatureAttribs
  2
FEATURE
  41
1
  42
1
  43
1
  50
0
  10
470451.880
  20
4626024.427
 66
1
  0
ATTRIB
  8
FeatureAttribs
 70
0
  1
PNOA-H_AMS_1956-57_33k_ES_PAN_21mic_H50_0347_fot_34C-40377_E.tif
  2
NAME
  10
470451.880
  20
4626024.427
 40
33.41125
  0
SEQEND
  0
POLYLINE
  8
PNOA-H_AMS_1956-57_33k_ES_PAN_21mic_H50_0347_fot_34C-40377_E_tif
  70
9
  66
1
  0
VERTEX
  8
PNOA-H_AMS_1956-57_33k_ES_PAN_21mic_H50_0347_fot_34C-40377_E_tif
  70
32
  10
470457.500
  20
4625521.000
  30
918.495
  0
VERTEX
  8
PNOA-H_AMS_1956-57_33k_ES_PAN_21mic_H50_0347_fot_34C-40377_E_tif
  70
32
  10
470450.000
  20
4625518.131
  30
918.912
  0
VERTEX
  8
PNOA-H_AMS_1956-57_33k_ES_PAN_21mic_H50_0347_fot_34C-40377_E_tif
  70
32
  10
470450.000
  20
4626530.722
  30
941.861
  0
VERTEX
  8
PNOA-H_AMS_1956-57_33k_ES_PAN_21mic_H50_0347_fot_34C-40377_E_tif
  70
32
  10
470457.500
  20
4625521.000
  30
918.495
  0
SEQEND
  8
PNOA-H_AMS_1956-57_33k_ES_PAN_21mic_H50_0347_fot_34C-40377_E_tif
  0
INSERT
  8
FeatureAttribs
  2
FEATURE
  41
1
  42
1
  43
1
  50
0
  10
471896.714
  20
4627284.000
 66
1
  0
ATTRIB
  8
FeatureAttribs
 70
0
  1
PNOA-H_AMS_1956-57_33k_ES_PAN_21mic_H50_0347_fot_34C-40378_E.tif
  2
NAME
  10
471896.714
  20
4627284.000
 40
33.41125
  0
SEQEND
  0
POLYLINE
  8
PNOA-H_AMS_1956-57_33k_ES_PAN_21mic_H50_0347_fot_34C-40378_E_tif
  70
9
  66
1
  0
VERTEX
  8
PNOA-H_AMS_1956-57_33k_ES_PAN_21mic_H50_0347_fot_34C-40378_E_tif
  70
32
  10
471891.303
  20
4624968.576
  30
984.187
  0
VERTEX
  8
PNOA-H_AMS_1956-57_33k_ES_PAN_21mic_H50_0347_fot_34C-40378_E_tif
  70
32
  10
471891.000
  20
4624968.500
  30
984.214
  0
VERTEX
  8
PNOA-H_AMS_1956-57_33k_ES_PAN_21mic_H50_0347_fot_34C-40378_E_tif
  70
32
  10
470457.749
  20
4625520.904
  30
918.506
  0
VERTEX
  8
PNOA-H_AMS_1956-57_33k_ES_PAN_21mic_H50_0347_fot_34C-40378_E_tif
  70
32
  10
470457.500
  20
4625521.000
  30
918.495
  0
VERTEX
  8
PNOA-H_AMS_1956-57_33k_ES_PAN_21mic_H50_0347_fot_34C-40378_E_tif
  70
32
  10
470450.000
  20
4626530.722
  30
941.861
  0
VERTEX
  8
PNOA-H_AMS_1956-57_33k_ES_PAN_21mic_H50_0347_fot_34C-40378_E_tif
  70
32
  10
470450.000
  20
4626810.000
  30
972.553
  0
VERTEX
  8
PNOA-H_AMS_1956-57_33k_ES_PAN_21mic_H50_0347_fot_34C-40378_E_tif
  70
32
  10
470470.000
  20
4626810.000
  30
972.553
  0
VERTEX
  8
PNOA-H_AMS_1956-57_33k_ES_PAN_21mic_H50_0347_fot_34C-40378_E_tif
  70
32
  10
470470.000
  20
4629167.467
  30
1001.302
  0
VERTEX
  8
PNOA-H_AMS_1956-57_33k_ES_PAN_21mic_H50_0347_fot_34C-40378_E_tif
  70
32
  10
470470.000
  20
4629167.760
  30
1001.306
  0
VERTEX
  8
PNOA-H_AMS_1956-57_33k_ES_PAN_21mic_H50_0347_fot_34C-40378_E_tif
  70
32
  10
471918.500
  20
4629599.000
  30
953.369
  0
VERTEX
  8
PNOA-H_AMS_1956-57_33k_ES_PAN_21mic_H50_0347_fot_34C-40378_E_tif
  70
32
  10
471920.000
  20
4629599.500
  30
953.381
  0
VERTEX
  8
PNOA-H_AMS_1956-57_33k_ES_PAN_21mic_H50_0347_fot_34C-40378_E_tif
  70
32
  10
471920.242
  20
4629599.423
  30
953.396
  0
VERTEX
  8
PNOA-H_AMS_1956-57_33k_ES_PAN_21mic_H50_0347_fot_34C-40378_E_tif
  70
32
  10
473283.500
  20
4629166.500
  30
1034.264
  0
VERTEX
  8
PNOA-H_AMS_1956-57_33k_ES_PAN_21mic_H50_0347_fot_34C-40378_E_tif
  70
32
  10
473361.000
  20
4625512.500
  30
950.054
  0
VERTEX
  8
PNOA-H_AMS_1956-57_33k_ES_PAN_21mic_H50_0347_fot_34C-40378_E_tif
  70
32
  10
471893.000
  20
4624969.000
  30
984.036
  0
VERTEX
  8
PNOA-H_AMS_1956-57_33k_ES_PAN_21mic_H50_0347_fot_34C-40378_E_tif
  70
32
  10
471891.488
  20
4624968.622
  30
984.171
  0
VERTEX
  8
PNOA-H_AMS_1956-57_33k_ES_PAN_21mic_H50_0347_fot_34C-40378_E_tif
  70
32
  10
471891.303
  20
4624968.576
  30
984.187
  0
SEQEND
  8
PNOA-H_AMS_1956-57_33k_ES_PAN_21mic_H50_0347_fot_34C-40378_E_tif
  0
INSERT
  8
FeatureAttribs
  2
FEATURE
  41
1
  42
1
  43
1
  50
0
  10
477655.768
  20
4627341.750
 66
1
  0
ATTRIB
  8
FeatureAttribs
 70
0
  1
PNOA-H_AMS_1956-57_33k_ES_PAN_21mic_H50_0347_fot_34C-40380_E.tif
  2
NAME
  10
477655.768
  20
4627341.750
 40
33.41125
  0
SEQEND
  0
POLYLINE
  8
PNOA-H_AMS_1956-57_33k_ES_PAN_21mic_H50_0347_fot_34C-40380_E_tif
  70
9
  66
1
  0
VERTEX
  8
PNOA-H_AMS_1956-57_33k_ES_PAN_21mic_H50_0347_fot_34C-40380_E_tif
  70
32
  10
477464.796
  20
4624979.586
  30
968.817
  0
VERTEX
  8
PNOA-H_AMS_1956-57_33k_ES_PAN_21mic_H50_0347_fot_34C-40380_E_tif
  70
32
  10
477464.500
  20
4624979.500
  30
968.81
  0
VERTEX
  8
PNOA-H_AMS_1956-57_33k_ES_PAN_21mic_H50_0347_fot_34C-40380_E_tif
  70
32
  10
476870.000
  20
4625229.500
  30
971.857
  0
VERTEX
  8
PNOA-H_AMS_1956-57_33k_ES_PAN_21mic_H50_0347_fot_34C-40380_E_tif
  70
32
  10
476275.500
  20
4625479.500
  30
974.904
  0
VERTEX
  8
PNOA-H_AMS_1956-57_33k_ES_PAN_21mic_H50_0347_fot_34C-40380_E_tif
  70
32
  10
476275.271
  20
4625491.473
  30
974.994
  0
VERTEX
  8
PNOA-H_AMS_1956-57_33k_ES_PAN_21mic_H50_0347_fot_34C-40380_E_tif
  70
32
  10
476204.000
  20
4629220.500
  30
1003.07
  0
VERTEX
  8
PNOA-H_AMS_1956-57_33k_ES_PAN_21mic_H50_0347_fot_34C-40380_E_tif
  70
32
  10
476204.245
  20
4629220.579
  30
1003.072
  0
VERTEX
  8
PNOA-H_AMS_1956-57_33k_ES_PAN_21mic_H50_0347_fot_34C-40380_E_tif
  70
32
  10
477698.000
  20
4629703.500
  30
1012.779
  0
VERTEX
  8
PNOA-H_AMS_1956-57_33k_ES_PAN_21mic_H50_0347_fot_34C-40380_E_tif
  70
32
  10
477699.500
  20
4629704.000
  30
1012.774
  0
VERTEX
  8
PNOA-H_AMS_1956-57_33k_ES_PAN_21mic_H50_0347_fot_34C-40380_E_tif
  70
32
  10
477700.006
  20
4629703.840
  30
1012.786
  0
VERTEX
  8
PNOA-H_AMS_1956-57_33k_ES_PAN_21mic_H50_0347_fot_34C-40380_E_tif
  70
32
  10
479017.000
  20
4629287.500
  30
1042.612
  0
VERTEX
  8
PNOA-H_AMS_1956-57_33k_ES_PAN_21mic_H50_0347_fot_34C-40380_E_tif
  70
32
  10
479124.500
  20
4625458.500
  30
1007.061
  0
VERTEX
  8
PNOA-H_AMS_1956-57_33k_ES_PAN_21mic_H50_0347_fot_34C-40380_E_tif
  70
32
  10
477535.583
  20
4625000.011
  30
970.448
  0
VERTEX
  8
PNOA-H_AMS_1956-57_33k_ES_PAN_21mic_H50_0347_fot_34C-40380_E_tif
  70
32
  10
477464.796
  20
4624979.586
  30
968.817
  0
SEQEND
  8
PNOA-H_AMS_1956-57_33k_ES_PAN_21mic_H50_0347_fot_34C-40380_E_tif
  0
INSERT
  8
FeatureAttribs
  2
FEATURE
  41
1
  42
1
  43
1
  50
0
  10
474781.621
  20
4627319.250
 66
1
  0
ATTRIB
  8
FeatureAttribs
 70
0
  1
PNOA-H_AMS_1956-57_33k_ES_PAN_21mic_H50_0347_fot_34C-40379_E.tif
  2
NAME
  10
474781.621
  20
4627319.250
 40
33.41125
  0
SEQEND
  0
POLYLINE
  8
PNOA-H_AMS_1956-57_33k_ES_PAN_21mic_H50_0347_fot_34C-40379_E_tif
  70
9
  66
1
  0
VERTEX
  8
PNOA-H_AMS_1956-57_33k_ES_PAN_21mic_H50_0347_fot_34C-40379_E_tif
  70
32
  10
474672.566
  20
4624976.677
  30
939.81
  0
VERTEX
  8
PNOA-H_AMS_1956-57_33k_ES_PAN_21mic_H50_0347_fot_34C-40379_E_tif
  70
32
  10
474672.000
  20
4624976.500
  30
939.797
  0
VERTEX
  8
PNOA-H_AMS_1956-57_33k_ES_PAN_21mic_H50_0347_fot_34C-40379_E_tif
  70
32
  10
473361.000
  20
4625512.500
  30
950.054
  0
VERTEX
  8
PNOA-H_AMS_1956-57_33k_ES_PAN_21mic_H50_0347_fot_34C-40379_E_tif
  70
32
  10
473283.511
  20
4629166.503
  30
1034.267
  0
VERTEX
  8
PNOA-H_AMS_1956-57_33k_ES_PAN_21mic_H50_0347_fot_34C-40379_E_tif
  70
32
  10
473283.500
  20
4629167.000
  30
1034.278
  0
VERTEX
  8
PNOA-H_AMS_1956-57_33k_ES_PAN_21mic_H50_0347_fot_34C-40379_E_tif
  70
32
  10
473546.000
  20
4629253.500
  30
1046.751
  0
VERTEX
  8
PNOA-H_AMS_1956-57_33k_ES_PAN_21mic_H50_0347_fot_34C-40379_E_tif
  70
32
  10
473547.500
  20
4629254.000
  30
1046.683
  0
VERTEX
  8
PNOA-H_AMS_1956-57_33k_ES_PAN_21mic_H50_0347_fot_34C-40379_E_tif
  70
32
  10
474463.155
  20
4629555.402
  30
1005.58
  0
VERTEX
  8
PNOA-H_AMS_1956-57_33k_ES_PAN_21mic_H50_0347_fot_34C-40379_E_tif
  70
32
  10
474786.757
  20
4629661.920
  30
991.054
  0
VERTEX
  8
PNOA-H_AMS_1956-57_33k_ES_PAN_21mic_H50_0347_fot_34C-40379_E_tif
  70
32
  10
474787.000
  20
4629662.000
  30
991.043
  0
VERTEX
  8
PNOA-H_AMS_1956-57_33k_ES_PAN_21mic_H50_0347_fot_34C-40379_E_tif
  70
32
  10
475495.500
  20
4629441.250
  30
997.057
  0
VERTEX
  8
PNOA-H_AMS_1956-57_33k_ES_PAN_21mic_H50_0347_fot_34C-40379_E_tif
  70
32
  10
476204.000
  20
4629220.500
  30
1003.07
  0
VERTEX
  8
PNOA-H_AMS_1956-57_33k_ES_PAN_21mic_H50_0347_fot_34C-40379_E_tif
  70
32
  10
476275.500
  20
4625502.000
  30
976.375
  0
VERTEX
  8
PNOA-H_AMS_1956-57_33k_ES_PAN_21mic_H50_0347_fot_34C-40379_E_tif
  70
32
  10
476275.271
  20
4625491.473
  30
975.69
  0
VERTEX
  8
PNOA-H_AMS_1956-57_33k_ES_PAN_21mic_H50_0347_fot_34C-40379_E_tif
  70
32
  10
476275.011
  20
4625479.495
  30
974.91
  0
VERTEX
  8
PNOA-H_AMS_1956-57_33k_ES_PAN_21mic_H50_0347_fot_34C-40379_E_tif
  70
32
  10
476275.000
  20
4625479.000
  30
974.878
  0
VERTEX
  8
PNOA-H_AMS_1956-57_33k_ES_PAN_21mic_H50_0347_fot_34C-40379_E_tif
  70
32
  10
475605.493
  20
4625269.127
  30
960.226
  0
VERTEX
  8
PNOA-H_AMS_1956-57_33k_ES_PAN_21mic_H50_0347_fot_34C-40379_E_tif
  70
32
  10
474672.566
  20
4624976.677
  30
939.81
  0
SEQEND
  8
PNOA-H_AMS_1956-57_33k_ES_PAN_21mic_H50_0347_fot_34C-40379_E_tif
  0
INSERT
  8
FeatureAttribs
  2
FEATURE
  41
1
  42
1
  43
1
  50
0
  10
476027.366
  20
4623073.000
 66
1
  0
ATTRIB
  8
FeatureAttribs
 70
0
  1
PNOA-H_AMS_1956-57_33k_ES_PAN_21mic_H50_0347_fot_40512.tif
  2
NAME
  10
476027.366
  20
4623073.000
 40
33.41125
  0
SEQEND
  0
POLYLINE
  8
PNOA-H_AMS_1956-57_33k_ES_PAN_21mic_H50_0347_fot_40512_tif
  70
9
  66
1
  0
VERTEX
  8
PNOA-H_AMS_1956-57_33k_ES_PAN_21mic_H50_0347_fot_40512_tif
  70
32
  10
477380.000
  20
4620675.000
  30
993.849
  0
VERTEX
  8
PNOA-H_AMS_1956-57_33k_ES_PAN_21mic_H50_0347_fot_40512_tif
  70
32
  10
477365.000
  20
4620666.500
  30
995.28
  0
VERTEX
  8
PNOA-H_AMS_1956-57_33k_ES_PAN_21mic_H50_0347_fot_40512_tif
  70
32
  10
477364.530
  20
4620666.517
  30
995.28
  0
VERTEX
  8
PNOA-H_AMS_1956-57_33k_ES_PAN_21mic_H50_0347_fot_40512_tif
  70
32
  10
474572.500
  20
4620770.500
  30
994.836
  0
VERTEX
  8
PNOA-H_AMS_1956-57_33k_ES_PAN_21mic_H50_0347_fot_40512_tif
  70
32
  10
474572.504
  20
4620770.681
  30
994.833
  0
VERTEX
  8
PNOA-H_AMS_1956-57_33k_ES_PAN_21mic_H50_0347_fot_40512_tif
  70
32
  10
474672.500
  20
4624976.000
  30
939.851
  0
VERTEX
  8
PNOA-H_AMS_1956-57_33k_ES_PAN_21mic_H50_0347_fot_40512_tif
  70
32
  10
474672.992
  20
4624976.155
  30
939.862
  0
VERTEX
  8
PNOA-H_AMS_1956-57_33k_ES_PAN_21mic_H50_0347_fot_40512_tif
  70
32
  10
475605.493
  20
4625269.127
  30
960.291
  0
VERTEX
  8
PNOA-H_AMS_1956-57_33k_ES_PAN_21mic_H50_0347_fot_40512_tif
  70
32
  10
476273.500
  20
4625479.000
  30
974.927
  0
VERTEX
  8
PNOA-H_AMS_1956-57_33k_ES_PAN_21mic_H50_0347_fot_40512_tif
  70
32
  10
476275.000
  20
4625479.500
  30
974.92
  0
VERTEX
  8
PNOA-H_AMS_1956-57_33k_ES_PAN_21mic_H50_0347_fot_40512_tif
  70
32
  10
476275.011
  20
4625479.495
  30
974.92
  0
VERTEX
  8
PNOA-H_AMS_1956-57_33k_ES_PAN_21mic_H50_0347_fot_40512_tif
  70
32
  10
476870.000
  20
4625229.500
  30
971.917
  0
VERTEX
  8
PNOA-H_AMS_1956-57_33k_ES_PAN_21mic_H50_0347_fot_40512_tif
  70
32
  10
477464.796
  20
4624979.586
  30
968.915
  0
VERTEX
  8
PNOA-H_AMS_1956-57_33k_ES_PAN_21mic_H50_0347_fot_40512_tif
  70
32
  10
477465.000
  20
4624979.500
  30
968.914
  0
VERTEX
  8
PNOA-H_AMS_1956-57_33k_ES_PAN_21mic_H50_0347_fot_40512_tif
  70
32
  10
477380.500
  20
4620685.500
  30
993.372
  0
VERTEX
  8
PNOA-H_AMS_1956-57_33k_ES_PAN_21mic_H50_0347_fot_40512_tif
  70
32
  10
477380.024
  20
4620675.500
  30
993.827
  0
VERTEX
  8
PNOA-H_AMS_1956-57_33k_ES_PAN_21mic_H50_0347_fot_40512_tif
  70
32
  10
477380.000
  20
4620675.000
  30
993.849
  0
SEQEND
  8
PNOA-H_AMS_1956-57_33k_ES_PAN_21mic_H50_0347_fot_40512_tif
  0
INSERT
  8
FeatureAttribs
  2
FEATURE
  41
1
  42
1
  43
1
  50
0
  10
473228.473
  20
4623071.750
 66
1
  0
ATTRIB
  8
FeatureAttribs
 70
0
  1
PNOA-H_AMS_1956-57_33k_ES_PAN_21mic_H50_0347_fot_40513.tif
  2
NAME
  10
473228.473
  20
4623071.750
 40
33.41125
  0
SEQEND
  0
POLYLINE
  8
PNOA-H_AMS_1956-57_33k_ES_PAN_21mic_H50_0347_fot_40513_tif
  70
9
  66
1
  0
VERTEX
  8
PNOA-H_AMS_1956-57_33k_ES_PAN_21mic_H50_0347_fot_40513_tif
  70
32
  10
474566.000
  20
4620766.500
  30
994.836
  0
VERTEX
  8
PNOA-H_AMS_1956-57_33k_ES_PAN_21mic_H50_0347_fot_40513_tif
  70
32
  10
474296.500
  20
4620631.000
  30
995.429
  0
VERTEX
  8
PNOA-H_AMS_1956-57_33k_ES_PAN_21mic_H50_0347_fot_40513_tif
  70
32
  10
474295.674
  20
4620631.088
  30
995.418
  0
VERTEX
  8
PNOA-H_AMS_1956-57_33k_ES_PAN_21mic_H50_0347_fot_40513_tif
  70
32
  10
473873.417
  20
4620676.000
  30
989.656
  0
VERTEX
  8
PNOA-H_AMS_1956-57_33k_ES_PAN_21mic_H50_0347_fot_40513_tif
  70
32
  10
471758.000
  20
4620901.000
  30
960.792
  0
VERTEX
  8
PNOA-H_AMS_1956-57_33k_ES_PAN_21mic_H50_0347_fot_40513_tif
  70
32
  10
471891.484
  20
4624968.506
  30
984.13
  0
VERTEX
  8
PNOA-H_AMS_1956-57_33k_ES_PAN_21mic_H50_0347_fot_40513_tif
  70
32
  10
471891.488
  20
4624968.622
  30
984.131
  0
VERTEX
  8
PNOA-H_AMS_1956-57_33k_ES_PAN_21mic_H50_0347_fot_40513_tif
  70
32
  10
471891.500
  20
4624969.000
  30
984.133
  0
VERTEX
  8
PNOA-H_AMS_1956-57_33k_ES_PAN_21mic_H50_0347_fot_40513_tif
  70
32
  10
473359.500
  20
4625512.500
  30
949.947
  0
VERTEX
  8
PNOA-H_AMS_1956-57_33k_ES_PAN_21mic_H50_0347_fot_40513_tif
  70
32
  10
473361.000
  20
4625512.500
  30
950.054
  0
VERTEX
  8
PNOA-H_AMS_1956-57_33k_ES_PAN_21mic_H50_0347_fot_40513_tif
  70
32
  10
473362.500
  20
4625512.500
  30
950.162
  0
VERTEX
  8
PNOA-H_AMS_1956-57_33k_ES_PAN_21mic_H50_0347_fot_40513_tif
  70
32
  10
473370.000
  20
4625509.500
  30
950.673
  0
VERTEX
  8
PNOA-H_AMS_1956-57_33k_ES_PAN_21mic_H50_0347_fot_40513_tif
  70
32
  10
473547.000
  20
4625436.500
  30
952.173
  0
VERTEX
  8
PNOA-H_AMS_1956-57_33k_ES_PAN_21mic_H50_0347_fot_40513_tif
  70
32
  10
473548.000
  20
4625436.500
  30
952.107
  0
VERTEX
  8
PNOA-H_AMS_1956-57_33k_ES_PAN_21mic_H50_0347_fot_40513_tif
  70
32
  10
474672.566
  20
4624976.677
  30
939.904
  0
VERTEX
  8
PNOA-H_AMS_1956-57_33k_ES_PAN_21mic_H50_0347_fot_40513_tif
  70
32
  10
474673.000
  20
4624976.500
  30
939.9
  0
VERTEX
  8
PNOA-H_AMS_1956-57_33k_ES_PAN_21mic_H50_0347_fot_40513_tif
  70
32
  10
474672.992
  20
4624976.155
  30
939.904
  0
VERTEX
  8
PNOA-H_AMS_1956-57_33k_ES_PAN_21mic_H50_0347_fot_40513_tif
  70
32
  10
474573.000
  20
4620771.000
  30
994.818
  0
VERTEX
  8
PNOA-H_AMS_1956-57_33k_ES_PAN_21mic_H50_0347_fot_40513_tif
  70
32
  10
474572.504
  20
4620770.681
  30
994.819
  0
VERTEX
  8
PNOA-H_AMS_1956-57_33k_ES_PAN_21mic_H50_0347_fot_40513_tif
  70
32
  10
474571.218
  20
4620769.854
  30
994.822
  0
VERTEX
  8
PNOA-H_AMS_1956-57_33k_ES_PAN_21mic_H50_0347_fot_40513_tif
  70
32
  10
474566.000
  20
4620766.500
  30
994.836
  0
SEQEND
  8
PNOA-H_AMS_1956-57_33k_ES_PAN_21mic_H50_0347_fot_40513_tif
  0
INSERT
  8
FeatureAttribs
  2
FEATURE
  41
1
  42
1
  43
1
  50
0
  10
478840.096
  20
4623067.000
 66
1
  0
ATTRIB
  8
FeatureAttribs
 70
0
  1
PNOA-H_AMS_1956-57_33k_ES_PAN_21mic_H50_0347_fot_40511.tif
  2
NAME
  10
478840.096
  20
4623067.000
 40
33.41125
  0
SEQEND
  0
POLYLINE
  8
PNOA-H_AMS_1956-57_33k_ES_PAN_21mic_H50_0347_fot_40511_tif
  70
9
  66
1
  0
VERTEX
  8
PNOA-H_AMS_1956-57_33k_ES_PAN_21mic_H50_0347_fot_40511_tif
  70
32
  10
477380.024
  20
4620675.500
  30
993.815
  0
VERTEX
  8
PNOA-H_AMS_1956-57_33k_ES_PAN_21mic_H50_0347_fot_40511_tif
  70
32
  10
477380.000
  20
4620675.500
  30
993.815
  0
VERTEX
  8
PNOA-H_AMS_1956-57_33k_ES_PAN_21mic_H50_0347_fot_40511_tif
  70
32
  10
477465.000
  20
4624979.500
  30
968.914
  0
VERTEX
  8
PNOA-H_AMS_1956-57_33k_ES_PAN_21mic_H50_0347_fot_40511_tif
  70
32
  10
477535.583
  20
4625000.011
  30
972.7
  0
VERTEX
  8
PNOA-H_AMS_1956-57_33k_ES_PAN_21mic_H50_0347_fot_40511_tif
  70
32
  10
477640.500
  20
4625030.500
  30
978.327
  0
VERTEX
  8
PNOA-H_AMS_1956-57_33k_ES_PAN_21mic_H50_0347_fot_40511_tif
  70
32
  10
477642.500
  20
4625031.000
  30
978.256
  0
VERTEX
  8
PNOA-H_AMS_1956-57_33k_ES_PAN_21mic_H50_0347_fot_40511_tif
  70
32
  10
479105.000
  20
4625453.500
  30
1006.461
  0
VERTEX
  8
PNOA-H_AMS_1956-57_33k_ES_PAN_21mic_H50_0347_fot_40511_tif
  70
32
  10
479122.500
  20
4625458.500
  30
1007.052
  0
VERTEX
  8
PNOA-H_AMS_1956-57_33k_ES_PAN_21mic_H50_0347_fot_40511_tif
  70
32
  10
479124.500
  20
4625458.500
  30
1007.061
  0
VERTEX
  8
PNOA-H_AMS_1956-57_33k_ES_PAN_21mic_H50_0347_fot_40511_tif
  70
32
  10
479126.000
  20
4625458.500
  30
1007.068
  0
VERTEX
  8
PNOA-H_AMS_1956-57_33k_ES_PAN_21mic_H50_0347_fot_40511_tif
  70
32
  10
480257.500
  20
4625006.000
  30
1015.506
  0
VERTEX
  8
PNOA-H_AMS_1956-57_33k_ES_PAN_21mic_H50_0347_fot_40511_tif
  70
32
  10
480247.500
  20
4620733.000
  30
981.243
  0
VERTEX
  8
PNOA-H_AMS_1956-57_33k_ES_PAN_21mic_H50_0347_fot_40511_tif
  70
32
  10
479946.413
  20
4620726.963
  30
982.563
  0
VERTEX
  8
PNOA-H_AMS_1956-57_33k_ES_PAN_21mic_H50_0347_fot_40511_tif
  70
32
  10
477380.024
  20
4620675.500
  30
993.815
  0
SEQEND
  8
PNOA-H_AMS_1956-57_33k_ES_PAN_21mic_H50_0347_fot_40511_tif
  0
INSERT
  8
FeatureAttribs
  2
FEATURE
  41
1
  42
1
  43
1
  50
0
  10
471139.832
  20
4623084.500
 66
1
  0
ATTRIB
  8
FeatureAttribs
 70
0
  1
PNOA-H_AMS_1956-57_33k_ES_PAN_21mic_H50_0347_fot_40514.tif
  2
NAME
  10
471139.832
  20
4623084.500
 40
33.41125
  0
SEQEND
  0
POLYLINE
  8
PNOA-H_AMS_1956-57_33k_ES_PAN_21mic_H50_0347_fot_40514_tif
  70
9
  66
1
  0
VERTEX
  8
PNOA-H_AMS_1956-57_33k_ES_PAN_21mic_H50_0347_fot_40514_tif
  70
32
  10
471173.423
  20
4620648.085
  30
960.211
  0
VERTEX
  8
PNOA-H_AMS_1956-57_33k_ES_PAN_21mic_H50_0347_fot_40514_tif
  70
32
  10
471173.000
  20
4620648.000
  30
960.18
  0
VERTEX
  8
PNOA-H_AMS_1956-57_33k_ES_PAN_21mic_H50_0347_fot_40514_tif
  70
32
  10
471142.000
  20
4620652.500
  30
959.885
  0
VERTEX
  8
PNOA-H_AMS_1956-57_33k_ES_PAN_21mic_H50_0347_fot_40514_tif
  70
32
  10
470374.335
  20
4620765.256
  30
953.455
  0
VERTEX
  8
PNOA-H_AMS_1956-57_33k_ES_PAN_21mic_H50_0347_fot_40514_tif
  70
32
  10
468977.000
  20
4620970.500
  30
941.75
  0
VERTEX
  8
PNOA-H_AMS_1956-57_33k_ES_PAN_21mic_H50_0347_fot_40514_tif
  70
32
  10
468997.256
  20
4622220.000
  30
959.119
  0
VERTEX
  8
PNOA-H_AMS_1956-57_33k_ES_PAN_21mic_H50_0347_fot_40514_tif
  70
32
  10
470450.000
  20
4622220.000
  30
956.594
  0
VERTEX
  8
PNOA-H_AMS_1956-57_33k_ES_PAN_21mic_H50_0347_fot_40514_tif
  70
32
  10
470450.000
  20
4625517.944
  30
919.164
  0
VERTEX
  8
PNOA-H_AMS_1956-57_33k_ES_PAN_21mic_H50_0347_fot_40514_tif
  70
32
  10
470457.749
  20
4625520.904
  30
918.515
  0
VERTEX
  8
PNOA-H_AMS_1956-57_33k_ES_PAN_21mic_H50_0347_fot_40514_tif
  70
32
  10
470458.000
  20
4625521.000
  30
918.494
  0
VERTEX
  8
PNOA-H_AMS_1956-57_33k_ES_PAN_21mic_H50_0347_fot_40514_tif
  70
32
  10
471891.303
  20
4624968.576
  30
984.175
  0
VERTEX
  8
PNOA-H_AMS_1956-57_33k_ES_PAN_21mic_H50_0347_fot_40514_tif
  70
32
  10
471891.484
  20
4624968.506
  30
984.183
  0
VERTEX
  8
PNOA-H_AMS_1956-57_33k_ES_PAN_21mic_H50_0347_fot_40514_tif
  70
32
  10
471891.500
  20
4624968.500
  30
984.184
  0
VERTEX
  8
PNOA-H_AMS_1956-57_33k_ES_PAN_21mic_H50_0347_fot_40514_tif
  70
32
  10
471758.000
  20
4620901.000
  30
960.792
  0
VERTEX
  8
PNOA-H_AMS_1956-57_33k_ES_PAN_21mic_H50_0347_fot_40514_tif
  70
32
  10
471175.500
  20
4620648.500
  30
960.362
  0
VERTEX
  8
PNOA-H_AMS_1956-57_33k_ES_PAN_21mic_H50_0347_fot_40514_tif
  70
32
  10
471174.001
  20
4620648.200
  30
960.253
  0
VERTEX
  8
PNOA-H_AMS_1956-57_33k_ES_PAN_21mic_H50_0347_fot_40514_tif
  70
32
  10
471173.423
  20
4620648.085
  30
960.211
  0
SEQEND
  8
PNOA-H_AMS_1956-57_33k_ES_PAN_21mic_H50_0347_fot_40514_tif
  0
INSERT
  8
FeatureAttribs
  2
FEATURE
  41
1
  42
1
  43
1
  50
0
  10
483145.367
  20
4627460.250
 66
1
  0
ATTRIB
  8
FeatureAttribs
 70
0
  1
PNOA-H_AMS_1956-57_33k_ES_PAN_21mic_H50_0347_fot_34C-40382_E.tif
  2
NAME
  10
483145.367
  20
4627460.250
 40
33.41125
  0
SEQEND
  0
POLYLINE
  8
PNOA-H_AMS_1956-57_33k_ES_PAN_21mic_H50_0347_fot_34C-40382_E_tif
  70
9
  66
1
  0
VERTEX
  8
PNOA-H_AMS_1956-57_33k_ES_PAN_21mic_H50_0347_fot_34C-40382_E_tif
  70
32
  10
483107.092
  20
4625072.155
  30
1072.859
  0
VERTEX
  8
PNOA-H_AMS_1956-57_33k_ES_PAN_21mic_H50_0347_fot_34C-40382_E_tif
  70
32
  10
483106.500
  20
4625072.000
  30
1072.891
  0
VERTEX
  8
PNOA-H_AMS_1956-57_33k_ES_PAN_21mic_H50_0347_fot_34C-40382_E_tif
  70
32
  10
481989.000
  20
4625498.000
  30
1017.312
  0
VERTEX
  8
PNOA-H_AMS_1956-57_33k_ES_PAN_21mic_H50_0347_fot_34C-40382_E_tif
  70
32
  10
481977.262
  20
4625502.873
  30
1016.914
  0
VERTEX
  8
PNOA-H_AMS_1956-57_33k_ES_PAN_21mic_H50_0347_fot_34C-40382_E_tif
  70
32
  10
481962.500
  20
4625509.000
  30
1016.413
  0
VERTEX
  8
PNOA-H_AMS_1956-57_33k_ES_PAN_21mic_H50_0347_fot_34C-40382_E_tif
  70
32
  10
481775.500
  20
4629364.000
  30
1091.741
  0
VERTEX
  8
PNOA-H_AMS_1956-57_33k_ES_PAN_21mic_H50_0347_fot_34C-40382_E_tif
  70
32
  10
481775.737
  20
4629364.079
  30
1091.748
  0
VERTEX
  8
PNOA-H_AMS_1956-57_33k_ES_PAN_21mic_H50_0347_fot_34C-40382_E_tif
  70
32
  10
483237.500
  20
4629848.500
  30
1130.641
  0
VERTEX
  8
PNOA-H_AMS_1956-57_33k_ES_PAN_21mic_H50_0347_fot_34C-40382_E_tif
  70
32
  10
483238.524
  20
4629848.342
  30
1130.544
  0
VERTEX
  8
PNOA-H_AMS_1956-57_33k_ES_PAN_21mic_H50_0347_fot_34C-40382_E_tif
  70
32
  10
483240.809
  20
4629847.991
  30
1130.328
  0
VERTEX
  8
PNOA-H_AMS_1956-57_33k_ES_PAN_21mic_H50_0347_fot_34C-40382_E_tif
  70
32
  10
483244.000
  20
4629847.500
  30
1130.026
  0
VERTEX
  8
PNOA-H_AMS_1956-57_33k_ES_PAN_21mic_H50_0347_fot_34C-40382_E_tif
  70
32
  10
483694.019
  20
4629720.465
  30
1115.995
  0
VERTEX
  8
PNOA-H_AMS_1956-57_33k_ES_PAN_21mic_H50_0347_fot_34C-40382_E_tif
  70
32
  10
483786.000
  20
4629694.500
  30
1113.127
  0
VERTEX
  8
PNOA-H_AMS_1956-57_33k_ES_PAN_21mic_H50_0347_fot_34C-40382_E_tif
  70
32
  10
483788.000
  20
4629694.000
  30
1113.349
  0
VERTEX
  8
PNOA-H_AMS_1956-57_33k_ES_PAN_21mic_H50_0347_fot_34C-40382_E_tif
  70
32
  10
483817.423
  20
4629685.741
  30
1115.453
  0
VERTEX
  8
PNOA-H_AMS_1956-57_33k_ES_PAN_21mic_H50_0347_fot_34C-40382_E_tif
  70
32
  10
484427.367
  20
4629514.536
  30
1159.058
  0
VERTEX
  8
PNOA-H_AMS_1956-57_33k_ES_PAN_21mic_H50_0347_fot_34C-40382_E_tif
  70
32
  10
484427.366
  20
4629514.113
  30
0
  0
VERTEX
  8
PNOA-H_AMS_1956-57_33k_ES_PAN_21mic_H50_0347_fot_34C-40382_E_tif
  70
32
  10
484426.191
  20
4628975.645
  30
0
  0
VERTEX
  8
PNOA-H_AMS_1956-57_33k_ES_PAN_21mic_H50_0347_fot_34C-40382_E_tif
  70
32
  10
484421.146
  20
4626662.622
  30
0
  0
VERTEX
  8
PNOA-H_AMS_1956-57_33k_ES_PAN_21mic_H50_0347_fot_34C-40382_E_tif
  70
32
  10
484418.501
  20
4625449.921
  30
0
  0
VERTEX
  8
PNOA-H_AMS_1956-57_33k_ES_PAN_21mic_H50_0347_fot_34C-40382_E_tif
  70
32
  10
484418.501
  20
4625449.801
  30
1075.097
  0
VERTEX
  8
PNOA-H_AMS_1956-57_33k_ES_PAN_21mic_H50_0347_fot_34C-40382_E_tif
  70
32
  10
483137.000
  20
4625080.000
  30
1071.251
  0
VERTEX
  8
PNOA-H_AMS_1956-57_33k_ES_PAN_21mic_H50_0347_fot_34C-40382_E_tif
  70
32
  10
483117.568
  20
4625074.903
  30
1072.296
  0
VERTEX
  8
PNOA-H_AMS_1956-57_33k_ES_PAN_21mic_H50_0347_fot_34C-40382_E_tif
  70
32
  10
483107.092
  20
4625072.155
  30
1072.859
  0
SEQEND
  8
PNOA-H_AMS_1956-57_33k_ES_PAN_21mic_H50_0347_fot_34C-40382_E_tif
  0
INSERT
  8
FeatureAttribs
  2
FEATURE
  41
1
  42
1
  43
1
  50
0
  10
480471.403
  20
4627373.000
 66
1
  0
ATTRIB
  8
FeatureAttribs
 70
0
  1
PNOA-H_AMS_1956-57_33k_ES_PAN_21mic_H50_0347_fot_34C-40381_E.tif
  2
NAME
  10
480471.403
  20
4627373.000
 40
33.41125
  0
SEQEND
  0
POLYLINE
  8
PNOA-H_AMS_1956-57_33k_ES_PAN_21mic_H50_0347_fot_34C-40381_E_tif
  70
9
  66
1
  0
VERTEX
  8
PNOA-H_AMS_1956-57_33k_ES_PAN_21mic_H50_0347_fot_34C-40381_E_tif
  70
32
  10
480259.000
  20
4625006.000
  30
1015.411
  0
VERTEX
  8
PNOA-H_AMS_1956-57_33k_ES_PAN_21mic_H50_0347_fot_34C-40381_E_tif
  70
32
  10
480257.500
  20
4625006.000
  30
1015.496
  0
VERTEX
  8
PNOA-H_AMS_1956-57_33k_ES_PAN_21mic_H50_0347_fot_34C-40381_E_tif
  70
32
  10
480256.500
  20
4625006.000
  30
1015.553
  0
VERTEX
  8
PNOA-H_AMS_1956-57_33k_ES_PAN_21mic_H50_0347_fot_34C-40381_E_tif
  70
32
  10
479124.500
  20
4625458.500
  30
1007.061
  0
VERTEX
  8
PNOA-H_AMS_1956-57_33k_ES_PAN_21mic_H50_0347_fot_34C-40381_E_tif
  70
32
  10
479017.000
  20
4629287.500
  30
1042.612
  0
VERTEX
  8
PNOA-H_AMS_1956-57_33k_ES_PAN_21mic_H50_0347_fot_34C-40381_E_tif
  70
32
  10
479017.256
  20
4629287.577
  30
1042.663
  0
VERTEX
  8
PNOA-H_AMS_1956-57_33k_ES_PAN_21mic_H50_0347_fot_34C-40381_E_tif
  70
32
  10
479690.000
  20
4629490.500
  30
1176.941
  0
VERTEX
  8
PNOA-H_AMS_1956-57_33k_ES_PAN_21mic_H50_0347_fot_34C-40381_E_tif
  70
32
  10
479691.500
  20
4629491.000
  30
1176.998
  0
VERTEX
  8
PNOA-H_AMS_1956-57_33k_ES_PAN_21mic_H50_0347_fot_34C-40381_E_tif
  70
32
  10
480515.000
  20
4629739.000
  30
1105.731
  0
VERTEX
  8
PNOA-H_AMS_1956-57_33k_ES_PAN_21mic_H50_0347_fot_34C-40381_E_tif
  70
32
  10
480518.434
  20
4629739.528
  30
1106.571
  0
VERTEX
  8
PNOA-H_AMS_1956-57_33k_ES_PAN_21mic_H50_0347_fot_34C-40381_E_tif
  70
32
  10
480520.509
  20
4629739.848
  30
1107.078
  0
VERTEX
  8
PNOA-H_AMS_1956-57_33k_ES_PAN_21mic_H50_0347_fot_34C-40381_E_tif
  70
32
  10
480521.500
  20
4629740.000
  30
1107.32
  0
VERTEX
  8
PNOA-H_AMS_1956-57_33k_ES_PAN_21mic_H50_0347_fot_34C-40381_E_tif
  70
32
  10
481462.000
  20
4629458.000
  30
1095.636
  0
VERTEX
  8
PNOA-H_AMS_1956-57_33k_ES_PAN_21mic_H50_0347_fot_34C-40381_E_tif
  70
32
  10
481775.500
  20
4629364.000
  30
1091.741
  0
VERTEX
  8
PNOA-H_AMS_1956-57_33k_ES_PAN_21mic_H50_0347_fot_34C-40381_E_tif
  70
32
  10
481962.476
  20
4625508.492
  30
1016.274
  0
VERTEX
  8
PNOA-H_AMS_1956-57_33k_ES_PAN_21mic_H50_0347_fot_34C-40381_E_tif
  70
32
  10
481962.500
  20
4625508.000
  30
1016.264
  0
VERTEX
  8
PNOA-H_AMS_1956-57_33k_ES_PAN_21mic_H50_0347_fot_34C-40381_E_tif
  70
32
  10
480259.000
  20
4625006.000
  30
1015.411
  0
SEQEND
  8
PNOA-H_AMS_1956-57_33k_ES_PAN_21mic_H50_0347_fot_34C-40381_E_tif
  0
INSERT
  8
FeatureAttribs
  2
FEATURE
  41
1
  42
1
  43
1
  50
0
  10
481669.595
  20
4623062.500
 66
1
  0
ATTRIB
  8
FeatureAttribs
 70
0
  1
PNOA-H_AMS_1956-57_33k_ES_PAN_21mic_H50_0347_fot_40510.tif
  2
NAME
  10
481669.595
  20
4623062.500
 40
33.41125
  0
SEQEND
  0
POLYLINE
  8
PNOA-H_AMS_1956-57_33k_ES_PAN_21mic_H50_0347_fot_40510_tif
  70
9
  66
1
  0
VERTEX
  8
PNOA-H_AMS_1956-57_33k_ES_PAN_21mic_H50_0347_fot_40510_tif
  70
32
  10
483062.500
  20
4620819.000
  30
984.397
  0
VERTEX
  8
PNOA-H_AMS_1956-57_33k_ES_PAN_21mic_H50_0347_fot_40510_tif
  70
32
  10
480461.000
  20
4620616.500
  30
977.851
  0
VERTEX
  8
PNOA-H_AMS_1956-57_33k_ES_PAN_21mic_H50_0347_fot_40510_tif
  70
32
  10
480460.938
  20
4620616.534
  30
977.852
  0
VERTEX
  8
PNOA-H_AMS_1956-57_33k_ES_PAN_21mic_H50_0347_fot_40510_tif
  70
32
  10
480354.250
  20
4620674.750
  30
979.547
  0
VERTEX
  8
PNOA-H_AMS_1956-57_33k_ES_PAN_21mic_H50_0347_fot_40510_tif
  70
32
  10
480247.518
  20
4620732.990
  30
981.243
  0
VERTEX
  8
PNOA-H_AMS_1956-57_33k_ES_PAN_21mic_H50_0347_fot_40510_tif
  70
32
  10
480247.500
  20
4620733.000
  30
981.243
  0
VERTEX
  8
PNOA-H_AMS_1956-57_33k_ES_PAN_21mic_H50_0347_fot_40510_tif
  70
32
  10
480257.500
  20
4625006.000
  30
1015.506
  0
VERTEX
  8
PNOA-H_AMS_1956-57_33k_ES_PAN_21mic_H50_0347_fot_40510_tif
  70
32
  10
481961.000
  20
4625508.000
  30
1016.127
  0
VERTEX
  8
PNOA-H_AMS_1956-57_33k_ES_PAN_21mic_H50_0347_fot_40510_tif
  70
32
  10
481962.476
  20
4625508.492
  30
1016.335
  0
VERTEX
  8
PNOA-H_AMS_1956-57_33k_ES_PAN_21mic_H50_0347_fot_40510_tif
  70
32
  10
481962.500
  20
4625508.500
  30
1016.338
  0
VERTEX
  8
PNOA-H_AMS_1956-57_33k_ES_PAN_21mic_H50_0347_fot_40510_tif
  70
32
  10
481977.262
  20
4625502.873
  30
1017.067
  0
VERTEX
  8
PNOA-H_AMS_1956-57_33k_ES_PAN_21mic_H50_0347_fot_40510_tif
  70
32
  10
483107.092
  20
4625072.155
  30
1072.817
  0
VERTEX
  8
PNOA-H_AMS_1956-57_33k_ES_PAN_21mic_H50_0347_fot_40510_tif
  70
32
  10
483107.500
  20
4625072.000
  30
1072.837
  0
VERTEX
  8
PNOA-H_AMS_1956-57_33k_ES_PAN_21mic_H50_0347_fot_40510_tif
  70
32
  10
483062.500
  20
4620819.000
  30
984.397
  0
SEQEND
  8
PNOA-H_AMS_1956-57_33k_ES_PAN_21mic_H50_0347_fot_40510_tif
  0
INSERT
  8
FeatureAttribs
  2
FEATURE
  41
1
  42
1
  43
1
  50
0
  10
483749.404
  20
4623005.461
 66
1
  0
ATTRIB
  8
FeatureAttribs
 70
0
  1
PNOA-H_AMS_1956-57_33k_ES_PAN_21mic_H50_0347_fot_40509.tif
  2
NAME
  10
483749.404
  20
4623005.461
 40
33.41125
  0
SEQEND
  0
POLYLINE
  8
PNOA-H_AMS_1956-57_33k_ES_PAN_21mic_H50_0347_fot_40509_tif
  70
9
  66
1
  0
VERTEX
  8
PNOA-H_AMS_1956-57_33k_ES_PAN_21mic_H50_0347_fot_40509_tif
  70
32
  10
483580.922
  20
4620561.039
  30
984.85
  0
VERTEX
  8
PNOA-H_AMS_1956-57_33k_ES_PAN_21mic_H50_0347_fot_40509_tif
  70
32
  10
483580.500
  20
4620561.000
  30
984.843
  0
VERTEX
  8
PNOA-H_AMS_1956-57_33k_ES_PAN_21mic_H50_0347_fot_40509_tif
  70
32
  10
483062.500
  20
4620819.000
  30
984.397
  0
VERTEX
  8
PNOA-H_AMS_1956-57_33k_ES_PAN_21mic_H50_0347_fot_40509_tif
  70
32
  10
483107.500
  20
4625072.000
  30
1072.837
  0
VERTEX
  8
PNOA-H_AMS_1956-57_33k_ES_PAN_21mic_H50_0347_fot_40509_tif
  70
32
  10
483117.568
  20
4625074.903
  30
1073.409
  0
VERTEX
  8
PNOA-H_AMS_1956-57_33k_ES_PAN_21mic_H50_0347_fot_40509_tif
  70
32
  10
483785.500
  20
4625267.500
  30
1111.354
  0
VERTEX
  8
PNOA-H_AMS_1956-57_33k_ES_PAN_21mic_H50_0347_fot_40509_tif
  70
32
  10
483787.000
  20
4625268.000
  30
1111.469
  0
VERTEX
  8
PNOA-H_AMS_1956-57_33k_ES_PAN_21mic_H50_0347_fot_40509_tif
  70
32
  10
484418.501
  20
4625449.921
  30
1085.793
  0
VERTEX
  8
PNOA-H_AMS_1956-57_33k_ES_PAN_21mic_H50_0347_fot_40509_tif
  70
32
  10
484418.501
  20
4625449.801
  30
0
  0
VERTEX
  8
PNOA-H_AMS_1956-57_33k_ES_PAN_21mic_H50_0347_fot_40509_tif
  70
32
  10
484416.102
  20
4624349.608
  30
0
  0
VERTEX
  8
PNOA-H_AMS_1956-57_33k_ES_PAN_21mic_H50_0347_fot_40509_tif
  70
32
  10
484411.061
  20
4622036.602
  30
0
  0
VERTEX
  8
PNOA-H_AMS_1956-57_33k_ES_PAN_21mic_H50_0347_fot_40509_tif
  70
32
  10
484408.013
  20
4620637.774
  30
0
  0
VERTEX
  8
PNOA-H_AMS_1956-57_33k_ES_PAN_21mic_H50_0347_fot_40509_tif
  70
32
  10
484408.013
  20
4620637.635
  30
999.837
  0
VERTEX
  8
PNOA-H_AMS_1956-57_33k_ES_PAN_21mic_H50_0347_fot_40509_tif
  70
32
  10
483616.631
  20
4620564.346
  30
985.497
  0
VERTEX
  8
PNOA-H_AMS_1956-57_33k_ES_PAN_21mic_H50_0347_fot_40509_tif
  70
32
  10
483580.922
  20
4620561.039
  30
984.85
  0
SEQEND
  8
PNOA-H_AMS_1956-57_33k_ES_PAN_21mic_H50_0347_fot_40509_tif
  0
INSERT
  8
FeatureAttribs
  2
FEATURE
  41
1
  42
1
  43
1
  50
0
  10
475826.385
  20
4618465.500
 66
1
  0
ATTRIB
  8
FeatureAttribs
 70
0
  1
PNOA-H_AMS_1956-57_33k_ES_PAN_21mic_H50_0347_fot_36C-37195_E.tif
  2
NAME
  10
475826.385
  20
4618465.500
 40
33.41125
  0
SEQEND
  0
POLYLINE
  8
PNOA-H_AMS_1956-57_33k_ES_PAN_21mic_H50_0347_fot_36C-37195_E_tif
  70
9
  66
1
  0
VERTEX
  8
PNOA-H_AMS_1956-57_33k_ES_PAN_21mic_H50_0347_fot_36C-37195_E_tif
  70
32
  10
474572.500
  20
4620770.500
  30
994.836
  0
VERTEX
  8
PNOA-H_AMS_1956-57_33k_ES_PAN_21mic_H50_0347_fot_36C-37195_E_tif
  70
32
  10
475594.500
  20
4620732.000
  30
933.262
  0
VERTEX
  8
PNOA-H_AMS_1956-57_33k_ES_PAN_21mic_H50_0347_fot_36C-37195_E_tif
  70
32
  10
475596.000
  20
4620732.000
  30
933.25
  0
VERTEX
  8
PNOA-H_AMS_1956-57_33k_ES_PAN_21mic_H50_0347_fot_36C-37195_E_tif
  70
32
  10
477364.500
  20
4620666.500
  30
995.301
  0
VERTEX
  8
PNOA-H_AMS_1956-57_33k_ES_PAN_21mic_H50_0347_fot_36C-37195_E_tif
  70
32
  10
477403.000
  20
4616310.000
  30
974.728
  0
VERTEX
  8
PNOA-H_AMS_1956-57_33k_ES_PAN_21mic_H50_0347_fot_36C-37195_E_tif
  70
32
  10
477402.936
  20
4616309.957
  30
974.74
  0
VERTEX
  8
PNOA-H_AMS_1956-57_33k_ES_PAN_21mic_H50_0347_fot_36C-37195_E_tif
  70
32
  10
477402.244
  20
4616309.488
  30
974.873
  0
VERTEX
  8
PNOA-H_AMS_1956-57_33k_ES_PAN_21mic_H50_0347_fot_36C-37195_E_tif
  70
32
  10
477387.246
  20
4616299.328
  30
977.747
  0
VERTEX
  8
PNOA-H_AMS_1956-57_33k_ES_PAN_21mic_H50_0347_fot_36C-37195_E_tif
  70
32
  10
477356.751
  20
4616278.670
  30
983.592
  0
VERTEX
  8
PNOA-H_AMS_1956-57_33k_ES_PAN_21mic_H50_0347_fot_36C-37195_E_tif
  70
32
  10
477356.500
  20
4616278.500
  30
983.64
  0
VERTEX
  8
PNOA-H_AMS_1956-57_33k_ES_PAN_21mic_H50_0347_fot_36C-37195_E_tif
  70
32
  10
477356.000
  20
4616278.450
  30
983.61
  0
VERTEX
  8
PNOA-H_AMS_1956-57_33k_ES_PAN_21mic_H50_0347_fot_36C-37195_E_tif
  70
32
  10
477351.500
  20
4616278.000
  30
983.339
  0
VERTEX
  8
PNOA-H_AMS_1956-57_33k_ES_PAN_21mic_H50_0347_fot_36C-37195_E_tif
  70
32
  10
474672.000
  20
4616160.500
  30
949.778
  0
VERTEX
  8
PNOA-H_AMS_1956-57_33k_ES_PAN_21mic_H50_0347_fot_36C-37195_E_tif
  70
32
  10
474669.317
  20
4616160.668
  30
949.867
  0
VERTEX
  8
PNOA-H_AMS_1956-57_33k_ES_PAN_21mic_H50_0347_fot_36C-37195_E_tif
  70
32
  10
474664.853
  20
4616160.947
  30
950.014
  0
VERTEX
  8
PNOA-H_AMS_1956-57_33k_ES_PAN_21mic_H50_0347_fot_36C-37195_E_tif
  70
32
  10
474664.000
  20
4616161.000
  30
950.042
  0
VERTEX
  8
PNOA-H_AMS_1956-57_33k_ES_PAN_21mic_H50_0347_fot_36C-37195_E_tif
  70
32
  10
474244.000
  20
4616451.000
  30
950.218
  0
VERTEX
  8
PNOA-H_AMS_1956-57_33k_ES_PAN_21mic_H50_0347_fot_36C-37195_E_tif
  70
32
  10
474295.500
  20
4620631.000
  30
995.351
  0
VERTEX
  8
PNOA-H_AMS_1956-57_33k_ES_PAN_21mic_H50_0347_fot_36C-37195_E_tif
  70
32
  10
474295.674
  20
4620631.088
  30
995.35
  0
VERTEX
  8
PNOA-H_AMS_1956-57_33k_ES_PAN_21mic_H50_0347_fot_36C-37195_E_tif
  70
32
  10
474571.218
  20
4620769.854
  30
994.838
  0
VERTEX
  8
PNOA-H_AMS_1956-57_33k_ES_PAN_21mic_H50_0347_fot_36C-37195_E_tif
  70
32
  10
474572.500
  20
4620770.500
  30
994.836
  0
SEQEND
  8
PNOA-H_AMS_1956-57_33k_ES_PAN_21mic_H50_0347_fot_36C-37195_E_tif
  0
INSERT
  8
FeatureAttribs
  2
FEATURE
  41
1
  42
1
  43
1
  50
0
  10
482005.589
  20
4618389.000
 66
1
  0
ATTRIB
  8
FeatureAttribs
 70
0
  1
PNOA-H_AMS_1956-57_33k_ES_PAN_21mic_H50_0347_fot_36C-37197_E.tif
  2
NAME
  10
482005.589
  20
4618389.000
 40
33.41125
  0
SEQEND
  0
POLYLINE
  8
PNOA-H_AMS_1956-57_33k_ES_PAN_21mic_H50_0347_fot_36C-37197_E_tif
  70
9
  66
1
  0
VERTEX
  8
PNOA-H_AMS_1956-57_33k_ES_PAN_21mic_H50_0347_fot_36C-37197_E_tif
  70
32
  10
483456.211
  20
4616309.858
  30
967.293
  0
VERTEX
  8
PNOA-H_AMS_1956-57_33k_ES_PAN_21mic_H50_0347_fot_36C-37197_E_tif
  70
32
  10
482744.000
  20
4615959.000
  30
955.098
  0
VERTEX
  8
PNOA-H_AMS_1956-57_33k_ES_PAN_21mic_H50_0347_fot_36C-37197_E_tif
  70
32
  10
482743.636
  20
4615959.067
  30
955.101
  0
VERTEX
  8
PNOA-H_AMS_1956-57_33k_ES_PAN_21mic_H50_0347_fot_36C-37197_E_tif
  70
32
  10
482300.000
  20
4616040.700
  30
958.875
  0
VERTEX
  8
PNOA-H_AMS_1956-57_33k_ES_PAN_21mic_H50_0347_fot_36C-37197_E_tif
  70
32
  10
480524.000
  20
4616367.500
  30
973.981
  0
VERTEX
  8
PNOA-H_AMS_1956-57_33k_ES_PAN_21mic_H50_0347_fot_36C-37197_E_tif
  70
32
  10
480460.500
  20
4620616.500
  30
977.853
  0
VERTEX
  8
PNOA-H_AMS_1956-57_33k_ES_PAN_21mic_H50_0347_fot_36C-37197_E_tif
  70
32
  10
480460.938
  20
4620616.534
  30
977.854
  0
VERTEX
  8
PNOA-H_AMS_1956-57_33k_ES_PAN_21mic_H50_0347_fot_36C-37197_E_tif
  70
32
  10
483053.000
  20
4620818.500
  30
984.36
  0
VERTEX
  8
PNOA-H_AMS_1956-57_33k_ES_PAN_21mic_H50_0347_fot_36C-37197_E_tif
  70
32
  10
483059.500
  20
4620819.000
  30
984.394
  0
VERTEX
  8
PNOA-H_AMS_1956-57_33k_ES_PAN_21mic_H50_0347_fot_36C-37197_E_tif
  70
32
  10
483062.500
  20
4620819.000
  30
984.396
  0
VERTEX
  8
PNOA-H_AMS_1956-57_33k_ES_PAN_21mic_H50_0347_fot_36C-37197_E_tif
  70
32
  10
483063.000
  20
4620819.000
  30
984.396
  0
VERTEX
  8
PNOA-H_AMS_1956-57_33k_ES_PAN_21mic_H50_0347_fot_36C-37197_E_tif
  70
32
  10
483107.500
  20
4620797.000
  30
982.669
  0
VERTEX
  8
PNOA-H_AMS_1956-57_33k_ES_PAN_21mic_H50_0347_fot_36C-37197_E_tif
  70
32
  10
483580.922
  20
4620561.039
  30
984.818
  0
VERTEX
  8
PNOA-H_AMS_1956-57_33k_ES_PAN_21mic_H50_0347_fot_36C-37197_E_tif
  70
32
  10
483581.000
  20
4620561.000
  30
984.819
  0
VERTEX
  8
PNOA-H_AMS_1956-57_33k_ES_PAN_21mic_H50_0347_fot_36C-37197_E_tif
  70
32
  10
483456.500
  20
4616310.000
  30
967.298
  0
VERTEX
  8
PNOA-H_AMS_1956-57_33k_ES_PAN_21mic_H50_0347_fot_36C-37197_E_tif
  70
32
  10
483456.211
  20
4616309.858
  30
967.293
  0
SEQEND
  8
PNOA-H_AMS_1956-57_33k_ES_PAN_21mic_H50_0347_fot_36C-37197_E_tif
  0
INSERT
  8
FeatureAttribs
  2
FEATURE
  41
1
  42
1
  43
1
  50
0
  10
478939.149
  20
4618394.000
 66
1
  0
ATTRIB
  8
FeatureAttribs
 70
0
  1
PNOA-H_AMS_1956-57_33k_ES_PAN_21mic_H50_0347_fot_36C-37196_E.tif
  2
NAME
  10
478939.149
  20
4618394.000
 40
33.41125
  0
SEQEND
  0
POLYLINE
  8
PNOA-H_AMS_1956-57_33k_ES_PAN_21mic_H50_0347_fot_36C-37196_E_tif
  70
9
  66
1
  0
VERTEX
  8
PNOA-H_AMS_1956-57_33k_ES_PAN_21mic_H50_0347_fot_36C-37196_E_tif
  70
32
  10
480524.000
  20
4616367.500
  30
973.981
  0
VERTEX
  8
PNOA-H_AMS_1956-57_33k_ES_PAN_21mic_H50_0347_fot_36C-37196_E_tif
  70
32
  10
479974.000
  20
4616055.000
  30
967.996
  0
VERTEX
  8
PNOA-H_AMS_1956-57_33k_ES_PAN_21mic_H50_0347_fot_36C-37196_E_tif
  70
32
  10
479973.130
  20
4616055.086
  30
967.998
  0
VERTEX
  8
PNOA-H_AMS_1956-57_33k_ES_PAN_21mic_H50_0347_fot_36C-37196_E_tif
  70
32
  10
477403.000
  20
4616310.000
  30
974.728
  0
VERTEX
  8
PNOA-H_AMS_1956-57_33k_ES_PAN_21mic_H50_0347_fot_36C-37196_E_tif
  70
32
  10
477364.500
  20
4620666.500
  30
995.301
  0
VERTEX
  8
PNOA-H_AMS_1956-57_33k_ES_PAN_21mic_H50_0347_fot_36C-37196_E_tif
  70
32
  10
477364.530
  20
4620666.517
  30
995.298
  0
VERTEX
  8
PNOA-H_AMS_1956-57_33k_ES_PAN_21mic_H50_0347_fot_36C-37196_E_tif
  70
32
  10
477380.000
  20
4620675.500
  30
993.815
  0
VERTEX
  8
PNOA-H_AMS_1956-57_33k_ES_PAN_21mic_H50_0347_fot_36C-37196_E_tif
  70
32
  10
477380.024
  20
4620675.500
  30
993.814
  0
VERTEX
  8
PNOA-H_AMS_1956-57_33k_ES_PAN_21mic_H50_0347_fot_36C-37196_E_tif
  70
32
  10
477600.500
  20
4620680.000
  30
990.479
  0
VERTEX
  8
PNOA-H_AMS_1956-57_33k_ES_PAN_21mic_H50_0347_fot_36C-37196_E_tif
  70
32
  10
477625.500
  20
4620680.500
  30
993.496
  0
VERTEX
  8
PNOA-H_AMS_1956-57_33k_ES_PAN_21mic_H50_0347_fot_36C-37196_E_tif
  70
32
  10
479946.413
  20
4620726.963
  30
982.647
  0
VERTEX
  8
PNOA-H_AMS_1956-57_33k_ES_PAN_21mic_H50_0347_fot_36C-37196_E_tif
  70
32
  10
480247.518
  20
4620732.990
  30
981.24
  0
VERTEX
  8
PNOA-H_AMS_1956-57_33k_ES_PAN_21mic_H50_0347_fot_36C-37196_E_tif
  70
32
  10
480248.000
  20
4620733.000
  30
981.238
  0
VERTEX
  8
PNOA-H_AMS_1956-57_33k_ES_PAN_21mic_H50_0347_fot_36C-37196_E_tif
  70
32
  10
480354.250
  20
4620674.750
  30
979.545
  0
VERTEX
  8
PNOA-H_AMS_1956-57_33k_ES_PAN_21mic_H50_0347_fot_36C-37196_E_tif
  70
32
  10
480460.500
  20
4620616.500
  30
977.853
  0
VERTEX
  8
PNOA-H_AMS_1956-57_33k_ES_PAN_21mic_H50_0347_fot_36C-37196_E_tif
  70
32
  10
480524.000
  20
4616367.500
  30
973.981
  0
SEQEND
  8
PNOA-H_AMS_1956-57_33k_ES_PAN_21mic_H50_0347_fot_36C-37196_E_tif
  0
INSERT
  8
FeatureAttribs
  2
FEATURE
  41
1
  42
1
  43
1
  50
0
  10
483960.106
  20
4618379.719
 66
1
  0
ATTRIB
  8
FeatureAttribs
 70
0
  1
PNOA-H_AMS_1956-57_33k_ES_PAN_21mic_H50_0348_fot_37198.tif
  2
NAME
  10
483960.106
  20
4618379.719
 40
33.41125
  0
SEQEND
  0
POLYLINE
  8
PNOA-H_AMS_1956-57_33k_ES_PAN_21mic_H50_0348_fot_37198_tif
  70
9
  66
1
  0
VERTEX
  8
PNOA-H_AMS_1956-57_33k_ES_PAN_21mic_H50_0348_fot_37198_tif
  70
32
  10
484400.985
  20
4617410.616
  30
0
  0
VERTEX
  8
PNOA-H_AMS_1956-57_33k_ES_PAN_21mic_H50_0348_fot_37198_tif
  70
32
  10
484398.179
  20
4616121.664
  30
982.542
  0
VERTEX
  8
PNOA-H_AMS_1956-57_33k_ES_PAN_21mic_H50_0348_fot_37198_tif
  70
32
  10
483456.500
  20
4616310.000
  30
967.298
  0
VERTEX
  8
PNOA-H_AMS_1956-57_33k_ES_PAN_21mic_H50_0348_fot_37198_tif
  70
32
  10
483581.000
  20
4620561.000
  30
984.819
  0
VERTEX
  8
PNOA-H_AMS_1956-57_33k_ES_PAN_21mic_H50_0348_fot_37198_tif
  70
32
  10
483616.631
  20
4620564.346
  30
983.527
  0
VERTEX
  8
PNOA-H_AMS_1956-57_33k_ES_PAN_21mic_H50_0348_fot_37198_tif
  70
32
  10
483778.000
  20
4620579.500
  30
977.679
  0
VERTEX
  8
PNOA-H_AMS_1956-57_33k_ES_PAN_21mic_H50_0348_fot_37198_tif
  70
32
  10
483783.500
  20
4620580.000
  30
977.544
  0
VERTEX
  8
PNOA-H_AMS_1956-57_33k_ES_PAN_21mic_H50_0348_fot_37198_tif
  70
32
  10
484408.013
  20
4620637.774
  30
992.216
  0
VERTEX
  8
PNOA-H_AMS_1956-57_33k_ES_PAN_21mic_H50_0348_fot_37198_tif
  70
32
  10
484408.013
  20
4620637.635
  30
0
  0
VERTEX
  8
PNOA-H_AMS_1956-57_33k_ES_PAN_21mic_H50_0348_fot_37198_tif
  70
32
  10
484406.022
  20
4619723.605
  30
0
  0
VERTEX
  8
PNOA-H_AMS_1956-57_33k_ES_PAN_21mic_H50_0348_fot_37198_tif
  70
32
  10
484400.985
  20
4617410.616
  30
0
  0
SEQEND
  8
PNOA-H_AMS_1956-57_33k_ES_PAN_21mic_H50_0348_fot_37198_tif
  0
INSERT
  8
FeatureAttribs
  2
FEATURE
  41
1
  42
1
  43
1
  50
0
  10
473347.474
  20
4630246.860
 66
1
  0
ATTRIB
  8
FeatureAttribs
 70
0
  1
PNOA-H_AMS_1956-57_33k_ES_PAN_21mic_H50_0315_fot_33B-38711_E.tif
  2
NAME
  10
473347.474
  20
4630246.860
 40
33.41125
  0
SEQEND
  0
POLYLINE
  8
PNOA-H_AMS_1956-57_33k_ES_PAN_21mic_H50_0315_fot_33B-38711_E_tif
  70
9
  66
1
  0
VERTEX
  8
PNOA-H_AMS_1956-57_33k_ES_PAN_21mic_H50_0315_fot_33B-38711_E_tif
  70
32
  10
473283.511
  20
4629166.503
  30
1034.264
  0
VERTEX
  8
PNOA-H_AMS_1956-57_33k_ES_PAN_21mic_H50_0315_fot_33B-38711_E_tif
  70
32
  10
473283.500
  20
4629166.500
  30
1034.264
  0
VERTEX
  8
PNOA-H_AMS_1956-57_33k_ES_PAN_21mic_H50_0315_fot_33B-38711_E_tif
  70
32
  10
471920.500
  20
4629599.500
  30
953.386
  0
VERTEX
  8
PNOA-H_AMS_1956-57_33k_ES_PAN_21mic_H50_0315_fot_33B-38711_E_tif
  70
32
  10
471902.926
  20
4631327.221
  30
994.387
  0
VERTEX
  8
PNOA-H_AMS_1956-57_33k_ES_PAN_21mic_H50_0315_fot_33B-38711_E_tif
  70
32
  10
474052.055
  20
4631318.881
  30
0
  0
VERTEX
  8
PNOA-H_AMS_1956-57_33k_ES_PAN_21mic_H50_0315_fot_33B-38711_E_tif
  70
32
  10
474770.992
  20
4631316.440
  30
0
  0
VERTEX
  8
PNOA-H_AMS_1956-57_33k_ES_PAN_21mic_H50_0315_fot_33B-38711_E_tif
  70
32
  10
474771.034
  20
4631316.440
  30
1036.455
  0
VERTEX
  8
PNOA-H_AMS_1956-57_33k_ES_PAN_21mic_H50_0315_fot_33B-38711_E_tif
  70
32
  10
474786.500
  20
4629662.000
  30
991.036
  0
VERTEX
  8
PNOA-H_AMS_1956-57_33k_ES_PAN_21mic_H50_0315_fot_33B-38711_E_tif
  70
32
  10
474463.155
  20
4629555.402
  30
1000.336
  0
VERTEX
  8
PNOA-H_AMS_1956-57_33k_ES_PAN_21mic_H50_0315_fot_33B-38711_E_tif
  70
32
  10
473283.511
  20
4629166.503
  30
1034.264
  0
SEQEND
  8
PNOA-H_AMS_1956-57_33k_ES_PAN_21mic_H50_0315_fot_33B-38711_E_tif
  0
INSERT
  8
FeatureAttribs
  2
FEATURE
  41
1
  42
1
  43
1
  50
0
  10
471191.941
  20
4630250.154
 66
1
  0
ATTRIB
  8
FeatureAttribs
 70
0
  1
PNOA-H_AMS_1956-57_33k_ES_PAN_21mic_H50_0315_fot_33B-38710_E.tif
  2
NAME
  10
471191.941
  20
4630250.154
 40
33.41125
  0
SEQEND
  0
POLYLINE
  8
PNOA-H_AMS_1956-57_33k_ES_PAN_21mic_H50_0315_fot_33B-38710_E_tif
  70
9
  66
1
  0
VERTEX
  8
PNOA-H_AMS_1956-57_33k_ES_PAN_21mic_H50_0315_fot_33B-38710_E_tif
  70
32
  10
471920.242
  20
4629599.423
  30
953.394
  0
VERTEX
  8
PNOA-H_AMS_1956-57_33k_ES_PAN_21mic_H50_0315_fot_33B-38710_E_tif
  70
32
  10
470470.000
  20
4629167.467
  30
1001.378
  0
VERTEX
  8
PNOA-H_AMS_1956-57_33k_ES_PAN_21mic_H50_0315_fot_33B-38710_E_tif
  70
32
  10
470470.000
  20
4629167.760
  30
1001.38
  0
VERTEX
  8
PNOA-H_AMS_1956-57_33k_ES_PAN_21mic_H50_0315_fot_33B-38710_E_tif
  70
32
  10
470470.000
  20
4631332.840
  30
1021.225
  0
VERTEX
  8
PNOA-H_AMS_1956-57_33k_ES_PAN_21mic_H50_0315_fot_33B-38710_E_tif
  70
32
  10
470592.324
  20
4631332.306
  30
0
  0
VERTEX
  8
PNOA-H_AMS_1956-57_33k_ES_PAN_21mic_H50_0315_fot_33B-38710_E_tif
  70
32
  10
471902.926
  20
4631327.221
  30
994.387
  0
VERTEX
  8
PNOA-H_AMS_1956-57_33k_ES_PAN_21mic_H50_0315_fot_33B-38710_E_tif
  70
32
  10
471920.500
  20
4629599.500
  30
953.386
  0
VERTEX
  8
PNOA-H_AMS_1956-57_33k_ES_PAN_21mic_H50_0315_fot_33B-38710_E_tif
  70
32
  10
471920.242
  20
4629599.423
  30
953.394
  0
SEQEND
  8
PNOA-H_AMS_1956-57_33k_ES_PAN_21mic_H50_0315_fot_33B-38710_E_tif
  0
INSERT
  8
FeatureAttribs
  2
FEATURE
  41
1
  42
1
  43
1
  50
0
  10
476237.004
  20
4630268.470
 66
1
  0
ATTRIB
  8
FeatureAttribs
 70
0
  1
PNOA-H_AMS_1956-57_33k_ES_PAN_21mic_H50_0315_fot_33B-38712_E.tif
  2
NAME
  10
476237.004
  20
4630268.470
 40
33.41125
  0
SEQEND
  0
POLYLINE
  8
PNOA-H_AMS_1956-57_33k_ES_PAN_21mic_H50_0315_fot_33B-38712_E_tif
  70
9
  66
1
  0
VERTEX
  8
PNOA-H_AMS_1956-57_33k_ES_PAN_21mic_H50_0315_fot_33B-38712_E_tif
  70
32
  10
477700.006
  20
4629703.840
  30
1012.749
  0
VERTEX
  8
PNOA-H_AMS_1956-57_33k_ES_PAN_21mic_H50_0315_fot_33B-38712_E_tif
  70
32
  10
476204.500
  20
4629220.500
  30
1003.058
  0
VERTEX
  8
PNOA-H_AMS_1956-57_33k_ES_PAN_21mic_H50_0315_fot_33B-38712_E_tif
  70
32
  10
476204.245
  20
4629220.579
  30
1003.056
  0
VERTEX
  8
PNOA-H_AMS_1956-57_33k_ES_PAN_21mic_H50_0315_fot_33B-38712_E_tif
  70
32
  10
475495.500
  20
4629441.250
  30
997.047
  0
VERTEX
  8
PNOA-H_AMS_1956-57_33k_ES_PAN_21mic_H50_0315_fot_33B-38712_E_tif
  70
32
  10
474786.757
  20
4629661.920
  30
991.038
  0
VERTEX
  8
PNOA-H_AMS_1956-57_33k_ES_PAN_21mic_H50_0315_fot_33B-38712_E_tif
  70
32
  10
474786.500
  20
4629662.000
  30
991.036
  0
VERTEX
  8
PNOA-H_AMS_1956-57_33k_ES_PAN_21mic_H50_0315_fot_33B-38712_E_tif
  70
32
  10
474770.992
  20
4631316.440
  30
1036.238
  0
VERTEX
  8
PNOA-H_AMS_1956-57_33k_ES_PAN_21mic_H50_0315_fot_33B-38712_E_tif
  70
32
  10
474771.034
  20
4631316.440
  30
1036.455
  0
VERTEX
  8
PNOA-H_AMS_1956-57_33k_ES_PAN_21mic_H50_0315_fot_33B-38712_E_tif
  70
32
  10
477511.784
  20
4631307.135
  30
0
  0
VERTEX
  8
PNOA-H_AMS_1956-57_33k_ES_PAN_21mic_H50_0315_fot_33B-38712_E_tif
  70
32
  10
477678.749
  20
4631306.649
  30
0
  0
VERTEX
  8
PNOA-H_AMS_1956-57_33k_ES_PAN_21mic_H50_0315_fot_33B-38712_E_tif
  70
32
  10
477679.008
  20
4631306.648
  30
1077.466
  0
VERTEX
  8
PNOA-H_AMS_1956-57_33k_ES_PAN_21mic_H50_0315_fot_33B-38712_E_tif
  70
32
  10
477696.000
  20
4630063.000
  30
1083.343
  0
VERTEX
  8
PNOA-H_AMS_1956-57_33k_ES_PAN_21mic_H50_0315_fot_33B-38712_E_tif
  70
32
  10
477696.000
  20
4630053.000
  30
1083.126
  0
VERTEX
  8
PNOA-H_AMS_1956-57_33k_ES_PAN_21mic_H50_0315_fot_33B-38712_E_tif
  70
32
  10
477700.500
  20
4629704.000
  30
1012.752
  0
VERTEX
  8
PNOA-H_AMS_1956-57_33k_ES_PAN_21mic_H50_0315_fot_33B-38712_E_tif
  70
32
  10
477700.006
  20
4629703.840
  30
1012.749
  0
SEQEND
  8
PNOA-H_AMS_1956-57_33k_ES_PAN_21mic_H50_0315_fot_33B-38712_E_tif
  0
INSERT
  8
FeatureAttribs
  2
FEATURE
  41
1
  42
1
  43
1
  50
0
  10
481865.677
  20
4630331.243
 66
1
  0
ATTRIB
  8
FeatureAttribs
 70
0
  1
PNOA-H_AMS_1956-57_33k_ES_PAN_21mic_H50_0315_fot_33B-38714_E.tif
  2
NAME
  10
481865.677
  20
4630331.243
 40
33.41125
  0
SEQEND
  0
POLYLINE
  8
PNOA-H_AMS_1956-57_33k_ES_PAN_21mic_H50_0315_fot_33B-38714_E_tif
  70
9
  66
1
  0
VERTEX
  8
PNOA-H_AMS_1956-57_33k_ES_PAN_21mic_H50_0315_fot_33B-38714_E_tif
  70
32
  10
483238.524
  20
4629848.342
  30
1130.544
  0
VERTEX
  8
PNOA-H_AMS_1956-57_33k_ES_PAN_21mic_H50_0315_fot_33B-38714_E_tif
  70
32
  10
481776.000
  20
4629364.000
  30
1091.838
  0
VERTEX
  8
PNOA-H_AMS_1956-57_33k_ES_PAN_21mic_H50_0315_fot_33B-38714_E_tif
  70
32
  10
481775.737
  20
4629364.079
  30
1091.841
  0
VERTEX
  8
PNOA-H_AMS_1956-57_33k_ES_PAN_21mic_H50_0315_fot_33B-38714_E_tif
  70
32
  10
481462.000
  20
4629458.000
  30
1095.639
  0
VERTEX
  8
PNOA-H_AMS_1956-57_33k_ES_PAN_21mic_H50_0315_fot_33B-38714_E_tif
  70
32
  10
480520.509
  20
4629739.848
  30
1107.036
  0
VERTEX
  8
PNOA-H_AMS_1956-57_33k_ES_PAN_21mic_H50_0315_fot_33B-38714_E_tif
  70
32
  10
480520.000
  20
4629740.000
  30
1107.042
  0
VERTEX
  8
PNOA-H_AMS_1956-57_33k_ES_PAN_21mic_H50_0315_fot_33B-38714_E_tif
  70
32
  10
480512.500
  20
4630063.526
  30
1109.152
  0
VERTEX
  8
PNOA-H_AMS_1956-57_33k_ES_PAN_21mic_H50_0315_fot_33B-38714_E_tif
  70
32
  10
480483.871
  20
4631298.485
  30
1117.21
  0
VERTEX
  8
PNOA-H_AMS_1956-57_33k_ES_PAN_21mic_H50_0315_fot_33B-38714_E_tif
  70
32
  10
480484.035
  20
4631298.485
  30
0
  0
VERTEX
  8
PNOA-H_AMS_1956-57_33k_ES_PAN_21mic_H50_0315_fot_33B-38714_E_tif
  70
32
  10
480971.512
  20
4631297.066
  30
0
  0
VERTEX
  8
PNOA-H_AMS_1956-57_33k_ES_PAN_21mic_H50_0315_fot_33B-38714_E_tif
  70
32
  10
483197.250
  20
4631291.668
  30
0
  0
VERTEX
  8
PNOA-H_AMS_1956-57_33k_ES_PAN_21mic_H50_0315_fot_33B-38714_E_tif
  70
32
  10
483197.327
  20
4631291.668
  30
1111.474
  0
VERTEX
  8
PNOA-H_AMS_1956-57_33k_ES_PAN_21mic_H50_0315_fot_33B-38714_E_tif
  70
32
  10
483239.000
  20
4629848.500
  30
1130.556
  0
VERTEX
  8
PNOA-H_AMS_1956-57_33k_ES_PAN_21mic_H50_0315_fot_33B-38714_E_tif
  70
32
  10
483238.524
  20
4629848.342
  30
1130.544
  0
SEQEND
  8
PNOA-H_AMS_1956-57_33k_ES_PAN_21mic_H50_0315_fot_33B-38714_E_tif
  0
INSERT
  8
FeatureAttribs
  2
FEATURE
  41
1
  42
1
  43
1
  50
0
  10
479099.883
  20
4630297.074
 66
1
  0
ATTRIB
  8
FeatureAttribs
 70
0
  1
PNOA-H_AMS_1956-57_33k_ES_PAN_21mic_H50_0315_fot_33B-38713_E.tif
  2
NAME
  10
479099.883
  20
4630297.074
 40
33.41125
  0
SEQEND
  0
POLYLINE
  8
PNOA-H_AMS_1956-57_33k_ES_PAN_21mic_H50_0315_fot_33B-38713_E_tif
  70
9
  66
1
  0
VERTEX
  8
PNOA-H_AMS_1956-57_33k_ES_PAN_21mic_H50_0315_fot_33B-38713_E_tif
  70
32
  10
480518.434
  20
4629739.528
  30
1106.975
  0
VERTEX
  8
PNOA-H_AMS_1956-57_33k_ES_PAN_21mic_H50_0315_fot_33B-38713_E_tif
  70
32
  10
479017.500
  20
4629287.500
  30
1042.687
  0
VERTEX
  8
PNOA-H_AMS_1956-57_33k_ES_PAN_21mic_H50_0315_fot_33B-38713_E_tif
  70
32
  10
479017.256
  20
4629287.577
  30
1042.681
  0
VERTEX
  8
PNOA-H_AMS_1956-57_33k_ES_PAN_21mic_H50_0315_fot_33B-38713_E_tif
  70
32
  10
477700.500
  20
4629704.000
  30
1012.752
  0
VERTEX
  8
PNOA-H_AMS_1956-57_33k_ES_PAN_21mic_H50_0315_fot_33B-38713_E_tif
  70
32
  10
477678.749
  20
4631306.649
  30
1033.804
  0
VERTEX
  8
PNOA-H_AMS_1956-57_33k_ES_PAN_21mic_H50_0315_fot_33B-38713_E_tif
  70
32
  10
477679.008
  20
4631306.648
  30
0
  0
VERTEX
  8
PNOA-H_AMS_1956-57_33k_ES_PAN_21mic_H50_0315_fot_33B-38713_E_tif
  70
32
  10
480483.871
  20
4631298.485
  30
1117.21
  0
VERTEX
  8
PNOA-H_AMS_1956-57_33k_ES_PAN_21mic_H50_0315_fot_33B-38713_E_tif
  70
32
  10
480484.035
  20
4631298.485
  30
1120.978
  0
VERTEX
  8
PNOA-H_AMS_1956-57_33k_ES_PAN_21mic_H50_0315_fot_33B-38713_E_tif
  70
32
  10
480512.500
  20
4630074.000
  30
1114.806
  0
VERTEX
  8
PNOA-H_AMS_1956-57_33k_ES_PAN_21mic_H50_0315_fot_33B-38713_E_tif
  70
32
  10
480512.500
  20
4630063.526
  30
1109.152
  0
VERTEX
  8
PNOA-H_AMS_1956-57_33k_ES_PAN_21mic_H50_0315_fot_33B-38713_E_tif
  70
32
  10
480512.500
  20
4630053.000
  30
1117.61
  0
VERTEX
  8
PNOA-H_AMS_1956-57_33k_ES_PAN_21mic_H50_0315_fot_33B-38713_E_tif
  70
32
  10
480520.000
  20
4629740.000
  30
1107.042
  0
VERTEX
  8
PNOA-H_AMS_1956-57_33k_ES_PAN_21mic_H50_0315_fot_33B-38713_E_tif
  70
32
  10
480518.434
  20
4629739.528
  30
1106.975
  0
SEQEND
  8
PNOA-H_AMS_1956-57_33k_ES_PAN_21mic_H50_0315_fot_33B-38713_E_tif
  0
INSERT
  8
FeatureAttribs
  2
FEATURE
  41
1
  42
1
  43
1
  50
0
  10
483826.134
  20
4630402.891
 66
1
  0
ATTRIB
  8
FeatureAttribs
 70
0
  1
PNOA-H_AMS_1956-57_33k_ES_PAN_21mic_H50_0316_fot_33B-38715_E.tif
  2
NAME
  10
483826.134
  20
4630402.891
 40
33.41125
  0
SEQEND
  0
POLYLINE
  8
PNOA-H_AMS_1956-57_33k_ES_PAN_21mic_H50_0316_fot_33B-38715_E_tif
  70
9
  66
1
  0
VERTEX
  8
PNOA-H_AMS_1956-57_33k_ES_PAN_21mic_H50_0316_fot_33B-38715_E_tif
  70
32
  10
484427.367
  20
4629514.536
  30
0
  0
VERTEX
  8
PNOA-H_AMS_1956-57_33k_ES_PAN_21mic_H50_0316_fot_33B-38715_E_tif
  70
32
  10
484427.366
  20
4629514.113
  30
1164.181
  0
VERTEX
  8
PNOA-H_AMS_1956-57_33k_ES_PAN_21mic_H50_0316_fot_33B-38715_E_tif
  70
32
  10
483817.423
  20
4629685.741
  30
1146.923
  0
VERTEX
  8
PNOA-H_AMS_1956-57_33k_ES_PAN_21mic_H50_0316_fot_33B-38715_E_tif
  70
32
  10
483694.019
  20
4629720.465
  30
1143.431
  0
VERTEX
  8
PNOA-H_AMS_1956-57_33k_ES_PAN_21mic_H50_0316_fot_33B-38715_E_tif
  70
32
  10
483240.809
  20
4629847.991
  30
1130.607
  0
VERTEX
  8
PNOA-H_AMS_1956-57_33k_ES_PAN_21mic_H50_0316_fot_33B-38715_E_tif
  70
32
  10
483239.000
  20
4629848.500
  30
1130.556
  0
VERTEX
  8
PNOA-H_AMS_1956-57_33k_ES_PAN_21mic_H50_0316_fot_33B-38715_E_tif
  70
32
  10
483197.250
  20
4631291.668
  30
1111.243
  0
VERTEX
  8
PNOA-H_AMS_1956-57_33k_ES_PAN_21mic_H50_0316_fot_33B-38715_E_tif
  70
32
  10
483197.327
  20
4631291.668
  30
1111.474
  0
VERTEX
  8
PNOA-H_AMS_1956-57_33k_ES_PAN_21mic_H50_0316_fot_33B-38715_E_tif
  70
32
  10
484431.239
  20
4631288.676
  30
0
  0
VERTEX
  8
PNOA-H_AMS_1956-57_33k_ES_PAN_21mic_H50_0316_fot_33B-38715_E_tif
  70
32
  10
484427.367
  20
4629514.536
  30
0
  0
SEQEND
  8
PNOA-H_AMS_1956-57_33k_ES_PAN_21mic_H50_0316_fot_33B-38715_E_tif
  0
INSERT
  8
FeatureAttribs
  2
FEATURE
  41
1
  42
1
  43
1
  50
0
  10
469669.938
  20
4618542.250
 66
1
  0
ATTRIB
  8
FeatureAttribs
 70
0
  1
PNOA-H_AMS_1956-57_33k_ES_PAN_21mic_H50_0347_fot_36C-37193_E.tif
  2
NAME
  10
469669.938
  20
4618542.250
 40
33.41125
  0
SEQEND
  0
POLYLINE
  8
PNOA-H_AMS_1956-57_33k_ES_PAN_21mic_H50_0347_fot_36C-37193_E_tif
  70
9
  66
1
  0
VERTEX
  8
PNOA-H_AMS_1956-57_33k_ES_PAN_21mic_H50_0347_fot_36C-37193_E_tif
  70
32
  10
468923.882
  20
4616114.076
  30
942.988
  0
VERTEX
  8
PNOA-H_AMS_1956-57_33k_ES_PAN_21mic_H50_0347_fot_36C-37193_E_tif
  70
32
  10
468923.500
  20
4616114.000
  30
942.987
  0
VERTEX
  8
PNOA-H_AMS_1956-57_33k_ES_PAN_21mic_H50_0347_fot_36C-37193_E_tif
  70
32
  10
468149.500
  20
4616613.500
  30
907.883
  0
VERTEX
  8
PNOA-H_AMS_1956-57_33k_ES_PAN_21mic_H50_0347_fot_36C-37193_E_tif
  70
32
  10
468166.500
  20
4620651.500
  30
923.101
  0
VERTEX
  8
PNOA-H_AMS_1956-57_33k_ES_PAN_21mic_H50_0347_fot_36C-37193_E_tif
  70
32
  10
468976.500
  20
4620970.500
  30
941.763
  0
VERTEX
  8
PNOA-H_AMS_1956-57_33k_ES_PAN_21mic_H50_0347_fot_36C-37193_E_tif
  70
32
  10
468976.508
  20
4620970.499
  30
941.762
  0
VERTEX
  8
PNOA-H_AMS_1956-57_33k_ES_PAN_21mic_H50_0347_fot_36C-37193_E_tif
  70
32
  10
469448.000
  20
4620901.000
  30
919.822
  0
VERTEX
  8
PNOA-H_AMS_1956-57_33k_ES_PAN_21mic_H50_0347_fot_36C-37193_E_tif
  70
32
  10
469452.000
  20
4620900.500
  30
920.145
  0
VERTEX
  8
PNOA-H_AMS_1956-57_33k_ES_PAN_21mic_H50_0347_fot_36C-37193_E_tif
  70
32
  10
470374.335
  20
4620765.256
  30
941.621
  0
VERTEX
  8
PNOA-H_AMS_1956-57_33k_ES_PAN_21mic_H50_0347_fot_36C-37193_E_tif
  70
32
  10
471173.423
  20
4620648.085
  30
960.227
  0
VERTEX
  8
PNOA-H_AMS_1956-57_33k_ES_PAN_21mic_H50_0347_fot_36C-37193_E_tif
  70
32
  10
471174.000
  20
4620648.000
  30
960.241
  0
VERTEX
  8
PNOA-H_AMS_1956-57_33k_ES_PAN_21mic_H50_0347_fot_36C-37193_E_tif
  70
32
  10
471190.000
  20
4616567.000
  30
948.287
  0
VERTEX
  8
PNOA-H_AMS_1956-57_33k_ES_PAN_21mic_H50_0347_fot_36C-37193_E_tif
  70
32
  10
470166.467
  20
4616362.429
  30
945.893
  0
VERTEX
  8
PNOA-H_AMS_1956-57_33k_ES_PAN_21mic_H50_0347_fot_36C-37193_E_tif
  70
32
  10
469233.373
  20
4616175.934
  30
943.711
  0
VERTEX
  8
PNOA-H_AMS_1956-57_33k_ES_PAN_21mic_H50_0347_fot_36C-37193_E_tif
  70
32
  10
468923.882
  20
4616114.076
  30
942.988
  0
SEQEND
  8
PNOA-H_AMS_1956-57_33k_ES_PAN_21mic_H50_0347_fot_36C-37193_E_tif
  0
INSERT
  8
FeatureAttribs
  2
FEATURE
  41
1
  42
1
  43
1
  50
0
  10
464311.837
  20
4618666.227
 66
1
  0
ATTRIB
  8
FeatureAttribs
 70
0
  1
PNOA-H_AMS_1956-57_33k_ES_PAN_21mic_H50_0347_fot_36C-37191_E.tif
  2
NAME
  10
464311.837
  20
4618666.227
 40
33.41125
  0
SEQEND
  0
POLYLINE
  8
PNOA-H_AMS_1956-57_33k_ES_PAN_21mic_H50_0347_fot_36C-37191_E_tif
  70
9
  66
1
  0
VERTEX
  8
PNOA-H_AMS_1956-57_33k_ES_PAN_21mic_H50_0347_fot_36C-37191_E_tif
  70
32
  10
465104.500
  20
4616696.500
  30
943.041
  0
VERTEX
  8
PNOA-H_AMS_1956-57_33k_ES_PAN_21mic_H50_0347_fot_36C-37191_E_tif
  70
32
  10
463470.000
  20
4616326.388
  30
903.007
  0
VERTEX
  8
PNOA-H_AMS_1956-57_33k_ES_PAN_21mic_H50_0347_fot_36C-37191_E_tif
  70
32
  10
463470.000
  20
4616326.759
  30
903.008
  0
VERTEX
  8
PNOA-H_AMS_1956-57_33k_ES_PAN_21mic_H50_0347_fot_36C-37191_E_tif
  70
32
  10
463470.000
  20
4617590.000
  30
907.06
  0
VERTEX
  8
PNOA-H_AMS_1956-57_33k_ES_PAN_21mic_H50_0347_fot_36C-37191_E_tif
  70
32
  10
463500.000
  20
4617590.000
  30
907.06
  0
VERTEX
  8
PNOA-H_AMS_1956-57_33k_ES_PAN_21mic_H50_0347_fot_36C-37191_E_tif
  70
32
  10
463500.000
  20
4621005.854
  30
910.82
  0
VERTEX
  8
PNOA-H_AMS_1956-57_33k_ES_PAN_21mic_H50_0347_fot_36C-37191_E_tif
  70
32
  10
463500.000
  20
4621006.066
  30
910.82
  0
VERTEX
  8
PNOA-H_AMS_1956-57_33k_ES_PAN_21mic_H50_0347_fot_36C-37191_E_tif
  70
32
  10
464313.261
  20
4620830.561
  30
896.952
  0
VERTEX
  8
PNOA-H_AMS_1956-57_33k_ES_PAN_21mic_H50_0347_fot_36C-37191_E_tif
  70
32
  10
465143.000
  20
4620651.500
  30
882.803
  0
VERTEX
  8
PNOA-H_AMS_1956-57_33k_ES_PAN_21mic_H50_0347_fot_36C-37191_E_tif
  70
32
  10
465104.500
  20
4616696.500
  30
943.041
  0
SEQEND
  8
PNOA-H_AMS_1956-57_33k_ES_PAN_21mic_H50_0347_fot_36C-37191_E_tif
  0
INSERT
  8
FeatureAttribs
  2
FEATURE
  41
1
  42
1
  43
1
  50
0
  10
466640.477
  20
4618604.250
 66
1
  0
ATTRIB
  8
FeatureAttribs
 70
0
  1
PNOA-H_AMS_1956-57_33k_ES_PAN_21mic_H50_0347_fot_36C-37192_E.tif
  2
NAME
  10
466640.477
  20
4618604.250
 40
33.41125
  0
SEQEND
  0
POLYLINE
  8
PNOA-H_AMS_1956-57_33k_ES_PAN_21mic_H50_0347_fot_36C-37192_E_tif
  70
9
  66
1
  0
VERTEX
  8
PNOA-H_AMS_1956-57_33k_ES_PAN_21mic_H50_0347_fot_36C-37192_E_tif
  70
32
  10
468149.500
  20
4616613.500
  30
907.883
  0
VERTEX
  8
PNOA-H_AMS_1956-57_33k_ES_PAN_21mic_H50_0347_fot_36C-37192_E_tif
  70
32
  10
465912.500
  20
4616190.500
  30
917.628
  0
VERTEX
  8
PNOA-H_AMS_1956-57_33k_ES_PAN_21mic_H50_0347_fot_36C-37192_E_tif
  70
32
  10
465912.487
  20
4616190.508
  30
917.628
  0
VERTEX
  8
PNOA-H_AMS_1956-57_33k_ES_PAN_21mic_H50_0347_fot_36C-37192_E_tif
  70
32
  10
465104.500
  20
4616696.000
  30
943.068
  0
VERTEX
  8
PNOA-H_AMS_1956-57_33k_ES_PAN_21mic_H50_0347_fot_36C-37192_E_tif
  70
32
  10
465104.505
  20
4616696.497
  30
943.061
  0
VERTEX
  8
PNOA-H_AMS_1956-57_33k_ES_PAN_21mic_H50_0347_fot_36C-37192_E_tif
  70
32
  10
465143.000
  20
4620651.500
  30
882.803
  0
VERTEX
  8
PNOA-H_AMS_1956-57_33k_ES_PAN_21mic_H50_0347_fot_36C-37192_E_tif
  70
32
  10
465143.372
  20
4620651.635
  30
882.81
  0
VERTEX
  8
PNOA-H_AMS_1956-57_33k_ES_PAN_21mic_H50_0347_fot_36C-37192_E_tif
  70
32
  10
465353.000
  20
4620728.000
  30
886.291
  0
VERTEX
  8
PNOA-H_AMS_1956-57_33k_ES_PAN_21mic_H50_0347_fot_36C-37192_E_tif
  70
32
  10
465354.500
  20
4620728.500
  30
886.349
  0
VERTEX
  8
PNOA-H_AMS_1956-57_33k_ES_PAN_21mic_H50_0347_fot_36C-37192_E_tif
  70
32
  10
465784.964
  20
4620884.664
  30
899.845
  0
VERTEX
  8
PNOA-H_AMS_1956-57_33k_ES_PAN_21mic_H50_0347_fot_36C-37192_E_tif
  70
32
  10
466152.166
  20
4621017.879
  30
911.357
  0
VERTEX
  8
PNOA-H_AMS_1956-57_33k_ES_PAN_21mic_H50_0347_fot_36C-37192_E_tif
  70
32
  10
466152.500
  20
4621018.000
  30
911.368
  0
VERTEX
  8
PNOA-H_AMS_1956-57_33k_ES_PAN_21mic_H50_0347_fot_36C-37192_E_tif
  70
32
  10
468166.500
  20
4620651.500
  30
923.101
  0
VERTEX
  8
PNOA-H_AMS_1956-57_33k_ES_PAN_21mic_H50_0347_fot_36C-37192_E_tif
  70
32
  10
468149.500
  20
4616613.500
  30
907.883
  0
SEQEND
  8
PNOA-H_AMS_1956-57_33k_ES_PAN_21mic_H50_0347_fot_36C-37192_E_tif
  0
INSERT
  8
FeatureAttribs
  2
FEATURE
  41
1
  42
1
  43
1
  50
0
  10
467568.697
  20
4621435.750
 66
1
  0
ATTRIB
  8
FeatureAttribs
 70
0
  1
PNOA-H_AMS_1956-57_33k_ES_PAN_21mic_H50_0347_fot_40515.tif
  2
NAME
  10
467568.697
  20
4621435.750
 40
33.41125
  0
SEQEND
  0
POLYLINE
  8
PNOA-H_AMS_1956-57_33k_ES_PAN_21mic_H50_0347_fot_40515_tif
  70
9
  66
1
  0
VERTEX
  8
PNOA-H_AMS_1956-57_33k_ES_PAN_21mic_H50_0347_fot_40515_tif
  70
32
  10
468166.500
  20
4620651.500
  30
923.101
  0
VERTEX
  8
PNOA-H_AMS_1956-57_33k_ES_PAN_21mic_H50_0347_fot_40515_tif
  70
32
  10
468164.500
  20
4620651.500
  30
923.294
  0
VERTEX
  8
PNOA-H_AMS_1956-57_33k_ES_PAN_21mic_H50_0347_fot_40515_tif
  70
32
  10
466152.166
  20
4621017.879
  30
911.401
  0
VERTEX
  8
PNOA-H_AMS_1956-57_33k_ES_PAN_21mic_H50_0347_fot_40515_tif
  70
32
  10
466151.500
  20
4621018.000
  30
911.398
  0
VERTEX
  8
PNOA-H_AMS_1956-57_33k_ES_PAN_21mic_H50_0347_fot_40515_tif
  70
32
  10
466156.638
  20
4622220.000
  30
922.268
  0
VERTEX
  8
PNOA-H_AMS_1956-57_33k_ES_PAN_21mic_H50_0347_fot_40515_tif
  70
32
  10
468996.920
  20
4622220.000
  30
959.027
  0
VERTEX
  8
PNOA-H_AMS_1956-57_33k_ES_PAN_21mic_H50_0347_fot_40515_tif
  70
32
  10
468976.508
  20
4620970.499
  30
941.77
  0
VERTEX
  8
PNOA-H_AMS_1956-57_33k_ES_PAN_21mic_H50_0347_fot_40515_tif
  70
32
  10
468976.500
  20
4620970.000
  30
941.763
  0
VERTEX
  8
PNOA-H_AMS_1956-57_33k_ES_PAN_21mic_H50_0347_fot_40515_tif
  70
32
  10
468175.500
  20
4620654.500
  30
922.023
  0
VERTEX
  8
PNOA-H_AMS_1956-57_33k_ES_PAN_21mic_H50_0347_fot_40515_tif
  70
32
  10
468167.500
  20
4620651.500
  30
923.005
  0
VERTEX
  8
PNOA-H_AMS_1956-57_33k_ES_PAN_21mic_H50_0347_fot_40515_tif
  70
32
  10
468166.500
  20
4620651.500
  30
923.101
  0
SEQEND
  8
PNOA-H_AMS_1956-57_33k_ES_PAN_21mic_H50_0347_fot_40515_tif
  0
INSERT
  8
FeatureAttribs
  2
FEATURE
  41
1
  42
1
  43
1
  50
0
  10
464826.643
  20
4621435.750
 66
1
  0
ATTRIB
  8
FeatureAttribs
 70
0
  1
PNOA-H_AMS_1956-57_33k_ES_PAN_21mic_H50_0347_fot_40516.tif
  2
NAME
  10
464826.643
  20
4621435.750
 40
33.41125
  0
SEQEND
  0
POLYLINE
  8
PNOA-H_AMS_1956-57_33k_ES_PAN_21mic_H50_0347_fot_40516_tif
  70
9
  66
1
  0
VERTEX
  8
PNOA-H_AMS_1956-57_33k_ES_PAN_21mic_H50_0347_fot_40516_tif
  70
32
  10
465784.964
  20
4620884.664
  30
901
  0
VERTEX
  8
PNOA-H_AMS_1956-57_33k_ES_PAN_21mic_H50_0347_fot_40516_tif
  70
32
  10
465144.000
  20
4620651.500
  30
882.819
  0
VERTEX
  8
PNOA-H_AMS_1956-57_33k_ES_PAN_21mic_H50_0347_fot_40516_tif
  70
32
  10
465143.372
  20
4620651.635
  30
882.829
  0
VERTEX
  8
PNOA-H_AMS_1956-57_33k_ES_PAN_21mic_H50_0347_fot_40516_tif
  70
32
  10
464313.261
  20
4620830.561
  30
896.429
  0
VERTEX
  8
PNOA-H_AMS_1956-57_33k_ES_PAN_21mic_H50_0347_fot_40516_tif
  70
32
  10
463500.000
  20
4621005.854
  30
909.752
  0
VERTEX
  8
PNOA-H_AMS_1956-57_33k_ES_PAN_21mic_H50_0347_fot_40516_tif
  70
32
  10
463500.000
  20
4621006.066
  30
909.751
  0
VERTEX
  8
PNOA-H_AMS_1956-57_33k_ES_PAN_21mic_H50_0347_fot_40516_tif
  70
32
  10
463500.000
  20
4622220.000
  30
902.885
  0
VERTEX
  8
PNOA-H_AMS_1956-57_33k_ES_PAN_21mic_H50_0347_fot_40516_tif
  70
32
  10
466156.638
  20
4622220.000
  30
922.268
  0
VERTEX
  8
PNOA-H_AMS_1956-57_33k_ES_PAN_21mic_H50_0347_fot_40516_tif
  70
32
  10
466151.500
  20
4621018.000
  30
911.398
  0
VERTEX
  8
PNOA-H_AMS_1956-57_33k_ES_PAN_21mic_H50_0347_fot_40516_tif
  70
32
  10
465784.964
  20
4620884.664
  30
901
  0
SEQEND
  8
PNOA-H_AMS_1956-57_33k_ES_PAN_21mic_H50_0347_fot_40516_tif
  0
INSERT
  8
FeatureAttribs
  2
FEATURE
  41
1
  42
1
  43
1
  50
0
  10
470349.353
  20
4614695.271
 66
1
  0
ATTRIB
  8
FeatureAttribs
 70
0
  1
PNOA-H_AMS_1956-57_33k_ES_PAN_21mic_H50_0347_fot_37B-38973_E.tif
  2
NAME
  10
470349.353
  20
4614695.271
 40
33.41125
  0
SEQEND
  0
POLYLINE
  8
PNOA-H_AMS_1956-57_33k_ES_PAN_21mic_H50_0347_fot_37B-38973_E_tif
  70
9
  66
1
  0
VERTEX
  8
PNOA-H_AMS_1956-57_33k_ES_PAN_21mic_H50_0347_fot_37B-38973_E_tif
  70
32
  10
471884.000
  20
4616144.000
  30
944.584
  0
VERTEX
  8
PNOA-H_AMS_1956-57_33k_ES_PAN_21mic_H50_0347_fot_37B-38973_E_tif
  70
32
  10
471737.149
  20
4612823.542
  30
972.68
  0
VERTEX
  8
PNOA-H_AMS_1956-57_33k_ES_PAN_21mic_H50_0347_fot_37B-38973_E_tif
  70
32
  10
470516.160
  20
4612828.265
  30
0
  0
VERTEX
  8
PNOA-H_AMS_1956-57_33k_ES_PAN_21mic_H50_0347_fot_37B-38973_E_tif
  70
32
  10
468819.501
  20
4612835.647
  30
977.691
  0
VERTEX
  8
PNOA-H_AMS_1956-57_33k_ES_PAN_21mic_H50_0347_fot_37B-38973_E_tif
  70
32
  10
468924.000
  20
4616114.000
  30
942.926
  0
VERTEX
  8
PNOA-H_AMS_1956-57_33k_ES_PAN_21mic_H50_0347_fot_37B-38973_E_tif
  70
32
  10
469233.373
  20
4616175.934
  30
935.809
  0
VERTEX
  8
PNOA-H_AMS_1956-57_33k_ES_PAN_21mic_H50_0347_fot_37B-38973_E_tif
  70
32
  10
469448.500
  20
4616219.000
  30
930.86
  0
VERTEX
  8
PNOA-H_AMS_1956-57_33k_ES_PAN_21mic_H50_0347_fot_37B-38973_E_tif
  70
32
  10
469451.000
  20
4616219.500
  30
930.719
  0
VERTEX
  8
PNOA-H_AMS_1956-57_33k_ES_PAN_21mic_H50_0347_fot_37B-38973_E_tif
  70
32
  10
470166.467
  20
4616362.429
  30
937.942
  0
VERTEX
  8
PNOA-H_AMS_1956-57_33k_ES_PAN_21mic_H50_0347_fot_37B-38973_E_tif
  70
32
  10
471190.123
  20
4616566.925
  30
948.276
  0
VERTEX
  8
PNOA-H_AMS_1956-57_33k_ES_PAN_21mic_H50_0347_fot_37B-38973_E_tif
  70
32
  10
471190.500
  20
4616567.000
  30
948.28
  0
VERTEX
  8
PNOA-H_AMS_1956-57_33k_ES_PAN_21mic_H50_0347_fot_37B-38973_E_tif
  70
32
  10
471883.912
  20
4616144.054
  30
944.584
  0
VERTEX
  8
PNOA-H_AMS_1956-57_33k_ES_PAN_21mic_H50_0347_fot_37B-38973_E_tif
  70
32
  10
471884.000
  20
4616144.000
  30
944.584
  0
SEQEND
  8
PNOA-H_AMS_1956-57_33k_ES_PAN_21mic_H50_0347_fot_37B-38973_E_tif
  0
INSERT
  8
FeatureAttribs
  2
FEATURE
  41
1
  42
1
  43
1
  50
0
  10
467376.403
  20
4614724.574
 66
1
  0
ATTRIB
  8
FeatureAttribs
 70
0
  1
PNOA-H_AMS_1956-57_33k_ES_PAN_21mic_H50_0347_fot_37B-38972_E.tif
  2
NAME
  10
467376.403
  20
4614724.574
 40
33.41125
  0
SEQEND
  0
POLYLINE
  8
PNOA-H_AMS_1956-57_33k_ES_PAN_21mic_H50_0347_fot_37B-38972_E_tif
  70
9
  66
1
  0
VERTEX
  8
PNOA-H_AMS_1956-57_33k_ES_PAN_21mic_H50_0347_fot_37B-38972_E_tif
  70
32
  10
468924.000
  20
4616114.000
  30
942.926
  0
VERTEX
  8
PNOA-H_AMS_1956-57_33k_ES_PAN_21mic_H50_0347_fot_37B-38972_E_tif
  70
32
  10
468819.083
  20
4612835.649
  30
977.693
  0
VERTEX
  8
PNOA-H_AMS_1956-57_33k_ES_PAN_21mic_H50_0347_fot_37B-38972_E_tif
  70
32
  10
467047.466
  20
4612843.357
  30
0
  0
VERTEX
  8
PNOA-H_AMS_1956-57_33k_ES_PAN_21mic_H50_0347_fot_37B-38972_E_tif
  70
32
  10
465823.505
  20
4612849.275
  30
0
  0
VERTEX
  8
PNOA-H_AMS_1956-57_33k_ES_PAN_21mic_H50_0347_fot_37B-38972_E_tif
  70
32
  10
465823.089
  20
4612849.277
  30
949.63
  0
VERTEX
  8
PNOA-H_AMS_1956-57_33k_ES_PAN_21mic_H50_0347_fot_37B-38972_E_tif
  70
32
  10
465909.732
  20
4616087.044
  30
918.619
  0
VERTEX
  8
PNOA-H_AMS_1956-57_33k_ES_PAN_21mic_H50_0347_fot_37B-38972_E_tif
  70
32
  10
465912.500
  20
4616190.500
  30
917.628
  0
VERTEX
  8
PNOA-H_AMS_1956-57_33k_ES_PAN_21mic_H50_0347_fot_37B-38972_E_tif
  70
32
  10
468145.000
  20
4616613.000
  30
907.701
  0
VERTEX
  8
PNOA-H_AMS_1956-57_33k_ES_PAN_21mic_H50_0347_fot_37B-38972_E_tif
  70
32
  10
468147.500
  20
4616613.500
  30
907.775
  0
VERTEX
  8
PNOA-H_AMS_1956-57_33k_ES_PAN_21mic_H50_0347_fot_37B-38972_E_tif
  70
32
  10
468149.500
  20
4616613.500
  30
907.883
  0
VERTEX
  8
PNOA-H_AMS_1956-57_33k_ES_PAN_21mic_H50_0347_fot_37B-38972_E_tif
  70
32
  10
468150.000
  20
4616613.500
  30
907.909
  0
VERTEX
  8
PNOA-H_AMS_1956-57_33k_ES_PAN_21mic_H50_0347_fot_37B-38972_E_tif
  70
32
  10
468155.500
  20
4616610.000
  30
908.485
  0
VERTEX
  8
PNOA-H_AMS_1956-57_33k_ES_PAN_21mic_H50_0347_fot_37B-38972_E_tif
  70
32
  10
468923.882
  20
4616114.076
  30
942.92
  0
VERTEX
  8
PNOA-H_AMS_1956-57_33k_ES_PAN_21mic_H50_0347_fot_37B-38972_E_tif
  70
32
  10
468924.000
  20
4616114.000
  30
942.926
  0
SEQEND
  8
PNOA-H_AMS_1956-57_33k_ES_PAN_21mic_H50_0347_fot_37B-38972_E_tif
  0
INSERT
  8
FeatureAttribs
  2
FEATURE
  41
1
  42
1
  43
1
  50
0
  10
464672.367
  20
4614772.887
 66
1
  0
ATTRIB
  8
FeatureAttribs
 70
0
  1
PNOA-H_AMS_1956-57_33k_ES_PAN_21mic_H50_0347_fot_37B-38971_E.tif
  2
NAME
  10
464672.367
  20
4614772.887
 40
33.41125
  0
SEQEND
  0
POLYLINE
  8
PNOA-H_AMS_1956-57_33k_ES_PAN_21mic_H50_0347_fot_37B-38971_E_tif
  70
9
  66
1
  0
VERTEX
  8
PNOA-H_AMS_1956-57_33k_ES_PAN_21mic_H50_0347_fot_37B-38971_E_tif
  70
32
  10
465909.732
  20
4616087.044
  30
918.636
  0
VERTEX
  8
PNOA-H_AMS_1956-57_33k_ES_PAN_21mic_H50_0347_fot_37B-38971_E_tif
  70
32
  10
465823.505
  20
4612849.275
  30
948.97
  0
VERTEX
  8
PNOA-H_AMS_1956-57_33k_ES_PAN_21mic_H50_0347_fot_37B-38971_E_tif
  70
32
  10
465823.089
  20
4612849.277
  30
949.629
  0
VERTEX
  8
PNOA-H_AMS_1956-57_33k_ES_PAN_21mic_H50_0347_fot_37B-38971_E_tif
  70
32
  10
463578.771
  20
4612860.127
  30
0
  0
VERTEX
  8
PNOA-H_AMS_1956-57_33k_ES_PAN_21mic_H50_0347_fot_37B-38971_E_tif
  70
32
  10
462956.302
  20
4612863.438
  30
936.572
  0
VERTEX
  8
PNOA-H_AMS_1956-57_33k_ES_PAN_21mic_H50_0347_fot_37B-38971_E_tif
  70
32
  10
462958.425
  20
4613000.000
  30
934.747
  0
VERTEX
  8
PNOA-H_AMS_1956-57_33k_ES_PAN_21mic_H50_0347_fot_37B-38971_E_tif
  70
32
  10
463470.000
  20
4613000.000
  30
932.86
  0
VERTEX
  8
PNOA-H_AMS_1956-57_33k_ES_PAN_21mic_H50_0347_fot_37B-38971_E_tif
  70
32
  10
463470.000
  20
4616326.388
  30
907.636
  0
VERTEX
  8
PNOA-H_AMS_1956-57_33k_ES_PAN_21mic_H50_0347_fot_37B-38971_E_tif
  70
32
  10
463470.000
  20
4616326.759
  30
907.634
  0
VERTEX
  8
PNOA-H_AMS_1956-57_33k_ES_PAN_21mic_H50_0347_fot_37B-38971_E_tif
  70
32
  10
465104.500
  20
4616696.500
  30
943.041
  0
VERTEX
  8
PNOA-H_AMS_1956-57_33k_ES_PAN_21mic_H50_0347_fot_37B-38971_E_tif
  70
32
  10
465104.505
  20
4616696.497
  30
943.041
  0
VERTEX
  8
PNOA-H_AMS_1956-57_33k_ES_PAN_21mic_H50_0347_fot_37B-38971_E_tif
  70
32
  10
465912.500
  20
4616191.000
  30
917.662
  0
VERTEX
  8
PNOA-H_AMS_1956-57_33k_ES_PAN_21mic_H50_0347_fot_37B-38971_E_tif
  70
32
  10
465912.487
  20
4616190.508
  30
917.666
  0
VERTEX
  8
PNOA-H_AMS_1956-57_33k_ES_PAN_21mic_H50_0347_fot_37B-38971_E_tif
  70
32
  10
465909.732
  20
4616087.044
  30
918.636
  0
SEQEND
  8
PNOA-H_AMS_1956-57_33k_ES_PAN_21mic_H50_0347_fot_37B-38971_E_tif
  0
INSERT
  8
FeatureAttribs
  2
FEATURE
  41
1
  42
1
  43
1
  50
0
  10
472725.928
  20
4618522.500
 66
1
  0
ATTRIB
  8
FeatureAttribs
 70
0
  1
PNOA-H_AMS_1956-57_33k_ES_PAN_21mic_H50_0347_fot_36C-37194_E.tif
  2
NAME
  10
472725.928
  20
4618522.500
 40
33.41125
  0
SEQEND
  0
POLYLINE
  8
PNOA-H_AMS_1956-57_33k_ES_PAN_21mic_H50_0347_fot_36C-37194_E_tif
  70
9
  66
1
  0
VERTEX
  8
PNOA-H_AMS_1956-57_33k_ES_PAN_21mic_H50_0347_fot_36C-37194_E_tif
  70
32
  10
471883.912
  20
4616144.054
  30
944.592
  0
VERTEX
  8
PNOA-H_AMS_1956-57_33k_ES_PAN_21mic_H50_0347_fot_36C-37194_E_tif
  70
32
  10
471883.500
  20
4616144.000
  30
944.591
  0
VERTEX
  8
PNOA-H_AMS_1956-57_33k_ES_PAN_21mic_H50_0347_fot_36C-37194_E_tif
  70
32
  10
471190.123
  20
4616566.925
  30
948.286
  0
VERTEX
  8
PNOA-H_AMS_1956-57_33k_ES_PAN_21mic_H50_0347_fot_36C-37194_E_tif
  70
32
  10
471190.000
  20
4616567.000
  30
948.287
  0
VERTEX
  8
PNOA-H_AMS_1956-57_33k_ES_PAN_21mic_H50_0347_fot_36C-37194_E_tif
  70
32
  10
471174.001
  20
4620648.200
  30
960.273
  0
VERTEX
  8
PNOA-H_AMS_1956-57_33k_ES_PAN_21mic_H50_0347_fot_36C-37194_E_tif
  70
32
  10
471174.000
  20
4620648.500
  30
960.273
  0
VERTEX
  8
PNOA-H_AMS_1956-57_33k_ES_PAN_21mic_H50_0347_fot_36C-37194_E_tif
  70
32
  10
471498.500
  20
4620789.000
  30
962.883
  0
VERTEX
  8
PNOA-H_AMS_1956-57_33k_ES_PAN_21mic_H50_0347_fot_36C-37194_E_tif
  70
32
  10
471499.500
  20
4620789.500
  30
962.878
  0
VERTEX
  8
PNOA-H_AMS_1956-57_33k_ES_PAN_21mic_H50_0347_fot_36C-37194_E_tif
  70
32
  10
471756.500
  20
4620901.000
  30
960.786
  0
VERTEX
  8
PNOA-H_AMS_1956-57_33k_ES_PAN_21mic_H50_0347_fot_36C-37194_E_tif
  70
32
  10
471758.000
  20
4620901.000
  30
960.817
  0
VERTEX
  8
PNOA-H_AMS_1956-57_33k_ES_PAN_21mic_H50_0347_fot_36C-37194_E_tif
  70
32
  10
471763.000
  20
4620901.000
  30
960.918
  0
VERTEX
  8
PNOA-H_AMS_1956-57_33k_ES_PAN_21mic_H50_0347_fot_36C-37194_E_tif
  70
32
  10
473873.417
  20
4620676.000
  30
989.612
  0
VERTEX
  8
PNOA-H_AMS_1956-57_33k_ES_PAN_21mic_H50_0347_fot_36C-37194_E_tif
  70
32
  10
474295.500
  20
4620631.000
  30
995.351
  0
VERTEX
  8
PNOA-H_AMS_1956-57_33k_ES_PAN_21mic_H50_0347_fot_36C-37194_E_tif
  70
32
  10
474244.000
  20
4616451.000
  30
950.218
  0
VERTEX
  8
PNOA-H_AMS_1956-57_33k_ES_PAN_21mic_H50_0347_fot_36C-37194_E_tif
  70
32
  10
472205.840
  20
4616185.923
  30
945.359
  0
VERTEX
  8
PNOA-H_AMS_1956-57_33k_ES_PAN_21mic_H50_0347_fot_36C-37194_E_tif
  70
32
  10
471883.912
  20
4616144.054
  30
944.592
  0
SEQEND
  8
PNOA-H_AMS_1956-57_33k_ES_PAN_21mic_H50_0347_fot_36C-37194_E_tif
  0
INSERT
  8
FeatureAttribs
  2
FEATURE
  41
1
  42
1
  43
1
  50
0
  10
475947.924
  20
4614541.210
 66
1
  0
ATTRIB
  8
FeatureAttribs
 70
0
  1
PNOA-H_AMS_1956-57_33k_ES_PAN_21mic_H50_0347_fot_37B-38975_E.tif
  2
NAME
  10
475947.924
  20
4614541.210
 40
33.41125
  0
SEQEND
  0
POLYLINE
  8
PNOA-H_AMS_1956-57_33k_ES_PAN_21mic_H50_0347_fot_37B-38975_E_tif
  70
9
  66
1
  0
VERTEX
  8
PNOA-H_AMS_1956-57_33k_ES_PAN_21mic_H50_0347_fot_37B-38975_E_tif
  70
32
  10
477356.000
  20
4616274.500
  30
983.719
  0
VERTEX
  8
PNOA-H_AMS_1956-57_33k_ES_PAN_21mic_H50_0347_fot_37B-38975_E_tif
  70
32
  10
477214.262
  20
4612803.920
  30
947.849
  0
VERTEX
  8
PNOA-H_AMS_1956-57_33k_ES_PAN_21mic_H50_0347_fot_37B-38975_E_tif
  70
32
  10
477214.162
  20
4612803.920
  30
947.849
  0
VERTEX
  8
PNOA-H_AMS_1956-57_33k_ES_PAN_21mic_H50_0347_fot_37B-38975_E_tif
  70
32
  10
474552.078
  20
4612812.929
  30
959.38
  0
VERTEX
  8
PNOA-H_AMS_1956-57_33k_ES_PAN_21mic_H50_0347_fot_37B-38975_E_tif
  70
32
  10
474665.500
  20
4616160.500
  30
949.992
  0
VERTEX
  8
PNOA-H_AMS_1956-57_33k_ES_PAN_21mic_H50_0347_fot_37B-38975_E_tif
  70
32
  10
474669.317
  20
4616160.668
  30
950.04
  0
VERTEX
  8
PNOA-H_AMS_1956-57_33k_ES_PAN_21mic_H50_0347_fot_37B-38975_E_tif
  70
32
  10
477340.000
  20
4616278.000
  30
983.347
  0
VERTEX
  8
PNOA-H_AMS_1956-57_33k_ES_PAN_21mic_H50_0347_fot_37B-38975_E_tif
  70
32
  10
477351.500
  20
4616278.500
  30
983.32
  0
VERTEX
  8
PNOA-H_AMS_1956-57_33k_ES_PAN_21mic_H50_0347_fot_37B-38975_E_tif
  70
32
  10
477356.000
  20
4616278.500
  30
983.603
  0
VERTEX
  8
PNOA-H_AMS_1956-57_33k_ES_PAN_21mic_H50_0347_fot_37B-38975_E_tif
  70
32
  10
477356.000
  20
4616278.450
  30
983.604
  0
VERTEX
  8
PNOA-H_AMS_1956-57_33k_ES_PAN_21mic_H50_0347_fot_37B-38975_E_tif
  70
32
  10
477356.000
  20
4616276.167
  30
983.67
  0
VERTEX
  8
PNOA-H_AMS_1956-57_33k_ES_PAN_21mic_H50_0347_fot_37B-38975_E_tif
  70
32
  10
477356.000
  20
4616274.500
  30
983.719
  0
SEQEND
  8
PNOA-H_AMS_1956-57_33k_ES_PAN_21mic_H50_0347_fot_37B-38975_E_tif
  0
INSERT
  8
FeatureAttribs
  2
FEATURE
  41
1
  42
1
  43
1
  50
0
  10
473215.419
  20
4614631.965
 66
1
  0
ATTRIB
  8
FeatureAttribs
 70
0
  1
PNOA-H_AMS_1956-57_33k_ES_PAN_21mic_H50_0347_fot_37B-38974_E.tif
  2
NAME
  10
473215.419
  20
4614631.965
 40
33.41125
  0
SEQEND
  0
POLYLINE
  8
PNOA-H_AMS_1956-57_33k_ES_PAN_21mic_H50_0347_fot_37B-38974_E_tif
  70
9
  66
1
  0
VERTEX
  8
PNOA-H_AMS_1956-57_33k_ES_PAN_21mic_H50_0347_fot_37B-38974_E_tif
  70
32
  10
474665.500
  20
4616160.500
  30
949.992
  0
VERTEX
  8
PNOA-H_AMS_1956-57_33k_ES_PAN_21mic_H50_0347_fot_37B-38974_E_tif
  70
32
  10
474552.078
  20
4612812.929
  30
959.38
  0
VERTEX
  8
PNOA-H_AMS_1956-57_33k_ES_PAN_21mic_H50_0347_fot_37B-38974_E_tif
  70
32
  10
473984.851
  20
4612814.849
  30
0
  0
VERTEX
  8
PNOA-H_AMS_1956-57_33k_ES_PAN_21mic_H50_0347_fot_37B-38974_E_tif
  70
32
  10
471737.149
  20
4612823.542
  30
972.68
  0
VERTEX
  8
PNOA-H_AMS_1956-57_33k_ES_PAN_21mic_H50_0347_fot_37B-38974_E_tif
  70
32
  10
471884.000
  20
4616144.000
  30
944.584
  0
VERTEX
  8
PNOA-H_AMS_1956-57_33k_ES_PAN_21mic_H50_0347_fot_37B-38974_E_tif
  70
32
  10
472205.840
  20
4616185.923
  30
945.222
  0
VERTEX
  8
PNOA-H_AMS_1956-57_33k_ES_PAN_21mic_H50_0347_fot_37B-38974_E_tif
  70
32
  10
474237.000
  20
4616450.500
  30
949.254
  0
VERTEX
  8
PNOA-H_AMS_1956-57_33k_ES_PAN_21mic_H50_0347_fot_37B-38974_E_tif
  70
32
  10
474241.000
  20
4616451.000
  30
949.792
  0
VERTEX
  8
PNOA-H_AMS_1956-57_33k_ES_PAN_21mic_H50_0347_fot_37B-38974_E_tif
  70
32
  10
474244.000
  20
4616451.000
  30
950.221
  0
VERTEX
  8
PNOA-H_AMS_1956-57_33k_ES_PAN_21mic_H50_0347_fot_37B-38974_E_tif
  70
32
  10
474244.500
  20
4616451.000
  30
950.292
  0
VERTEX
  8
PNOA-H_AMS_1956-57_33k_ES_PAN_21mic_H50_0347_fot_37B-38974_E_tif
  70
32
  10
474252.000
  20
4616446.000
  30
951.154
  0
VERTEX
  8
PNOA-H_AMS_1956-57_33k_ES_PAN_21mic_H50_0347_fot_37B-38974_E_tif
  70
32
  10
474664.853
  20
4616160.947
  30
949.994
  0
VERTEX
  8
PNOA-H_AMS_1956-57_33k_ES_PAN_21mic_H50_0347_fot_37B-38974_E_tif
  70
32
  10
474665.500
  20
4616160.500
  30
949.992
  0
SEQEND
  8
PNOA-H_AMS_1956-57_33k_ES_PAN_21mic_H50_0347_fot_37B-38974_E_tif
  0
INSERT
  8
FeatureAttribs
  2
FEATURE
  41
1
  42
1
  43
1
  50
0
  10
478604.978
  20
4614553.053
 66
1
  0
ATTRIB
  8
FeatureAttribs
 70
0
  1
PNOA-H_AMS_1956-57_33k_ES_PAN_21mic_H50_0347_fot_38976.tif
  2
NAME
  10
478604.978
  20
4614553.053
 40
33.41125
  0
SEQEND
  0
POLYLINE
  8
PNOA-H_AMS_1956-57_33k_ES_PAN_21mic_H50_0347_fot_38976_tif
  70
9
  66
1
  0
VERTEX
  8
PNOA-H_AMS_1956-57_33k_ES_PAN_21mic_H50_0347_fot_38976_tif
  70
32
  10
479973.000
  20
4616055.000
  30
968.003
  0
VERTEX
  8
PNOA-H_AMS_1956-57_33k_ES_PAN_21mic_H50_0347_fot_38976_tif
  70
32
  10
479867.900
  20
4612796.107
  30
927.834
  0
VERTEX
  8
PNOA-H_AMS_1956-57_33k_ES_PAN_21mic_H50_0347_fot_38976_tif
  70
32
  10
479867.885
  20
4612796.107
  30
0
  0
VERTEX
  8
PNOA-H_AMS_1956-57_33k_ES_PAN_21mic_H50_0347_fot_38976_tif
  70
32
  10
477453.541
  20
4612803.110
  30
0
  0
VERTEX
  8
PNOA-H_AMS_1956-57_33k_ES_PAN_21mic_H50_0347_fot_38976_tif
  70
32
  10
477214.262
  20
4612803.920
  30
0
  0
VERTEX
  8
PNOA-H_AMS_1956-57_33k_ES_PAN_21mic_H50_0347_fot_38976_tif
  70
32
  10
477214.162
  20
4612803.920
  30
947.838
  0
VERTEX
  8
PNOA-H_AMS_1956-57_33k_ES_PAN_21mic_H50_0347_fot_38976_tif
  70
32
  10
477355.500
  20
4616274.500
  30
983.666
  0
VERTEX
  8
PNOA-H_AMS_1956-57_33k_ES_PAN_21mic_H50_0347_fot_38976_tif
  70
32
  10
477356.000
  20
4616276.167
  30
983.629
  0
VERTEX
  8
PNOA-H_AMS_1956-57_33k_ES_PAN_21mic_H50_0347_fot_38976_tif
  70
32
  10
477356.751
  20
4616278.670
  30
983.573
  0
VERTEX
  8
PNOA-H_AMS_1956-57_33k_ES_PAN_21mic_H50_0347_fot_38976_tif
  70
32
  10
477357.000
  20
4616279.500
  30
983.555
  0
VERTEX
  8
PNOA-H_AMS_1956-57_33k_ES_PAN_21mic_H50_0347_fot_38976_tif
  70
32
  10
477387.246
  20
4616299.328
  30
977.758
  0
VERTEX
  8
PNOA-H_AMS_1956-57_33k_ES_PAN_21mic_H50_0347_fot_38976_tif
  70
32
  10
477402.000
  20
4616309.000
  30
974.87
  0
VERTEX
  8
PNOA-H_AMS_1956-57_33k_ES_PAN_21mic_H50_0347_fot_38976_tif
  70
32
  10
477402.244
  20
4616309.488
  30
974.899
  0
VERTEX
  8
PNOA-H_AMS_1956-57_33k_ES_PAN_21mic_H50_0347_fot_38976_tif
  70
32
  10
477402.500
  20
4616310.000
  30
974.768
  0
VERTEX
  8
PNOA-H_AMS_1956-57_33k_ES_PAN_21mic_H50_0347_fot_38976_tif
  70
32
  10
477402.936
  20
4616309.957
  30
974.767
  0
VERTEX
  8
PNOA-H_AMS_1956-57_33k_ES_PAN_21mic_H50_0347_fot_38976_tif
  70
32
  10
479973.000
  20
4616055.000
  30
968.003
  0
SEQEND
  8
PNOA-H_AMS_1956-57_33k_ES_PAN_21mic_H50_0347_fot_38976_tif
  0
INSERT
  8
FeatureAttribs
  2
FEATURE
  41
1
  42
1
  43
1
  50
0
  10
483557.456
  20
4614547.332
 66
1
  0
ATTRIB
  8
FeatureAttribs
 70
0
  1
PNOA-H_AMS_1956-57_33k_ES_PAN_21mic_H50_0347_fot_38978.tif
  2
NAME
  10
483557.456
  20
4614547.332
 40
33.41125
  0
SEQEND
  0
POLYLINE
  8
PNOA-H_AMS_1956-57_33k_ES_PAN_21mic_H50_0347_fot_38978_tif
  70
9
  66
1
  0
VERTEX
  8
PNOA-H_AMS_1956-57_33k_ES_PAN_21mic_H50_0347_fot_38978_tif
  70
32
  10
484395.949
  20
4615097.636
  30
0
  0
VERTEX
  8
PNOA-H_AMS_1956-57_33k_ES_PAN_21mic_H50_0347_fot_38978_tif
  70
32
  10
484390.916
  20
4612784.664
  30
0
  0
VERTEX
  8
PNOA-H_AMS_1956-57_33k_ES_PAN_21mic_H50_0347_fot_38978_tif
  70
32
  10
482691.147
  20
4612788.772
  30
0
  0
VERTEX
  8
PNOA-H_AMS_1956-57_33k_ES_PAN_21mic_H50_0347_fot_38978_tif
  70
32
  10
482691.084
  20
4612788.773
  30
930.924
  0
VERTEX
  8
PNOA-H_AMS_1956-57_33k_ES_PAN_21mic_H50_0347_fot_38978_tif
  70
32
  10
482695.695
  20
4613067.666
  30
933.052
  0
VERTEX
  8
PNOA-H_AMS_1956-57_33k_ES_PAN_21mic_H50_0347_fot_38978_tif
  70
32
  10
482743.500
  20
4615959.000
  30
955.116
  0
VERTEX
  8
PNOA-H_AMS_1956-57_33k_ES_PAN_21mic_H50_0347_fot_38978_tif
  70
32
  10
482743.636
  20
4615959.067
  30
955.119
  0
VERTEX
  8
PNOA-H_AMS_1956-57_33k_ES_PAN_21mic_H50_0347_fot_38978_tif
  70
32
  10
483454.500
  20
4616309.500
  30
967.262
  0
VERTEX
  8
PNOA-H_AMS_1956-57_33k_ES_PAN_21mic_H50_0347_fot_38978_tif
  70
32
  10
483455.500
  20
4616310.000
  30
967.265
  0
VERTEX
  8
PNOA-H_AMS_1956-57_33k_ES_PAN_21mic_H50_0347_fot_38978_tif
  70
32
  10
483456.211
  20
4616309.858
  30
967.276
  0
VERTEX
  8
PNOA-H_AMS_1956-57_33k_ES_PAN_21mic_H50_0347_fot_38978_tif
  70
32
  10
484398.178
  20
4616121.464
  30
982.542
  0
VERTEX
  8
PNOA-H_AMS_1956-57_33k_ES_PAN_21mic_H50_0347_fot_38978_tif
  70
32
  10
484395.949
  20
4615097.636
  30
0
  0
SEQEND
  8
PNOA-H_AMS_1956-57_33k_ES_PAN_21mic_H50_0347_fot_38978_tif
  0
INSERT
  8
FeatureAttribs
  2
FEATURE
  41
1
  42
1
  43
1
  50
0
  10
481322.884
  20
4614578.136
 66
1
  0
ATTRIB
  8
FeatureAttribs
 70
0
  1
PNOA-H_AMS_1956-57_33k_ES_PAN_21mic_H50_0347_fot_38977.tif
  2
NAME
  10
481322.884
  20
4614578.136
 40
33.41125
  0
SEQEND
  0
POLYLINE
  8
PNOA-H_AMS_1956-57_33k_ES_PAN_21mic_H50_0347_fot_38977_tif
  70
9
  66
1
  0
VERTEX
  8
PNOA-H_AMS_1956-57_33k_ES_PAN_21mic_H50_0347_fot_38977_tif
  70
32
  10
482695.695
  20
4613067.666
  30
945.183
  0
VERTEX
  8
PNOA-H_AMS_1956-57_33k_ES_PAN_21mic_H50_0347_fot_38977_tif
  70
32
  10
482691.147
  20
4612788.772
  30
940.441
  0
VERTEX
  8
PNOA-H_AMS_1956-57_33k_ES_PAN_21mic_H50_0347_fot_38977_tif
  70
32
  10
482691.084
  20
4612788.773
  30
940.36
  0
VERTEX
  8
PNOA-H_AMS_1956-57_33k_ES_PAN_21mic_H50_0347_fot_38977_tif
  70
32
  10
480922.229
  20
4612793.048
  30
0
  0
VERTEX
  8
PNOA-H_AMS_1956-57_33k_ES_PAN_21mic_H50_0347_fot_38977_tif
  70
32
  10
479867.900
  20
4612796.107
  30
928.167
  0
VERTEX
  8
PNOA-H_AMS_1956-57_33k_ES_PAN_21mic_H50_0347_fot_38977_tif
  70
32
  10
479867.885
  20
4612796.107
  30
928.563
  0
VERTEX
  8
PNOA-H_AMS_1956-57_33k_ES_PAN_21mic_H50_0347_fot_38977_tif
  70
32
  10
479971.500
  20
4616012.500
  30
970.968
  0
VERTEX
  8
PNOA-H_AMS_1956-57_33k_ES_PAN_21mic_H50_0347_fot_38977_tif
  70
32
  10
479973.000
  20
4616055.000
  30
968.003
  0
VERTEX
  8
PNOA-H_AMS_1956-57_33k_ES_PAN_21mic_H50_0347_fot_38977_tif
  70
32
  10
479973.130
  20
4616055.086
  30
967.994
  0
VERTEX
  8
PNOA-H_AMS_1956-57_33k_ES_PAN_21mic_H50_0347_fot_38977_tif
  70
32
  10
479974.500
  20
4616056.000
  30
967.89
  0
VERTEX
  8
PNOA-H_AMS_1956-57_33k_ES_PAN_21mic_H50_0347_fot_38977_tif
  70
32
  10
480515.500
  20
4616363.000
  30
974.283
  0
VERTEX
  8
PNOA-H_AMS_1956-57_33k_ES_PAN_21mic_H50_0347_fot_38977_tif
  70
32
  10
480523.500
  20
4616367.500
  30
973.992
  0
VERTEX
  8
PNOA-H_AMS_1956-57_33k_ES_PAN_21mic_H50_0347_fot_38977_tif
  70
32
  10
480524.000
  20
4616367.500
  30
973.981
  0
VERTEX
  8
PNOA-H_AMS_1956-57_33k_ES_PAN_21mic_H50_0347_fot_38977_tif
  70
32
  10
480526.000
  20
4616367.500
  30
973.938
  0
VERTEX
  8
PNOA-H_AMS_1956-57_33k_ES_PAN_21mic_H50_0347_fot_38977_tif
  70
32
  10
482300.000
  20
4616040.700
  30
958.881
  0
VERTEX
  8
PNOA-H_AMS_1956-57_33k_ES_PAN_21mic_H50_0347_fot_38977_tif
  70
32
  10
482743.500
  20
4615959.000
  30
955.116
  0
VERTEX
  8
PNOA-H_AMS_1956-57_33k_ES_PAN_21mic_H50_0347_fot_38977_tif
  70
32
  10
482705.500
  20
4613680.000
  30
954.422
  0
VERTEX
  8
PNOA-H_AMS_1956-57_33k_ES_PAN_21mic_H50_0347_fot_38977_tif
  70
32
  10
482705.500
  20
4613669.000
  30
955.408
  0
VERTEX
  8
PNOA-H_AMS_1956-57_33k_ES_PAN_21mic_H50_0347_fot_38977_tif
  70
32
  10
482695.695
  20
4613067.666
  30
945.183
  0
SEQEND
  8
PNOA-H_AMS_1956-57_33k_ES_PAN_21mic_H50_0347_fot_38977_tif
  0
INSERT
  8
FeatureAttribs
  2
FEATURE
  41
1
  42
1
  43
1
  50
0
  10
461547.850
  20
4612931.719
 66
1
  0
ATTRIB
  8
FeatureAttribs
 70
0
  1
PNOA-H_AMS_1956-57_33k_ES_PAN_21mic_H50_0347_fot_37B-38970_E.tif
  2
NAME
  10
461547.850
  20
4612931.719
 40
33.41125
  0
SEQEND
  0
POLYLINE
  8
PNOA-H_AMS_1956-57_33k_ES_PAN_21mic_H50_0347_fot_37B-38970_E_tif
  70
9
  66
1
  0
VERTEX
  8
PNOA-H_AMS_1956-57_33k_ES_PAN_21mic_H50_0347_fot_37B-38970_E_tif
  70
32
  10
462956.302
  20
4612863.438
  30
936.541
  0
VERTEX
  8
PNOA-H_AMS_1956-57_33k_ES_PAN_21mic_H50_0347_fot_37B-38970_E_tif
  70
32
  10
460138.721
  20
4612878.422
  30
906.54
  0
VERTEX
  8
PNOA-H_AMS_1956-57_33k_ES_PAN_21mic_H50_0347_fot_37B-38970_E_tif
  70
32
  10
460137.844
  20
4613000.000
  30
906.466
  0
VERTEX
  8
PNOA-H_AMS_1956-57_33k_ES_PAN_21mic_H50_0347_fot_37B-38970_E_tif
  70
32
  10
462958.425
  20
4613000.000
  30
934.709
  0
VERTEX
  8
PNOA-H_AMS_1956-57_33k_ES_PAN_21mic_H50_0347_fot_37B-38970_E_tif
  70
32
  10
462956.302
  20
4612863.438
  30
936.541
  0
SEQEND
  8
PNOA-H_AMS_1956-57_33k_ES_PAN_21mic_H50_0347_fot_37B-38970_E_tif
  0
INSERT
  8
FeatureAttribs
  2
FEATURE
  41
1
  42
1
  43
1
  50
0
  10
458389.950
  20
4612939.211
 66
1
  0
ATTRIB
  8
FeatureAttribs
 70
0
  1
PNOA-H_AMS_1956-57_33k_ES_PAN_21mic_H50_0347_fot_37B-38969_E.tif
  2
NAME
  10
458389.950
  20
4612939.211
 40
33.41125
  0
SEQEND
  0
POLYLINE
  8
PNOA-H_AMS_1956-57_33k_ES_PAN_21mic_H50_0347_fot_37B-38969_E_tif
  70
9
  66
1
  0
VERTEX
  8
PNOA-H_AMS_1956-57_33k_ES_PAN_21mic_H50_0347_fot_37B-38969_E_tif
  70
32
  10
460138.721
  20
4612878.422
  30
906.54
  0
VERTEX
  8
PNOA-H_AMS_1956-57_33k_ES_PAN_21mic_H50_0347_fot_37B-38969_E_tif
  70
32
  10
460110.073
  20
4612878.574
  30
0
  0
VERTEX
  8
PNOA-H_AMS_1956-57_33k_ES_PAN_21mic_H50_0347_fot_37B-38969_E_tif
  70
32
  10
456641.373
  20
4612898.698
  30
0
  0
VERTEX
  8
PNOA-H_AMS_1956-57_33k_ES_PAN_21mic_H50_0347_fot_37B-38969_E_tif
  70
32
  10
456641.986
  20
4613000.000
  30
878.089
  0
VERTEX
  8
PNOA-H_AMS_1956-57_33k_ES_PAN_21mic_H50_0347_fot_37B-38969_E_tif
  70
32
  10
460137.844
  20
4613000.000
  30
906.466
  0
VERTEX
  8
PNOA-H_AMS_1956-57_33k_ES_PAN_21mic_H50_0347_fot_37B-38969_E_tif
  70
32
  10
460138.721
  20
4612878.422
  30
906.54
  0
SEQEND
  8
PNOA-H_AMS_1956-57_33k_ES_PAN_21mic_H50_0347_fot_37B-38969_E_tif
  0
ENDSEC
  0
EOF
