  0
SECTION
  2
HEADER
  9
$ACADVER
  1
AC1009
  9
$LUNITS
  70
2
  9
$LIMMIN
  10
428891.629
  20
4612898.698
  9
$LIMMAX
  10
456753.410
  20
4631624.325
  9
$EXTMIN
  10
428891.629
  20
4612898.698
  9
$EXTMAX
  10
456753.410
  20
4631624.325
  999
Created by Global Mapper
  999
Projection: UTM
  999
Datum: ETRS89
  999
Ground Units: meters
  999
ZONE: 30
  0
ENDSEC
  0
SECTION
  2
TABLES
  0
ENDSEC
  0
SECTION
  2
BLOCKS
  0
BLOCK
  8
FeatureAttribs
  70
0
  2
FEATURE
  3
FEATURE
  10
0.00000000
  20
0.00000000
  0
ATTDEF
  8
FeatureAttribs
  70
0
  1
 
  2
NAME
  3
NAME
  10
0.00000000
  20
0.00000000
  40
1.00000000
  0
ENDBLK
  0
ENDSEC
  0
SECTION
  2
ENTITIES
  0
INSERT
  8
FeatureAttribs
  2
FEATURE
  41
1
  42
1
  43
1
  50
0
  10
428920.976
  20
4619035.901
 66
1
  0
ATTRIB
  8
FeatureAttribs
 70
0
  1
PNOA-H_AMS_1956-57_33k_ES_PAN_2
  2
NAME
  10
428920.976
  20
4619035.901
 40
33.56975
  0
SEQEND
  0
POLYLINE
  8
Unknown_Area_Type
  70
1
  66
1
  0
VERTEX
  8
Unknown_Area_Type
  10
428927.646
  20
4616749.866
  0
VERTEX
  8
Unknown_Area_Type
  10
428891.629
  20
4616732.839
  0
VERTEX
  8
Unknown_Area_Type
  10
428891.629
  20
4621338.492
  0
VERTEX
  8
Unknown_Area_Type
  10
428973.179
  20
4621338.963
  0
VERTEX
  8
Unknown_Area_Type
  10
428960.475
  20
4620059.096
  0
VERTEX
  8
Unknown_Area_Type
  10
428937.526
  20
4617746.079
  0
VERTEX
  8
Unknown_Area_Type
  10
428927.646
  20
4616749.866
  0
SEQEND
  8
Unknown_Area_Type
  0
INSERT
  8
FeatureAttribs
  2
FEATURE
  41
1
  42
1
  43
1
  50
0
  10
429109.480
  20
4619194.733
 66
1
  0
ATTRIB
  8
FeatureAttribs
 70
0
  1
PNOA-H_AMS_1956-57_33k_ES_PAN_2
  2
NAME
  10
429109.480
  20
4619194.733
 40
33.56975
  0
SEQEND
  0
POLYLINE
  8
Unknown_Area_Type
  70
1
  66
1
  0
VERTEX
  8
Unknown_Area_Type
  10
428973.179
  20
4621338.963
  0
VERTEX
  8
Unknown_Area_Type
  10
428979.500
  20
4621339.000
  0
VERTEX
  8
Unknown_Area_Type
  10
429067.000
  20
4621339.500
  0
VERTEX
  8
Unknown_Area_Type
  10
429112.500
  20
4621339.500
  0
VERTEX
  8
Unknown_Area_Type
  10
429343.500
  20
4621204.000
  0
VERTEX
  8
Unknown_Area_Type
  10
429186.000
  20
4616872.000
  0
VERTEX
  8
Unknown_Area_Type
  10
428927.646
  20
4616749.866
  0
VERTEX
  8
Unknown_Area_Type
  10
428937.526
  20
4617746.079
  0
VERTEX
  8
Unknown_Area_Type
  10
428960.475
  20
4620059.096
  0
VERTEX
  8
Unknown_Area_Type
  10
428973.179
  20
4621338.963
  0
SEQEND
  8
Unknown_Area_Type
  0
INSERT
  8
FeatureAttribs
  2
FEATURE
  41
1
  42
1
  43
1
  50
0
  10
429109.480
  20
4619194.733
 66
1
  0
ATTRIB
  8
FeatureAttribs
 70
0
  1
PNOA-H_AMS_1956-57_33k_ES_PAN_2
  2
NAME
  10
429109.480
  20
4619194.733
 40
33.56975
  0
SEQEND
  0
POLYLINE
  8
Unknown_Area_Type
  70
1
  66
1
  0
VERTEX
  8
Unknown_Area_Type
  10
428973.179
  20
4621338.963
  0
VERTEX
  8
Unknown_Area_Type
  10
428960.475
  20
4620059.096
  0
VERTEX
  8
Unknown_Area_Type
  10
428937.526
  20
4617746.079
  0
VERTEX
  8
Unknown_Area_Type
  10
428927.646
  20
4616749.866
  0
VERTEX
  8
Unknown_Area_Type
  10
429186.000
  20
4616872.000
  0
VERTEX
  8
Unknown_Area_Type
  10
429343.500
  20
4621204.000
  0
VERTEX
  8
Unknown_Area_Type
  10
429112.500
  20
4621339.500
  0
VERTEX
  8
Unknown_Area_Type
  10
429067.000
  20
4621339.500
  0
VERTEX
  8
Unknown_Area_Type
  10
428979.500
  20
4621339.000
  0
VERTEX
  8
Unknown_Area_Type
  10
428973.179
  20
4621338.963
  0
SEQEND
  8
Unknown_Area_Type
  0
INSERT
  8
FeatureAttribs
  2
FEATURE
  41
1
  42
1
  43
1
  50
0
  10
433719.872
  20
4618931.826
 66
1
  0
ATTRIB
  8
FeatureAttribs
 70
0
  1
PNOA-H_AMS_1956-57_33k_ES_PAN_2
  2
NAME
  10
433719.872
  20
4618931.826
 40
33.56975
  0
SEQEND
  0
POLYLINE
  8
Unknown_Area_Type
  70
1
  66
1
  0
VERTEX
  8
Unknown_Area_Type
  10
434709.500
  20
4621343.000
  0
VERTEX
  8
Unknown_Area_Type
  10
434717.000
  20
4621343.000
  0
VERTEX
  8
Unknown_Area_Type
  10
434738.000
  20
4621332.500
  0
VERTEX
  8
Unknown_Area_Type
  10
435223.000
  20
4621085.500
  0
VERTEX
  8
Unknown_Area_Type
  10
435120.000
  20
4616825.500
  0
VERTEX
  8
Unknown_Area_Type
  10
434124.500
  20
4616398.500
  0
VERTEX
  8
Unknown_Area_Type
  10
434116.500
  20
4616399.500
  0
VERTEX
  8
Unknown_Area_Type
  10
432193.000
  20
4616857.000
  0
VERTEX
  8
Unknown_Area_Type
  10
432292.000
  20
4621154.500
  0
VERTEX
  8
Unknown_Area_Type
  10
434703.000
  20
4621342.500
  0
VERTEX
  8
Unknown_Area_Type
  10
434709.500
  20
4621343.000
  0
SEQEND
  8
Unknown_Area_Type
  0
INSERT
  8
FeatureAttribs
  2
FEATURE
  41
1
  42
1
  43
1
  50
0
  10
433719.872
  20
4618931.826
 66
1
  0
ATTRIB
  8
FeatureAttribs
 70
0
  1
PNOA-H_AMS_1956-57_33k_ES_PAN_2
  2
NAME
  10
433719.872
  20
4618931.826
 40
33.56975
  0
SEQEND
  0
POLYLINE
  8
Unknown_Area_Type
  70
1
  66
1
  0
VERTEX
  8
Unknown_Area_Type
  10
434709.500
  20
4621343.000
  0
VERTEX
  8
Unknown_Area_Type
  10
434703.000
  20
4621342.500
  0
VERTEX
  8
Unknown_Area_Type
  10
432292.000
  20
4621154.500
  0
VERTEX
  8
Unknown_Area_Type
  10
432193.000
  20
4616857.000
  0
VERTEX
  8
Unknown_Area_Type
  10
434116.500
  20
4616399.500
  0
VERTEX
  8
Unknown_Area_Type
  10
434124.500
  20
4616398.500
  0
VERTEX
  8
Unknown_Area_Type
  10
435120.000
  20
4616825.500
  0
VERTEX
  8
Unknown_Area_Type
  10
435223.000
  20
4621085.500
  0
VERTEX
  8
Unknown_Area_Type
  10
434738.000
  20
4621332.500
  0
VERTEX
  8
Unknown_Area_Type
  10
434717.000
  20
4621343.000
  0
VERTEX
  8
Unknown_Area_Type
  10
434709.500
  20
4621343.000
  0
SEQEND
  8
Unknown_Area_Type
  0
INSERT
  8
FeatureAttribs
  2
FEATURE
  41
1
  42
1
  43
1
  50
0
  10
430765.792
  20
4618959.522
 66
1
  0
ATTRIB
  8
FeatureAttribs
 70
0
  1
PNOA-H_AMS_1956-57_33k_ES_PAN_2
  2
NAME
  10
430765.792
  20
4618959.522
 40
33.56975
  0
SEQEND
  0
POLYLINE
  8
Unknown_Area_Type
  70
1
  66
1
  0
VERTEX
  8
Unknown_Area_Type
  10
429343.500
  20
4621204.000
  0
VERTEX
  8
Unknown_Area_Type
  10
429698.000
  20
4621225.500
  0
VERTEX
  8
Unknown_Area_Type
  10
429706.000
  20
4621226.000
  0
VERTEX
  8
Unknown_Area_Type
  10
431898.000
  20
4621358.500
  0
VERTEX
  8
Unknown_Area_Type
  10
432292.000
  20
4621154.500
  0
VERTEX
  8
Unknown_Area_Type
  10
432193.000
  20
4616856.500
  0
VERTEX
  8
Unknown_Area_Type
  10
431234.000
  20
4616452.000
  0
VERTEX
  8
Unknown_Area_Type
  10
429186.000
  20
4616872.000
  0
VERTEX
  8
Unknown_Area_Type
  10
429343.500
  20
4621204.000
  0
SEQEND
  8
Unknown_Area_Type
  0
INSERT
  8
FeatureAttribs
  2
FEATURE
  41
1
  42
1
  43
1
  50
0
  10
430765.792
  20
4618959.522
 66
1
  0
ATTRIB
  8
FeatureAttribs
 70
0
  1
PNOA-H_AMS_1956-57_33k_ES_PAN_2
  2
NAME
  10
430765.792
  20
4618959.522
 40
33.56975
  0
SEQEND
  0
POLYLINE
  8
Unknown_Area_Type
  70
1
  66
1
  0
VERTEX
  8
Unknown_Area_Type
  10
429343.500
  20
4621204.000
  0
VERTEX
  8
Unknown_Area_Type
  10
429186.000
  20
4616872.000
  0
VERTEX
  8
Unknown_Area_Type
  10
431234.000
  20
4616452.000
  0
VERTEX
  8
Unknown_Area_Type
  10
432193.000
  20
4616856.500
  0
VERTEX
  8
Unknown_Area_Type
  10
432292.000
  20
4621154.500
  0
VERTEX
  8
Unknown_Area_Type
  10
431898.000
  20
4621358.500
  0
VERTEX
  8
Unknown_Area_Type
  10
429706.000
  20
4621226.000
  0
VERTEX
  8
Unknown_Area_Type
  10
429698.000
  20
4621225.500
  0
VERTEX
  8
Unknown_Area_Type
  10
429343.500
  20
4621204.000
  0
SEQEND
  8
Unknown_Area_Type
  0
INSERT
  8
FeatureAttribs
  2
FEATURE
  41
1
  42
1
  43
1
  50
0
  10
442600.252
  20
4618784.880
 66
1
  0
ATTRIB
  8
FeatureAttribs
 70
0
  1
PNOA-H_AMS_1956-57_33k_ES_PAN_2
  2
NAME
  10
442600.252
  20
4618784.880
 40
33.56975
  0
SEQEND
  0
POLYLINE
  8
Unknown_Area_Type
  70
1
  66
1
  0
VERTEX
  8
Unknown_Area_Type
  10
442001.000
  20
4621081.500
  0
VERTEX
  8
Unknown_Area_Type
  10
443447.000
  20
4621249.000
  0
VERTEX
  8
Unknown_Area_Type
  10
444225.500
  20
4620896.000
  0
VERTEX
  8
Unknown_Area_Type
  10
443989.500
  20
4616698.000
  0
VERTEX
  8
Unknown_Area_Type
  10
442758.000
  20
4616194.000
  0
VERTEX
  8
Unknown_Area_Type
  10
440971.500
  20
4616739.000
  0
VERTEX
  8
Unknown_Area_Type
  10
441177.000
  20
4620985.500
  0
VERTEX
  8
Unknown_Area_Type
  10
441996.500
  20
4621081.000
  0
VERTEX
  8
Unknown_Area_Type
  10
442001.000
  20
4621081.500
  0
SEQEND
  8
Unknown_Area_Type
  0
INSERT
  8
FeatureAttribs
  2
FEATURE
  41
1
  42
1
  43
1
  50
0
  10
442600.252
  20
4618784.880
 66
1
  0
ATTRIB
  8
FeatureAttribs
 70
0
  1
PNOA-H_AMS_1956-57_33k_ES_PAN_2
  2
NAME
  10
442600.252
  20
4618784.880
 40
33.56975
  0
SEQEND
  0
POLYLINE
  8
Unknown_Area_Type
  70
1
  66
1
  0
VERTEX
  8
Unknown_Area_Type
  10
442001.000
  20
4621081.500
  0
VERTEX
  8
Unknown_Area_Type
  10
441996.500
  20
4621081.000
  0
VERTEX
  8
Unknown_Area_Type
  10
441177.000
  20
4620985.500
  0
VERTEX
  8
Unknown_Area_Type
  10
440971.500
  20
4616739.000
  0
VERTEX
  8
Unknown_Area_Type
  10
442758.000
  20
4616194.000
  0
VERTEX
  8
Unknown_Area_Type
  10
443989.500
  20
4616698.000
  0
VERTEX
  8
Unknown_Area_Type
  10
444225.500
  20
4620896.000
  0
VERTEX
  8
Unknown_Area_Type
  10
443447.000
  20
4621249.000
  0
VERTEX
  8
Unknown_Area_Type
  10
442001.000
  20
4621081.500
  0
SEQEND
  8
Unknown_Area_Type
  0
INSERT
  8
FeatureAttribs
  2
FEATURE
  41
1
  42
1
  43
1
  50
0
  10
439595.250
  20
4618840.456
 66
1
  0
ATTRIB
  8
FeatureAttribs
 70
0
  1
PNOA-H_AMS_1956-57_33k_ES_PAN_2
  2
NAME
  10
439595.250
  20
4618840.456
 40
33.56975
  0
SEQEND
  0
POLYLINE
  8
Unknown_Area_Type
  70
1
  66
1
  0
VERTEX
  8
Unknown_Area_Type
  10
440566.500
  20
4621275.000
  0
VERTEX
  8
Unknown_Area_Type
  10
440569.500
  20
4621275.000
  0
VERTEX
  8
Unknown_Area_Type
  10
440575.000
  20
4621272.500
  0
VERTEX
  8
Unknown_Area_Type
  10
441177.000
  20
4620985.500
  0
VERTEX
  8
Unknown_Area_Type
  10
440972.000
  20
4616741.500
  0
VERTEX
  8
Unknown_Area_Type
  10
440971.000
  20
4616738.500
  0
VERTEX
  8
Unknown_Area_Type
  10
440966.500
  20
4616736.500
  0
VERTEX
  8
Unknown_Area_Type
  10
439923.500
  20
4616281.000
  0
VERTEX
  8
Unknown_Area_Type
  10
438010.500
  20
4616744.000
  0
VERTEX
  8
Unknown_Area_Type
  10
438180.000
  20
4621060.000
  0
VERTEX
  8
Unknown_Area_Type
  10
438181.000
  20
4621063.500
  0
VERTEX
  8
Unknown_Area_Type
  10
438186.500
  20
4621064.000
  0
VERTEX
  8
Unknown_Area_Type
  10
440561.000
  20
4621274.500
  0
VERTEX
  8
Unknown_Area_Type
  10
440566.500
  20
4621275.000
  0
SEQEND
  8
Unknown_Area_Type
  0
INSERT
  8
FeatureAttribs
  2
FEATURE
  41
1
  42
1
  43
1
  50
0
  10
439595.250
  20
4618840.456
 66
1
  0
ATTRIB
  8
FeatureAttribs
 70
0
  1
PNOA-H_AMS_1956-57_33k_ES_PAN_2
  2
NAME
  10
439595.250
  20
4618840.456
 40
33.56975
  0
SEQEND
  0
POLYLINE
  8
Unknown_Area_Type
  70
1
  66
1
  0
VERTEX
  8
Unknown_Area_Type
  10
440566.500
  20
4621275.000
  0
VERTEX
  8
Unknown_Area_Type
  10
440561.000
  20
4621274.500
  0
VERTEX
  8
Unknown_Area_Type
  10
438186.500
  20
4621064.000
  0
VERTEX
  8
Unknown_Area_Type
  10
438181.000
  20
4621063.500
  0
VERTEX
  8
Unknown_Area_Type
  10
438180.000
  20
4621060.000
  0
VERTEX
  8
Unknown_Area_Type
  10
438010.500
  20
4616744.000
  0
VERTEX
  8
Unknown_Area_Type
  10
439923.500
  20
4616281.000
  0
VERTEX
  8
Unknown_Area_Type
  10
440966.500
  20
4616736.500
  0
VERTEX
  8
Unknown_Area_Type
  10
440971.000
  20
4616738.500
  0
VERTEX
  8
Unknown_Area_Type
  10
440972.000
  20
4616741.500
  0
VERTEX
  8
Unknown_Area_Type
  10
441177.000
  20
4620985.500
  0
VERTEX
  8
Unknown_Area_Type
  10
440575.000
  20
4621272.500
  0
VERTEX
  8
Unknown_Area_Type
  10
440569.500
  20
4621275.000
  0
VERTEX
  8
Unknown_Area_Type
  10
440566.500
  20
4621275.000
  0
SEQEND
  8
Unknown_Area_Type
  0
INSERT
  8
FeatureAttribs
  2
FEATURE
  41
1
  42
1
  43
1
  50
0
  10
445588.129
  20
4618690.750
 66
1
  0
ATTRIB
  8
FeatureAttribs
 70
0
  1
PNOA-H_AMS_1956-57_33k_ES_PAN_2
  2
NAME
  10
445588.129
  20
4618690.750
 40
33.56975
  0
SEQEND
  0
POLYLINE
  8
Unknown_Area_Type
  70
1
  66
1
  0
VERTEX
  8
Unknown_Area_Type
  10
444049.500
  20
4617770.500
  0
VERTEX
  8
Unknown_Area_Type
  10
444226.000
  20
4620896.000
  0
VERTEX
  8
Unknown_Area_Type
  10
446438.500
  20
4621135.000
  0
VERTEX
  8
Unknown_Area_Type
  10
447130.000
  20
4620844.500
  0
VERTEX
  8
Unknown_Area_Type
  10
446985.500
  20
4616680.000
  0
VERTEX
  8
Unknown_Area_Type
  10
445670.500
  20
4616124.000
  0
VERTEX
  8
Unknown_Area_Type
  10
445651.500
  20
4616116.000
  0
VERTEX
  8
Unknown_Area_Type
  10
445649.000
  20
4616116.000
  0
VERTEX
  8
Unknown_Area_Type
  10
443990.000
  20
4616697.500
  0
VERTEX
  8
Unknown_Area_Type
  10
443990.500
  20
4616722.500
  0
VERTEX
  8
Unknown_Area_Type
  10
444049.500
  20
4617762.000
  0
VERTEX
  8
Unknown_Area_Type
  10
444049.500
  20
4617770.500
  0
SEQEND
  8
Unknown_Area_Type
  0
INSERT
  8
FeatureAttribs
  2
FEATURE
  41
1
  42
1
  43
1
  50
0
  10
445588.129
  20
4618690.750
 66
1
  0
ATTRIB
  8
FeatureAttribs
 70
0
  1
PNOA-H_AMS_1956-57_33k_ES_PAN_2
  2
NAME
  10
445588.129
  20
4618690.750
 40
33.56975
  0
SEQEND
  0
POLYLINE
  8
Unknown_Area_Type
  70
1
  66
1
  0
VERTEX
  8
Unknown_Area_Type
  10
444049.500
  20
4617770.500
  0
VERTEX
  8
Unknown_Area_Type
  10
444049.500
  20
4617762.000
  0
VERTEX
  8
Unknown_Area_Type
  10
443990.500
  20
4616722.500
  0
VERTEX
  8
Unknown_Area_Type
  10
443990.000
  20
4616697.500
  0
VERTEX
  8
Unknown_Area_Type
  10
445649.000
  20
4616116.000
  0
VERTEX
  8
Unknown_Area_Type
  10
445651.500
  20
4616116.000
  0
VERTEX
  8
Unknown_Area_Type
  10
445670.500
  20
4616124.000
  0
VERTEX
  8
Unknown_Area_Type
  10
446985.500
  20
4616680.000
  0
VERTEX
  8
Unknown_Area_Type
  10
447130.000
  20
4620844.500
  0
VERTEX
  8
Unknown_Area_Type
  10
446438.500
  20
4621135.000
  0
VERTEX
  8
Unknown_Area_Type
  10
444226.000
  20
4620896.000
  0
VERTEX
  8
Unknown_Area_Type
  10
444049.500
  20
4617770.500
  0
SEQEND
  8
Unknown_Area_Type
  0
INSERT
  8
FeatureAttribs
  2
FEATURE
  41
1
  42
1
  43
1
  50
0
  10
436651.848
  20
4618890.922
 66
1
  0
ATTRIB
  8
FeatureAttribs
 70
0
  1
PNOA-H_AMS_1956-57_33k_ES_PAN_2
  2
NAME
  10
436651.848
  20
4618890.922
 40
33.56975
  0
SEQEND
  0
POLYLINE
  8
Unknown_Area_Type
  70
1
  66
1
  0
VERTEX
  8
Unknown_Area_Type
  10
435853.500
  20
4621146.500
  0
VERTEX
  8
Unknown_Area_Type
  10
437649.500
  20
4621320.500
  0
VERTEX
  8
Unknown_Area_Type
  10
438180.500
  20
4621063.000
  0
VERTEX
  8
Unknown_Area_Type
  10
438010.500
  20
4616744.000
  0
VERTEX
  8
Unknown_Area_Type
  10
437048.500
  20
4616332.500
  0
VERTEX
  8
Unknown_Area_Type
  10
435120.000
  20
4616825.000
  0
VERTEX
  8
Unknown_Area_Type
  10
435223.000
  20
4621085.000
  0
VERTEX
  8
Unknown_Area_Type
  10
435848.500
  20
4621146.000
  0
VERTEX
  8
Unknown_Area_Type
  10
435853.500
  20
4621146.500
  0
SEQEND
  8
Unknown_Area_Type
  0
INSERT
  8
FeatureAttribs
  2
FEATURE
  41
1
  42
1
  43
1
  50
0
  10
436651.848
  20
4618890.922
 66
1
  0
ATTRIB
  8
FeatureAttribs
 70
0
  1
PNOA-H_AMS_1956-57_33k_ES_PAN_2
  2
NAME
  10
436651.848
  20
4618890.922
 40
33.56975
  0
SEQEND
  0
POLYLINE
  8
Unknown_Area_Type
  70
1
  66
1
  0
VERTEX
  8
Unknown_Area_Type
  10
435853.500
  20
4621146.500
  0
VERTEX
  8
Unknown_Area_Type
  10
435848.500
  20
4621146.000
  0
VERTEX
  8
Unknown_Area_Type
  10
435223.000
  20
4621085.000
  0
VERTEX
  8
Unknown_Area_Type
  10
435120.000
  20
4616825.000
  0
VERTEX
  8
Unknown_Area_Type
  10
437048.500
  20
4616332.500
  0
VERTEX
  8
Unknown_Area_Type
  10
438010.500
  20
4616744.000
  0
VERTEX
  8
Unknown_Area_Type
  10
438180.500
  20
4621063.000
  0
VERTEX
  8
Unknown_Area_Type
  10
437649.500
  20
4621320.500
  0
VERTEX
  8
Unknown_Area_Type
  10
435853.500
  20
4621146.500
  0
SEQEND
  8
Unknown_Area_Type
  0
INSERT
  8
FeatureAttribs
  2
FEATURE
  41
1
  42
1
  43
1
  50
0
  10
448524.488
  20
4618680.243
 66
1
  0
ATTRIB
  8
FeatureAttribs
 70
0
  1
PNOA-H_AMS_1956-57_33k_ES_PAN_2
  2
NAME
  10
448524.488
  20
4618680.243
 40
33.56975
  0
SEQEND
  0
POLYLINE
  8
Unknown_Area_Type
  70
1
  66
1
  0
VERTEX
  8
Unknown_Area_Type
  10
447130.000
  20
4620844.500
  0
VERTEX
  8
Unknown_Area_Type
  10
449252.000
  20
4621092.500
  0
VERTEX
  8
Unknown_Area_Type
  10
449256.500
  20
4621093.000
  0
VERTEX
  8
Unknown_Area_Type
  10
450081.000
  20
4620763.500
  0
VERTEX
  8
Unknown_Area_Type
  10
449888.000
  20
4616668.000
  0
VERTEX
  8
Unknown_Area_Type
  10
448521.500
  20
4616111.500
  0
VERTEX
  8
Unknown_Area_Type
  10
446985.500
  20
4616680.000
  0
VERTEX
  8
Unknown_Area_Type
  10
447130.000
  20
4620844.500
  0
SEQEND
  8
Unknown_Area_Type
  0
INSERT
  8
FeatureAttribs
  2
FEATURE
  41
1
  42
1
  43
1
  50
0
  10
448524.488
  20
4618680.243
 66
1
  0
ATTRIB
  8
FeatureAttribs
 70
0
  1
PNOA-H_AMS_1956-57_33k_ES_PAN_2
  2
NAME
  10
448524.488
  20
4618680.243
 40
33.56975
  0
SEQEND
  0
POLYLINE
  8
Unknown_Area_Type
  70
1
  66
1
  0
VERTEX
  8
Unknown_Area_Type
  10
447130.000
  20
4620844.500
  0
VERTEX
  8
Unknown_Area_Type
  10
446985.500
  20
4616680.000
  0
VERTEX
  8
Unknown_Area_Type
  10
448521.500
  20
4616111.500
  0
VERTEX
  8
Unknown_Area_Type
  10
449888.000
  20
4616668.000
  0
VERTEX
  8
Unknown_Area_Type
  10
450081.000
  20
4620763.500
  0
VERTEX
  8
Unknown_Area_Type
  10
449256.500
  20
4621093.000
  0
VERTEX
  8
Unknown_Area_Type
  10
449252.000
  20
4621092.500
  0
VERTEX
  8
Unknown_Area_Type
  10
447130.000
  20
4620844.500
  0
SEQEND
  8
Unknown_Area_Type
  0
INSERT
  8
FeatureAttribs
  2
FEATURE
  41
1
  42
1
  43
1
  50
0
  10
428900.640
  20
4614935.205
 66
1
  0
ATTRIB
  8
FeatureAttribs
 70
0
  1
PNOA-H_AMS_1956-57_33k_ES_PAN_2
  2
NAME
  10
428900.640
  20
4614935.205
 40
33.56975
  0
SEQEND
  0
POLYLINE
  8
Unknown_Area_Type
  70
1
  66
1
  0
VERTEX
  8
Unknown_Area_Type
  10
428927.651
  20
4616750.341
  0
VERTEX
  8
Unknown_Area_Type
  10
428914.587
  20
4615433.069
  0
VERTEX
  8
Unknown_Area_Type
  10
428891.657
  20
4613120.069
  0
VERTEX
  8
Unknown_Area_Type
  10
428891.629
  20
4613120.069
  0
VERTEX
  8
Unknown_Area_Type
  10
428891.629
  20
4616733.312
  0
VERTEX
  8
Unknown_Area_Type
  10
428927.651
  20
4616750.341
  0
SEQEND
  8
Unknown_Area_Type
  0
INSERT
  8
FeatureAttribs
  2
FEATURE
  41
1
  42
1
  43
1
  50
0
  10
428891.643
  20
4613119.366
 66
1
  0
ATTRIB
  8
FeatureAttribs
 70
0
  1
PNOA-H_AMS_1956-57_33k_ES_PAN_2
  2
NAME
  10
428891.643
  20
4613119.366
 40
33.56975
  0
SEQEND
  0
POLYLINE
  8
Unknown_Area_Type
  70
1
  66
1
  0
VERTEX
  8
Unknown_Area_Type
  10
428891.629
  20
4613120.069
  0
VERTEX
  8
Unknown_Area_Type
  10
428891.657
  20
4613120.069
  0
VERTEX
  8
Unknown_Area_Type
  10
428891.629
  20
4613117.257
  0
VERTEX
  8
Unknown_Area_Type
  10
428891.629
  20
4613120.069
  0
SEQEND
  8
Unknown_Area_Type
  0
INSERT
  8
FeatureAttribs
  2
FEATURE
  41
1
  42
1
  43
1
  50
0
  10
430063.545
  20
4614883.900
 66
1
  0
ATTRIB
  8
FeatureAttribs
 70
0
  1
PNOA-H_AMS_1956-57_33k_ES_PAN_2
  2
NAME
  10
430063.545
  20
4614883.900
 40
33.56975
  0
SEQEND
  0
POLYLINE
  8
Unknown_Area_Type
  70
1
  66
1
  0
VERTEX
  8
Unknown_Area_Type
  10
431288.888
  20
4613096.888
  0
VERTEX
  8
Unknown_Area_Type
  10
428891.657
  20
4613120.069
  0
VERTEX
  8
Unknown_Area_Type
  10
428914.587
  20
4615433.069
  0
VERTEX
  8
Unknown_Area_Type
  10
428927.651
  20
4616750.341
  0
VERTEX
  8
Unknown_Area_Type
  10
429185.000
  20
4616872.000
  0
VERTEX
  8
Unknown_Area_Type
  10
429712.000
  20
4616764.000
  0
VERTEX
  8
Unknown_Area_Type
  10
429714.000
  20
4616764.000
  0
VERTEX
  8
Unknown_Area_Type
  10
431233.500
  20
4616452.000
  0
VERTEX
  8
Unknown_Area_Type
  10
431288.888
  20
4613096.888
  0
SEQEND
  8
Unknown_Area_Type
  0
INSERT
  8
FeatureAttribs
  2
FEATURE
  41
1
  42
1
  43
1
  50
0
  10
430063.545
  20
4614883.900
 66
1
  0
ATTRIB
  8
FeatureAttribs
 70
0
  1
PNOA-H_AMS_1956-57_33k_ES_PAN_2
  2
NAME
  10
430063.545
  20
4614883.900
 40
33.56975
  0
SEQEND
  0
POLYLINE
  8
Unknown_Area_Type
  70
1
  66
1
  0
VERTEX
  8
Unknown_Area_Type
  10
431288.888
  20
4613096.888
  0
VERTEX
  8
Unknown_Area_Type
  10
431233.500
  20
4616452.000
  0
VERTEX
  8
Unknown_Area_Type
  10
429714.000
  20
4616764.000
  0
VERTEX
  8
Unknown_Area_Type
  10
429712.000
  20
4616764.000
  0
VERTEX
  8
Unknown_Area_Type
  10
429185.000
  20
4616872.000
  0
VERTEX
  8
Unknown_Area_Type
  10
428927.651
  20
4616750.341
  0
VERTEX
  8
Unknown_Area_Type
  10
428914.587
  20
4615433.069
  0
VERTEX
  8
Unknown_Area_Type
  10
428891.657
  20
4613120.069
  0
VERTEX
  8
Unknown_Area_Type
  10
431288.888
  20
4613096.888
  0
SEQEND
  8
Unknown_Area_Type
  0
INSERT
  8
FeatureAttribs
  2
FEATURE
  41
1
  42
1
  43
1
  50
0
  10
454442.028
  20
4618602.165
 66
1
  0
ATTRIB
  8
FeatureAttribs
 70
0
  1
PNOA-H_AMS_1956-57_33k_ES_PAN_2
  2
NAME
  10
454442.028
  20
4618602.165
 40
33.56975
  0
SEQEND
  0
POLYLINE
  8
Unknown_Area_Type
  70
1
  66
1
  0
VERTEX
  8
Unknown_Area_Type
  10
452927.500
  20
4620692.000
  0
VERTEX
  8
Unknown_Area_Type
  10
454901.000
  20
4621010.000
  0
VERTEX
  8
Unknown_Area_Type
  10
454904.500
  20
4621010.500
  0
VERTEX
  8
Unknown_Area_Type
  10
455944.000
  20
4620661.500
  0
VERTEX
  8
Unknown_Area_Type
  10
455974.000
  20
4616713.500
  0
VERTEX
  8
Unknown_Area_Type
  10
454279.500
  20
4616041.000
  0
VERTEX
  8
Unknown_Area_Type
  10
452926.000
  20
4616695.000
  0
VERTEX
  8
Unknown_Area_Type
  10
452927.500
  20
4620692.000
  0
SEQEND
  8
Unknown_Area_Type
  0
INSERT
  8
FeatureAttribs
  2
FEATURE
  41
1
  42
1
  43
1
  50
0
  10
454442.028
  20
4618602.165
 66
1
  0
ATTRIB
  8
FeatureAttribs
 70
0
  1
PNOA-H_AMS_1956-57_33k_ES_PAN_2
  2
NAME
  10
454442.028
  20
4618602.165
 40
33.56975
  0
SEQEND
  0
POLYLINE
  8
Unknown_Area_Type
  70
1
  66
1
  0
VERTEX
  8
Unknown_Area_Type
  10
452927.500
  20
4620692.000
  0
VERTEX
  8
Unknown_Area_Type
  10
452926.000
  20
4616695.000
  0
VERTEX
  8
Unknown_Area_Type
  10
454279.500
  20
4616041.000
  0
VERTEX
  8
Unknown_Area_Type
  10
455974.000
  20
4616713.500
  0
VERTEX
  8
Unknown_Area_Type
  10
455944.000
  20
4620661.500
  0
VERTEX
  8
Unknown_Area_Type
  10
454904.500
  20
4621010.500
  0
VERTEX
  8
Unknown_Area_Type
  10
454901.000
  20
4621010.000
  0
VERTEX
  8
Unknown_Area_Type
  10
452927.500
  20
4620692.000
  0
SEQEND
  8
Unknown_Area_Type
  0
INSERT
  8
FeatureAttribs
  2
FEATURE
  41
1
  42
1
  43
1
  50
0
  10
451452.819
  20
4618591.324
 66
1
  0
ATTRIB
  8
FeatureAttribs
 70
0
  1
PNOA-H_AMS_1956-57_33k_ES_PAN_2
  2
NAME
  10
451452.819
  20
4618591.324
 40
33.56975
  0
SEQEND
  0
POLYLINE
  8
Unknown_Area_Type
  70
1
  66
1
  0
VERTEX
  8
Unknown_Area_Type
  10
450080.500
  20
4620763.000
  0
VERTEX
  8
Unknown_Area_Type
  10
450189.500
  20
4620777.000
  0
VERTEX
  8
Unknown_Area_Type
  10
450193.500
  20
4620777.500
  0
VERTEX
  8
Unknown_Area_Type
  10
452093.500
  20
4621009.000
  0
VERTEX
  8
Unknown_Area_Type
  10
452927.500
  20
4620692.000
  0
VERTEX
  8
Unknown_Area_Type
  10
452926.000
  20
4616695.000
  0
VERTEX
  8
Unknown_Area_Type
  10
451363.000
  20
4616050.000
  0
VERTEX
  8
Unknown_Area_Type
  10
449888.000
  20
4616668.000
  0
VERTEX
  8
Unknown_Area_Type
  10
450080.500
  20
4620763.000
  0
SEQEND
  8
Unknown_Area_Type
  0
INSERT
  8
FeatureAttribs
  2
FEATURE
  41
1
  42
1
  43
1
  50
0
  10
451452.819
  20
4618591.324
 66
1
  0
ATTRIB
  8
FeatureAttribs
 70
0
  1
PNOA-H_AMS_1956-57_33k_ES_PAN_2
  2
NAME
  10
451452.819
  20
4618591.324
 40
33.56975
  0
SEQEND
  0
POLYLINE
  8
Unknown_Area_Type
  70
1
  66
1
  0
VERTEX
  8
Unknown_Area_Type
  10
450080.500
  20
4620763.000
  0
VERTEX
  8
Unknown_Area_Type
  10
449888.000
  20
4616668.000
  0
VERTEX
  8
Unknown_Area_Type
  10
451363.000
  20
4616050.000
  0
VERTEX
  8
Unknown_Area_Type
  10
452926.000
  20
4616695.000
  0
VERTEX
  8
Unknown_Area_Type
  10
452927.500
  20
4620692.000
  0
VERTEX
  8
Unknown_Area_Type
  10
452093.500
  20
4621009.000
  0
VERTEX
  8
Unknown_Area_Type
  10
450193.500
  20
4620777.500
  0
VERTEX
  8
Unknown_Area_Type
  10
450189.500
  20
4620777.000
  0
VERTEX
  8
Unknown_Area_Type
  10
450080.500
  20
4620763.000
  0
SEQEND
  8
Unknown_Area_Type
  0
INSERT
  8
FeatureAttribs
  2
FEATURE
  41
1
  42
1
  43
1
  50
0
  10
456324.606
  20
4618666.467
 66
1
  0
ATTRIB
  8
FeatureAttribs
 70
0
  1
PNOA-H_AMS_1956-57_33k_ES_PAN_2
  2
NAME
  10
456324.606
  20
4618666.467
 40
33.56975
  0
SEQEND
  0
POLYLINE
  8
Unknown_Area_Type
  70
1
  66
1
  0
VERTEX
  8
Unknown_Area_Type
  10
456689.254
  20
4620815.920
  0
VERTEX
  8
Unknown_Area_Type
  10
456683.333
  20
4619837.669
  0
VERTEX
  8
Unknown_Area_Type
  10
456669.341
  20
4617524.670
  0
VERTEX
  8
Unknown_Area_Type
  10
456662.345
  20
4616367.738
  0
VERTEX
  8
Unknown_Area_Type
  10
455974.000
  20
4616713.000
  0
VERTEX
  8
Unknown_Area_Type
  10
455944.000
  20
4620661.500
  0
VERTEX
  8
Unknown_Area_Type
  10
456334.500
  20
4620742.500
  0
VERTEX
  8
Unknown_Area_Type
  10
456337.000
  20
4620743.000
  0
VERTEX
  8
Unknown_Area_Type
  10
456689.254
  20
4620815.920
  0
SEQEND
  8
Unknown_Area_Type
  0
INSERT
  8
FeatureAttribs
  2
FEATURE
  41
1
  42
1
  43
1
  50
0
  10
456324.606
  20
4618666.467
 66
1
  0
ATTRIB
  8
FeatureAttribs
 70
0
  1
PNOA-H_AMS_1956-57_33k_ES_PAN_2
  2
NAME
  10
456324.606
  20
4618666.467
 40
33.56975
  0
SEQEND
  0
POLYLINE
  8
Unknown_Area_Type
  70
1
  66
1
  0
VERTEX
  8
Unknown_Area_Type
  10
456689.254
  20
4620815.920
  0
VERTEX
  8
Unknown_Area_Type
  10
456337.000
  20
4620743.000
  0
VERTEX
  8
Unknown_Area_Type
  10
456334.500
  20
4620742.500
  0
VERTEX
  8
Unknown_Area_Type
  10
455944.000
  20
4620661.500
  0
VERTEX
  8
Unknown_Area_Type
  10
455974.000
  20
4616713.000
  0
VERTEX
  8
Unknown_Area_Type
  10
456662.345
  20
4616367.738
  0
VERTEX
  8
Unknown_Area_Type
  10
456669.341
  20
4617524.670
  0
VERTEX
  8
Unknown_Area_Type
  10
456683.333
  20
4619837.669
  0
VERTEX
  8
Unknown_Area_Type
  10
456689.254
  20
4620815.920
  0
SEQEND
  8
Unknown_Area_Type
  0
INSERT
  8
FeatureAttribs
  2
FEATURE
  41
1
  42
1
  43
1
  50
0
  10
444855.498
  20
4627222.440
 66
1
  0
ATTRIB
  8
FeatureAttribs
 70
0
  1
PNOA-H_AMS_1956-57_33k_ES_PAN_2
  2
NAME
  10
444855.498
  20
4627222.440
 40
33.56975
  0
SEQEND
  0
POLYLINE
  8
Unknown_Area_Type
  70
1
  66
1
  0
VERTEX
  8
Unknown_Area_Type
  10
445107.000
  20
4630012.000
  0
VERTEX
  8
Unknown_Area_Type
  10
445111.000
  20
4630012.000
  0
VERTEX
  8
Unknown_Area_Type
  10
445112.000
  20
4630009.500
  0
VERTEX
  8
Unknown_Area_Type
  10
446058.500
  20
4625712.500
  0
VERTEX
  8
Unknown_Area_Type
  10
446059.000
  20
4625709.500
  0
VERTEX
  8
Unknown_Area_Type
  10
446057.500
  20
4625709.000
  0
VERTEX
  8
Unknown_Area_Type
  10
443515.500
  20
4625617.500
  0
VERTEX
  8
Unknown_Area_Type
  10
443506.500
  20
4625618.000
  0
VERTEX
  8
Unknown_Area_Type
  10
443490.000
  20
4625630.500
  0
VERTEX
  8
Unknown_Area_Type
  10
444892.500
  20
4629992.500
  0
VERTEX
  8
Unknown_Area_Type
  10
445101.500
  20
4630011.500
  0
VERTEX
  8
Unknown_Area_Type
  10
445107.000
  20
4630012.000
  0
SEQEND
  8
Unknown_Area_Type
  0
INSERT
  8
FeatureAttribs
  2
FEATURE
  41
1
  42
1
  43
1
  50
0
  10
444855.498
  20
4627222.440
 66
1
  0
ATTRIB
  8
FeatureAttribs
 70
0
  1
PNOA-H_AMS_1956-57_33k_ES_PAN_2
  2
NAME
  10
444855.498
  20
4627222.440
 40
33.56975
  0
SEQEND
  0
POLYLINE
  8
Unknown_Area_Type
  70
1
  66
1
  0
VERTEX
  8
Unknown_Area_Type
  10
445107.000
  20
4630012.000
  0
VERTEX
  8
Unknown_Area_Type
  10
445101.500
  20
4630011.500
  0
VERTEX
  8
Unknown_Area_Type
  10
444892.500
  20
4629992.500
  0
VERTEX
  8
Unknown_Area_Type
  10
443490.000
  20
4625630.500
  0
VERTEX
  8
Unknown_Area_Type
  10
443506.500
  20
4625618.000
  0
VERTEX
  8
Unknown_Area_Type
  10
443515.500
  20
4625617.500
  0
VERTEX
  8
Unknown_Area_Type
  10
446057.500
  20
4625709.000
  0
VERTEX
  8
Unknown_Area_Type
  10
446059.000
  20
4625709.500
  0
VERTEX
  8
Unknown_Area_Type
  10
446058.500
  20
4625712.500
  0
VERTEX
  8
Unknown_Area_Type
  10
445112.000
  20
4630009.500
  0
VERTEX
  8
Unknown_Area_Type
  10
445111.000
  20
4630012.000
  0
VERTEX
  8
Unknown_Area_Type
  10
445107.000
  20
4630012.000
  0
SEQEND
  8
Unknown_Area_Type
  0
INSERT
  8
FeatureAttribs
  2
FEATURE
  41
1
  42
1
  43
1
  50
0
  10
430696.536
  20
4628061.251
 66
1
  0
ATTRIB
  8
FeatureAttribs
 70
0
  1
PNOA-H_AMS_1956-57_33k_ES_PAN_2
  2
NAME
  10
430696.536
  20
4628061.251
 40
33.56975
  0
SEQEND
  0
POLYLINE
  8
Unknown_Area_Type
  70
1
  66
1
  0
VERTEX
  8
Unknown_Area_Type
  10
430035.500
  20
4630228.000
  0
VERTEX
  8
Unknown_Area_Type
  10
431030.000
  20
4630529.000
  0
VERTEX
  8
Unknown_Area_Type
  10
431243.500
  20
4630434.000
  0
VERTEX
  8
Unknown_Area_Type
  10
431426.000
  20
4627721.500
  0
VERTEX
  8
Unknown_Area_Type
  10
431426.000
  20
4627720.000
  0
VERTEX
  8
Unknown_Area_Type
  10
431548.500
  20
4625898.000
  0
VERTEX
  8
Unknown_Area_Type
  10
429911.000
  20
4625999.000
  0
VERTEX
  8
Unknown_Area_Type
  10
430035.500
  20
4630228.000
  0
SEQEND
  8
Unknown_Area_Type
  0
INSERT
  8
FeatureAttribs
  2
FEATURE
  41
1
  42
1
  43
1
  50
0
  10
430696.536
  20
4628061.251
 66
1
  0
ATTRIB
  8
FeatureAttribs
 70
0
  1
PNOA-H_AMS_1956-57_33k_ES_PAN_2
  2
NAME
  10
430696.536
  20
4628061.251
 40
33.56975
  0
SEQEND
  0
POLYLINE
  8
Unknown_Area_Type
  70
1
  66
1
  0
VERTEX
  8
Unknown_Area_Type
  10
430035.500
  20
4630228.000
  0
VERTEX
  8
Unknown_Area_Type
  10
429911.000
  20
4625999.000
  0
VERTEX
  8
Unknown_Area_Type
  10
431548.500
  20
4625898.000
  0
VERTEX
  8
Unknown_Area_Type
  10
431426.000
  20
4627720.000
  0
VERTEX
  8
Unknown_Area_Type
  10
431426.000
  20
4627721.500
  0
VERTEX
  8
Unknown_Area_Type
  10
431243.500
  20
4630434.000
  0
VERTEX
  8
Unknown_Area_Type
  10
431030.000
  20
4630529.000
  0
VERTEX
  8
Unknown_Area_Type
  10
430035.500
  20
4630228.000
  0
SEQEND
  8
Unknown_Area_Type
  0
INSERT
  8
FeatureAttribs
  2
FEATURE
  41
1
  42
1
  43
1
  50
0
  10
447751.528
  20
4627267.625
 66
1
  0
ATTRIB
  8
FeatureAttribs
 70
0
  1
PNOA-H_AMS_1956-57_33k_ES_PAN_2
  2
NAME
  10
447751.528
  20
4627267.625
 40
33.56975
  0
SEQEND
  0
POLYLINE
  8
Unknown_Area_Type
  70
1
  66
1
  0
VERTEX
  8
Unknown_Area_Type
  10
448876.500
  20
4625672.000
  0
VERTEX
  8
Unknown_Area_Type
  10
448877.500
  20
4625667.000
  0
VERTEX
  8
Unknown_Area_Type
  10
448859.500
  20
4625666.500
  0
VERTEX
  8
Unknown_Area_Type
  10
446485.000
  20
4625621.000
  0
VERTEX
  8
Unknown_Area_Type
  10
447676.000
  20
4629916.500
  0
VERTEX
  8
Unknown_Area_Type
  10
448045.500
  20
4629958.500
  0
VERTEX
  8
Unknown_Area_Type
  10
448049.000
  20
4629958.500
  0
VERTEX
  8
Unknown_Area_Type
  10
448050.500
  20
4629951.500
  0
VERTEX
  8
Unknown_Area_Type
  10
448876.500
  20
4625673.500
  0
VERTEX
  8
Unknown_Area_Type
  10
448876.500
  20
4625672.000
  0
SEQEND
  8
Unknown_Area_Type
  0
INSERT
  8
FeatureAttribs
  2
FEATURE
  41
1
  42
1
  43
1
  50
0
  10
447751.528
  20
4627267.625
 66
1
  0
ATTRIB
  8
FeatureAttribs
 70
0
  1
PNOA-H_AMS_1956-57_33k_ES_PAN_2
  2
NAME
  10
447751.528
  20
4627267.625
 40
33.56975
  0
SEQEND
  0
POLYLINE
  8
Unknown_Area_Type
  70
1
  66
1
  0
VERTEX
  8
Unknown_Area_Type
  10
448876.500
  20
4625672.000
  0
VERTEX
  8
Unknown_Area_Type
  10
448876.500
  20
4625673.500
  0
VERTEX
  8
Unknown_Area_Type
  10
448050.500
  20
4629951.500
  0
VERTEX
  8
Unknown_Area_Type
  10
448049.000
  20
4629958.500
  0
VERTEX
  8
Unknown_Area_Type
  10
448045.500
  20
4629958.500
  0
VERTEX
  8
Unknown_Area_Type
  10
447676.000
  20
4629916.500
  0
VERTEX
  8
Unknown_Area_Type
  10
446485.000
  20
4625621.000
  0
VERTEX
  8
Unknown_Area_Type
  10
448859.500
  20
4625666.500
  0
VERTEX
  8
Unknown_Area_Type
  10
448877.500
  20
4625667.000
  0
VERTEX
  8
Unknown_Area_Type
  10
448876.500
  20
4625672.000
  0
SEQEND
  8
Unknown_Area_Type
  0
INSERT
  8
FeatureAttribs
  2
FEATURE
  41
1
  42
1
  43
1
  50
0
  10
439200.009
  20
4627417.913
 66
1
  0
ATTRIB
  8
FeatureAttribs
 70
0
  1
PNOA-H_AMS_1956-57_33k_ES_PAN_2
  2
NAME
  10
439200.009
  20
4627417.913
 40
33.56975
  0
SEQEND
  0
POLYLINE
  8
Unknown_Area_Type
  70
1
  66
1
  0
VERTEX
  8
Unknown_Area_Type
  10
439954.000
  20
4627928.000
  0
VERTEX
  8
Unknown_Area_Type
  10
440342.500
  20
4625716.000
  0
VERTEX
  8
Unknown_Area_Type
  10
437874.000
  20
4625766.000
  0
VERTEX
  8
Unknown_Area_Type
  10
439104.500
  20
4630055.500
  0
VERTEX
  8
Unknown_Area_Type
  10
439570.500
  20
4630117.000
  0
VERTEX
  8
Unknown_Area_Type
  10
439954.000
  20
4627931.000
  0
VERTEX
  8
Unknown_Area_Type
  10
439954.000
  20
4627928.000
  0
SEQEND
  8
Unknown_Area_Type
  0
INSERT
  8
FeatureAttribs
  2
FEATURE
  41
1
  42
1
  43
1
  50
0
  10
439200.009
  20
4627417.913
 66
1
  0
ATTRIB
  8
FeatureAttribs
 70
0
  1
PNOA-H_AMS_1956-57_33k_ES_PAN_2
  2
NAME
  10
439200.009
  20
4627417.913
 40
33.56975
  0
SEQEND
  0
POLYLINE
  8
Unknown_Area_Type
  70
1
  66
1
  0
VERTEX
  8
Unknown_Area_Type
  10
439954.000
  20
4627928.000
  0
VERTEX
  8
Unknown_Area_Type
  10
439954.000
  20
4627931.000
  0
VERTEX
  8
Unknown_Area_Type
  10
439570.500
  20
4630117.000
  0
VERTEX
  8
Unknown_Area_Type
  10
439104.500
  20
4630055.500
  0
VERTEX
  8
Unknown_Area_Type
  10
437874.000
  20
4625766.000
  0
VERTEX
  8
Unknown_Area_Type
  10
440342.500
  20
4625716.000
  0
VERTEX
  8
Unknown_Area_Type
  10
439954.000
  20
4627928.000
  0
SEQEND
  8
Unknown_Area_Type
  0
INSERT
  8
FeatureAttribs
  2
FEATURE
  41
1
  42
1
  43
1
  50
0
  10
436240.554
  20
4627511.761
 66
1
  0
ATTRIB
  8
FeatureAttribs
 70
0
  1
PNOA-H_AMS_1956-57_33k_ES_PAN_2
  2
NAME
  10
436240.554
  20
4627511.761
 40
33.56975
  0
SEQEND
  0
POLYLINE
  8
Unknown_Area_Type
  70
1
  66
1
  0
VERTEX
  8
Unknown_Area_Type
  10
436702.000
  20
4630182.500
  0
VERTEX
  8
Unknown_Area_Type
  10
437329.000
  20
4625789.000
  0
VERTEX
  8
Unknown_Area_Type
  10
434904.000
  20
4625789.000
  0
VERTEX
  8
Unknown_Area_Type
  10
436140.000
  20
4630105.000
  0
VERTEX
  8
Unknown_Area_Type
  10
436143.500
  20
4630106.500
  0
VERTEX
  8
Unknown_Area_Type
  10
436698.500
  20
4630182.000
  0
VERTEX
  8
Unknown_Area_Type
  10
436702.000
  20
4630182.500
  0
SEQEND
  8
Unknown_Area_Type
  0
INSERT
  8
FeatureAttribs
  2
FEATURE
  41
1
  42
1
  43
1
  50
0
  10
436240.554
  20
4627511.761
 66
1
  0
ATTRIB
  8
FeatureAttribs
 70
0
  1
PNOA-H_AMS_1956-57_33k_ES_PAN_2
  2
NAME
  10
436240.554
  20
4627511.761
 40
33.56975
  0
SEQEND
  0
POLYLINE
  8
Unknown_Area_Type
  70
1
  66
1
  0
VERTEX
  8
Unknown_Area_Type
  10
436702.000
  20
4630182.500
  0
VERTEX
  8
Unknown_Area_Type
  10
436698.500
  20
4630182.000
  0
VERTEX
  8
Unknown_Area_Type
  10
436143.500
  20
4630106.500
  0
VERTEX
  8
Unknown_Area_Type
  10
436140.000
  20
4630105.000
  0
VERTEX
  8
Unknown_Area_Type
  10
434904.000
  20
4625789.000
  0
VERTEX
  8
Unknown_Area_Type
  10
437329.000
  20
4625789.000
  0
VERTEX
  8
Unknown_Area_Type
  10
436702.000
  20
4630182.500
  0
SEQEND
  8
Unknown_Area_Type
  0
INSERT
  8
FeatureAttribs
  2
FEATURE
  41
1
  42
1
  43
1
  50
0
  10
428943.532
  20
4623580.769
 66
1
  0
ATTRIB
  8
FeatureAttribs
 70
0
  1
PNOA-H_AMS_1956-57_33k_ES_PAN_2
  2
NAME
  10
428943.532
  20
4623580.769
 40
33.56975
  0
SEQEND
  0
POLYLINE
  8
Unknown_Area_Type
  70
1
  66
1
  0
VERTEX
  8
Unknown_Area_Type
  10
428973.176
  20
4621338.711
  0
VERTEX
  8
Unknown_Area_Type
  10
428891.629
  20
4621338.248
  0
VERTEX
  8
Unknown_Area_Type
  10
428891.629
  20
4625823.291
  0
VERTEX
  8
Unknown_Area_Type
  10
429017.303
  20
4625782.561
  0
VERTEX
  8
Unknown_Area_Type
  10
429006.401
  20
4624685.155
  0
VERTEX
  8
Unknown_Area_Type
  10
428983.433
  20
4622372.122
  0
VERTEX
  8
Unknown_Area_Type
  10
428973.176
  20
4621338.711
  0
SEQEND
  8
Unknown_Area_Type
  0
INSERT
  8
FeatureAttribs
  2
FEATURE
  41
1
  42
1
  43
1
  50
0
  10
429047.480
  20
4623324.324
 66
1
  0
ATTRIB
  8
FeatureAttribs
 70
0
  1
PNOA-H_AMS_1956-57_33k_ES_PAN_2
  2
NAME
  10
429047.480
  20
4623324.324
 40
33.56975
  0
SEQEND
  0
POLYLINE
  8
Unknown_Area_Type
  70
1
  66
1
  0
VERTEX
  8
Unknown_Area_Type
  10
429017.303
  20
4625782.561
  0
VERTEX
  8
Unknown_Area_Type
  10
429090.000
  20
4625759.000
  0
VERTEX
  8
Unknown_Area_Type
  10
429112.000
  20
4621339.500
  0
VERTEX
  8
Unknown_Area_Type
  10
428973.176
  20
4621338.711
  0
VERTEX
  8
Unknown_Area_Type
  10
428983.433
  20
4622372.122
  0
VERTEX
  8
Unknown_Area_Type
  10
429006.401
  20
4624685.155
  0
VERTEX
  8
Unknown_Area_Type
  10
429017.303
  20
4625782.561
  0
SEQEND
  8
Unknown_Area_Type
  0
INSERT
  8
FeatureAttribs
  2
FEATURE
  41
1
  42
1
  43
1
  50
0
  10
429047.480
  20
4623324.324
 66
1
  0
ATTRIB
  8
FeatureAttribs
 70
0
  1
PNOA-H_AMS_1956-57_33k_ES_PAN_2
  2
NAME
  10
429047.480
  20
4623324.324
 40
33.56975
  0
SEQEND
  0
POLYLINE
  8
Unknown_Area_Type
  70
1
  66
1
  0
VERTEX
  8
Unknown_Area_Type
  10
429017.303
  20
4625782.561
  0
VERTEX
  8
Unknown_Area_Type
  10
429006.401
  20
4624685.155
  0
VERTEX
  8
Unknown_Area_Type
  10
428983.433
  20
4622372.122
  0
VERTEX
  8
Unknown_Area_Type
  10
428973.176
  20
4621338.711
  0
VERTEX
  8
Unknown_Area_Type
  10
429112.000
  20
4621339.500
  0
VERTEX
  8
Unknown_Area_Type
  10
429090.000
  20
4625759.000
  0
VERTEX
  8
Unknown_Area_Type
  10
429017.303
  20
4625782.561
  0
SEQEND
  8
Unknown_Area_Type
  0
INSERT
  8
FeatureAttribs
  2
FEATURE
  41
1
  42
1
  43
1
  50
0
  10
442109.351
  20
4627321.852
 66
1
  0
ATTRIB
  8
FeatureAttribs
 70
0
  1
PNOA-H_AMS_1956-57_33k_ES_PAN_2
  2
NAME
  10
442109.351
  20
4627321.852
 40
33.56975
  0
SEQEND
  0
POLYLINE
  8
Unknown_Area_Type
  70
1
  66
1
  0
VERTEX
  8
Unknown_Area_Type
  10
442299.000
  20
4630072.500
  0
VERTEX
  8
Unknown_Area_Type
  10
442301.500
  20
4630072.500
  0
VERTEX
  8
Unknown_Area_Type
  10
442303.000
  20
4630066.500
  0
VERTEX
  8
Unknown_Area_Type
  10
443309.500
  20
4625697.000
  0
VERTEX
  8
Unknown_Area_Type
  10
440847.000
  20
4625760.500
  0
VERTEX
  8
Unknown_Area_Type
  10
442013.000
  20
4630038.000
  0
VERTEX
  8
Unknown_Area_Type
  10
442295.000
  20
4630072.000
  0
VERTEX
  8
Unknown_Area_Type
  10
442299.000
  20
4630072.500
  0
SEQEND
  8
Unknown_Area_Type
  0
INSERT
  8
FeatureAttribs
  2
FEATURE
  41
1
  42
1
  43
1
  50
0
  10
442109.351
  20
4627321.852
 66
1
  0
ATTRIB
  8
FeatureAttribs
 70
0
  1
PNOA-H_AMS_1956-57_33k_ES_PAN_2
  2
NAME
  10
442109.351
  20
4627321.852
 40
33.56975
  0
SEQEND
  0
POLYLINE
  8
Unknown_Area_Type
  70
1
  66
1
  0
VERTEX
  8
Unknown_Area_Type
  10
442299.000
  20
4630072.500
  0
VERTEX
  8
Unknown_Area_Type
  10
442295.000
  20
4630072.000
  0
VERTEX
  8
Unknown_Area_Type
  10
442013.000
  20
4630038.000
  0
VERTEX
  8
Unknown_Area_Type
  10
440847.000
  20
4625760.500
  0
VERTEX
  8
Unknown_Area_Type
  10
443309.500
  20
4625697.000
  0
VERTEX
  8
Unknown_Area_Type
  10
442303.000
  20
4630066.500
  0
VERTEX
  8
Unknown_Area_Type
  10
442301.500
  20
4630072.500
  0
VERTEX
  8
Unknown_Area_Type
  10
442299.000
  20
4630072.500
  0
SEQEND
  8
Unknown_Area_Type
  0
INSERT
  8
FeatureAttribs
  2
FEATURE
  41
1
  42
1
  43
1
  50
0
  10
433401.745
  20
4627763.228
 66
1
  0
ATTRIB
  8
FeatureAttribs
 70
0
  1
PNOA-H_AMS_1956-57_33k_ES_PAN_2
  2
NAME
  10
433401.745
  20
4627763.228
 40
33.56975
  0
SEQEND
  0
POLYLINE
  8
Unknown_Area_Type
  70
1
  66
1
  0
VERTEX
  8
Unknown_Area_Type
  10
433887.000
  20
4630328.000
  0
VERTEX
  8
Unknown_Area_Type
  10
433889.000
  20
4630328.000
  0
VERTEX
  8
Unknown_Area_Type
  10
433891.000
  20
4630311.500
  0
VERTEX
  8
Unknown_Area_Type
  10
434416.500
  20
4625870.000
  0
VERTEX
  8
Unknown_Area_Type
  10
432292.500
  20
4625892.000
  0
VERTEX
  8
Unknown_Area_Type
  10
433008.000
  20
4630171.000
  0
VERTEX
  8
Unknown_Area_Type
  10
433884.500
  20
4630327.500
  0
VERTEX
  8
Unknown_Area_Type
  10
433887.000
  20
4630328.000
  0
SEQEND
  8
Unknown_Area_Type
  0
INSERT
  8
FeatureAttribs
  2
FEATURE
  41
1
  42
1
  43
1
  50
0
  10
433401.745
  20
4627763.228
 66
1
  0
ATTRIB
  8
FeatureAttribs
 70
0
  1
PNOA-H_AMS_1956-57_33k_ES_PAN_2
  2
NAME
  10
433401.745
  20
4627763.228
 40
33.56975
  0
SEQEND
  0
POLYLINE
  8
Unknown_Area_Type
  70
1
  66
1
  0
VERTEX
  8
Unknown_Area_Type
  10
433887.000
  20
4630328.000
  0
VERTEX
  8
Unknown_Area_Type
  10
433884.500
  20
4630327.500
  0
VERTEX
  8
Unknown_Area_Type
  10
433008.000
  20
4630171.000
  0
VERTEX
  8
Unknown_Area_Type
  10
432292.500
  20
4625892.000
  0
VERTEX
  8
Unknown_Area_Type
  10
434416.500
  20
4625870.000
  0
VERTEX
  8
Unknown_Area_Type
  10
433891.000
  20
4630311.500
  0
VERTEX
  8
Unknown_Area_Type
  10
433889.000
  20
4630328.000
  0
VERTEX
  8
Unknown_Area_Type
  10
433887.000
  20
4630328.000
  0
SEQEND
  8
Unknown_Area_Type
  0
INSERT
  8
FeatureAttribs
  2
FEATURE
  41
1
  42
1
  43
1
  50
0
  10
450692.068
  20
4623314.405
 66
1
  0
ATTRIB
  8
FeatureAttribs
 70
0
  1
PNOA-H_AMS_1956-57_33k_ES_PAN_2
  2
NAME
  10
450692.068
  20
4623314.405
 40
33.56975
  0
SEQEND
  0
POLYLINE
  8
Unknown_Area_Type
  70
1
  66
1
  0
VERTEX
  8
Unknown_Area_Type
  10
449307.000
  20
4625527.000
  0
VERTEX
  8
Unknown_Area_Type
  10
450192.000
  20
4625855.500
  0
VERTEX
  8
Unknown_Area_Type
  10
450193.500
  20
4625856.000
  0
VERTEX
  8
Unknown_Area_Type
  10
450514.000
  20
4625975.000
  0
VERTEX
  8
Unknown_Area_Type
  10
450520.000
  20
4625976.000
  0
VERTEX
  8
Unknown_Area_Type
  10
452151.000
  20
4625432.500
  0
VERTEX
  8
Unknown_Area_Type
  10
452092.500
  20
4621009.000
  0
VERTEX
  8
Unknown_Area_Type
  10
450080.000
  20
4620763.500
  0
VERTEX
  8
Unknown_Area_Type
  10
449257.000
  20
4621092.500
  0
VERTEX
  8
Unknown_Area_Type
  10
449307.000
  20
4625527.000
  0
SEQEND
  8
Unknown_Area_Type
  0
INSERT
  8
FeatureAttribs
  2
FEATURE
  41
1
  42
1
  43
1
  50
0
  10
450692.068
  20
4623314.405
 66
1
  0
ATTRIB
  8
FeatureAttribs
 70
0
  1
PNOA-H_AMS_1956-57_33k_ES_PAN_2
  2
NAME
  10
450692.068
  20
4623314.405
 40
33.56975
  0
SEQEND
  0
POLYLINE
  8
Unknown_Area_Type
  70
1
  66
1
  0
VERTEX
  8
Unknown_Area_Type
  10
449307.000
  20
4625527.000
  0
VERTEX
  8
Unknown_Area_Type
  10
449257.000
  20
4621092.500
  0
VERTEX
  8
Unknown_Area_Type
  10
450080.000
  20
4620763.500
  0
VERTEX
  8
Unknown_Area_Type
  10
452092.500
  20
4621009.000
  0
VERTEX
  8
Unknown_Area_Type
  10
452151.000
  20
4625432.500
  0
VERTEX
  8
Unknown_Area_Type
  10
450520.000
  20
4625976.000
  0
VERTEX
  8
Unknown_Area_Type
  10
450514.000
  20
4625975.000
  0
VERTEX
  8
Unknown_Area_Type
  10
450193.500
  20
4625856.000
  0
VERTEX
  8
Unknown_Area_Type
  10
450192.000
  20
4625855.500
  0
VERTEX
  8
Unknown_Area_Type
  10
449307.000
  20
4625527.000
  0
SEQEND
  8
Unknown_Area_Type
  0
INSERT
  8
FeatureAttribs
  2
FEATURE
  41
1
  42
1
  43
1
  50
0
  10
455834.820
  20
4623182.499
 66
1
  0
ATTRIB
  8
FeatureAttribs
 70
0
  1
PNOA-H_AMS_1956-57_33k_ES_PAN_2
  2
NAME
  10
455834.820
  20
4623182.499
 40
33.56975
  0
SEQEND
  0
POLYLINE
  8
Unknown_Area_Type
  70
1
  66
1
  0
VERTEX
  8
Unknown_Area_Type
  10
456717.994
  20
4625563.021
  0
VERTEX
  8
Unknown_Area_Type
  10
456711.336
  20
4624463.691
  0
VERTEX
  8
Unknown_Area_Type
  10
456697.332
  20
4622150.676
  0
VERTEX
  8
Unknown_Area_Type
  10
456689.251
  20
4620815.408
  0
VERTEX
  8
Unknown_Area_Type
  10
455945.500
  20
4620661.500
  0
VERTEX
  8
Unknown_Area_Type
  10
455933.500
  20
4620664.500
  0
VERTEX
  8
Unknown_Area_Type
  10
454905.500
  20
4621010.500
  0
VERTEX
  8
Unknown_Area_Type
  10
454953.000
  20
4625308.500
  0
VERTEX
  8
Unknown_Area_Type
  10
456158.000
  20
4625768.000
  0
VERTEX
  8
Unknown_Area_Type
  10
456159.500
  20
4625768.500
  0
VERTEX
  8
Unknown_Area_Type
  10
456717.994
  20
4625563.021
  0
SEQEND
  8
Unknown_Area_Type
  0
INSERT
  8
FeatureAttribs
  2
FEATURE
  41
1
  42
1
  43
1
  50
0
  10
455834.820
  20
4623182.499
 66
1
  0
ATTRIB
  8
FeatureAttribs
 70
0
  1
PNOA-H_AMS_1956-57_33k_ES_PAN_2
  2
NAME
  10
455834.820
  20
4623182.499
 40
33.56975
  0
SEQEND
  0
POLYLINE
  8
Unknown_Area_Type
  70
1
  66
1
  0
VERTEX
  8
Unknown_Area_Type
  10
456717.994
  20
4625563.021
  0
VERTEX
  8
Unknown_Area_Type
  10
456159.500
  20
4625768.500
  0
VERTEX
  8
Unknown_Area_Type
  10
456158.000
  20
4625768.000
  0
VERTEX
  8
Unknown_Area_Type
  10
454953.000
  20
4625308.500
  0
VERTEX
  8
Unknown_Area_Type
  10
454905.500
  20
4621010.500
  0
VERTEX
  8
Unknown_Area_Type
  10
455933.500
  20
4620664.500
  0
VERTEX
  8
Unknown_Area_Type
  10
455945.500
  20
4620661.500
  0
VERTEX
  8
Unknown_Area_Type
  10
456689.251
  20
4620815.408
  0
VERTEX
  8
Unknown_Area_Type
  10
456697.332
  20
4622150.676
  0
VERTEX
  8
Unknown_Area_Type
  10
456711.336
  20
4624463.691
  0
VERTEX
  8
Unknown_Area_Type
  10
456717.994
  20
4625563.021
  0
SEQEND
  8
Unknown_Area_Type
  0
INSERT
  8
FeatureAttribs
  2
FEATURE
  41
1
  42
1
  43
1
  50
0
  10
447847.947
  20
4623315.583
 66
1
  0
ATTRIB
  8
FeatureAttribs
 70
0
  1
PNOA-H_AMS_1956-57_33k_ES_PAN_2
  2
NAME
  10
447847.947
  20
4623315.583
 40
33.56975
  0
SEQEND
  0
POLYLINE
  8
Unknown_Area_Type
  70
1
  66
1
  0
VERTEX
  8
Unknown_Area_Type
  10
446484.000
  20
4625621.000
  0
VERTEX
  8
Unknown_Area_Type
  10
446494.000
  20
4625621.500
  0
VERTEX
  8
Unknown_Area_Type
  10
448833.500
  20
4625666.500
  0
VERTEX
  8
Unknown_Area_Type
  10
448859.500
  20
4625667.000
  0
VERTEX
  8
Unknown_Area_Type
  10
448878.500
  20
4625667.000
  0
VERTEX
  8
Unknown_Area_Type
  10
449307.000
  20
4625527.000
  0
VERTEX
  8
Unknown_Area_Type
  10
449257.000
  20
4621093.000
  0
VERTEX
  8
Unknown_Area_Type
  10
447132.000
  20
4620844.500
  0
VERTEX
  8
Unknown_Area_Type
  10
447127.000
  20
4620845.500
  0
VERTEX
  8
Unknown_Area_Type
  10
446437.500
  20
4621135.000
  0
VERTEX
  8
Unknown_Area_Type
  10
446410.000
  20
4625594.500
  0
VERTEX
  8
Unknown_Area_Type
  10
446484.000
  20
4625621.000
  0
SEQEND
  8
Unknown_Area_Type
  0
INSERT
  8
FeatureAttribs
  2
FEATURE
  41
1
  42
1
  43
1
  50
0
  10
447847.947
  20
4623315.583
 66
1
  0
ATTRIB
  8
FeatureAttribs
 70
0
  1
PNOA-H_AMS_1956-57_33k_ES_PAN_2
  2
NAME
  10
447847.947
  20
4623315.583
 40
33.56975
  0
SEQEND
  0
POLYLINE
  8
Unknown_Area_Type
  70
1
  66
1
  0
VERTEX
  8
Unknown_Area_Type
  10
446484.000
  20
4625621.000
  0
VERTEX
  8
Unknown_Area_Type
  10
446410.000
  20
4625594.500
  0
VERTEX
  8
Unknown_Area_Type
  10
446437.500
  20
4621135.000
  0
VERTEX
  8
Unknown_Area_Type
  10
447127.000
  20
4620845.500
  0
VERTEX
  8
Unknown_Area_Type
  10
447132.000
  20
4620844.500
  0
VERTEX
  8
Unknown_Area_Type
  10
449257.000
  20
4621093.000
  0
VERTEX
  8
Unknown_Area_Type
  10
449307.000
  20
4625527.000
  0
VERTEX
  8
Unknown_Area_Type
  10
448878.500
  20
4625667.000
  0
VERTEX
  8
Unknown_Area_Type
  10
448859.500
  20
4625667.000
  0
VERTEX
  8
Unknown_Area_Type
  10
448833.500
  20
4625666.500
  0
VERTEX
  8
Unknown_Area_Type
  10
446494.000
  20
4625621.500
  0
VERTEX
  8
Unknown_Area_Type
  10
446484.000
  20
4625621.000
  0
SEQEND
  8
Unknown_Area_Type
  0
INSERT
  8
FeatureAttribs
  2
FEATURE
  41
1
  42
1
  43
1
  50
0
  10
436169.091
  20
4623480.890
 66
1
  0
ATTRIB
  8
FeatureAttribs
 70
0
  1
PNOA-H_AMS_1956-57_33k_ES_PAN_2
  2
NAME
  10
436169.091
  20
4623480.890
 40
33.56975
  0
SEQEND
  0
POLYLINE
  8
Unknown_Area_Type
  70
1
  66
1
  0
VERTEX
  8
Unknown_Area_Type
  10
434752.000
  20
4625748.500
  0
VERTEX
  8
Unknown_Area_Type
  10
434901.000
  20
4625788.500
  0
VERTEX
  8
Unknown_Area_Type
  10
434903.000
  20
4625789.000
  0
VERTEX
  8
Unknown_Area_Type
  10
437330.000
  20
4625789.000
  0
VERTEX
  8
Unknown_Area_Type
  10
437594.500
  20
4625689.000
  0
VERTEX
  8
Unknown_Area_Type
  10
437649.000
  20
4621357.500
  0
VERTEX
  8
Unknown_Area_Type
  10
437648.500
  20
4621320.000
  0
VERTEX
  8
Unknown_Area_Type
  10
435223.000
  20
4621085.000
  0
VERTEX
  8
Unknown_Area_Type
  10
434716.000
  20
4621343.000
  0
VERTEX
  8
Unknown_Area_Type
  10
434752.000
  20
4625748.500
  0
SEQEND
  8
Unknown_Area_Type
  0
INSERT
  8
FeatureAttribs
  2
FEATURE
  41
1
  42
1
  43
1
  50
0
  10
436169.091
  20
4623480.890
 66
1
  0
ATTRIB
  8
FeatureAttribs
 70
0
  1
PNOA-H_AMS_1956-57_33k_ES_PAN_2
  2
NAME
  10
436169.091
  20
4623480.890
 40
33.56975
  0
SEQEND
  0
POLYLINE
  8
Unknown_Area_Type
  70
1
  66
1
  0
VERTEX
  8
Unknown_Area_Type
  10
434752.000
  20
4625748.500
  0
VERTEX
  8
Unknown_Area_Type
  10
434716.000
  20
4621343.000
  0
VERTEX
  8
Unknown_Area_Type
  10
435223.000
  20
4621085.000
  0
VERTEX
  8
Unknown_Area_Type
  10
437648.500
  20
4621320.000
  0
VERTEX
  8
Unknown_Area_Type
  10
437649.000
  20
4621357.500
  0
VERTEX
  8
Unknown_Area_Type
  10
437594.500
  20
4625689.000
  0
VERTEX
  8
Unknown_Area_Type
  10
437330.000
  20
4625789.000
  0
VERTEX
  8
Unknown_Area_Type
  10
434903.000
  20
4625789.000
  0
VERTEX
  8
Unknown_Area_Type
  10
434901.000
  20
4625788.500
  0
VERTEX
  8
Unknown_Area_Type
  10
434752.000
  20
4625748.500
  0
SEQEND
  8
Unknown_Area_Type
  0
INSERT
  8
FeatureAttribs
  2
FEATURE
  41
1
  42
1
  43
1
  50
0
  10
441993.107
  20
4623439.807
 66
1
  0
ATTRIB
  8
FeatureAttribs
 70
0
  1
PNOA-H_AMS_1956-57_33k_ES_PAN_2
  2
NAME
  10
441993.107
  20
4623439.807
 40
33.56975
  0
SEQEND
  0
POLYLINE
  8
Unknown_Area_Type
  70
1
  66
1
  0
VERTEX
  8
Unknown_Area_Type
  10
440845.000
  20
4625760.000
  0
VERTEX
  8
Unknown_Area_Type
  10
440846.500
  20
4625760.500
  0
VERTEX
  8
Unknown_Area_Type
  10
443304.500
  20
4625697.500
  0
VERTEX
  8
Unknown_Area_Type
  10
443310.500
  20
4625697.000
  0
VERTEX
  8
Unknown_Area_Type
  10
443489.000
  20
4625631.500
  0
VERTEX
  8
Unknown_Area_Type
  10
443507.500
  20
4625618.000
  0
VERTEX
  8
Unknown_Area_Type
  10
443446.500
  20
4621249.000
  0
VERTEX
  8
Unknown_Area_Type
  10
441176.500
  20
4620985.500
  0
VERTEX
  8
Unknown_Area_Type
  10
440569.000
  20
4621275.000
  0
VERTEX
  8
Unknown_Area_Type
  10
440488.500
  20
4625659.000
  0
VERTEX
  8
Unknown_Area_Type
  10
440845.000
  20
4625760.000
  0
SEQEND
  8
Unknown_Area_Type
  0
INSERT
  8
FeatureAttribs
  2
FEATURE
  41
1
  42
1
  43
1
  50
0
  10
441993.107
  20
4623439.807
 66
1
  0
ATTRIB
  8
FeatureAttribs
 70
0
  1
PNOA-H_AMS_1956-57_33k_ES_PAN_2
  2
NAME
  10
441993.107
  20
4623439.807
 40
33.56975
  0
SEQEND
  0
POLYLINE
  8
Unknown_Area_Type
  70
1
  66
1
  0
VERTEX
  8
Unknown_Area_Type
  10
440845.000
  20
4625760.000
  0
VERTEX
  8
Unknown_Area_Type
  10
440488.500
  20
4625659.000
  0
VERTEX
  8
Unknown_Area_Type
  10
440569.000
  20
4621275.000
  0
VERTEX
  8
Unknown_Area_Type
  10
441176.500
  20
4620985.500
  0
VERTEX
  8
Unknown_Area_Type
  10
443446.500
  20
4621249.000
  0
VERTEX
  8
Unknown_Area_Type
  10
443507.500
  20
4625618.000
  0
VERTEX
  8
Unknown_Area_Type
  10
443489.000
  20
4625631.500
  0
VERTEX
  8
Unknown_Area_Type
  10
443310.500
  20
4625697.000
  0
VERTEX
  8
Unknown_Area_Type
  10
443304.500
  20
4625697.500
  0
VERTEX
  8
Unknown_Area_Type
  10
440846.500
  20
4625760.500
  0
VERTEX
  8
Unknown_Area_Type
  10
440845.000
  20
4625760.000
  0
SEQEND
  8
Unknown_Area_Type
  0
INSERT
  8
FeatureAttribs
  2
FEATURE
  41
1
  42
1
  43
1
  50
0
  10
433309.422
  20
4623562.330
 66
1
  0
ATTRIB
  8
FeatureAttribs
 70
0
  1
PNOA-H_AMS_1956-57_33k_ES_PAN_2
  2
NAME
  10
433309.422
  20
4623562.330
 40
33.56975
  0
SEQEND
  0
POLYLINE
  8
Unknown_Area_Type
  70
1
  66
1
  0
VERTEX
  8
Unknown_Area_Type
  10
431903.000
  20
4625781.500
  0
VERTEX
  8
Unknown_Area_Type
  10
432290.500
  20
4625891.500
  0
VERTEX
  8
Unknown_Area_Type
  10
432292.500
  20
4625892.000
  0
VERTEX
  8
Unknown_Area_Type
  10
434416.500
  20
4625870.000
  0
VERTEX
  8
Unknown_Area_Type
  10
434752.000
  20
4625748.500
  0
VERTEX
  8
Unknown_Area_Type
  10
434716.000
  20
4621343.000
  0
VERTEX
  8
Unknown_Area_Type
  10
432291.500
  20
4621154.500
  0
VERTEX
  8
Unknown_Area_Type
  10
431898.000
  20
4621358.000
  0
VERTEX
  8
Unknown_Area_Type
  10
431903.000
  20
4625781.500
  0
SEQEND
  8
Unknown_Area_Type
  0
INSERT
  8
FeatureAttribs
  2
FEATURE
  41
1
  42
1
  43
1
  50
0
  10
433309.422
  20
4623562.330
 66
1
  0
ATTRIB
  8
FeatureAttribs
 70
0
  1
PNOA-H_AMS_1956-57_33k_ES_PAN_2
  2
NAME
  10
433309.422
  20
4623562.330
 40
33.56975
  0
SEQEND
  0
POLYLINE
  8
Unknown_Area_Type
  70
1
  66
1
  0
VERTEX
  8
Unknown_Area_Type
  10
431903.000
  20
4625781.500
  0
VERTEX
  8
Unknown_Area_Type
  10
431898.000
  20
4621358.000
  0
VERTEX
  8
Unknown_Area_Type
  10
432291.500
  20
4621154.500
  0
VERTEX
  8
Unknown_Area_Type
  10
434716.000
  20
4621343.000
  0
VERTEX
  8
Unknown_Area_Type
  10
434752.000
  20
4625748.500
  0
VERTEX
  8
Unknown_Area_Type
  10
434416.500
  20
4625870.000
  0
VERTEX
  8
Unknown_Area_Type
  10
432292.500
  20
4625892.000
  0
VERTEX
  8
Unknown_Area_Type
  10
432290.500
  20
4625891.500
  0
VERTEX
  8
Unknown_Area_Type
  10
431903.000
  20
4625781.500
  0
SEQEND
  8
Unknown_Area_Type
  0
INSERT
  8
FeatureAttribs
  2
FEATURE
  41
1
  42
1
  43
1
  50
0
  10
439067.317
  20
4623451.050
 66
1
  0
ATTRIB
  8
FeatureAttribs
 70
0
  1
PNOA-H_AMS_1956-57_33k_ES_PAN_2
  2
NAME
  10
439067.317
  20
4623451.050
 40
33.56975
  0
SEQEND
  0
POLYLINE
  8
Unknown_Area_Type
  70
1
  66
1
  0
VERTEX
  8
Unknown_Area_Type
  10
437873.000
  20
4625766.000
  0
VERTEX
  8
Unknown_Area_Type
  10
439951.500
  20
4625723.500
  0
VERTEX
  8
Unknown_Area_Type
  10
439954.000
  20
4625723.500
  0
VERTEX
  8
Unknown_Area_Type
  10
440342.500
  20
4625716.000
  0
VERTEX
  8
Unknown_Area_Type
  10
440488.500
  20
4625658.500
  0
VERTEX
  8
Unknown_Area_Type
  10
440569.000
  20
4621275.000
  0
VERTEX
  8
Unknown_Area_Type
  10
438181.000
  20
4621063.000
  0
VERTEX
  8
Unknown_Area_Type
  10
437649.000
  20
4621320.500
  0
VERTEX
  8
Unknown_Area_Type
  10
437594.500
  20
4625689.000
  0
VERTEX
  8
Unknown_Area_Type
  10
437873.000
  20
4625766.000
  0
SEQEND
  8
Unknown_Area_Type
  0
INSERT
  8
FeatureAttribs
  2
FEATURE
  41
1
  42
1
  43
1
  50
0
  10
439067.317
  20
4623451.050
 66
1
  0
ATTRIB
  8
FeatureAttribs
 70
0
  1
PNOA-H_AMS_1956-57_33k_ES_PAN_2
  2
NAME
  10
439067.317
  20
4623451.050
 40
33.56975
  0
SEQEND
  0
POLYLINE
  8
Unknown_Area_Type
  70
1
  66
1
  0
VERTEX
  8
Unknown_Area_Type
  10
437873.000
  20
4625766.000
  0
VERTEX
  8
Unknown_Area_Type
  10
437594.500
  20
4625689.000
  0
VERTEX
  8
Unknown_Area_Type
  10
437649.000
  20
4621320.500
  0
VERTEX
  8
Unknown_Area_Type
  10
438181.000
  20
4621063.000
  0
VERTEX
  8
Unknown_Area_Type
  10
440569.000
  20
4621275.000
  0
VERTEX
  8
Unknown_Area_Type
  10
440488.500
  20
4625658.500
  0
VERTEX
  8
Unknown_Area_Type
  10
440342.500
  20
4625716.000
  0
VERTEX
  8
Unknown_Area_Type
  10
439954.000
  20
4625723.500
  0
VERTEX
  8
Unknown_Area_Type
  10
439951.500
  20
4625723.500
  0
VERTEX
  8
Unknown_Area_Type
  10
437873.000
  20
4625766.000
  0
SEQEND
  8
Unknown_Area_Type
  0
INSERT
  8
FeatureAttribs
  2
FEATURE
  41
1
  42
1
  43
1
  50
0
  10
430493.898
  20
4623601.614
 66
1
  0
ATTRIB
  8
FeatureAttribs
 70
0
  1
PNOA-H_AMS_1956-57_33k_ES_PAN_2
  2
NAME
  10
430493.898
  20
4623601.614
 40
33.56975
  0
SEQEND
  0
POLYLINE
  8
Unknown_Area_Type
  70
1
  66
1
  0
VERTEX
  8
Unknown_Area_Type
  10
429910.000
  20
4625999.000
  0
VERTEX
  8
Unknown_Area_Type
  10
431548.500
  20
4625898.000
  0
VERTEX
  8
Unknown_Area_Type
  10
431760.500
  20
4625828.000
  0
VERTEX
  8
Unknown_Area_Type
  10
431762.000
  20
4625827.500
  0
VERTEX
  8
Unknown_Area_Type
  10
431903.000
  20
4625781.500
  0
VERTEX
  8
Unknown_Area_Type
  10
431898.000
  20
4621358.500
  0
VERTEX
  8
Unknown_Area_Type
  10
429343.000
  20
4621204.000
  0
VERTEX
  8
Unknown_Area_Type
  10
429112.000
  20
4621339.500
  0
VERTEX
  8
Unknown_Area_Type
  10
429090.000
  20
4625759.500
  0
VERTEX
  8
Unknown_Area_Type
  10
429910.000
  20
4625999.000
  0
SEQEND
  8
Unknown_Area_Type
  0
INSERT
  8
FeatureAttribs
  2
FEATURE
  41
1
  42
1
  43
1
  50
0
  10
430493.898
  20
4623601.614
 66
1
  0
ATTRIB
  8
FeatureAttribs
 70
0
  1
PNOA-H_AMS_1956-57_33k_ES_PAN_2
  2
NAME
  10
430493.898
  20
4623601.614
 40
33.56975
  0
SEQEND
  0
POLYLINE
  8
Unknown_Area_Type
  70
1
  66
1
  0
VERTEX
  8
Unknown_Area_Type
  10
429910.000
  20
4625999.000
  0
VERTEX
  8
Unknown_Area_Type
  10
429090.000
  20
4625759.500
  0
VERTEX
  8
Unknown_Area_Type
  10
429112.000
  20
4621339.500
  0
VERTEX
  8
Unknown_Area_Type
  10
429343.000
  20
4621204.000
  0
VERTEX
  8
Unknown_Area_Type
  10
431898.000
  20
4621358.500
  0
VERTEX
  8
Unknown_Area_Type
  10
431903.000
  20
4625781.500
  0
VERTEX
  8
Unknown_Area_Type
  10
431762.000
  20
4625827.500
  0
VERTEX
  8
Unknown_Area_Type
  10
431760.500
  20
4625828.000
  0
VERTEX
  8
Unknown_Area_Type
  10
431548.500
  20
4625898.000
  0
VERTEX
  8
Unknown_Area_Type
  10
429910.000
  20
4625999.000
  0
SEQEND
  8
Unknown_Area_Type
  0
INSERT
  8
FeatureAttribs
  2
FEATURE
  41
1
  42
1
  43
1
  50
0
  10
444950.752
  20
4623333.291
 66
1
  0
ATTRIB
  8
FeatureAttribs
 70
0
  1
PNOA-H_AMS_1956-57_33k_ES_PAN_2
  2
NAME
  10
444950.752
  20
4623333.291
 40
33.56975
  0
SEQEND
  0
POLYLINE
  8
Unknown_Area_Type
  70
1
  66
1
  0
VERTEX
  8
Unknown_Area_Type
  10
443507.500
  20
4625617.500
  0
VERTEX
  8
Unknown_Area_Type
  10
446057.500
  20
4625709.500
  0
VERTEX
  8
Unknown_Area_Type
  10
446096.000
  20
4625697.000
  0
VERTEX
  8
Unknown_Area_Type
  10
446098.000
  20
4625696.500
  0
VERTEX
  8
Unknown_Area_Type
  10
446410.000
  20
4625594.500
  0
VERTEX
  8
Unknown_Area_Type
  10
446437.500
  20
4621135.000
  0
VERTEX
  8
Unknown_Area_Type
  10
444225.500
  20
4620895.500
  0
VERTEX
  8
Unknown_Area_Type
  10
443446.500
  20
4621249.000
  0
VERTEX
  8
Unknown_Area_Type
  10
443507.500
  20
4625617.500
  0
SEQEND
  8
Unknown_Area_Type
  0
INSERT
  8
FeatureAttribs
  2
FEATURE
  41
1
  42
1
  43
1
  50
0
  10
444950.752
  20
4623333.291
 66
1
  0
ATTRIB
  8
FeatureAttribs
 70
0
  1
PNOA-H_AMS_1956-57_33k_ES_PAN_2
  2
NAME
  10
444950.752
  20
4623333.291
 40
33.56975
  0
SEQEND
  0
POLYLINE
  8
Unknown_Area_Type
  70
1
  66
1
  0
VERTEX
  8
Unknown_Area_Type
  10
443507.500
  20
4625617.500
  0
VERTEX
  8
Unknown_Area_Type
  10
443446.500
  20
4621249.000
  0
VERTEX
  8
Unknown_Area_Type
  10
444225.500
  20
4620895.500
  0
VERTEX
  8
Unknown_Area_Type
  10
446437.500
  20
4621135.000
  0
VERTEX
  8
Unknown_Area_Type
  10
446410.000
  20
4625594.500
  0
VERTEX
  8
Unknown_Area_Type
  10
446098.000
  20
4625696.500
  0
VERTEX
  8
Unknown_Area_Type
  10
446096.000
  20
4625697.000
  0
VERTEX
  8
Unknown_Area_Type
  10
446057.500
  20
4625709.500
  0
VERTEX
  8
Unknown_Area_Type
  10
443507.500
  20
4625617.500
  0
SEQEND
  8
Unknown_Area_Type
  0
INSERT
  8
FeatureAttribs
  2
FEATURE
  41
1
  42
1
  43
1
  50
0
  10
453509.604
  20
4623234.880
 66
1
  0
ATTRIB
  8
FeatureAttribs
 70
0
  1
PNOA-H_AMS_1956-57_33k_ES_PAN_2
  2
NAME
  10
453509.604
  20
4623234.880
 40
33.56975
  0
SEQEND
  0
POLYLINE
  8
Unknown_Area_Type
  70
1
  66
1
  0
VERTEX
  8
Unknown_Area_Type
  10
452151.000
  20
4625432.000
  0
VERTEX
  8
Unknown_Area_Type
  10
453328.500
  20
4625877.000
  0
VERTEX
  8
Unknown_Area_Type
  10
453335.500
  20
4625875.500
  0
VERTEX
  8
Unknown_Area_Type
  10
454953.000
  20
4625308.500
  0
VERTEX
  8
Unknown_Area_Type
  10
454912.000
  20
4621620.500
  0
VERTEX
  8
Unknown_Area_Type
  10
454912.000
  20
4621576.000
  0
VERTEX
  8
Unknown_Area_Type
  10
454906.000
  20
4621029.500
  0
VERTEX
  8
Unknown_Area_Type
  10
454905.500
  20
4621010.500
  0
VERTEX
  8
Unknown_Area_Type
  10
454904.500
  20
4621010.000
  0
VERTEX
  8
Unknown_Area_Type
  10
452930.000
  20
4620692.000
  0
VERTEX
  8
Unknown_Area_Type
  10
452926.500
  20
4620692.000
  0
VERTEX
  8
Unknown_Area_Type
  10
452915.500
  20
4620696.000
  0
VERTEX
  8
Unknown_Area_Type
  10
452092.500
  20
4621009.000
  0
VERTEX
  8
Unknown_Area_Type
  10
452151.000
  20
4625432.000
  0
SEQEND
  8
Unknown_Area_Type
  0
INSERT
  8
FeatureAttribs
  2
FEATURE
  41
1
  42
1
  43
1
  50
0
  10
453509.604
  20
4623234.880
 66
1
  0
ATTRIB
  8
FeatureAttribs
 70
0
  1
PNOA-H_AMS_1956-57_33k_ES_PAN_2
  2
NAME
  10
453509.604
  20
4623234.880
 40
33.56975
  0
SEQEND
  0
POLYLINE
  8
Unknown_Area_Type
  70
1
  66
1
  0
VERTEX
  8
Unknown_Area_Type
  10
452151.000
  20
4625432.000
  0
VERTEX
  8
Unknown_Area_Type
  10
452092.500
  20
4621009.000
  0
VERTEX
  8
Unknown_Area_Type
  10
452915.500
  20
4620696.000
  0
VERTEX
  8
Unknown_Area_Type
  10
452926.500
  20
4620692.000
  0
VERTEX
  8
Unknown_Area_Type
  10
452930.000
  20
4620692.000
  0
VERTEX
  8
Unknown_Area_Type
  10
454904.500
  20
4621010.000
  0
VERTEX
  8
Unknown_Area_Type
  10
454905.500
  20
4621010.500
  0
VERTEX
  8
Unknown_Area_Type
  10
454906.000
  20
4621029.500
  0
VERTEX
  8
Unknown_Area_Type
  10
454912.000
  20
4621576.000
  0
VERTEX
  8
Unknown_Area_Type
  10
454912.000
  20
4621620.500
  0
VERTEX
  8
Unknown_Area_Type
  10
454953.000
  20
4625308.500
  0
VERTEX
  8
Unknown_Area_Type
  10
453335.500
  20
4625875.500
  0
VERTEX
  8
Unknown_Area_Type
  10
453328.500
  20
4625877.000
  0
VERTEX
  8
Unknown_Area_Type
  10
452151.000
  20
4625432.000
  0
SEQEND
  8
Unknown_Area_Type
  0
INSERT
  8
FeatureAttribs
  2
FEATURE
  41
1
  42
1
  43
1
  50
0
  10
430556.601
  20
4631614.733
 66
1
  0
ATTRIB
  8
FeatureAttribs
 70
0
  1
PNOA-H_AMS_1956-57_33k_ES_PAN_2
  2
NAME
  10
430556.601
  20
4631614.733
 40
33.56975
  0
SEQEND
  0
POLYLINE
  8
Unknown_Area_Type
  70
1
  66
1
  0
VERTEX
  8
Unknown_Area_Type
  10
431051.229
  20
4631624.325
  0
VERTEX
  8
Unknown_Area_Type
  10
431050.872
  20
4631605.141
  0
VERTEX
  8
Unknown_Area_Type
  10
429092.047
  20
4631624.144
  0
VERTEX
  8
Unknown_Area_Type
  10
429091.933
  20
4631624.325
  0
VERTEX
  8
Unknown_Area_Type
  10
431051.229
  20
4631624.325
  0
SEQEND
  8
Unknown_Area_Type
  0
INSERT
  8
FeatureAttribs
  2
FEATURE
  41
1
  42
1
  43
1
  50
0
  10
430229.212
  20
4631041.529
 66
1
  0
ATTRIB
  8
FeatureAttribs
 70
0
  1
PNOA-H_AMS_1956-57_33k_ES_PAN_2
  2
NAME
  10
430229.212
  20
4631041.529
 40
33.56975
  0
SEQEND
  0
POLYLINE
  8
Unknown_Area_Type
  70
1
  66
1
  0
VERTEX
  8
Unknown_Area_Type
  10
431050.872
  20
4631605.141
  0
VERTEX
  8
Unknown_Area_Type
  10
431031.000
  20
4630538.000
  0
VERTEX
  8
Unknown_Area_Type
  10
431030.000
  20
4630528.500
  0
VERTEX
  8
Unknown_Area_Type
  10
430036.000
  20
4630228.000
  0
VERTEX
  8
Unknown_Area_Type
  10
429971.500
  20
4630233.500
  0
VERTEX
  8
Unknown_Area_Type
  10
429969.000
  20
4630234.000
  0
VERTEX
  8
Unknown_Area_Type
  10
429965.500
  20
4630239.000
  0
VERTEX
  8
Unknown_Area_Type
  10
429092.047
  20
4631624.144
  0
VERTEX
  8
Unknown_Area_Type
  10
431050.872
  20
4631605.141
  0
SEQEND
  8
Unknown_Area_Type
  0
INSERT
  8
FeatureAttribs
  2
FEATURE
  41
1
  42
1
  43
1
  50
0
  10
430229.212
  20
4631041.529
 66
1
  0
ATTRIB
  8
FeatureAttribs
 70
0
  1
PNOA-H_AMS_1956-57_33k_ES_PAN_2
  2
NAME
  10
430229.212
  20
4631041.529
 40
33.56975
  0
SEQEND
  0
POLYLINE
  8
Unknown_Area_Type
  70
1
  66
1
  0
VERTEX
  8
Unknown_Area_Type
  10
431050.872
  20
4631605.141
  0
VERTEX
  8
Unknown_Area_Type
  10
429092.047
  20
4631624.144
  0
VERTEX
  8
Unknown_Area_Type
  10
429965.500
  20
4630239.000
  0
VERTEX
  8
Unknown_Area_Type
  10
429969.000
  20
4630234.000
  0
VERTEX
  8
Unknown_Area_Type
  10
429971.500
  20
4630233.500
  0
VERTEX
  8
Unknown_Area_Type
  10
430036.000
  20
4630228.000
  0
VERTEX
  8
Unknown_Area_Type
  10
431030.000
  20
4630528.500
  0
VERTEX
  8
Unknown_Area_Type
  10
431031.000
  20
4630538.000
  0
VERTEX
  8
Unknown_Area_Type
  10
431050.872
  20
4631605.141
  0
SEQEND
  8
Unknown_Area_Type
  0
INSERT
  8
FeatureAttribs
  2
FEATURE
  41
1
  42
1
  43
1
  50
0
  10
435578.057
  20
4631586.871
 66
1
  0
ATTRIB
  8
FeatureAttribs
 70
0
  1
PNOA-H_AMS_1956-57_33k_ES_PAN_2
  2
NAME
  10
435578.057
  20
4631586.871
 40
33.56975
  0
SEQEND
  0
POLYLINE
  8
Unknown_Area_Type
  70
1
  66
1
  0
VERTEX
  8
Unknown_Area_Type
  10
437074.999
  20
4631624.325
  0
VERTEX
  8
Unknown_Area_Type
  10
437075.945
  20
4631549.417
  0
VERTEX
  8
Unknown_Area_Type
  10
435994.888
  20
4631558.856
  0
VERTEX
  8
Unknown_Area_Type
  10
434080.543
  20
4631576.499
  0
VERTEX
  8
Unknown_Area_Type
  10
434081.005
  20
4631624.325
  0
VERTEX
  8
Unknown_Area_Type
  10
437074.999
  20
4631624.325
  0
SEQEND
  8
Unknown_Area_Type
  0
INSERT
  8
FeatureAttribs
  2
FEATURE
  41
1
  42
1
  43
1
  50
0
  10
435614.905
  20
4630901.312
 66
1
  0
ATTRIB
  8
FeatureAttribs
 70
0
  1
PNOA-H_AMS_1956-57_33k_ES_PAN_2
  2
NAME
  10
435614.905
  20
4630901.312
 40
33.56975
  0
SEQEND
  0
POLYLINE
  8
Unknown_Area_Type
  70
1
  66
1
  0
VERTEX
  8
Unknown_Area_Type
  10
437075.945
  20
4631549.417
  0
VERTEX
  8
Unknown_Area_Type
  10
437090.500
  20
4630397.500
  0
VERTEX
  8
Unknown_Area_Type
  10
436702.000
  20
4630182.000
  0
VERTEX
  8
Unknown_Area_Type
  10
436147.500
  20
4630106.500
  0
VERTEX
  8
Unknown_Area_Type
  10
436138.000
  20
4630106.000
  0
VERTEX
  8
Unknown_Area_Type
  10
434069.500
  20
4630434.000
  0
VERTEX
  8
Unknown_Area_Type
  10
434080.543
  20
4631576.499
  0
VERTEX
  8
Unknown_Area_Type
  10
435994.888
  20
4631558.856
  0
VERTEX
  8
Unknown_Area_Type
  10
437075.945
  20
4631549.417
  0
SEQEND
  8
Unknown_Area_Type
  0
INSERT
  8
FeatureAttribs
  2
FEATURE
  41
1
  42
1
  43
1
  50
0
  10
435614.905
  20
4630901.312
 66
1
  0
ATTRIB
  8
FeatureAttribs
 70
0
  1
PNOA-H_AMS_1956-57_33k_ES_PAN_2
  2
NAME
  10
435614.905
  20
4630901.312
 40
33.56975
  0
SEQEND
  0
POLYLINE
  8
Unknown_Area_Type
  70
1
  66
1
  0
VERTEX
  8
Unknown_Area_Type
  10
437075.945
  20
4631549.417
  0
VERTEX
  8
Unknown_Area_Type
  10
435994.888
  20
4631558.856
  0
VERTEX
  8
Unknown_Area_Type
  10
434080.543
  20
4631576.499
  0
VERTEX
  8
Unknown_Area_Type
  10
434069.500
  20
4630434.000
  0
VERTEX
  8
Unknown_Area_Type
  10
436138.000
  20
4630106.000
  0
VERTEX
  8
Unknown_Area_Type
  10
436147.500
  20
4630106.500
  0
VERTEX
  8
Unknown_Area_Type
  10
436702.000
  20
4630182.000
  0
VERTEX
  8
Unknown_Area_Type
  10
437090.500
  20
4630397.500
  0
VERTEX
  8
Unknown_Area_Type
  10
437075.945
  20
4631549.417
  0
SEQEND
  8
Unknown_Area_Type
  0
INSERT
  8
FeatureAttribs
  2
FEATURE
  41
1
  42
1
  43
1
  50
0
  10
444395.645
  20
4631550.960
 66
1
  0
ATTRIB
  8
FeatureAttribs
 70
0
  1
PNOA-H_AMS_1956-57_33k_ES_PAN_2
  2
NAME
  10
444395.645
  20
4631550.960
 40
33.56975
  0
SEQEND
  0
POLYLINE
  8
Unknown_Area_Type
  70
1
  66
1
  0
VERTEX
  8
Unknown_Area_Type
  10
445820.941
  20
4631624.325
  0
VERTEX
  8
Unknown_Area_Type
  10
445816.817
  20
4631477.594
  0
VERTEX
  8
Unknown_Area_Type
  10
442972.305
  20
4631499.670
  0
VERTEX
  8
Unknown_Area_Type
  10
442972.563
  20
4631624.325
  0
VERTEX
  8
Unknown_Area_Type
  10
445820.941
  20
4631624.325
  0
SEQEND
  8
Unknown_Area_Type
  0
INSERT
  8
FeatureAttribs
  2
FEATURE
  41
1
  42
1
  43
1
  50
0
  10
444422.541
  20
4630824.685
 66
1
  0
ATTRIB
  8
FeatureAttribs
 70
0
  1
PNOA-H_AMS_1956-57_33k_ES_PAN_2
  2
NAME
  10
444422.541
  20
4630824.685
 40
33.56975
  0
SEQEND
  0
POLYLINE
  8
Unknown_Area_Type
  70
1
  66
1
  0
VERTEX
  8
Unknown_Area_Type
  10
445816.817
  20
4631477.594
  0
VERTEX
  8
Unknown_Area_Type
  10
445784.000
  20
4630310.000
  0
VERTEX
  8
Unknown_Area_Type
  10
445111.500
  20
4630012.000
  0
VERTEX
  8
Unknown_Area_Type
  10
444894.500
  20
4629992.500
  0
VERTEX
  8
Unknown_Area_Type
  10
442970.000
  20
4630385.500
  0
VERTEX
  8
Unknown_Area_Type
  10
442972.305
  20
4631499.670
  0
VERTEX
  8
Unknown_Area_Type
  10
445816.817
  20
4631477.594
  0
SEQEND
  8
Unknown_Area_Type
  0
INSERT
  8
FeatureAttribs
  2
FEATURE
  41
1
  42
1
  43
1
  50
0
  10
444422.541
  20
4630824.685
 66
1
  0
ATTRIB
  8
FeatureAttribs
 70
0
  1
PNOA-H_AMS_1956-57_33k_ES_PAN_2
  2
NAME
  10
444422.541
  20
4630824.685
 40
33.56975
  0
SEQEND
  0
POLYLINE
  8
Unknown_Area_Type
  70
1
  66
1
  0
VERTEX
  8
Unknown_Area_Type
  10
445816.817
  20
4631477.594
  0
VERTEX
  8
Unknown_Area_Type
  10
442972.305
  20
4631499.670
  0
VERTEX
  8
Unknown_Area_Type
  10
442970.000
  20
4630385.500
  0
VERTEX
  8
Unknown_Area_Type
  10
444894.500
  20
4629992.500
  0
VERTEX
  8
Unknown_Area_Type
  10
445111.500
  20
4630012.000
  0
VERTEX
  8
Unknown_Area_Type
  10
445784.000
  20
4630310.000
  0
VERTEX
  8
Unknown_Area_Type
  10
445816.817
  20
4631477.594
  0
SEQEND
  8
Unknown_Area_Type
  0
INSERT
  8
FeatureAttribs
  2
FEATURE
  41
1
  42
1
  43
1
  50
0
  10
441513.582
  20
4631561.998
 66
1
  0
ATTRIB
  8
FeatureAttribs
 70
0
  1
PNOA-H_AMS_1956-57_33k_ES_PAN_2
  2
NAME
  10
441513.582
  20
4631561.998
 40
33.56975
  0
SEQEND
  0
POLYLINE
  8
Unknown_Area_Type
  70
1
  66
1
  0
VERTEX
  8
Unknown_Area_Type
  10
442972.563
  20
4631624.325
  0
VERTEX
  8
Unknown_Area_Type
  10
442972.305
  20
4631499.670
  0
VERTEX
  8
Unknown_Area_Type
  10
442914.399
  20
4631500.120
  0
VERTEX
  8
Unknown_Area_Type
  10
440055.470
  20
4631523.694
  0
VERTEX
  8
Unknown_Area_Type
  10
440053.528
  20
4631624.325
  0
VERTEX
  8
Unknown_Area_Type
  10
442972.563
  20
4631624.325
  0
SEQEND
  8
Unknown_Area_Type
  0
INSERT
  8
FeatureAttribs
  2
FEATURE
  41
1
  42
1
  43
1
  50
0
  10
441543.885
  20
4630852.228
 66
1
  0
ATTRIB
  8
FeatureAttribs
 70
0
  1
PNOA-H_AMS_1956-57_33k_ES_PAN_2
  2
NAME
  10
441543.885
  20
4630852.228
 40
33.56975
  0
SEQEND
  0
POLYLINE
  8
Unknown_Area_Type
  70
1
  66
1
  0
VERTEX
  8
Unknown_Area_Type
  10
442972.305
  20
4631499.670
  0
VERTEX
  8
Unknown_Area_Type
  10
442970.000
  20
4630385.500
  0
VERTEX
  8
Unknown_Area_Type
  10
442302.000
  20
4630072.500
  0
VERTEX
  8
Unknown_Area_Type
  10
442014.000
  20
4630038.000
  0
VERTEX
  8
Unknown_Area_Type
  10
440077.500
  20
4630382.000
  0
VERTEX
  8
Unknown_Area_Type
  10
440055.470
  20
4631523.694
  0
VERTEX
  8
Unknown_Area_Type
  10
442914.399
  20
4631500.120
  0
VERTEX
  8
Unknown_Area_Type
  10
442972.305
  20
4631499.670
  0
SEQEND
  8
Unknown_Area_Type
  0
INSERT
  8
FeatureAttribs
  2
FEATURE
  41
1
  42
1
  43
1
  50
0
  10
441543.885
  20
4630852.228
 66
1
  0
ATTRIB
  8
FeatureAttribs
 70
0
  1
PNOA-H_AMS_1956-57_33k_ES_PAN_2
  2
NAME
  10
441543.885
  20
4630852.228
 40
33.56975
  0
SEQEND
  0
POLYLINE
  8
Unknown_Area_Type
  70
1
  66
1
  0
VERTEX
  8
Unknown_Area_Type
  10
442972.305
  20
4631499.670
  0
VERTEX
  8
Unknown_Area_Type
  10
442914.399
  20
4631500.120
  0
VERTEX
  8
Unknown_Area_Type
  10
440055.470
  20
4631523.694
  0
VERTEX
  8
Unknown_Area_Type
  10
440077.500
  20
4630382.000
  0
VERTEX
  8
Unknown_Area_Type
  10
442014.000
  20
4630038.000
  0
VERTEX
  8
Unknown_Area_Type
  10
442302.000
  20
4630072.500
  0
VERTEX
  8
Unknown_Area_Type
  10
442970.000
  20
4630385.500
  0
VERTEX
  8
Unknown_Area_Type
  10
442972.305
  20
4631499.670
  0
SEQEND
  8
Unknown_Area_Type
  0
INSERT
  8
FeatureAttribs
  2
FEATURE
  41
1
  42
1
  43
1
  50
0
  10
438565.111
  20
4631574.009
 66
1
  0
ATTRIB
  8
FeatureAttribs
 70
0
  1
PNOA-H_AMS_1956-57_33k_ES_PAN_2
  2
NAME
  10
438565.111
  20
4631574.009
 40
33.56975
  0
SEQEND
  0
POLYLINE
  8
Unknown_Area_Type
  70
1
  66
1
  0
VERTEX
  8
Unknown_Area_Type
  10
440053.618
  20
4631624.325
  0
VERTEX
  8
Unknown_Area_Type
  10
440055.553
  20
4631523.694
  0
VERTEX
  8
Unknown_Area_Type
  10
439454.645
  20
4631528.649
  0
VERTEX
  8
Unknown_Area_Type
  10
437075.947
  20
4631549.417
  0
VERTEX
  8
Unknown_Area_Type
  10
437075.001
  20
4631624.325
  0
VERTEX
  8
Unknown_Area_Type
  10
440053.618
  20
4631624.325
  0
SEQEND
  8
Unknown_Area_Type
  0
INSERT
  8
FeatureAttribs
  2
FEATURE
  41
1
  42
1
  43
1
  50
0
  10
438607.532
  20
4630868.168
 66
1
  0
ATTRIB
  8
FeatureAttribs
 70
0
  1
PNOA-H_AMS_1956-57_33k_ES_PAN_2
  2
NAME
  10
438607.532
  20
4630868.168
 40
33.56975
  0
SEQEND
  0
POLYLINE
  8
Unknown_Area_Type
  70
1
  66
1
  0
VERTEX
  8
Unknown_Area_Type
  10
440055.553
  20
4631523.694
  0
VERTEX
  8
Unknown_Area_Type
  10
440077.500
  20
4630382.000
  0
VERTEX
  8
Unknown_Area_Type
  10
439576.000
  20
4630119.500
  0
VERTEX
  8
Unknown_Area_Type
  10
439569.500
  20
4630116.500
  0
VERTEX
  8
Unknown_Area_Type
  10
439102.500
  20
4630055.500
  0
VERTEX
  8
Unknown_Area_Type
  10
437090.500
  20
4630397.500
  0
VERTEX
  8
Unknown_Area_Type
  10
437075.947
  20
4631549.417
  0
VERTEX
  8
Unknown_Area_Type
  10
439454.645
  20
4631528.649
  0
VERTEX
  8
Unknown_Area_Type
  10
440055.553
  20
4631523.694
  0
SEQEND
  8
Unknown_Area_Type
  0
INSERT
  8
FeatureAttribs
  2
FEATURE
  41
1
  42
1
  43
1
  50
0
  10
438607.532
  20
4630868.168
 66
1
  0
ATTRIB
  8
FeatureAttribs
 70
0
  1
PNOA-H_AMS_1956-57_33k_ES_PAN_2
  2
NAME
  10
438607.532
  20
4630868.168
 40
33.56975
  0
SEQEND
  0
POLYLINE
  8
Unknown_Area_Type
  70
1
  66
1
  0
VERTEX
  8
Unknown_Area_Type
  10
440055.553
  20
4631523.694
  0
VERTEX
  8
Unknown_Area_Type
  10
439454.645
  20
4631528.649
  0
VERTEX
  8
Unknown_Area_Type
  10
437075.947
  20
4631549.417
  0
VERTEX
  8
Unknown_Area_Type
  10
437090.500
  20
4630397.500
  0
VERTEX
  8
Unknown_Area_Type
  10
439102.500
  20
4630055.500
  0
VERTEX
  8
Unknown_Area_Type
  10
439569.500
  20
4630116.500
  0
VERTEX
  8
Unknown_Area_Type
  10
439576.000
  20
4630119.500
  0
VERTEX
  8
Unknown_Area_Type
  10
440077.500
  20
4630382.000
  0
VERTEX
  8
Unknown_Area_Type
  10
440055.553
  20
4631523.694
  0
SEQEND
  8
Unknown_Area_Type
  0
INSERT
  8
FeatureAttribs
  2
FEATURE
  41
1
  42
1
  43
1
  50
0
  10
432809.815
  20
4631600.410
 66
1
  0
ATTRIB
  8
FeatureAttribs
 70
0
  1
PNOA-H_AMS_1956-57_33k_ES_PAN_2
  2
NAME
  10
432809.815
  20
4631600.410
 40
33.56975
  0
SEQEND
  0
POLYLINE
  8
Unknown_Area_Type
  70
1
  66
1
  0
VERTEX
  8
Unknown_Area_Type
  10
434081.347
  20
4631624.325
  0
VERTEX
  8
Unknown_Area_Type
  10
434080.890
  20
4631576.496
  0
VERTEX
  8
Unknown_Area_Type
  10
432535.127
  20
4631590.742
  0
VERTEX
  8
Unknown_Area_Type
  10
431050.634
  20
4631605.143
  0
VERTEX
  8
Unknown_Area_Type
  10
431050.993
  20
4631624.325
  0
VERTEX
  8
Unknown_Area_Type
  10
434081.347
  20
4631624.325
  0
SEQEND
  8
Unknown_Area_Type
  0
INSERT
  8
FeatureAttribs
  2
FEATURE
  41
1
  42
1
  43
1
  50
0
  10
432585.375
  20
4630944.201
 66
1
  0
ATTRIB
  8
FeatureAttribs
 70
0
  1
PNOA-H_AMS_1956-57_33k_ES_PAN_2
  2
NAME
  10
432585.375
  20
4630944.201
 40
33.56975
  0
SEQEND
  0
POLYLINE
  8
Unknown_Area_Type
  70
1
  66
1
  0
VERTEX
  8
Unknown_Area_Type
  10
434080.890
  20
4631576.496
  0
VERTEX
  8
Unknown_Area_Type
  10
434070.000
  20
4630436.500
  0
VERTEX
  8
Unknown_Area_Type
  10
434069.500
  20
4630433.500
  0
VERTEX
  8
Unknown_Area_Type
  10
434068.000
  20
4630432.500
  0
VERTEX
  8
Unknown_Area_Type
  10
433887.000
  20
4630327.500
  0
VERTEX
  8
Unknown_Area_Type
  10
433008.000
  20
4630171.000
  0
VERTEX
  8
Unknown_Area_Type
  10
431244.500
  20
4630433.500
  0
VERTEX
  8
Unknown_Area_Type
  10
431030.500
  20
4630529.000
  0
VERTEX
  8
Unknown_Area_Type
  10
431050.634
  20
4631605.143
  0
VERTEX
  8
Unknown_Area_Type
  10
432535.127
  20
4631590.742
  0
VERTEX
  8
Unknown_Area_Type
  10
434080.890
  20
4631576.496
  0
SEQEND
  8
Unknown_Area_Type
  0
INSERT
  8
FeatureAttribs
  2
FEATURE
  41
1
  42
1
  43
1
  50
0
  10
432585.375
  20
4630944.201
 66
1
  0
ATTRIB
  8
FeatureAttribs
 70
0
  1
PNOA-H_AMS_1956-57_33k_ES_PAN_2
  2
NAME
  10
432585.375
  20
4630944.201
 40
33.56975
  0
SEQEND
  0
POLYLINE
  8
Unknown_Area_Type
  70
1
  66
1
  0
VERTEX
  8
Unknown_Area_Type
  10
434080.890
  20
4631576.496
  0
VERTEX
  8
Unknown_Area_Type
  10
432535.127
  20
4631590.742
  0
VERTEX
  8
Unknown_Area_Type
  10
431050.634
  20
4631605.143
  0
VERTEX
  8
Unknown_Area_Type
  10
431030.500
  20
4630529.000
  0
VERTEX
  8
Unknown_Area_Type
  10
431244.500
  20
4630433.500
  0
VERTEX
  8
Unknown_Area_Type
  10
433008.000
  20
4630171.000
  0
VERTEX
  8
Unknown_Area_Type
  10
433887.000
  20
4630327.500
  0
VERTEX
  8
Unknown_Area_Type
  10
434068.000
  20
4630432.500
  0
VERTEX
  8
Unknown_Area_Type
  10
434069.500
  20
4630433.500
  0
VERTEX
  8
Unknown_Area_Type
  10
434070.000
  20
4630436.500
  0
VERTEX
  8
Unknown_Area_Type
  10
434080.890
  20
4631576.496
  0
SEQEND
  8
Unknown_Area_Type
  0
INSERT
  8
FeatureAttribs
  2
FEATURE
  41
1
  42
1
  43
1
  50
0
  10
455660.913
  20
4631513.556
 66
1
  0
ATTRIB
  8
FeatureAttribs
 70
0
  1
PNOA-H_AMS_1956-57_33k_ES_PAN_2
  2
NAME
  10
455660.913
  20
4631513.556
 40
33.56975
  0
SEQEND
  0
POLYLINE
  8
Unknown_Area_Type
  70
1
  66
1
  0
VERTEX
  8
Unknown_Area_Type
  10
454569.413
  20
4631624.325
  0
VERTEX
  8
Unknown_Area_Type
  10
456753.410
  20
4631624.325
  0
VERTEX
  8
Unknown_Area_Type
  10
456753.410
  20
4631407.381
  0
VERTEX
  8
Unknown_Area_Type
  10
456753.382
  20
4631402.787
  0
VERTEX
  8
Unknown_Area_Type
  10
454567.543
  20
4631416.570
  0
VERTEX
  8
Unknown_Area_Type
  10
454569.413
  20
4631624.325
  0
SEQEND
  8
Unknown_Area_Type
  0
INSERT
  8
FeatureAttribs
  2
FEATURE
  41
1
  42
1
  43
1
  50
0
  10
455704.486
  20
4630547.513
 66
1
  0
ATTRIB
  8
FeatureAttribs
 70
0
  1
PNOA-H_AMS_1956-57_33k_ES_PAN_2
  2
NAME
  10
455704.486
  20
4630547.513
 40
33.56975
  0
SEQEND
  0
POLYLINE
  8
Unknown_Area_Type
  70
1
  66
1
  0
VERTEX
  8
Unknown_Area_Type
  10
456742.449
  20
4629599.132
  0
VERTEX
  8
Unknown_Area_Type
  10
456408.500
  20
4629485.000
  0
VERTEX
  8
Unknown_Area_Type
  10
454554.500
  20
4629967.500
  0
VERTEX
  8
Unknown_Area_Type
  10
454567.543
  20
4631416.570
  0
VERTEX
  8
Unknown_Area_Type
  10
456753.382
  20
4631402.787
  0
VERTEX
  8
Unknown_Area_Type
  10
456742.449
  20
4629599.132
  0
SEQEND
  8
Unknown_Area_Type
  0
INSERT
  8
FeatureAttribs
  2
FEATURE
  41
1
  42
1
  43
1
  50
0
  10
455704.486
  20
4630547.513
 66
1
  0
ATTRIB
  8
FeatureAttribs
 70
0
  1
PNOA-H_AMS_1956-57_33k_ES_PAN_2
  2
NAME
  10
455704.486
  20
4630547.513
 40
33.56975
  0
SEQEND
  0
POLYLINE
  8
Unknown_Area_Type
  70
1
  66
1
  0
VERTEX
  8
Unknown_Area_Type
  10
456742.449
  20
4629599.132
  0
VERTEX
  8
Unknown_Area_Type
  10
456753.382
  20
4631402.787
  0
VERTEX
  8
Unknown_Area_Type
  10
454567.543
  20
4631416.570
  0
VERTEX
  8
Unknown_Area_Type
  10
454554.500
  20
4629967.500
  0
VERTEX
  8
Unknown_Area_Type
  10
456408.500
  20
4629485.000
  0
VERTEX
  8
Unknown_Area_Type
  10
456742.449
  20
4629599.132
  0
SEQEND
  8
Unknown_Area_Type
  0
INSERT
  8
FeatureAttribs
  2
FEATURE
  41
1
  42
1
  43
1
  50
0
  10
447246.219
  20
4631540.443
 66
1
  0
ATTRIB
  8
FeatureAttribs
 70
0
  1
PNOA-H_AMS_1956-57_33k_ES_PAN_2
  2
NAME
  10
447246.219
  20
4631540.443
 40
33.56975
  0
SEQEND
  0
POLYLINE
  8
Unknown_Area_Type
  70
1
  66
1
  0
VERTEX
  8
Unknown_Area_Type
  10
448677.128
  20
4631624.325
  0
VERTEX
  8
Unknown_Area_Type
  10
448670.581
  20
4631456.561
  0
VERTEX
  8
Unknown_Area_Type
  10
446374.149
  20
4631473.269
  0
VERTEX
  8
Unknown_Area_Type
  10
445816.817
  20
4631477.594
  0
VERTEX
  8
Unknown_Area_Type
  10
445820.941
  20
4631624.325
  0
VERTEX
  8
Unknown_Area_Type
  10
448677.128
  20
4631624.325
  0
SEQEND
  8
Unknown_Area_Type
  0
INSERT
  8
FeatureAttribs
  2
FEATURE
  41
1
  42
1
  43
1
  50
0
  10
447261.190
  20
4630771.542
 66
1
  0
ATTRIB
  8
FeatureAttribs
 70
0
  1
PNOA-H_AMS_1956-57_33k_ES_PAN_2
  2
NAME
  10
447261.190
  20
4630771.542
 40
33.56975
  0
SEQEND
  0
POLYLINE
  8
Unknown_Area_Type
  70
1
  66
1
  0
VERTEX
  8
Unknown_Area_Type
  10
448670.581
  20
4631456.561
  0
VERTEX
  8
Unknown_Area_Type
  10
448622.500
  20
4630224.500
  0
VERTEX
  8
Unknown_Area_Type
  10
448621.000
  20
4630208.000
  0
VERTEX
  8
Unknown_Area_Type
  10
448049.000
  20
4629958.500
  0
VERTEX
  8
Unknown_Area_Type
  10
447681.000
  20
4629917.000
  0
VERTEX
  8
Unknown_Area_Type
  10
447674.000
  20
4629917.000
  0
VERTEX
  8
Unknown_Area_Type
  10
445784.000
  20
4630310.000
  0
VERTEX
  8
Unknown_Area_Type
  10
445816.817
  20
4631477.594
  0
VERTEX
  8
Unknown_Area_Type
  10
446374.149
  20
4631473.269
  0
VERTEX
  8
Unknown_Area_Type
  10
448670.581
  20
4631456.561
  0
SEQEND
  8
Unknown_Area_Type
  0
INSERT
  8
FeatureAttribs
  2
FEATURE
  41
1
  42
1
  43
1
  50
0
  10
447261.190
  20
4630771.542
 66
1
  0
ATTRIB
  8
FeatureAttribs
 70
0
  1
PNOA-H_AMS_1956-57_33k_ES_PAN_2
  2
NAME
  10
447261.190
  20
4630771.542
 40
33.56975
  0
SEQEND
  0
POLYLINE
  8
Unknown_Area_Type
  70
1
  66
1
  0
VERTEX
  8
Unknown_Area_Type
  10
448670.581
  20
4631456.561
  0
VERTEX
  8
Unknown_Area_Type
  10
446374.149
  20
4631473.269
  0
VERTEX
  8
Unknown_Area_Type
  10
445816.817
  20
4631477.594
  0
VERTEX
  8
Unknown_Area_Type
  10
445784.000
  20
4630310.000
  0
VERTEX
  8
Unknown_Area_Type
  10
447674.000
  20
4629917.000
  0
VERTEX
  8
Unknown_Area_Type
  10
447681.000
  20
4629917.000
  0
VERTEX
  8
Unknown_Area_Type
  10
448049.000
  20
4629958.500
  0
VERTEX
  8
Unknown_Area_Type
  10
448621.000
  20
4630208.000
  0
VERTEX
  8
Unknown_Area_Type
  10
448622.500
  20
4630224.500
  0
VERTEX
  8
Unknown_Area_Type
  10
448670.581
  20
4631456.561
  0
SEQEND
  8
Unknown_Area_Type
  0
INSERT
  8
FeatureAttribs
  2
FEATURE
  41
1
  42
1
  43
1
  50
0
  10
450135.359
  20
4631530.234
 66
1
  0
ATTRIB
  8
FeatureAttribs
 70
0
  1
PNOA-H_AMS_1956-57_33k_ES_PAN_2
  2
NAME
  10
450135.359
  20
4631530.234
 40
33.56975
  0
SEQEND
  0
POLYLINE
  8
Unknown_Area_Type
  70
1
  66
1
  0
VERTEX
  8
Unknown_Area_Type
  10
451601.200
  20
4631624.325
  0
VERTEX
  8
Unknown_Area_Type
  10
451594.091
  20
4631436.144
  0
VERTEX
  8
Unknown_Area_Type
  10
449833.896
  20
4631448.097
  0
VERTEX
  8
Unknown_Area_Type
  10
448670.197
  20
4631456.564
  0
VERTEX
  8
Unknown_Area_Type
  10
448676.743
  20
4631624.325
  0
VERTEX
  8
Unknown_Area_Type
  10
451601.200
  20
4631624.325
  0
SEQEND
  8
Unknown_Area_Type
  0
INSERT
  8
FeatureAttribs
  2
FEATURE
  41
1
  42
1
  43
1
  50
0
  10
450146.247
  20
4630698.609
 66
1
  0
ATTRIB
  8
FeatureAttribs
 70
0
  1
PNOA-H_AMS_1956-57_33k_ES_PAN_2
  2
NAME
  10
450146.247
  20
4630698.609
 40
33.56975
  0
SEQEND
  0
POLYLINE
  8
Unknown_Area_Type
  70
1
  66
1
  0
VERTEX
  8
Unknown_Area_Type
  10
451594.091
  20
4631436.144
  0
VERTEX
  8
Unknown_Area_Type
  10
451543.500
  20
4630097.000
  0
VERTEX
  8
Unknown_Area_Type
  10
450767.000
  20
4629768.000
  0
VERTEX
  8
Unknown_Area_Type
  10
450766.000
  20
4629768.000
  0
VERTEX
  8
Unknown_Area_Type
  10
450719.000
  20
4629747.500
  0
VERTEX
  8
Unknown_Area_Type
  10
450713.500
  20
4629747.500
  0
VERTEX
  8
Unknown_Area_Type
  10
448621.500
  20
4630208.500
  0
VERTEX
  8
Unknown_Area_Type
  10
448670.197
  20
4631456.564
  0
VERTEX
  8
Unknown_Area_Type
  10
449833.896
  20
4631448.097
  0
VERTEX
  8
Unknown_Area_Type
  10
451594.091
  20
4631436.144
  0
SEQEND
  8
Unknown_Area_Type
  0
INSERT
  8
FeatureAttribs
  2
FEATURE
  41
1
  42
1
  43
1
  50
0
  10
450146.247
  20
4630698.609
 66
1
  0
ATTRIB
  8
FeatureAttribs
 70
0
  1
PNOA-H_AMS_1956-57_33k_ES_PAN_2
  2
NAME
  10
450146.247
  20
4630698.609
 40
33.56975
  0
SEQEND
  0
POLYLINE
  8
Unknown_Area_Type
  70
1
  66
1
  0
VERTEX
  8
Unknown_Area_Type
  10
451594.091
  20
4631436.144
  0
VERTEX
  8
Unknown_Area_Type
  10
449833.896
  20
4631448.097
  0
VERTEX
  8
Unknown_Area_Type
  10
448670.197
  20
4631456.564
  0
VERTEX
  8
Unknown_Area_Type
  10
448621.500
  20
4630208.500
  0
VERTEX
  8
Unknown_Area_Type
  10
450713.500
  20
4629747.500
  0
VERTEX
  8
Unknown_Area_Type
  10
450719.000
  20
4629747.500
  0
VERTEX
  8
Unknown_Area_Type
  10
450766.000
  20
4629768.000
  0
VERTEX
  8
Unknown_Area_Type
  10
450767.000
  20
4629768.000
  0
VERTEX
  8
Unknown_Area_Type
  10
451543.500
  20
4630097.000
  0
VERTEX
  8
Unknown_Area_Type
  10
451594.091
  20
4631436.144
  0
SEQEND
  8
Unknown_Area_Type
  0
INSERT
  8
FeatureAttribs
  2
FEATURE
  41
1
  42
1
  43
1
  50
0
  10
453082.877
  20
4631520.448
 66
1
  0
ATTRIB
  8
FeatureAttribs
 70
0
  1
PNOA-H_AMS_1956-57_33k_ES_PAN_2
  2
NAME
  10
453082.877
  20
4631520.448
 40
33.56975
  0
SEQEND
  0
POLYLINE
  8
Unknown_Area_Type
  70
1
  66
1
  0
VERTEX
  8
Unknown_Area_Type
  10
454569.413
  20
4631624.325
  0
VERTEX
  8
Unknown_Area_Type
  10
454567.543
  20
4631416.570
  0
VERTEX
  8
Unknown_Area_Type
  10
453293.641
  20
4631424.603
  0
VERTEX
  8
Unknown_Area_Type
  10
451594.091
  20
4631436.144
  0
VERTEX
  8
Unknown_Area_Type
  10
451601.200
  20
4631624.325
  0
VERTEX
  8
Unknown_Area_Type
  10
454569.413
  20
4631624.325
  0
SEQEND
  8
Unknown_Area_Type
  0
INSERT
  8
FeatureAttribs
  2
FEATURE
  41
1
  42
1
  43
1
  50
0
  10
453103.546
  20
4630618.077
 66
1
  0
ATTRIB
  8
FeatureAttribs
 70
0
  1
PNOA-H_AMS_1956-57_33k_ES_PAN_2
  2
NAME
  10
453103.546
  20
4630618.077
 40
33.56975
  0
SEQEND
  0
POLYLINE
  8
Unknown_Area_Type
  70
1
  66
1
  0
VERTEX
  8
Unknown_Area_Type
  10
454567.543
  20
4631416.570
  0
VERTEX
  8
Unknown_Area_Type
  10
454554.500
  20
4629967.500
  0
VERTEX
  8
Unknown_Area_Type
  10
453603.500
  20
4629597.000
  0
VERTEX
  8
Unknown_Area_Type
  10
453597.500
  20
4629595.500
  0
VERTEX
  8
Unknown_Area_Type
  10
451543.500
  20
4630097.000
  0
VERTEX
  8
Unknown_Area_Type
  10
451594.091
  20
4631436.144
  0
VERTEX
  8
Unknown_Area_Type
  10
453293.641
  20
4631424.603
  0
VERTEX
  8
Unknown_Area_Type
  10
454567.543
  20
4631416.570
  0
SEQEND
  8
Unknown_Area_Type
  0
INSERT
  8
FeatureAttribs
  2
FEATURE
  41
1
  42
1
  43
1
  50
0
  10
453103.546
  20
4630618.077
 66
1
  0
ATTRIB
  8
FeatureAttribs
 70
0
  1
PNOA-H_AMS_1956-57_33k_ES_PAN_2
  2
NAME
  10
453103.546
  20
4630618.077
 40
33.56975
  0
SEQEND
  0
POLYLINE
  8
Unknown_Area_Type
  70
1
  66
1
  0
VERTEX
  8
Unknown_Area_Type
  10
454567.543
  20
4631416.570
  0
VERTEX
  8
Unknown_Area_Type
  10
453293.641
  20
4631424.603
  0
VERTEX
  8
Unknown_Area_Type
  10
451594.091
  20
4631436.144
  0
VERTEX
  8
Unknown_Area_Type
  10
451543.500
  20
4630097.000
  0
VERTEX
  8
Unknown_Area_Type
  10
453597.500
  20
4629595.500
  0
VERTEX
  8
Unknown_Area_Type
  10
453603.500
  20
4629597.000
  0
VERTEX
  8
Unknown_Area_Type
  10
454554.500
  20
4629967.500
  0
VERTEX
  8
Unknown_Area_Type
  10
454567.543
  20
4631416.570
  0
SEQEND
  8
Unknown_Area_Type
  0
INSERT
  8
FeatureAttribs
  2
FEATURE
  41
1
  42
1
  43
1
  50
0
  10
435556.350
  20
4614826.506
 66
1
  0
ATTRIB
  8
FeatureAttribs
 70
0
  1
PNOA-H_AMS_1956-57_33k_ES_PAN_2
  2
NAME
  10
435556.350
  20
4614826.506
 40
33.56975
  0
SEQEND
  0
POLYLINE
  8
Unknown_Area_Type
  70
1
  66
1
  0
VERTEX
  8
Unknown_Area_Type
  10
437012.278
  20
4613044.366
  0
VERTEX
  8
Unknown_Area_Type
  10
435829.108
  20
4613054.662
  0
VERTEX
  8
Unknown_Area_Type
  10
434088.126
  20
4613070.655
  0
VERTEX
  8
Unknown_Area_Type
  10
434123.000
  20
4616398.500
  0
VERTEX
  8
Unknown_Area_Type
  10
435119.500
  20
4616825.500
  0
VERTEX
  8
Unknown_Area_Type
  10
435855.500
  20
4616637.000
  0
VERTEX
  8
Unknown_Area_Type
  10
435858.000
  20
4616636.500
  0
VERTEX
  8
Unknown_Area_Type
  10
437048.000
  20
4616332.500
  0
VERTEX
  8
Unknown_Area_Type
  10
437012.278
  20
4613044.366
  0
SEQEND
  8
Unknown_Area_Type
  0
INSERT
  8
FeatureAttribs
  2
FEATURE
  41
1
  42
1
  43
1
  50
0
  10
435556.350
  20
4614826.506
 66
1
  0
ATTRIB
  8
FeatureAttribs
 70
0
  1
PNOA-H_AMS_1956-57_33k_ES_PAN_2
  2
NAME
  10
435556.350
  20
4614826.506
 40
33.56975
  0
SEQEND
  0
POLYLINE
  8
Unknown_Area_Type
  70
1
  66
1
  0
VERTEX
  8
Unknown_Area_Type
  10
437012.278
  20
4613044.366
  0
VERTEX
  8
Unknown_Area_Type
  10
437048.000
  20
4616332.500
  0
VERTEX
  8
Unknown_Area_Type
  10
435858.000
  20
4616636.500
  0
VERTEX
  8
Unknown_Area_Type
  10
435855.500
  20
4616637.000
  0
VERTEX
  8
Unknown_Area_Type
  10
435119.500
  20
4616825.500
  0
VERTEX
  8
Unknown_Area_Type
  10
434123.000
  20
4616398.500
  0
VERTEX
  8
Unknown_Area_Type
  10
434088.126
  20
4613070.655
  0
VERTEX
  8
Unknown_Area_Type
  10
435829.108
  20
4613054.662
  0
VERTEX
  8
Unknown_Area_Type
  10
437012.278
  20
4613044.366
  0
SEQEND
  8
Unknown_Area_Type
  0
INSERT
  8
FeatureAttribs
  2
FEATURE
  41
1
  42
1
  43
1
  50
0
  10
438467.905
  20
4614773.853
 66
1
  0
ATTRIB
  8
FeatureAttribs
 70
0
  1
PNOA-H_AMS_1956-57_33k_ES_PAN_2
  2
NAME
  10
438467.905
  20
4614773.853
 40
33.56975
  0
SEQEND
  0
POLYLINE
  8
Unknown_Area_Type
  70
1
  66
1
  0
VERTEX
  8
Unknown_Area_Type
  10
439933.488
  20
4613019.251
  0
VERTEX
  8
Unknown_Area_Type
  10
439297.828
  20
4613024.475
  0
VERTEX
  8
Unknown_Area_Type
  10
437012.278
  20
4613044.366
  0
VERTEX
  8
Unknown_Area_Type
  10
437048.000
  20
4616332.500
  0
VERTEX
  8
Unknown_Area_Type
  10
438008.500
  20
4616743.500
  0
VERTEX
  8
Unknown_Area_Type
  10
438010.000
  20
4616744.000
  0
VERTEX
  8
Unknown_Area_Type
  10
439922.500
  20
4616281.000
  0
VERTEX
  8
Unknown_Area_Type
  10
439933.488
  20
4613019.251
  0
SEQEND
  8
Unknown_Area_Type
  0
INSERT
  8
FeatureAttribs
  2
FEATURE
  41
1
  42
1
  43
1
  50
0
  10
438467.905
  20
4614773.853
 66
1
  0
ATTRIB
  8
FeatureAttribs
 70
0
  1
PNOA-H_AMS_1956-57_33k_ES_PAN_2
  2
NAME
  10
438467.905
  20
4614773.853
 40
33.56975
  0
SEQEND
  0
POLYLINE
  8
Unknown_Area_Type
  70
1
  66
1
  0
VERTEX
  8
Unknown_Area_Type
  10
439933.488
  20
4613019.251
  0
VERTEX
  8
Unknown_Area_Type
  10
439922.500
  20
4616281.000
  0
VERTEX
  8
Unknown_Area_Type
  10
438010.000
  20
4616744.000
  0
VERTEX
  8
Unknown_Area_Type
  10
438008.500
  20
4616743.500
  0
VERTEX
  8
Unknown_Area_Type
  10
437048.000
  20
4616332.500
  0
VERTEX
  8
Unknown_Area_Type
  10
437012.278
  20
4613044.366
  0
VERTEX
  8
Unknown_Area_Type
  10
439297.828
  20
4613024.475
  0
VERTEX
  8
Unknown_Area_Type
  10
439933.488
  20
4613019.251
  0
SEQEND
  8
Unknown_Area_Type
  0
INSERT
  8
FeatureAttribs
  2
FEATURE
  41
1
  42
1
  43
1
  50
0
  10
432671.565
  20
4614872.339
 66
1
  0
ATTRIB
  8
FeatureAttribs
 70
0
  1
PNOA-H_AMS_1956-57_33k_ES_PAN_2
  2
NAME
  10
432671.565
  20
4614872.339
 40
33.56975
  0
SEQEND
  0
POLYLINE
  8
Unknown_Area_Type
  70
1
  66
1
  0
VERTEX
  8
Unknown_Area_Type
  10
434088.235
  20
4613070.654
  0
VERTEX
  8
Unknown_Area_Type
  10
432360.384
  20
4613086.527
  0
VERTEX
  8
Unknown_Area_Type
  10
431288.888
  20
4613096.888
  0
VERTEX
  8
Unknown_Area_Type
  10
431233.500
  20
4616452.000
  0
VERTEX
  8
Unknown_Area_Type
  10
431760.500
  20
4616674.500
  0
VERTEX
  8
Unknown_Area_Type
  10
431761.500
  20
4616675.000
  0
VERTEX
  8
Unknown_Area_Type
  10
432193.500
  20
4616857.000
  0
VERTEX
  8
Unknown_Area_Type
  10
434123.000
  20
4616398.500
  0
VERTEX
  8
Unknown_Area_Type
  10
434088.235
  20
4613070.654
  0
SEQEND
  8
Unknown_Area_Type
  0
INSERT
  8
FeatureAttribs
  2
FEATURE
  41
1
  42
1
  43
1
  50
0
  10
432671.565
  20
4614872.339
 66
1
  0
ATTRIB
  8
FeatureAttribs
 70
0
  1
PNOA-H_AMS_1956-57_33k_ES_PAN_2
  2
NAME
  10
432671.565
  20
4614872.339
 40
33.56975
  0
SEQEND
  0
POLYLINE
  8
Unknown_Area_Type
  70
1
  66
1
  0
VERTEX
  8
Unknown_Area_Type
  10
434088.235
  20
4613070.654
  0
VERTEX
  8
Unknown_Area_Type
  10
434123.000
  20
4616398.500
  0
VERTEX
  8
Unknown_Area_Type
  10
432193.500
  20
4616857.000
  0
VERTEX
  8
Unknown_Area_Type
  10
431761.500
  20
4616675.000
  0
VERTEX
  8
Unknown_Area_Type
  10
431760.500
  20
4616674.500
  0
VERTEX
  8
Unknown_Area_Type
  10
431233.500
  20
4616452.000
  0
VERTEX
  8
Unknown_Area_Type
  10
431288.888
  20
4613096.888
  0
VERTEX
  8
Unknown_Area_Type
  10
432360.384
  20
4613086.527
  0
VERTEX
  8
Unknown_Area_Type
  10
434088.235
  20
4613070.654
  0
SEQEND
  8
Unknown_Area_Type
  0
INSERT
  8
FeatureAttribs
  2
FEATURE
  41
1
  42
1
  43
1
  50
0
  10
434872.178
  20
4628526.217
 66
1
  0
ATTRIB
  8
FeatureAttribs
 70
0
  1
PNOA-H_AMS_1956-57_33k_ES_PAN_2
  2
NAME
  10
434872.178
  20
4628526.217
 40
33.56975
  0
SEQEND
  0
POLYLINE
  8
Unknown_Area_Type
  70
1
  66
1
  0
VERTEX
  8
Unknown_Area_Type
  10
435457.000
  20
4627720.000
  0
VERTEX
  8
Unknown_Area_Type
  10
434904.000
  20
4625789.000
  0
VERTEX
  8
Unknown_Area_Type
  10
434759.500
  20
4625750.000
  0
VERTEX
  8
Unknown_Area_Type
  10
434750.500
  20
4625748.500
  0
VERTEX
  8
Unknown_Area_Type
  10
434416.500
  20
4625869.500
  0
VERTEX
  8
Unknown_Area_Type
  10
433889.000
  20
4630324.000
  0
VERTEX
  8
Unknown_Area_Type
  10
433889.000
  20
4630328.500
  0
VERTEX
  8
Unknown_Area_Type
  10
434070.500
  20
4630434.000
  0
VERTEX
  8
Unknown_Area_Type
  10
436140.500
  20
4630106.000
  0
VERTEX
  8
Unknown_Area_Type
  10
435457.000
  20
4627721.000
  0
VERTEX
  8
Unknown_Area_Type
  10
435457.000
  20
4627720.000
  0
SEQEND
  8
Unknown_Area_Type
  0
INSERT
  8
FeatureAttribs
  2
FEATURE
  41
1
  42
1
  43
1
  50
0
  10
434872.178
  20
4628526.217
 66
1
  0
ATTRIB
  8
FeatureAttribs
 70
0
  1
PNOA-H_AMS_1956-57_33k_ES_PAN_2
  2
NAME
  10
434872.178
  20
4628526.217
 40
33.56975
  0
SEQEND
  0
POLYLINE
  8
Unknown_Area_Type
  70
1
  66
1
  0
VERTEX
  8
Unknown_Area_Type
  10
435457.000
  20
4627720.000
  0
VERTEX
  8
Unknown_Area_Type
  10
435457.000
  20
4627721.000
  0
VERTEX
  8
Unknown_Area_Type
  10
436140.500
  20
4630106.000
  0
VERTEX
  8
Unknown_Area_Type
  10
434070.500
  20
4630434.000
  0
VERTEX
  8
Unknown_Area_Type
  10
433889.000
  20
4630328.500
  0
VERTEX
  8
Unknown_Area_Type
  10
433889.000
  20
4630324.000
  0
VERTEX
  8
Unknown_Area_Type
  10
434416.500
  20
4625869.500
  0
VERTEX
  8
Unknown_Area_Type
  10
434750.500
  20
4625748.500
  0
VERTEX
  8
Unknown_Area_Type
  10
434759.500
  20
4625750.000
  0
VERTEX
  8
Unknown_Area_Type
  10
434904.000
  20
4625789.000
  0
VERTEX
  8
Unknown_Area_Type
  10
435457.000
  20
4627720.000
  0
SEQEND
  8
Unknown_Area_Type
  0
INSERT
  8
FeatureAttribs
  2
FEATURE
  41
1
  42
1
  43
1
  50
0
  10
444228.801
  20
4614705.709
 66
1
  0
ATTRIB
  8
FeatureAttribs
 70
0
  1
PNOA-H_AMS_1956-57_33k_ES_PAN_2
  2
NAME
  10
444228.801
  20
4614705.709
 40
33.56975
  0
SEQEND
  0
POLYLINE
  8
Unknown_Area_Type
  70
1
  66
1
  0
VERTEX
  8
Unknown_Area_Type
  10
445734.327
  20
4612973.008
  0
VERTEX
  8
Unknown_Area_Type
  10
442823.503
  20
4612995.525
  0
VERTEX
  8
Unknown_Area_Type
  10
442757.000
  20
4616194.000
  0
VERTEX
  8
Unknown_Area_Type
  10
443988.500
  20
4616698.000
  0
VERTEX
  8
Unknown_Area_Type
  10
444048.500
  20
4616677.000
  0
VERTEX
  8
Unknown_Area_Type
  10
444050.000
  20
4616676.500
  0
VERTEX
  8
Unknown_Area_Type
  10
445650.000
  20
4616116.000
  0
VERTEX
  8
Unknown_Area_Type
  10
445734.327
  20
4612973.008
  0
SEQEND
  8
Unknown_Area_Type
  0
INSERT
  8
FeatureAttribs
  2
FEATURE
  41
1
  42
1
  43
1
  50
0
  10
444228.801
  20
4614705.709
 66
1
  0
ATTRIB
  8
FeatureAttribs
 70
0
  1
PNOA-H_AMS_1956-57_33k_ES_PAN_2
  2
NAME
  10
444228.801
  20
4614705.709
 40
33.56975
  0
SEQEND
  0
POLYLINE
  8
Unknown_Area_Type
  70
1
  66
1
  0
VERTEX
  8
Unknown_Area_Type
  10
445734.327
  20
4612973.008
  0
VERTEX
  8
Unknown_Area_Type
  10
445650.000
  20
4616116.000
  0
VERTEX
  8
Unknown_Area_Type
  10
444050.000
  20
4616676.500
  0
VERTEX
  8
Unknown_Area_Type
  10
444048.500
  20
4616677.000
  0
VERTEX
  8
Unknown_Area_Type
  10
443988.500
  20
4616698.000
  0
VERTEX
  8
Unknown_Area_Type
  10
442757.000
  20
4616194.000
  0
VERTEX
  8
Unknown_Area_Type
  10
442823.503
  20
4612995.525
  0
VERTEX
  8
Unknown_Area_Type
  10
445734.327
  20
4612973.008
  0
SEQEND
  8
Unknown_Area_Type
  0
INSERT
  8
FeatureAttribs
  2
FEATURE
  41
1
  42
1
  43
1
  50
0
  10
428964.898
  20
4627882.602
 66
1
  0
ATTRIB
  8
FeatureAttribs
 70
0
  1
PNOA-H_AMS_1956-57_33k_ES_PAN_2
  2
NAME
  10
428964.898
  20
4627882.602
 40
33.56975
  0
SEQEND
  0
POLYLINE
  8
Unknown_Area_Type
  70
1
  66
1
  0
VERTEX
  8
Unknown_Area_Type
  10
429059.042
  20
4629982.846
  0
VERTEX
  8
Unknown_Area_Type
  10
429052.365
  20
4629311.248
  0
VERTEX
  8
Unknown_Area_Type
  10
429029.379
  20
4626998.197
  0
VERTEX
  8
Unknown_Area_Type
  10
429017.301
  20
4625782.359
  0
VERTEX
  8
Unknown_Area_Type
  10
428891.629
  20
4625823.017
  0
VERTEX
  8
Unknown_Area_Type
  10
428891.629
  20
4629936.603
  0
VERTEX
  8
Unknown_Area_Type
  10
429059.042
  20
4629982.846
  0
SEQEND
  8
Unknown_Area_Type
  0
INSERT
  8
FeatureAttribs
  2
FEATURE
  41
1
  42
1
  43
1
  50
0
  10
429506.327
  20
4628025.088
 66
1
  0
ATTRIB
  8
FeatureAttribs
 70
0
  1
PNOA-H_AMS_1956-57_33k_ES_PAN_2
  2
NAME
  10
429506.327
  20
4628025.088
 40
33.56975
  0
SEQEND
  0
POLYLINE
  8
Unknown_Area_Type
  70
1
  66
1
  0
VERTEX
  8
Unknown_Area_Type
  10
429059.042
  20
4629982.846
  0
VERTEX
  8
Unknown_Area_Type
  10
429966.500
  20
4630233.500
  0
VERTEX
  8
Unknown_Area_Type
  10
429968.000
  20
4630234.000
  0
VERTEX
  8
Unknown_Area_Type
  10
430034.500
  20
4630228.500
  0
VERTEX
  8
Unknown_Area_Type
  10
430035.500
  20
4630228.000
  0
VERTEX
  8
Unknown_Area_Type
  10
430035.500
  20
4630216.500
  0
VERTEX
  8
Unknown_Area_Type
  10
429911.500
  20
4626012.500
  0
VERTEX
  8
Unknown_Area_Type
  10
429911.000
  20
4625999.000
  0
VERTEX
  8
Unknown_Area_Type
  10
429910.000
  20
4625998.500
  0
VERTEX
  8
Unknown_Area_Type
  10
429089.500
  20
4625759.000
  0
VERTEX
  8
Unknown_Area_Type
  10
429017.301
  20
4625782.359
  0
VERTEX
  8
Unknown_Area_Type
  10
429029.379
  20
4626998.197
  0
VERTEX
  8
Unknown_Area_Type
  10
429052.365
  20
4629311.248
  0
VERTEX
  8
Unknown_Area_Type
  10
429059.042
  20
4629982.846
  0
SEQEND
  8
Unknown_Area_Type
  0
INSERT
  8
FeatureAttribs
  2
FEATURE
  41
1
  42
1
  43
1
  50
0
  10
429506.327
  20
4628025.088
 66
1
  0
ATTRIB
  8
FeatureAttribs
 70
0
  1
PNOA-H_AMS_1956-57_33k_ES_PAN_2
  2
NAME
  10
429506.327
  20
4628025.088
 40
33.56975
  0
SEQEND
  0
POLYLINE
  8
Unknown_Area_Type
  70
1
  66
1
  0
VERTEX
  8
Unknown_Area_Type
  10
429059.042
  20
4629982.846
  0
VERTEX
  8
Unknown_Area_Type
  10
429052.365
  20
4629311.248
  0
VERTEX
  8
Unknown_Area_Type
  10
429029.379
  20
4626998.197
  0
VERTEX
  8
Unknown_Area_Type
  10
429017.301
  20
4625782.359
  0
VERTEX
  8
Unknown_Area_Type
  10
429089.500
  20
4625759.000
  0
VERTEX
  8
Unknown_Area_Type
  10
429910.000
  20
4625998.500
  0
VERTEX
  8
Unknown_Area_Type
  10
429911.000
  20
4625999.000
  0
VERTEX
  8
Unknown_Area_Type
  10
429911.500
  20
4626012.500
  0
VERTEX
  8
Unknown_Area_Type
  10
430035.500
  20
4630216.500
  0
VERTEX
  8
Unknown_Area_Type
  10
430035.500
  20
4630228.000
  0
VERTEX
  8
Unknown_Area_Type
  10
430034.500
  20
4630228.500
  0
VERTEX
  8
Unknown_Area_Type
  10
429968.000
  20
4630234.000
  0
VERTEX
  8
Unknown_Area_Type
  10
429966.500
  20
4630233.500
  0
VERTEX
  8
Unknown_Area_Type
  10
429059.042
  20
4629982.846
  0
SEQEND
  8
Unknown_Area_Type
  0
INSERT
  8
FeatureAttribs
  2
FEATURE
  41
1
  42
1
  43
1
  50
0
  10
432032.573
  20
4628380.580
 66
1
  0
ATTRIB
  8
FeatureAttribs
 70
0
  1
PNOA-H_AMS_1956-57_33k_ES_PAN_2
  2
NAME
  10
432032.573
  20
4628380.580
 40
33.56975
  0
SEQEND
  0
POLYLINE
  8
Unknown_Area_Type
  70
1
  66
1
  0
VERTEX
  8
Unknown_Area_Type
  10
431762.000
  20
4630356.500
  0
VERTEX
  8
Unknown_Area_Type
  10
433008.000
  20
4630171.500
  0
VERTEX
  8
Unknown_Area_Type
  10
432292.500
  20
4625891.500
  0
VERTEX
  8
Unknown_Area_Type
  10
431902.500
  20
4625781.500
  0
VERTEX
  8
Unknown_Area_Type
  10
431562.000
  20
4625893.000
  0
VERTEX
  8
Unknown_Area_Type
  10
431548.500
  20
4625897.500
  0
VERTEX
  8
Unknown_Area_Type
  10
431548.000
  20
4625899.000
  0
VERTEX
  8
Unknown_Area_Type
  10
431243.500
  20
4630429.000
  0
VERTEX
  8
Unknown_Area_Type
  10
431243.500
  20
4630434.000
  0
VERTEX
  8
Unknown_Area_Type
  10
431244.500
  20
4630434.000
  0
VERTEX
  8
Unknown_Area_Type
  10
431758.500
  20
4630357.000
  0
VERTEX
  8
Unknown_Area_Type
  10
431762.000
  20
4630356.500
  0
SEQEND
  8
Unknown_Area_Type
  0
INSERT
  8
FeatureAttribs
  2
FEATURE
  41
1
  42
1
  43
1
  50
0
  10
432032.573
  20
4628380.580
 66
1
  0
ATTRIB
  8
FeatureAttribs
 70
0
  1
PNOA-H_AMS_1956-57_33k_ES_PAN_2
  2
NAME
  10
432032.573
  20
4628380.580
 40
33.56975
  0
SEQEND
  0
POLYLINE
  8
Unknown_Area_Type
  70
1
  66
1
  0
VERTEX
  8
Unknown_Area_Type
  10
431762.000
  20
4630356.500
  0
VERTEX
  8
Unknown_Area_Type
  10
431758.500
  20
4630357.000
  0
VERTEX
  8
Unknown_Area_Type
  10
431244.500
  20
4630434.000
  0
VERTEX
  8
Unknown_Area_Type
  10
431243.500
  20
4630434.000
  0
VERTEX
  8
Unknown_Area_Type
  10
431243.500
  20
4630429.000
  0
VERTEX
  8
Unknown_Area_Type
  10
431548.000
  20
4625899.000
  0
VERTEX
  8
Unknown_Area_Type
  10
431548.500
  20
4625897.500
  0
VERTEX
  8
Unknown_Area_Type
  10
431562.000
  20
4625893.000
  0
VERTEX
  8
Unknown_Area_Type
  10
431902.500
  20
4625781.500
  0
VERTEX
  8
Unknown_Area_Type
  10
432292.500
  20
4625891.500
  0
VERTEX
  8
Unknown_Area_Type
  10
433008.000
  20
4630171.500
  0
VERTEX
  8
Unknown_Area_Type
  10
431762.000
  20
4630356.500
  0
SEQEND
  8
Unknown_Area_Type
  0
INSERT
  8
FeatureAttribs
  2
FEATURE
  41
1
  42
1
  43
1
  50
0
  10
449966.969
  20
4614665.582
 66
1
  0
ATTRIB
  8
FeatureAttribs
 70
0
  1
PNOA-H_AMS_1956-57_33k_ES_PAN_2
  2
NAME
  10
449966.969
  20
4614665.582
 40
33.56975
  0
SEQEND
  0
POLYLINE
  8
Unknown_Area_Type
  70
1
  66
1
  0
VERTEX
  8
Unknown_Area_Type
  10
451411.952
  20
4612932.417
  0
VERTEX
  8
Unknown_Area_Type
  10
449703.965
  20
4612943.978
  0
VERTEX
  8
Unknown_Area_Type
  10
448601.355
  20
4612951.974
  0
VERTEX
  8
Unknown_Area_Type
  10
448521.000
  20
4616111.500
  0
VERTEX
  8
Unknown_Area_Type
  10
449887.000
  20
4616668.000
  0
VERTEX
  8
Unknown_Area_Type
  10
449897.500
  20
4616664.500
  0
VERTEX
  8
Unknown_Area_Type
  10
450193.000
  20
4616540.000
  0
VERTEX
  8
Unknown_Area_Type
  10
450194.000
  20
4616540.000
  0
VERTEX
  8
Unknown_Area_Type
  10
451362.500
  20
4616050.000
  0
VERTEX
  8
Unknown_Area_Type
  10
451411.952
  20
4612932.417
  0
SEQEND
  8
Unknown_Area_Type
  0
INSERT
  8
FeatureAttribs
  2
FEATURE
  41
1
  42
1
  43
1
  50
0
  10
449966.969
  20
4614665.582
 66
1
  0
ATTRIB
  8
FeatureAttribs
 70
0
  1
PNOA-H_AMS_1956-57_33k_ES_PAN_2
  2
NAME
  10
449966.969
  20
4614665.582
 40
33.56975
  0
SEQEND
  0
POLYLINE
  8
Unknown_Area_Type
  70
1
  66
1
  0
VERTEX
  8
Unknown_Area_Type
  10
451411.952
  20
4612932.417
  0
VERTEX
  8
Unknown_Area_Type
  10
451362.500
  20
4616050.000
  0
VERTEX
  8
Unknown_Area_Type
  10
450194.000
  20
4616540.000
  0
VERTEX
  8
Unknown_Area_Type
  10
450193.000
  20
4616540.000
  0
VERTEX
  8
Unknown_Area_Type
  10
449897.500
  20
4616664.500
  0
VERTEX
  8
Unknown_Area_Type
  10
449887.000
  20
4616668.000
  0
VERTEX
  8
Unknown_Area_Type
  10
448521.000
  20
4616111.500
  0
VERTEX
  8
Unknown_Area_Type
  10
448601.355
  20
4612951.974
  0
VERTEX
  8
Unknown_Area_Type
  10
449703.965
  20
4612943.978
  0
VERTEX
  8
Unknown_Area_Type
  10
451411.952
  20
4612932.417
  0
SEQEND
  8
Unknown_Area_Type
  0
INSERT
  8
FeatureAttribs
  2
FEATURE
  41
1
  42
1
  43
1
  50
0
  10
441344.813
  20
4614742.315
 66
1
  0
ATTRIB
  8
FeatureAttribs
 70
0
  1
PNOA-H_AMS_1956-57_33k_ES_PAN_2
  2
NAME
  10
441344.813
  20
4614742.315
 40
33.56975
  0
SEQEND
  0
POLYLINE
  8
Unknown_Area_Type
  70
1
  66
1
  0
VERTEX
  8
Unknown_Area_Type
  10
442823.503
  20
4612995.525
  0
VERTEX
  8
Unknown_Area_Type
  10
442766.543
  20
4612995.965
  0
VERTEX
  8
Unknown_Area_Type
  10
439933.488
  20
4613019.251
  0
VERTEX
  8
Unknown_Area_Type
  10
439922.500
  20
4616281.000
  0
VERTEX
  8
Unknown_Area_Type
  10
439952.000
  20
4616294.000
  0
VERTEX
  8
Unknown_Area_Type
  10
439953.000
  20
4616294.500
  0
VERTEX
  8
Unknown_Area_Type
  10
440969.500
  20
4616738.500
  0
VERTEX
  8
Unknown_Area_Type
  10
440973.000
  20
4616739.000
  0
VERTEX
  8
Unknown_Area_Type
  10
442757.000
  20
4616194.000
  0
VERTEX
  8
Unknown_Area_Type
  10
442823.503
  20
4612995.525
  0
SEQEND
  8
Unknown_Area_Type
  0
INSERT
  8
FeatureAttribs
  2
FEATURE
  41
1
  42
1
  43
1
  50
0
  10
441344.813
  20
4614742.315
 66
1
  0
ATTRIB
  8
FeatureAttribs
 70
0
  1
PNOA-H_AMS_1956-57_33k_ES_PAN_2
  2
NAME
  10
441344.813
  20
4614742.315
 40
33.56975
  0
SEQEND
  0
POLYLINE
  8
Unknown_Area_Type
  70
1
  66
1
  0
VERTEX
  8
Unknown_Area_Type
  10
442823.503
  20
4612995.525
  0
VERTEX
  8
Unknown_Area_Type
  10
442757.000
  20
4616194.000
  0
VERTEX
  8
Unknown_Area_Type
  10
440973.000
  20
4616739.000
  0
VERTEX
  8
Unknown_Area_Type
  10
440969.500
  20
4616738.500
  0
VERTEX
  8
Unknown_Area_Type
  10
439953.000
  20
4616294.500
  0
VERTEX
  8
Unknown_Area_Type
  10
439952.000
  20
4616294.000
  0
VERTEX
  8
Unknown_Area_Type
  10
439922.500
  20
4616281.000
  0
VERTEX
  8
Unknown_Area_Type
  10
439933.488
  20
4613019.251
  0
VERTEX
  8
Unknown_Area_Type
  10
442766.543
  20
4612995.965
  0
VERTEX
  8
Unknown_Area_Type
  10
442823.503
  20
4612995.525
  0
SEQEND
  8
Unknown_Area_Type
  0
INSERT
  8
FeatureAttribs
  2
FEATURE
  41
1
  42
1
  43
1
  50
0
  10
440703.606
  20
4628468.791
 66
1
  0
ATTRIB
  8
FeatureAttribs
 70
0
  1
PNOA-H_AMS_1956-57_33k_ES_PAN_2
  2
NAME
  10
440703.606
  20
4628468.791
 40
33.56975
  0
SEQEND
  0
POLYLINE
  8
Unknown_Area_Type
  70
1
  66
1
  0
VERTEX
  8
Unknown_Area_Type
  10
441381.000
  20
4627720.000
  0
VERTEX
  8
Unknown_Area_Type
  10
440847.500
  20
4625761.000
  0
VERTEX
  8
Unknown_Area_Type
  10
440845.000
  20
4625759.500
  0
VERTEX
  8
Unknown_Area_Type
  10
440488.500
  20
4625658.500
  0
VERTEX
  8
Unknown_Area_Type
  10
440342.500
  20
4625715.500
  0
VERTEX
  8
Unknown_Area_Type
  10
439570.500
  20
4630117.000
  0
VERTEX
  8
Unknown_Area_Type
  10
440078.500
  20
4630382.000
  0
VERTEX
  8
Unknown_Area_Type
  10
442013.000
  20
4630038.500
  0
VERTEX
  8
Unknown_Area_Type
  10
441381.500
  20
4627721.500
  0
VERTEX
  8
Unknown_Area_Type
  10
441381.000
  20
4627720.000
  0
SEQEND
  8
Unknown_Area_Type
  0
INSERT
  8
FeatureAttribs
  2
FEATURE
  41
1
  42
1
  43
1
  50
0
  10
440703.606
  20
4628468.791
 66
1
  0
ATTRIB
  8
FeatureAttribs
 70
0
  1
PNOA-H_AMS_1956-57_33k_ES_PAN_2
  2
NAME
  10
440703.606
  20
4628468.791
 40
33.56975
  0
SEQEND
  0
POLYLINE
  8
Unknown_Area_Type
  70
1
  66
1
  0
VERTEX
  8
Unknown_Area_Type
  10
441381.000
  20
4627720.000
  0
VERTEX
  8
Unknown_Area_Type
  10
441381.500
  20
4627721.500
  0
VERTEX
  8
Unknown_Area_Type
  10
442013.000
  20
4630038.500
  0
VERTEX
  8
Unknown_Area_Type
  10
440078.500
  20
4630382.000
  0
VERTEX
  8
Unknown_Area_Type
  10
439570.500
  20
4630117.000
  0
VERTEX
  8
Unknown_Area_Type
  10
440342.500
  20
4625715.500
  0
VERTEX
  8
Unknown_Area_Type
  10
440488.500
  20
4625658.500
  0
VERTEX
  8
Unknown_Area_Type
  10
440845.000
  20
4625759.500
  0
VERTEX
  8
Unknown_Area_Type
  10
440847.500
  20
4625761.000
  0
VERTEX
  8
Unknown_Area_Type
  10
441381.000
  20
4627720.000
  0
SEQEND
  8
Unknown_Area_Type
  0
INSERT
  8
FeatureAttribs
  2
FEATURE
  41
1
  42
1
  43
1
  50
0
  10
455502.865
  20
4614677.528
 66
1
  0
ATTRIB
  8
FeatureAttribs
 70
0
  1
PNOA-H_AMS_1956-57_33k_ES_PAN_2
  2
NAME
  10
455502.865
  20
4614677.528
 40
33.56975
  0
SEQEND
  0
POLYLINE
  8
Unknown_Area_Type
  70
1
  66
1
  0
VERTEX
  8
Unknown_Area_Type
  10
456662.345
  20
4616367.715
  0
VERTEX
  8
Unknown_Area_Type
  10
456655.354
  20
4615211.680
  0
VERTEX
  8
Unknown_Area_Type
  10
456641.373
  20
4612898.698
  0
VERTEX
  8
Unknown_Area_Type
  10
454312.388
  20
4612913.336
  0
VERTEX
  8
Unknown_Area_Type
  10
454279.000
  20
4615995.500
  0
VERTEX
  8
Unknown_Area_Type
  10
454279.000
  20
4616041.000
  0
VERTEX
  8
Unknown_Area_Type
  10
454288.500
  20
4616045.000
  0
VERTEX
  8
Unknown_Area_Type
  10
454289.500
  20
4616045.500
  0
VERTEX
  8
Unknown_Area_Type
  10
455973.500
  20
4616713.500
  0
VERTEX
  8
Unknown_Area_Type
  10
456662.345
  20
4616367.715
  0
SEQEND
  8
Unknown_Area_Type
  0
INSERT
  8
FeatureAttribs
  2
FEATURE
  41
1
  42
1
  43
1
  50
0
  10
455502.865
  20
4614677.528
 66
1
  0
ATTRIB
  8
FeatureAttribs
 70
0
  1
PNOA-H_AMS_1956-57_33k_ES_PAN_2
  2
NAME
  10
455502.865
  20
4614677.528
 40
33.56975
  0
SEQEND
  0
POLYLINE
  8
Unknown_Area_Type
  70
1
  66
1
  0
VERTEX
  8
Unknown_Area_Type
  10
456662.345
  20
4616367.715
  0
VERTEX
  8
Unknown_Area_Type
  10
455973.500
  20
4616713.500
  0
VERTEX
  8
Unknown_Area_Type
  10
454289.500
  20
4616045.500
  0
VERTEX
  8
Unknown_Area_Type
  10
454288.500
  20
4616045.000
  0
VERTEX
  8
Unknown_Area_Type
  10
454279.000
  20
4616041.000
  0
VERTEX
  8
Unknown_Area_Type
  10
454279.000
  20
4615995.500
  0
VERTEX
  8
Unknown_Area_Type
  10
454312.388
  20
4612913.336
  0
VERTEX
  8
Unknown_Area_Type
  10
456641.373
  20
4612898.698
  0
VERTEX
  8
Unknown_Area_Type
  10
456655.354
  20
4615211.680
  0
VERTEX
  8
Unknown_Area_Type
  10
456662.345
  20
4616367.715
  0
SEQEND
  8
Unknown_Area_Type
  0
INSERT
  8
FeatureAttribs
  2
FEATURE
  41
1
  42
1
  43
1
  50
0
  10
443520.316
  20
4628591.069
 66
1
  0
ATTRIB
  8
FeatureAttribs
 70
0
  1
PNOA-H_AMS_1956-57_33k_ES_PAN_2
  2
NAME
  10
443520.316
  20
4628591.069
 40
33.56975
  0
SEQEND
  0
POLYLINE
  8
Unknown_Area_Type
  70
1
  66
1
  0
VERTEX
  8
Unknown_Area_Type
  10
444161.500
  20
4627720.000
  0
VERTEX
  8
Unknown_Area_Type
  10
443490.000
  20
4625631.000
  0
VERTEX
  8
Unknown_Area_Type
  10
443309.000
  20
4625697.500
  0
VERTEX
  8
Unknown_Area_Type
  10
442301.500
  20
4630072.500
  0
VERTEX
  8
Unknown_Area_Type
  10
442953.000
  20
4630378.000
  0
VERTEX
  8
Unknown_Area_Type
  10
442968.000
  20
4630385.000
  0
VERTEX
  8
Unknown_Area_Type
  10
442971.500
  20
4630385.500
  0
VERTEX
  8
Unknown_Area_Type
  10
444892.500
  20
4629992.500
  0
VERTEX
  8
Unknown_Area_Type
  10
444162.000
  20
4627721.500
  0
VERTEX
  8
Unknown_Area_Type
  10
444161.500
  20
4627720.000
  0
SEQEND
  8
Unknown_Area_Type
  0
INSERT
  8
FeatureAttribs
  2
FEATURE
  41
1
  42
1
  43
1
  50
0
  10
443520.316
  20
4628591.069
 66
1
  0
ATTRIB
  8
FeatureAttribs
 70
0
  1
PNOA-H_AMS_1956-57_33k_ES_PAN_2
  2
NAME
  10
443520.316
  20
4628591.069
 40
33.56975
  0
SEQEND
  0
POLYLINE
  8
Unknown_Area_Type
  70
1
  66
1
  0
VERTEX
  8
Unknown_Area_Type
  10
444161.500
  20
4627720.000
  0
VERTEX
  8
Unknown_Area_Type
  10
444162.000
  20
4627721.500
  0
VERTEX
  8
Unknown_Area_Type
  10
444892.500
  20
4629992.500
  0
VERTEX
  8
Unknown_Area_Type
  10
442971.500
  20
4630385.500
  0
VERTEX
  8
Unknown_Area_Type
  10
442968.000
  20
4630385.000
  0
VERTEX
  8
Unknown_Area_Type
  10
442953.000
  20
4630378.000
  0
VERTEX
  8
Unknown_Area_Type
  10
442301.500
  20
4630072.500
  0
VERTEX
  8
Unknown_Area_Type
  10
443309.000
  20
4625697.500
  0
VERTEX
  8
Unknown_Area_Type
  10
443490.000
  20
4625631.000
  0
VERTEX
  8
Unknown_Area_Type
  10
444161.500
  20
4627720.000
  0
SEQEND
  8
Unknown_Area_Type
  0
INSERT
  8
FeatureAttribs
  2
FEATURE
  41
1
  42
1
  43
1
  50
0
  10
452843.529
  20
4614653.547
 66
1
  0
ATTRIB
  8
FeatureAttribs
 70
0
  1
PNOA-H_AMS_1956-57_33k_ES_PAN_2
  2
NAME
  10
452843.529
  20
4614653.547
 40
33.56975
  0
SEQEND
  0
POLYLINE
  8
Unknown_Area_Type
  70
1
  66
1
  0
VERTEX
  8
Unknown_Area_Type
  10
454312.469
  20
4612913.336
  0
VERTEX
  8
Unknown_Area_Type
  10
453172.670
  20
4612920.499
  0
VERTEX
  8
Unknown_Area_Type
  10
451411.952
  20
4612932.417
  0
VERTEX
  8
Unknown_Area_Type
  10
451362.500
  20
4616050.000
  0
VERTEX
  8
Unknown_Area_Type
  10
452240.000
  20
4616412.500
  0
VERTEX
  8
Unknown_Area_Type
  10
452241.500
  20
4616413.000
  0
VERTEX
  8
Unknown_Area_Type
  10
452919.500
  20
4616693.000
  0
VERTEX
  8
Unknown_Area_Type
  10
452927.000
  20
4616695.000
  0
VERTEX
  8
Unknown_Area_Type
  10
454279.000
  20
4616041.000
  0
VERTEX
  8
Unknown_Area_Type
  10
454312.469
  20
4612913.336
  0
SEQEND
  8
Unknown_Area_Type
  0
INSERT
  8
FeatureAttribs
  2
FEATURE
  41
1
  42
1
  43
1
  50
0
  10
452843.529
  20
4614653.547
 66
1
  0
ATTRIB
  8
FeatureAttribs
 70
0
  1
PNOA-H_AMS_1956-57_33k_ES_PAN_2
  2
NAME
  10
452843.529
  20
4614653.547
 40
33.56975
  0
SEQEND
  0
POLYLINE
  8
Unknown_Area_Type
  70
1
  66
1
  0
VERTEX
  8
Unknown_Area_Type
  10
454312.469
  20
4612913.336
  0
VERTEX
  8
Unknown_Area_Type
  10
454279.000
  20
4616041.000
  0
VERTEX
  8
Unknown_Area_Type
  10
452927.000
  20
4616695.000
  0
VERTEX
  8
Unknown_Area_Type
  10
452919.500
  20
4616693.000
  0
VERTEX
  8
Unknown_Area_Type
  10
452241.500
  20
4616413.000
  0
VERTEX
  8
Unknown_Area_Type
  10
452240.000
  20
4616412.500
  0
VERTEX
  8
Unknown_Area_Type
  10
451362.500
  20
4616050.000
  0
VERTEX
  8
Unknown_Area_Type
  10
451411.952
  20
4612932.417
  0
VERTEX
  8
Unknown_Area_Type
  10
453172.670
  20
4612920.499
  0
VERTEX
  8
Unknown_Area_Type
  10
454312.469
  20
4612913.336
  0
SEQEND
  8
Unknown_Area_Type
  0
INSERT
  8
FeatureAttribs
  2
FEATURE
  41
1
  42
1
  43
1
  50
0
  10
437777.168
  20
4628470.732
 66
1
  0
ATTRIB
  8
FeatureAttribs
 70
0
  1
PNOA-H_AMS_1956-57_33k_ES_PAN_2
  2
NAME
  10
437777.168
  20
4628470.732
 40
33.56975
  0
SEQEND
  0
POLYLINE
  8
Unknown_Area_Type
  70
1
  66
1
  0
VERTEX
  8
Unknown_Area_Type
  10
437906.000
  20
4630259.000
  0
VERTEX
  8
Unknown_Area_Type
  10
439091.000
  20
4630058.000
  0
VERTEX
  8
Unknown_Area_Type
  10
439104.500
  20
4630055.500
  0
VERTEX
  8
Unknown_Area_Type
  10
439104.500
  20
4630053.500
  0
VERTEX
  8
Unknown_Area_Type
  10
437874.500
  20
4625766.500
  0
VERTEX
  8
Unknown_Area_Type
  10
437595.000
  20
4625689.000
  0
VERTEX
  8
Unknown_Area_Type
  10
437329.000
  20
4625789.000
  0
VERTEX
  8
Unknown_Area_Type
  10
436702.500
  20
4630182.500
  0
VERTEX
  8
Unknown_Area_Type
  10
437090.000
  20
4630397.500
  0
VERTEX
  8
Unknown_Area_Type
  10
437904.500
  20
4630259.000
  0
VERTEX
  8
Unknown_Area_Type
  10
437906.000
  20
4630259.000
  0
SEQEND
  8
Unknown_Area_Type
  0
INSERT
  8
FeatureAttribs
  2
FEATURE
  41
1
  42
1
  43
1
  50
0
  10
437777.168
  20
4628470.732
 66
1
  0
ATTRIB
  8
FeatureAttribs
 70
0
  1
PNOA-H_AMS_1956-57_33k_ES_PAN_2
  2
NAME
  10
437777.168
  20
4628470.732
 40
33.56975
  0
SEQEND
  0
POLYLINE
  8
Unknown_Area_Type
  70
1
  66
1
  0
VERTEX
  8
Unknown_Area_Type
  10
437906.000
  20
4630259.000
  0
VERTEX
  8
Unknown_Area_Type
  10
437904.500
  20
4630259.000
  0
VERTEX
  8
Unknown_Area_Type
  10
437090.000
  20
4630397.500
  0
VERTEX
  8
Unknown_Area_Type
  10
436702.500
  20
4630182.500
  0
VERTEX
  8
Unknown_Area_Type
  10
437329.000
  20
4625789.000
  0
VERTEX
  8
Unknown_Area_Type
  10
437595.000
  20
4625689.000
  0
VERTEX
  8
Unknown_Area_Type
  10
437874.500
  20
4625766.500
  0
VERTEX
  8
Unknown_Area_Type
  10
439104.500
  20
4630053.500
  0
VERTEX
  8
Unknown_Area_Type
  10
439104.500
  20
4630055.500
  0
VERTEX
  8
Unknown_Area_Type
  10
439091.000
  20
4630058.000
  0
VERTEX
  8
Unknown_Area_Type
  10
437906.000
  20
4630259.000
  0
SEQEND
  8
Unknown_Area_Type
  0
INSERT
  8
FeatureAttribs
  2
FEATURE
  41
1
  42
1
  43
1
  50
0
  10
447121.739
  20
4614684.048
 66
1
  0
ATTRIB
  8
FeatureAttribs
 70
0
  1
PNOA-H_AMS_1956-57_33k_ES_PAN_2
  2
NAME
  10
447121.739
  20
4614684.048
 40
33.56975
  0
SEQEND
  0
POLYLINE
  8
Unknown_Area_Type
  70
1
  66
1
  0
VERTEX
  8
Unknown_Area_Type
  10
448601.680
  20
4612951.971
  0
VERTEX
  8
Unknown_Area_Type
  10
446235.256
  20
4612969.133
  0
VERTEX
  8
Unknown_Area_Type
  10
445734.327
  20
4612973.008
  0
VERTEX
  8
Unknown_Area_Type
  10
445650.000
  20
4616116.000
  0
VERTEX
  8
Unknown_Area_Type
  10
446096.000
  20
4616304.500
  0
VERTEX
  8
Unknown_Area_Type
  10
446097.500
  20
4616305.000
  0
VERTEX
  8
Unknown_Area_Type
  10
446982.000
  20
4616679.000
  0
VERTEX
  8
Unknown_Area_Type
  10
446987.000
  20
4616680.000
  0
VERTEX
  8
Unknown_Area_Type
  10
448521.000
  20
4616111.500
  0
VERTEX
  8
Unknown_Area_Type
  10
448601.680
  20
4612951.971
  0
SEQEND
  8
Unknown_Area_Type
  0
INSERT
  8
FeatureAttribs
  2
FEATURE
  41
1
  42
1
  43
1
  50
0
  10
447121.739
  20
4614684.048
 66
1
  0
ATTRIB
  8
FeatureAttribs
 70
0
  1
PNOA-H_AMS_1956-57_33k_ES_PAN_2
  2
NAME
  10
447121.739
  20
4614684.048
 40
33.56975
  0
SEQEND
  0
POLYLINE
  8
Unknown_Area_Type
  70
1
  66
1
  0
VERTEX
  8
Unknown_Area_Type
  10
448601.680
  20
4612951.971
  0
VERTEX
  8
Unknown_Area_Type
  10
448521.000
  20
4616111.500
  0
VERTEX
  8
Unknown_Area_Type
  10
446987.000
  20
4616680.000
  0
VERTEX
  8
Unknown_Area_Type
  10
446982.000
  20
4616679.000
  0
VERTEX
  8
Unknown_Area_Type
  10
446097.500
  20
4616305.000
  0
VERTEX
  8
Unknown_Area_Type
  10
446096.000
  20
4616304.500
  0
VERTEX
  8
Unknown_Area_Type
  10
445650.000
  20
4616116.000
  0
VERTEX
  8
Unknown_Area_Type
  10
445734.327
  20
4612973.008
  0
VERTEX
  8
Unknown_Area_Type
  10
446235.256
  20
4612969.133
  0
VERTEX
  8
Unknown_Area_Type
  10
448601.680
  20
4612951.971
  0
SEQEND
  8
Unknown_Area_Type
  0
INSERT
  8
FeatureAttribs
  2
FEATURE
  41
1
  42
1
  43
1
  50
0
  10
446341.134
  20
4628428.517
 66
1
  0
ATTRIB
  8
FeatureAttribs
 70
0
  1
PNOA-H_AMS_1956-57_33k_ES_PAN_2
  2
NAME
  10
446341.134
  20
4628428.517
 40
33.56975
  0
SEQEND
  0
POLYLINE
  8
Unknown_Area_Type
  70
1
  66
1
  0
VERTEX
  8
Unknown_Area_Type
  10
446499.000
  20
4625672.000
  0
VERTEX
  8
Unknown_Area_Type
  10
446485.000
  20
4625621.000
  0
VERTEX
  8
Unknown_Area_Type
  10
446409.500
  20
4625594.500
  0
VERTEX
  8
Unknown_Area_Type
  10
446068.000
  20
4625706.000
  0
VERTEX
  8
Unknown_Area_Type
  10
446058.500
  20
4625710.000
  0
VERTEX
  8
Unknown_Area_Type
  10
445111.000
  20
4630012.000
  0
VERTEX
  8
Unknown_Area_Type
  10
445785.000
  20
4630310.000
  0
VERTEX
  8
Unknown_Area_Type
  10
447676.500
  20
4629917.000
  0
VERTEX
  8
Unknown_Area_Type
  10
446499.500
  20
4625674.500
  0
VERTEX
  8
Unknown_Area_Type
  10
446499.000
  20
4625672.000
  0
SEQEND
  8
Unknown_Area_Type
  0
INSERT
  8
FeatureAttribs
  2
FEATURE
  41
1
  42
1
  43
1
  50
0
  10
446341.134
  20
4628428.517
 66
1
  0
ATTRIB
  8
FeatureAttribs
 70
0
  1
PNOA-H_AMS_1956-57_33k_ES_PAN_2
  2
NAME
  10
446341.134
  20
4628428.517
 40
33.56975
  0
SEQEND
  0
POLYLINE
  8
Unknown_Area_Type
  70
1
  66
1
  0
VERTEX
  8
Unknown_Area_Type
  10
446499.000
  20
4625672.000
  0
VERTEX
  8
Unknown_Area_Type
  10
446499.500
  20
4625674.500
  0
VERTEX
  8
Unknown_Area_Type
  10
447676.500
  20
4629917.000
  0
VERTEX
  8
Unknown_Area_Type
  10
445785.000
  20
4630310.000
  0
VERTEX
  8
Unknown_Area_Type
  10
445111.000
  20
4630012.000
  0
VERTEX
  8
Unknown_Area_Type
  10
446058.500
  20
4625710.000
  0
VERTEX
  8
Unknown_Area_Type
  10
446068.000
  20
4625706.000
  0
VERTEX
  8
Unknown_Area_Type
  10
446409.500
  20
4625594.500
  0
VERTEX
  8
Unknown_Area_Type
  10
446485.000
  20
4625621.000
  0
VERTEX
  8
Unknown_Area_Type
  10
446499.000
  20
4625672.000
  0
SEQEND
  8
Unknown_Area_Type
  0
INSERT
  8
FeatureAttribs
  2
FEATURE
  41
1
  42
1
  43
1
  50
0
  10
449489.525
  20
4628030.034
 66
1
  0
ATTRIB
  8
FeatureAttribs
 70
0
  1
PNOA-H_AMS_1956-57_33k_ES_PAN_2
  2
NAME
  10
449489.525
  20
4628030.034
 40
33.56975
  0
SEQEND
  0
POLYLINE
  8
Unknown_Area_Type
  70
1
  66
1
  0
VERTEX
  8
Unknown_Area_Type
  10
448145.500
  20
4630001.000
  0
VERTEX
  8
Unknown_Area_Type
  10
448622.500
  20
4630208.500
  0
VERTEX
  8
Unknown_Area_Type
  10
450717.000
  20
4629747.000
  0
VERTEX
  8
Unknown_Area_Type
  10
450518.500
  20
4625976.000
  0
VERTEX
  8
Unknown_Area_Type
  10
449308.000
  20
4625527.000
  0
VERTEX
  8
Unknown_Area_Type
  10
448877.500
  20
4625667.000
  0
VERTEX
  8
Unknown_Area_Type
  10
448049.000
  20
4629956.500
  0
VERTEX
  8
Unknown_Area_Type
  10
448049.000
  20
4629959.000
  0
VERTEX
  8
Unknown_Area_Type
  10
448144.500
  20
4630000.500
  0
VERTEX
  8
Unknown_Area_Type
  10
448145.500
  20
4630001.000
  0
SEQEND
  8
Unknown_Area_Type
  0
INSERT
  8
FeatureAttribs
  2
FEATURE
  41
1
  42
1
  43
1
  50
0
  10
449489.525
  20
4628030.034
 66
1
  0
ATTRIB
  8
FeatureAttribs
 70
0
  1
PNOA-H_AMS_1956-57_33k_ES_PAN_2
  2
NAME
  10
449489.525
  20
4628030.034
 40
33.56975
  0
SEQEND
  0
POLYLINE
  8
Unknown_Area_Type
  70
1
  66
1
  0
VERTEX
  8
Unknown_Area_Type
  10
448145.500
  20
4630001.000
  0
VERTEX
  8
Unknown_Area_Type
  10
448144.500
  20
4630000.500
  0
VERTEX
  8
Unknown_Area_Type
  10
448049.000
  20
4629959.000
  0
VERTEX
  8
Unknown_Area_Type
  10
448049.000
  20
4629956.500
  0
VERTEX
  8
Unknown_Area_Type
  10
448877.500
  20
4625667.000
  0
VERTEX
  8
Unknown_Area_Type
  10
449308.000
  20
4625527.000
  0
VERTEX
  8
Unknown_Area_Type
  10
450518.500
  20
4625976.000
  0
VERTEX
  8
Unknown_Area_Type
  10
450717.000
  20
4629747.000
  0
VERTEX
  8
Unknown_Area_Type
  10
448622.500
  20
4630208.500
  0
VERTEX
  8
Unknown_Area_Type
  10
448145.500
  20
4630001.000
  0
SEQEND
  8
Unknown_Area_Type
  0
INSERT
  8
FeatureAttribs
  2
FEATURE
  41
1
  42
1
  43
1
  50
0
  10
452032.107
  20
4627785.111
 66
1
  0
ATTRIB
  8
FeatureAttribs
 70
0
  1
PNOA-H_AMS_1956-57_33k_ES_PAN_2
  2
NAME
  10
452032.107
  20
4627785.111
 40
33.56975
  0
SEQEND
  0
POLYLINE
  8
Unknown_Area_Type
  70
1
  66
1
  0
VERTEX
  8
Unknown_Area_Type
  10
450717.000
  20
4629747.000
  0
VERTEX
  8
Unknown_Area_Type
  10
451541.000
  20
4630096.500
  0
VERTEX
  8
Unknown_Area_Type
  10
451542.500
  20
4630097.000
  0
VERTEX
  8
Unknown_Area_Type
  10
453598.500
  20
4629595.500
  0
VERTEX
  8
Unknown_Area_Type
  10
453330.000
  20
4625877.000
  0
VERTEX
  8
Unknown_Area_Type
  10
452151.500
  20
4625432.000
  0
VERTEX
  8
Unknown_Area_Type
  10
450518.500
  20
4625976.000
  0
VERTEX
  8
Unknown_Area_Type
  10
450717.000
  20
4629747.000
  0
SEQEND
  8
Unknown_Area_Type
  0
INSERT
  8
FeatureAttribs
  2
FEATURE
  41
1
  42
1
  43
1
  50
0
  10
452032.107
  20
4627785.111
 66
1
  0
ATTRIB
  8
FeatureAttribs
 70
0
  1
PNOA-H_AMS_1956-57_33k_ES_PAN_2
  2
NAME
  10
452032.107
  20
4627785.111
 40
33.56975
  0
SEQEND
  0
POLYLINE
  8
Unknown_Area_Type
  70
1
  66
1
  0
VERTEX
  8
Unknown_Area_Type
  10
450717.000
  20
4629747.000
  0
VERTEX
  8
Unknown_Area_Type
  10
450518.500
  20
4625976.000
  0
VERTEX
  8
Unknown_Area_Type
  10
452151.500
  20
4625432.000
  0
VERTEX
  8
Unknown_Area_Type
  10
453330.000
  20
4625877.000
  0
VERTEX
  8
Unknown_Area_Type
  10
453598.500
  20
4629595.500
  0
VERTEX
  8
Unknown_Area_Type
  10
451542.500
  20
4630097.000
  0
VERTEX
  8
Unknown_Area_Type
  10
451541.000
  20
4630096.500
  0
VERTEX
  8
Unknown_Area_Type
  10
450717.000
  20
4629747.000
  0
SEQEND
  8
Unknown_Area_Type
  0
INSERT
  8
FeatureAttribs
  2
FEATURE
  41
1
  42
1
  43
1
  50
0
  10
454869.565
  20
4627653.958
 66
1
  0
ATTRIB
  8
FeatureAttribs
 70
0
  1
PNOA-H_AMS_1956-57_33k_ES_PAN_2
  2
NAME
  10
454869.565
  20
4627653.958
 40
33.56975
  0
SEQEND
  0
POLYLINE
  8
Unknown_Area_Type
  70
1
  66
1
  0
VERTEX
  8
Unknown_Area_Type
  10
453598.500
  20
4629595.500
  0
VERTEX
  8
Unknown_Area_Type
  10
454288.000
  20
4629864.000
  0
VERTEX
  8
Unknown_Area_Type
  10
454289.500
  20
4629864.500
  0
VERTEX
  8
Unknown_Area_Type
  10
454555.000
  20
4629967.500
  0
VERTEX
  8
Unknown_Area_Type
  10
456409.500
  20
4629485.000
  0
VERTEX
  8
Unknown_Area_Type
  10
456160.000
  20
4625768.500
  0
VERTEX
  8
Unknown_Area_Type
  10
454954.000
  20
4625308.500
  0
VERTEX
  8
Unknown_Area_Type
  10
454938.500
  20
4625313.000
  0
VERTEX
  8
Unknown_Area_Type
  10
453330.000
  20
4625877.000
  0
VERTEX
  8
Unknown_Area_Type
  10
453598.500
  20
4629595.500
  0
SEQEND
  8
Unknown_Area_Type
  0
INSERT
  8
FeatureAttribs
  2
FEATURE
  41
1
  42
1
  43
1
  50
0
  10
454869.565
  20
4627653.958
 66
1
  0
ATTRIB
  8
FeatureAttribs
 70
0
  1
PNOA-H_AMS_1956-57_33k_ES_PAN_2
  2
NAME
  10
454869.565
  20
4627653.958
 40
33.56975
  0
SEQEND
  0
POLYLINE
  8
Unknown_Area_Type
  70
1
  66
1
  0
VERTEX
  8
Unknown_Area_Type
  10
453598.500
  20
4629595.500
  0
VERTEX
  8
Unknown_Area_Type
  10
453330.000
  20
4625877.000
  0
VERTEX
  8
Unknown_Area_Type
  10
454938.500
  20
4625313.000
  0
VERTEX
  8
Unknown_Area_Type
  10
454954.000
  20
4625308.500
  0
VERTEX
  8
Unknown_Area_Type
  10
456160.000
  20
4625768.500
  0
VERTEX
  8
Unknown_Area_Type
  10
456409.500
  20
4629485.000
  0
VERTEX
  8
Unknown_Area_Type
  10
454555.000
  20
4629967.500
  0
VERTEX
  8
Unknown_Area_Type
  10
454289.500
  20
4629864.500
  0
VERTEX
  8
Unknown_Area_Type
  10
454288.000
  20
4629864.000
  0
VERTEX
  8
Unknown_Area_Type
  10
453598.500
  20
4629595.500
  0
SEQEND
  8
Unknown_Area_Type
  0
INSERT
  8
FeatureAttribs
  2
FEATURE
  41
1
  42
1
  43
1
  50
0
  10
456504.280
  20
4627433.290
 66
1
  0
ATTRIB
  8
FeatureAttribs
 70
0
  1
PNOA-H_AMS_1956-57_33k_ES_PAN_2
  2
NAME
  10
456504.280
  20
4627433.290
 40
33.56975
  0
SEQEND
  0
POLYLINE
  8
Unknown_Area_Type
  70
1
  66
1
  0
VERTEX
  8
Unknown_Area_Type
  10
456742.449
  20
4629599.121
  0
VERTEX
  8
Unknown_Area_Type
  10
456739.361
  20
4629089.747
  0
VERTEX
  8
Unknown_Area_Type
  10
456725.345
  20
4626776.715
  0
VERTEX
  8
Unknown_Area_Type
  10
456717.994
  20
4625563.069
  0
VERTEX
  8
Unknown_Area_Type
  10
456160.000
  20
4625768.500
  0
VERTEX
  8
Unknown_Area_Type
  10
456337.500
  20
4628410.000
  0
VERTEX
  8
Unknown_Area_Type
  10
456337.500
  20
4628417.500
  0
VERTEX
  8
Unknown_Area_Type
  10
456409.000
  20
4629483.500
  0
VERTEX
  8
Unknown_Area_Type
  10
456410.000
  20
4629485.500
  0
VERTEX
  8
Unknown_Area_Type
  10
456421.500
  20
4629489.500
  0
VERTEX
  8
Unknown_Area_Type
  10
456742.449
  20
4629599.121
  0
SEQEND
  8
Unknown_Area_Type
  0
INSERT
  8
FeatureAttribs
  2
FEATURE
  41
1
  42
1
  43
1
  50
0
  10
456504.280
  20
4627433.290
 66
1
  0
ATTRIB
  8
FeatureAttribs
 70
0
  1
PNOA-H_AMS_1956-57_33k_ES_PAN_2
  2
NAME
  10
456504.280
  20
4627433.290
 40
33.56975
  0
SEQEND
  0
POLYLINE
  8
Unknown_Area_Type
  70
1
  66
1
  0
VERTEX
  8
Unknown_Area_Type
  10
456742.449
  20
4629599.121
  0
VERTEX
  8
Unknown_Area_Type
  10
456421.500
  20
4629489.500
  0
VERTEX
  8
Unknown_Area_Type
  10
456410.000
  20
4629485.500
  0
VERTEX
  8
Unknown_Area_Type
  10
456409.000
  20
4629483.500
  0
VERTEX
  8
Unknown_Area_Type
  10
456337.500
  20
4628417.500
  0
VERTEX
  8
Unknown_Area_Type
  10
456337.500
  20
4628410.000
  0
VERTEX
  8
Unknown_Area_Type
  10
456160.000
  20
4625768.500
  0
VERTEX
  8
Unknown_Area_Type
  10
456717.994
  20
4625563.069
  0
VERTEX
  8
Unknown_Area_Type
  10
456725.345
  20
4626776.715
  0
VERTEX
  8
Unknown_Area_Type
  10
456739.361
  20
4629089.747
  0
VERTEX
  8
Unknown_Area_Type
  10
456742.449
  20
4629599.121
  0
SEQEND
  8
Unknown_Area_Type
  0
INSERT
  8
FeatureAttribs
  2
FEATURE
  41
1
  42
1
  43
1
  50
0
  10
429074.902
  20
4631624.316
 66
1
  0
ATTRIB
  8
FeatureAttribs
 70
0
  1
PNOA-H_AMS_1956-57_33k_ES_PAN_2
  2
NAME
  10
429074.902
  20
4631624.316
 40
33.56975
  0
SEQEND
  0
POLYLINE
  8
Unknown_Area_Type
  70
1
  66
1
  0
VERTEX
  8
Unknown_Area_Type
  10
429075.361
  20
4631624.325
  0
VERTEX
  8
Unknown_Area_Type
  10
429075.361
  20
4631624.306
  0
VERTEX
  8
Unknown_Area_Type
  10
429073.523
  20
4631624.325
  0
VERTEX
  8
Unknown_Area_Type
  10
429075.361
  20
4631624.325
  0
SEQEND
  8
Unknown_Area_Type
  0
INSERT
  8
FeatureAttribs
  2
FEATURE
  41
1
  42
1
  43
1
  50
0
  10
429087.809
  20
4631624.232
 66
1
  0
ATTRIB
  8
FeatureAttribs
 70
0
  1
PNOA-H_AMS_1956-57_33k_ES_PAN_2
  2
NAME
  10
429087.809
  20
4631624.232
 40
33.56975
  0
SEQEND
  0
POLYLINE
  8
Unknown_Area_Type
  70
1
  66
1
  0
VERTEX
  8
Unknown_Area_Type
  10
429092.524
  20
4631624.325
  0
VERTEX
  8
Unknown_Area_Type
  10
429092.641
  20
4631624.139
  0
VERTEX
  8
Unknown_Area_Type
  10
429075.361
  20
4631624.306
  0
VERTEX
  8
Unknown_Area_Type
  10
429075.361
  20
4631624.325
  0
VERTEX
  8
Unknown_Area_Type
  10
429092.524
  20
4631624.325
  0
SEQEND
  8
Unknown_Area_Type
  0
INSERT
  8
FeatureAttribs
  2
FEATURE
  41
1
  42
1
  43
1
  50
0
  10
428979.300
  20
4630780.387
 66
1
  0
ATTRIB
  8
FeatureAttribs
 70
0
  1
PNOA-H_AMS_1956-57_33k_ES_PAN_2
  2
NAME
  10
428979.300
  20
4630780.387
 40
33.56975
  0
SEQEND
  0
POLYLINE
  8
Unknown_Area_Type
  70
1
  66
1
  0
VERTEX
  8
Unknown_Area_Type
  10
429059.040
  20
4629982.632
  0
VERTEX
  8
Unknown_Area_Type
  10
428891.629
  20
4629936.449
  0
VERTEX
  8
Unknown_Area_Type
  10
428891.629
  20
4631624.325
  0
VERTEX
  8
Unknown_Area_Type
  10
429073.523
  20
4631624.325
  0
VERTEX
  8
Unknown_Area_Type
  10
429075.361
  20
4631624.306
  0
VERTEX
  8
Unknown_Area_Type
  10
429059.040
  20
4629982.632
  0
SEQEND
  8
Unknown_Area_Type
  0
INSERT
  8
FeatureAttribs
  2
FEATURE
  41
1
  42
1
  43
1
  50
0
  10
429368.126
  20
4630622.202
 66
1
  0
ATTRIB
  8
FeatureAttribs
 70
0
  1
PNOA-H_AMS_1956-57_33k_ES_PAN_2
  2
NAME
  10
429368.126
  20
4630622.202
 40
33.56975
  0
SEQEND
  0
POLYLINE
  8
Unknown_Area_Type
  70
1
  66
1
  0
VERTEX
  8
Unknown_Area_Type
  10
429092.641
  20
4631624.139
  0
VERTEX
  8
Unknown_Area_Type
  10
429969.000
  20
4630234.500
  0
VERTEX
  8
Unknown_Area_Type
  10
429963.000
  20
4630232.000
  0
VERTEX
  8
Unknown_Area_Type
  10
429059.040
  20
4629982.632
  0
VERTEX
  8
Unknown_Area_Type
  10
429075.361
  20
4631624.306
  0
VERTEX
  8
Unknown_Area_Type
  10
429092.641
  20
4631624.139
  0
SEQEND
  8
Unknown_Area_Type
  0
INSERT
  8
FeatureAttribs
  2
FEATURE
  41
1
  42
1
  43
1
  50
0
  10
429368.126
  20
4630622.202
 66
1
  0
ATTRIB
  8
FeatureAttribs
 70
0
  1
PNOA-H_AMS_1956-57_33k_ES_PAN_2
  2
NAME
  10
429368.126
  20
4630622.202
 40
33.56975
  0
SEQEND
  0
POLYLINE
  8
Unknown_Area_Type
  70
1
  66
1
  0
VERTEX
  8
Unknown_Area_Type
  10
429092.641
  20
4631624.139
  0
VERTEX
  8
Unknown_Area_Type
  10
429075.361
  20
4631624.306
  0
VERTEX
  8
Unknown_Area_Type
  10
429059.040
  20
4629982.632
  0
VERTEX
  8
Unknown_Area_Type
  10
429963.000
  20
4630232.000
  0
VERTEX
  8
Unknown_Area_Type
  10
429969.000
  20
4630234.500
  0
VERTEX
  8
Unknown_Area_Type
  10
429092.641
  20
4631624.139
  0
SEQEND
  8
Unknown_Area_Type
  0
ENDSEC
  0
EOF
