  0
SECTION
  2
HEADER
  9
$ACADVER
  1
AC1009
  9
$LUNITS
  70
2
  9
$LIMMIN
  10
401141.628
  20
4613120.050
  9
$LIMMAX
  10
429075.389
  20
4631953.270
  9
$EXTMIN
  10
401141.628
  20
4613120.050
  9
$EXTMAX
  10
429075.389
  20
4631953.270
  999
Created by Global Mapper
  999
Projection: UTM
  999
Datum: ETRS89
  999
Ground Units: meters
  999
ZONE: 30
  0
ENDSEC
  0
SECTION
  2
TABLES
  0
ENDSEC
  0
SECTION
  2
BLOCKS
  0
BLOCK
  8
FeatureAttribs
  70
0
  2
FEATURE
  3
FEATURE
  10
0.00000000
  20
0.00000000
  0
ATTDEF
  8
FeatureAttribs
  70
0
  1
 
  2
NAME
  3
NAME
  10
0.00000000
  20
0.00000000
  40
1.00000000
  0
ENDBLK
  0
ENDSEC
  0
SECTION
  2
ENTITIES
  0
INSERT
  8
FeatureAttribs
  2
FEATURE
  41
1
  42
1
  43
1
  50
0
  10
401174.117
  20
4618160.004
 66
1
  0
ATTRIB
  8
FeatureAttribs
 70
0
  1
PNOA-H_AMS_1956-57_33k_ES_PAN_2
  2
NAME
  10
401174.117
  20
4618160.004
 40
33.68954
  0
SEQEND
  0
POLYLINE
  8
Unknown_Area_Type
  70
1
  66
1
  0
VERTEX
  8
Unknown_Area_Type
  10
401218.628
  20
4619031.584
  0
VERTEX
  8
Unknown_Area_Type
  10
401205.431
  20
4618074.859
  0
VERTEX
  8
Unknown_Area_Type
  10
401194.587
  20
4617288.424
  0
VERTEX
  8
Unknown_Area_Type
  10
401141.628
  20
4617325.384
  0
VERTEX
  8
Unknown_Area_Type
  10
401141.628
  20
4618855.684
  0
VERTEX
  8
Unknown_Area_Type
  10
401218.628
  20
4619031.584
  0
SEQEND
  8
Unknown_Area_Type
  0
INSERT
  8
FeatureAttribs
  2
FEATURE
  41
1
  42
1
  43
1
  50
0
  10
403021.394
  20
4619162.087
 66
1
  0
ATTRIB
  8
FeatureAttribs
 70
0
  1
PNOA-H_AMS_1956-57_33k_ES_PAN_2
  2
NAME
  10
403021.394
  20
4619162.087
 40
33.68954
  0
SEQEND
  0
POLYLINE
  8
Unknown_Area_Type
  70
1
  66
1
  0
VERTEX
  8
Unknown_Area_Type
  10
401218.628
  20
4619031.584
  0
VERTEX
  8
Unknown_Area_Type
  10
402464.000
  20
4621876.500
  0
VERTEX
  8
Unknown_Area_Type
  10
402464.500
  20
4621878.000
  0
VERTEX
  8
Unknown_Area_Type
  10
404843.500
  20
4621383.500
  0
VERTEX
  8
Unknown_Area_Type
  10
404308.000
  20
4616997.500
  0
VERTEX
  8
Unknown_Area_Type
  10
404306.500
  20
4616996.000
  0
VERTEX
  8
Unknown_Area_Type
  10
404274.000
  20
4616990.000
  0
VERTEX
  8
Unknown_Area_Type
  10
402332.500
  20
4616636.000
  0
VERTEX
  8
Unknown_Area_Type
  10
401823.500
  20
4616849.500
  0
VERTEX
  8
Unknown_Area_Type
  10
401194.587
  20
4617288.424
  0
VERTEX
  8
Unknown_Area_Type
  10
401205.431
  20
4618074.859
  0
VERTEX
  8
Unknown_Area_Type
  10
401218.628
  20
4619031.584
  0
SEQEND
  8
Unknown_Area_Type
  0
INSERT
  8
FeatureAttribs
  2
FEATURE
  41
1
  42
1
  43
1
  50
0
  10
403021.394
  20
4619162.087
 66
1
  0
ATTRIB
  8
FeatureAttribs
 70
0
  1
PNOA-H_AMS_1956-57_33k_ES_PAN_2
  2
NAME
  10
403021.394
  20
4619162.087
 40
33.68954
  0
SEQEND
  0
POLYLINE
  8
Unknown_Area_Type
  70
1
  66
1
  0
VERTEX
  8
Unknown_Area_Type
  10
401218.628
  20
4619031.584
  0
VERTEX
  8
Unknown_Area_Type
  10
401205.431
  20
4618074.859
  0
VERTEX
  8
Unknown_Area_Type
  10
401194.587
  20
4617288.424
  0
VERTEX
  8
Unknown_Area_Type
  10
401823.500
  20
4616849.500
  0
VERTEX
  8
Unknown_Area_Type
  10
402332.500
  20
4616636.000
  0
VERTEX
  8
Unknown_Area_Type
  10
404274.000
  20
4616990.000
  0
VERTEX
  8
Unknown_Area_Type
  10
404306.500
  20
4616996.000
  0
VERTEX
  8
Unknown_Area_Type
  10
404308.000
  20
4616997.500
  0
VERTEX
  8
Unknown_Area_Type
  10
404843.500
  20
4621383.500
  0
VERTEX
  8
Unknown_Area_Type
  10
402464.500
  20
4621878.000
  0
VERTEX
  8
Unknown_Area_Type
  10
402464.000
  20
4621876.500
  0
VERTEX
  8
Unknown_Area_Type
  10
401218.628
  20
4619031.584
  0
SEQEND
  8
Unknown_Area_Type
  0
INSERT
  8
FeatureAttribs
  2
FEATURE
  41
1
  42
1
  43
1
  50
0
  10
409359.824
  20
4619047.150
 66
1
  0
ATTRIB
  8
FeatureAttribs
 70
0
  1
PNOA-H_AMS_1956-57_33k_ES_PAN_2
  2
NAME
  10
409359.824
  20
4619047.150
 40
33.68954
  0
SEQEND
  0
POLYLINE
  8
Unknown_Area_Type
  70
1
  66
1
  0
VERTEX
  8
Unknown_Area_Type
  10
409234.000
  20
4621493.500
  0
VERTEX
  8
Unknown_Area_Type
  10
410854.500
  20
4621482.500
  0
VERTEX
  8
Unknown_Area_Type
  10
410878.500
  20
4621482.000
  0
VERTEX
  8
Unknown_Area_Type
  10
410891.000
  20
4621475.000
  0
VERTEX
  8
Unknown_Area_Type
  10
410993.000
  20
4616780.500
  0
VERTEX
  8
Unknown_Area_Type
  10
410884.000
  20
4616705.000
  0
VERTEX
  8
Unknown_Area_Type
  10
408050.500
  20
4616594.000
  0
VERTEX
  8
Unknown_Area_Type
  10
408038.500
  20
4616594.500
  0
VERTEX
  8
Unknown_Area_Type
  10
407745.500
  20
4616772.000
  0
VERTEX
  8
Unknown_Area_Type
  10
407824.500
  20
4621367.500
  0
VERTEX
  8
Unknown_Area_Type
  10
408085.000
  20
4621501.500
  0
VERTEX
  8
Unknown_Area_Type
  10
409198.500
  20
4621493.500
  0
VERTEX
  8
Unknown_Area_Type
  10
409234.000
  20
4621493.500
  0
SEQEND
  8
Unknown_Area_Type
  0
INSERT
  8
FeatureAttribs
  2
FEATURE
  41
1
  42
1
  43
1
  50
0
  10
409359.824
  20
4619047.150
 66
1
  0
ATTRIB
  8
FeatureAttribs
 70
0
  1
PNOA-H_AMS_1956-57_33k_ES_PAN_2
  2
NAME
  10
409359.824
  20
4619047.150
 40
33.68954
  0
SEQEND
  0
POLYLINE
  8
Unknown_Area_Type
  70
1
  66
1
  0
VERTEX
  8
Unknown_Area_Type
  10
409234.000
  20
4621493.500
  0
VERTEX
  8
Unknown_Area_Type
  10
409198.500
  20
4621493.500
  0
VERTEX
  8
Unknown_Area_Type
  10
408085.000
  20
4621501.500
  0
VERTEX
  8
Unknown_Area_Type
  10
407824.500
  20
4621367.500
  0
VERTEX
  8
Unknown_Area_Type
  10
407745.500
  20
4616772.000
  0
VERTEX
  8
Unknown_Area_Type
  10
408038.500
  20
4616594.500
  0
VERTEX
  8
Unknown_Area_Type
  10
408050.500
  20
4616594.000
  0
VERTEX
  8
Unknown_Area_Type
  10
410884.000
  20
4616705.000
  0
VERTEX
  8
Unknown_Area_Type
  10
410993.000
  20
4616780.500
  0
VERTEX
  8
Unknown_Area_Type
  10
410891.000
  20
4621475.000
  0
VERTEX
  8
Unknown_Area_Type
  10
410878.500
  20
4621482.000
  0
VERTEX
  8
Unknown_Area_Type
  10
410854.500
  20
4621482.500
  0
VERTEX
  8
Unknown_Area_Type
  10
409234.000
  20
4621493.500
  0
SEQEND
  8
Unknown_Area_Type
  0
INSERT
  8
FeatureAttribs
  2
FEATURE
  41
1
  42
1
  43
1
  50
0
  10
415588.743
  20
4619157.139
 66
1
  0
ATTRIB
  8
FeatureAttribs
 70
0
  1
PNOA-H_AMS_1956-57_33k_ES_PAN_2
  2
NAME
  10
415588.743
  20
4619157.139
 40
33.68954
  0
SEQEND
  0
POLYLINE
  8
Unknown_Area_Type
  70
1
  66
1
  0
VERTEX
  8
Unknown_Area_Type
  10
415372.500
  20
4621585.500
  0
VERTEX
  8
Unknown_Area_Type
  10
416669.500
  20
4621665.000
  0
VERTEX
  8
Unknown_Area_Type
  10
417110.500
  20
4621450.500
  0
VERTEX
  8
Unknown_Area_Type
  10
417121.500
  20
4616839.500
  0
VERTEX
  8
Unknown_Area_Type
  10
416800.500
  20
4616642.500
  0
VERTEX
  8
Unknown_Area_Type
  10
414066.000
  20
4616799.500
  0
VERTEX
  8
Unknown_Area_Type
  10
414013.000
  20
4621501.500
  0
VERTEX
  8
Unknown_Area_Type
  10
415364.500
  20
4621585.000
  0
VERTEX
  8
Unknown_Area_Type
  10
415372.500
  20
4621585.500
  0
SEQEND
  8
Unknown_Area_Type
  0
INSERT
  8
FeatureAttribs
  2
FEATURE
  41
1
  42
1
  43
1
  50
0
  10
415588.743
  20
4619157.139
 66
1
  0
ATTRIB
  8
FeatureAttribs
 70
0
  1
PNOA-H_AMS_1956-57_33k_ES_PAN_2
  2
NAME
  10
415588.743
  20
4619157.139
 40
33.68954
  0
SEQEND
  0
POLYLINE
  8
Unknown_Area_Type
  70
1
  66
1
  0
VERTEX
  8
Unknown_Area_Type
  10
415372.500
  20
4621585.500
  0
VERTEX
  8
Unknown_Area_Type
  10
415364.500
  20
4621585.000
  0
VERTEX
  8
Unknown_Area_Type
  10
414013.000
  20
4621501.500
  0
VERTEX
  8
Unknown_Area_Type
  10
414066.000
  20
4616799.500
  0
VERTEX
  8
Unknown_Area_Type
  10
416800.500
  20
4616642.500
  0
VERTEX
  8
Unknown_Area_Type
  10
417121.500
  20
4616839.500
  0
VERTEX
  8
Unknown_Area_Type
  10
417110.500
  20
4621450.500
  0
VERTEX
  8
Unknown_Area_Type
  10
416669.500
  20
4621665.000
  0
VERTEX
  8
Unknown_Area_Type
  10
415372.500
  20
4621585.500
  0
SEQEND
  8
Unknown_Area_Type
  0
INSERT
  8
FeatureAttribs
  2
FEATURE
  41
1
  42
1
  43
1
  50
0
  10
429012.900
  20
4619044.683
 66
1
  0
ATTRIB
  8
FeatureAttribs
 70
0
  1
PNOA-H_AMS_1956-57_33k_ES_PAN_2
  2
NAME
  10
429012.900
  20
4619044.683
 40
33.68954
  0
SEQEND
  0
POLYLINE
  8
Unknown_Area_Type
  70
1
  66
1
  0
VERTEX
  8
Unknown_Area_Type
  10
429075.389
  20
4616819.710
  0
VERTEX
  8
Unknown_Area_Type
  10
428927.646
  20
4616749.866
  0
VERTEX
  8
Unknown_Area_Type
  10
428937.526
  20
4617746.079
  0
VERTEX
  8
Unknown_Area_Type
  10
428960.475
  20
4620059.096
  0
VERTEX
  8
Unknown_Area_Type
  10
428973.179
  20
4621338.963
  0
VERTEX
  8
Unknown_Area_Type
  10
428979.500
  20
4621339.000
  0
VERTEX
  8
Unknown_Area_Type
  10
429067.000
  20
4621339.500
  0
VERTEX
  8
Unknown_Area_Type
  10
429075.389
  20
4621339.500
  0
VERTEX
  8
Unknown_Area_Type
  10
429075.389
  20
4616819.710
  0
SEQEND
  8
Unknown_Area_Type
  0
INSERT
  8
FeatureAttribs
  2
FEATURE
  41
1
  42
1
  43
1
  50
0
  10
427604.227
  20
4619015.368
 66
1
  0
ATTRIB
  8
FeatureAttribs
 70
0
  1
PNOA-H_AMS_1956-57_33k_ES_PAN_2
  2
NAME
  10
427604.227
  20
4619015.368
 40
33.68954
  0
SEQEND
  0
POLYLINE
  8
Unknown_Area_Type
  70
1
  66
1
  0
VERTEX
  8
Unknown_Area_Type
  10
428927.646
  20
4616749.866
  0
VERTEX
  8
Unknown_Area_Type
  10
428406.500
  20
4616503.500
  0
VERTEX
  8
Unknown_Area_Type
  10
426215.500
  20
4616922.000
  0
VERTEX
  8
Unknown_Area_Type
  10
426228.500
  20
4621230.000
  0
VERTEX
  8
Unknown_Area_Type
  10
426384.500
  20
4621324.000
  0
VERTEX
  8
Unknown_Area_Type
  10
428973.179
  20
4621338.963
  0
VERTEX
  8
Unknown_Area_Type
  10
428960.475
  20
4620059.096
  0
VERTEX
  8
Unknown_Area_Type
  10
428937.526
  20
4617746.079
  0
VERTEX
  8
Unknown_Area_Type
  10
428927.646
  20
4616749.866
  0
SEQEND
  8
Unknown_Area_Type
  0
INSERT
  8
FeatureAttribs
  2
FEATURE
  41
1
  42
1
  43
1
  50
0
  10
427604.227
  20
4619015.368
 66
1
  0
ATTRIB
  8
FeatureAttribs
 70
0
  1
PNOA-H_AMS_1956-57_33k_ES_PAN_2
  2
NAME
  10
427604.227
  20
4619015.368
 40
33.68954
  0
SEQEND
  0
POLYLINE
  8
Unknown_Area_Type
  70
1
  66
1
  0
VERTEX
  8
Unknown_Area_Type
  10
428927.646
  20
4616749.866
  0
VERTEX
  8
Unknown_Area_Type
  10
428937.526
  20
4617746.079
  0
VERTEX
  8
Unknown_Area_Type
  10
428960.475
  20
4620059.096
  0
VERTEX
  8
Unknown_Area_Type
  10
428973.179
  20
4621338.963
  0
VERTEX
  8
Unknown_Area_Type
  10
426384.500
  20
4621324.000
  0
VERTEX
  8
Unknown_Area_Type
  10
426228.500
  20
4621230.000
  0
VERTEX
  8
Unknown_Area_Type
  10
426215.500
  20
4616922.000
  0
VERTEX
  8
Unknown_Area_Type
  10
428406.500
  20
4616503.500
  0
VERTEX
  8
Unknown_Area_Type
  10
428927.646
  20
4616749.866
  0
SEQEND
  8
Unknown_Area_Type
  0
INSERT
  8
FeatureAttribs
  2
FEATURE
  41
1
  42
1
  43
1
  50
0
  10
421725.578
  20
4619126.748
 66
1
  0
ATTRIB
  8
FeatureAttribs
 70
0
  1
PNOA-H_AMS_1956-57_33k_ES_PAN_2
  2
NAME
  10
421725.578
  20
4619126.748
 40
33.68954
  0
SEQEND
  0
POLYLINE
  8
Unknown_Area_Type
  70
1
  66
1
  0
VERTEX
  8
Unknown_Area_Type
  10
422579.500
  20
4621692.500
  0
VERTEX
  8
Unknown_Area_Type
  10
422586.500
  20
4621692.000
  0
VERTEX
  8
Unknown_Area_Type
  10
423051.000
  20
4621470.500
  0
VERTEX
  8
Unknown_Area_Type
  10
423197.000
  20
4621369.500
  0
VERTEX
  8
Unknown_Area_Type
  10
423236.000
  20
4616897.000
  0
VERTEX
  8
Unknown_Area_Type
  10
423236.000
  20
4616883.000
  0
VERTEX
  8
Unknown_Area_Type
  10
423235.000
  20
4616882.000
  0
VERTEX
  8
Unknown_Area_Type
  10
422581.500
  20
4616551.000
  0
VERTEX
  8
Unknown_Area_Type
  10
420205.500
  20
4616862.500
  0
VERTEX
  8
Unknown_Area_Type
  10
420199.500
  20
4621125.000
  0
VERTEX
  8
Unknown_Area_Type
  10
420199.500
  20
4621421.500
  0
VERTEX
  8
Unknown_Area_Type
  10
422575.000
  20
4621692.000
  0
VERTEX
  8
Unknown_Area_Type
  10
422579.500
  20
4621692.500
  0
SEQEND
  8
Unknown_Area_Type
  0
INSERT
  8
FeatureAttribs
  2
FEATURE
  41
1
  42
1
  43
1
  50
0
  10
421725.578
  20
4619126.748
 66
1
  0
ATTRIB
  8
FeatureAttribs
 70
0
  1
PNOA-H_AMS_1956-57_33k_ES_PAN_2
  2
NAME
  10
421725.578
  20
4619126.748
 40
33.68954
  0
SEQEND
  0
POLYLINE
  8
Unknown_Area_Type
  70
1
  66
1
  0
VERTEX
  8
Unknown_Area_Type
  10
422579.500
  20
4621692.500
  0
VERTEX
  8
Unknown_Area_Type
  10
422575.000
  20
4621692.000
  0
VERTEX
  8
Unknown_Area_Type
  10
420199.500
  20
4621421.500
  0
VERTEX
  8
Unknown_Area_Type
  10
420199.500
  20
4621125.000
  0
VERTEX
  8
Unknown_Area_Type
  10
420205.500
  20
4616862.500
  0
VERTEX
  8
Unknown_Area_Type
  10
422581.500
  20
4616551.000
  0
VERTEX
  8
Unknown_Area_Type
  10
423235.000
  20
4616882.000
  0
VERTEX
  8
Unknown_Area_Type
  10
423236.000
  20
4616883.000
  0
VERTEX
  8
Unknown_Area_Type
  10
423236.000
  20
4616897.000
  0
VERTEX
  8
Unknown_Area_Type
  10
423197.000
  20
4621369.500
  0
VERTEX
  8
Unknown_Area_Type
  10
423051.000
  20
4621470.500
  0
VERTEX
  8
Unknown_Area_Type
  10
422586.500
  20
4621692.000
  0
VERTEX
  8
Unknown_Area_Type
  10
422579.500
  20
4621692.500
  0
SEQEND
  8
Unknown_Area_Type
  0
INSERT
  8
FeatureAttribs
  2
FEATURE
  41
1
  42
1
  43
1
  50
0
  10
424718.918
  20
4619014.613
 66
1
  0
ATTRIB
  8
FeatureAttribs
 70
0
  1
PNOA-H_AMS_1956-57_33k_ES_PAN_2
  2
NAME
  10
424718.918
  20
4619014.613
 40
33.68954
  0
SEQEND
  0
POLYLINE
  8
Unknown_Area_Type
  70
1
  66
1
  0
VERTEX
  8
Unknown_Area_Type
  10
423197.000
  20
4621369.500
  0
VERTEX
  8
Unknown_Area_Type
  10
426228.500
  20
4621229.500
  0
VERTEX
  8
Unknown_Area_Type
  10
426215.500
  20
4616922.000
  0
VERTEX
  8
Unknown_Area_Type
  10
425420.500
  20
4616544.000
  0
VERTEX
  8
Unknown_Area_Type
  10
425414.500
  20
4616543.000
  0
VERTEX
  8
Unknown_Area_Type
  10
423236.000
  20
4616883.000
  0
VERTEX
  8
Unknown_Area_Type
  10
423197.000
  20
4621350.500
  0
VERTEX
  8
Unknown_Area_Type
  10
423197.000
  20
4621369.500
  0
SEQEND
  8
Unknown_Area_Type
  0
INSERT
  8
FeatureAttribs
  2
FEATURE
  41
1
  42
1
  43
1
  50
0
  10
424718.918
  20
4619014.613
 66
1
  0
ATTRIB
  8
FeatureAttribs
 70
0
  1
PNOA-H_AMS_1956-57_33k_ES_PAN_2
  2
NAME
  10
424718.918
  20
4619014.613
 40
33.68954
  0
SEQEND
  0
POLYLINE
  8
Unknown_Area_Type
  70
1
  66
1
  0
VERTEX
  8
Unknown_Area_Type
  10
423197.000
  20
4621369.500
  0
VERTEX
  8
Unknown_Area_Type
  10
423197.000
  20
4621350.500
  0
VERTEX
  8
Unknown_Area_Type
  10
423236.000
  20
4616883.000
  0
VERTEX
  8
Unknown_Area_Type
  10
425414.500
  20
4616543.000
  0
VERTEX
  8
Unknown_Area_Type
  10
425420.500
  20
4616544.000
  0
VERTEX
  8
Unknown_Area_Type
  10
426215.500
  20
4616922.000
  0
VERTEX
  8
Unknown_Area_Type
  10
426228.500
  20
4621229.500
  0
VERTEX
  8
Unknown_Area_Type
  10
423197.000
  20
4621369.500
  0
SEQEND
  8
Unknown_Area_Type
  0
INSERT
  8
FeatureAttribs
  2
FEATURE
  41
1
  42
1
  43
1
  50
0
  10
412504.342
  20
4619151.419
 66
1
  0
ATTRIB
  8
FeatureAttribs
 70
0
  1
PNOA-H_AMS_1956-57_33k_ES_PAN_2
  2
NAME
  10
412504.342
  20
4619151.419
 40
33.68954
  0
SEQEND
  0
POLYLINE
  8
Unknown_Area_Type
  70
1
  66
1
  0
VERTEX
  8
Unknown_Area_Type
  10
413330.000
  20
4621639.000
  0
VERTEX
  8
Unknown_Area_Type
  10
413693.500
  20
4621663.000
  0
VERTEX
  8
Unknown_Area_Type
  10
414013.000
  20
4621501.500
  0
VERTEX
  8
Unknown_Area_Type
  10
414066.000
  20
4616799.500
  0
VERTEX
  8
Unknown_Area_Type
  10
413835.500
  20
4616655.500
  0
VERTEX
  8
Unknown_Area_Type
  10
410993.000
  20
4616780.500
  0
VERTEX
  8
Unknown_Area_Type
  10
410891.000
  20
4621475.000
  0
VERTEX
  8
Unknown_Area_Type
  10
413328.000
  20
4621639.000
  0
VERTEX
  8
Unknown_Area_Type
  10
413330.000
  20
4621639.000
  0
SEQEND
  8
Unknown_Area_Type
  0
INSERT
  8
FeatureAttribs
  2
FEATURE
  41
1
  42
1
  43
1
  50
0
  10
412504.342
  20
4619151.419
 66
1
  0
ATTRIB
  8
FeatureAttribs
 70
0
  1
PNOA-H_AMS_1956-57_33k_ES_PAN_2
  2
NAME
  10
412504.342
  20
4619151.419
 40
33.68954
  0
SEQEND
  0
POLYLINE
  8
Unknown_Area_Type
  70
1
  66
1
  0
VERTEX
  8
Unknown_Area_Type
  10
413330.000
  20
4621639.000
  0
VERTEX
  8
Unknown_Area_Type
  10
413328.000
  20
4621639.000
  0
VERTEX
  8
Unknown_Area_Type
  10
410891.000
  20
4621475.000
  0
VERTEX
  8
Unknown_Area_Type
  10
410993.000
  20
4616780.500
  0
VERTEX
  8
Unknown_Area_Type
  10
413835.500
  20
4616655.500
  0
VERTEX
  8
Unknown_Area_Type
  10
414066.000
  20
4616799.500
  0
VERTEX
  8
Unknown_Area_Type
  10
414013.000
  20
4621501.500
  0
VERTEX
  8
Unknown_Area_Type
  10
413693.500
  20
4621663.000
  0
VERTEX
  8
Unknown_Area_Type
  10
413330.000
  20
4621639.000
  0
SEQEND
  8
Unknown_Area_Type
  0
INSERT
  8
FeatureAttribs
  2
FEATURE
  41
1
  42
1
  43
1
  50
0
  10
406163.807
  20
4619014.437
 66
1
  0
ATTRIB
  8
FeatureAttribs
 70
0
  1
PNOA-H_AMS_1956-57_33k_ES_PAN_2
  2
NAME
  10
406163.807
  20
4619014.437
 40
33.68954
  0
SEQEND
  0
POLYLINE
  8
Unknown_Area_Type
  70
1
  66
1
  0
VERTEX
  8
Unknown_Area_Type
  10
407758.000
  20
4617480.000
  0
VERTEX
  8
Unknown_Area_Type
  10
407746.000
  20
4616782.500
  0
VERTEX
  8
Unknown_Area_Type
  10
407745.500
  20
4616772.000
  0
VERTEX
  8
Unknown_Area_Type
  10
407742.000
  20
4616771.500
  0
VERTEX
  8
Unknown_Area_Type
  10
405220.500
  20
4616517.000
  0
VERTEX
  8
Unknown_Area_Type
  10
404307.500
  20
4616996.500
  0
VERTEX
  8
Unknown_Area_Type
  10
404843.000
  20
4621382.000
  0
VERTEX
  8
Unknown_Area_Type
  10
404844.000
  20
4621384.000
  0
VERTEX
  8
Unknown_Area_Type
  10
404847.000
  20
4621385.500
  0
VERTEX
  8
Unknown_Area_Type
  10
405307.000
  20
4621589.500
  0
VERTEX
  8
Unknown_Area_Type
  10
407824.500
  20
4621367.500
  0
VERTEX
  8
Unknown_Area_Type
  10
407758.000
  20
4617508.500
  0
VERTEX
  8
Unknown_Area_Type
  10
407758.000
  20
4617480.000
  0
SEQEND
  8
Unknown_Area_Type
  0
INSERT
  8
FeatureAttribs
  2
FEATURE
  41
1
  42
1
  43
1
  50
0
  10
406163.807
  20
4619014.437
 66
1
  0
ATTRIB
  8
FeatureAttribs
 70
0
  1
PNOA-H_AMS_1956-57_33k_ES_PAN_2
  2
NAME
  10
406163.807
  20
4619014.437
 40
33.68954
  0
SEQEND
  0
POLYLINE
  8
Unknown_Area_Type
  70
1
  66
1
  0
VERTEX
  8
Unknown_Area_Type
  10
407758.000
  20
4617480.000
  0
VERTEX
  8
Unknown_Area_Type
  10
407758.000
  20
4617508.500
  0
VERTEX
  8
Unknown_Area_Type
  10
407824.500
  20
4621367.500
  0
VERTEX
  8
Unknown_Area_Type
  10
405307.000
  20
4621589.500
  0
VERTEX
  8
Unknown_Area_Type
  10
404847.000
  20
4621385.500
  0
VERTEX
  8
Unknown_Area_Type
  10
404844.000
  20
4621384.000
  0
VERTEX
  8
Unknown_Area_Type
  10
404843.000
  20
4621382.000
  0
VERTEX
  8
Unknown_Area_Type
  10
404307.500
  20
4616996.500
  0
VERTEX
  8
Unknown_Area_Type
  10
405220.500
  20
4616517.000
  0
VERTEX
  8
Unknown_Area_Type
  10
407742.000
  20
4616771.500
  0
VERTEX
  8
Unknown_Area_Type
  10
407745.500
  20
4616772.000
  0
VERTEX
  8
Unknown_Area_Type
  10
407746.000
  20
4616782.500
  0
VERTEX
  8
Unknown_Area_Type
  10
407758.000
  20
4617480.000
  0
SEQEND
  8
Unknown_Area_Type
  0
INSERT
  8
FeatureAttribs
  2
FEATURE
  41
1
  42
1
  43
1
  50
0
  10
418674.893
  20
4619153.114
 66
1
  0
ATTRIB
  8
FeatureAttribs
 70
0
  1
PNOA-H_AMS_1956-57_33k_ES_PAN_2
  2
NAME
  10
418674.893
  20
4619153.114
 40
33.68954
  0
SEQEND
  0
POLYLINE
  8
Unknown_Area_Type
  70
1
  66
1
  0
VERTEX
  8
Unknown_Area_Type
  10
419474.000
  20
4621707.000
  0
VERTEX
  8
Unknown_Area_Type
  10
419567.000
  20
4621717.000
  0
VERTEX
  8
Unknown_Area_Type
  10
420199.500
  20
4621421.500
  0
VERTEX
  8
Unknown_Area_Type
  10
420205.500
  20
4616862.500
  0
VERTEX
  8
Unknown_Area_Type
  10
419729.000
  20
4616604.000
  0
VERTEX
  8
Unknown_Area_Type
  10
417121.500
  20
4616840.000
  0
VERTEX
  8
Unknown_Area_Type
  10
417110.500
  20
4621450.500
  0
VERTEX
  8
Unknown_Area_Type
  10
419469.000
  20
4621706.500
  0
VERTEX
  8
Unknown_Area_Type
  10
419474.000
  20
4621707.000
  0
SEQEND
  8
Unknown_Area_Type
  0
INSERT
  8
FeatureAttribs
  2
FEATURE
  41
1
  42
1
  43
1
  50
0
  10
418674.893
  20
4619153.114
 66
1
  0
ATTRIB
  8
FeatureAttribs
 70
0
  1
PNOA-H_AMS_1956-57_33k_ES_PAN_2
  2
NAME
  10
418674.893
  20
4619153.114
 40
33.68954
  0
SEQEND
  0
POLYLINE
  8
Unknown_Area_Type
  70
1
  66
1
  0
VERTEX
  8
Unknown_Area_Type
  10
419474.000
  20
4621707.000
  0
VERTEX
  8
Unknown_Area_Type
  10
419469.000
  20
4621706.500
  0
VERTEX
  8
Unknown_Area_Type
  10
417110.500
  20
4621450.500
  0
VERTEX
  8
Unknown_Area_Type
  10
417121.500
  20
4616840.000
  0
VERTEX
  8
Unknown_Area_Type
  10
419729.000
  20
4616604.000
  0
VERTEX
  8
Unknown_Area_Type
  10
420205.500
  20
4616862.500
  0
VERTEX
  8
Unknown_Area_Type
  10
420199.500
  20
4621421.500
  0
VERTEX
  8
Unknown_Area_Type
  10
419567.000
  20
4621717.000
  0
VERTEX
  8
Unknown_Area_Type
  10
419474.000
  20
4621707.000
  0
SEQEND
  8
Unknown_Area_Type
  0
INSERT
  8
FeatureAttribs
  2
FEATURE
  41
1
  42
1
  43
1
  50
0
  10
428992.693
  20
4614970.116
 66
1
  0
ATTRIB
  8
FeatureAttribs
 70
0
  1
PNOA-H_AMS_1956-57_33k_ES_PAN_2
  2
NAME
  10
428992.693
  20
4614970.116
 40
33.68954
  0
SEQEND
  0
POLYLINE
  8
Unknown_Area_Type
  70
1
  66
1
  0
VERTEX
  8
Unknown_Area_Type
  10
429075.389
  20
4616820.183
  0
VERTEX
  8
Unknown_Area_Type
  10
429075.389
  20
4613120.050
  0
VERTEX
  8
Unknown_Area_Type
  10
428893.604
  20
4613120.050
  0
VERTEX
  8
Unknown_Area_Type
  10
428891.657
  20
4613120.069
  0
VERTEX
  8
Unknown_Area_Type
  10
428914.587
  20
4615433.069
  0
VERTEX
  8
Unknown_Area_Type
  10
428927.651
  20
4616750.341
  0
VERTEX
  8
Unknown_Area_Type
  10
429075.389
  20
4616820.183
  0
SEQEND
  8
Unknown_Area_Type
  0
INSERT
  8
FeatureAttribs
  2
FEATURE
  41
1
  42
1
  43
1
  50
0
  10
428487.136
  20
4613122.800
 66
1
  0
ATTRIB
  8
FeatureAttribs
 70
0
  1
PNOA-H_AMS_1956-57_33k_ES_PAN_2
  2
NAME
  10
428487.136
  20
4613122.800
 40
33.68954
  0
SEQEND
  0
POLYLINE
  8
Unknown_Area_Type
  70
1
  66
1
  0
VERTEX
  8
Unknown_Area_Type
  10
428351.707
  20
4613125.551
  0
VERTEX
  8
Unknown_Area_Type
  10
428891.657
  20
4613120.069
  0
VERTEX
  8
Unknown_Area_Type
  10
428891.656
  20
4613120.050
  0
VERTEX
  8
Unknown_Area_Type
  10
428351.619
  20
4613120.050
  0
VERTEX
  8
Unknown_Area_Type
  10
428351.707
  20
4613125.551
  0
SEQEND
  8
Unknown_Area_Type
  0
INSERT
  8
FeatureAttribs
  2
FEATURE
  41
1
  42
1
  43
1
  50
0
  10
428647.226
  20
4614864.004
 66
1
  0
ATTRIB
  8
FeatureAttribs
 70
0
  1
PNOA-H_AMS_1956-57_33k_ES_PAN_2
  2
NAME
  10
428647.226
  20
4614864.004
 40
33.68954
  0
SEQEND
  0
POLYLINE
  8
Unknown_Area_Type
  70
1
  66
1
  0
VERTEX
  8
Unknown_Area_Type
  10
428927.651
  20
4616750.341
  0
VERTEX
  8
Unknown_Area_Type
  10
428914.587
  20
4615433.069
  0
VERTEX
  8
Unknown_Area_Type
  10
428891.657
  20
4613120.069
  0
VERTEX
  8
Unknown_Area_Type
  10
428351.707
  20
4613125.551
  0
VERTEX
  8
Unknown_Area_Type
  10
428405.500
  20
4616503.500
  0
VERTEX
  8
Unknown_Area_Type
  10
428927.651
  20
4616750.341
  0
SEQEND
  8
Unknown_Area_Type
  0
INSERT
  8
FeatureAttribs
  2
FEATURE
  41
1
  42
1
  43
1
  50
0
  10
428647.226
  20
4614864.004
 66
1
  0
ATTRIB
  8
FeatureAttribs
 70
0
  1
PNOA-H_AMS_1956-57_33k_ES_PAN_2
  2
NAME
  10
428647.226
  20
4614864.004
 40
33.68954
  0
SEQEND
  0
POLYLINE
  8
Unknown_Area_Type
  70
1
  66
1
  0
VERTEX
  8
Unknown_Area_Type
  10
428927.651
  20
4616750.341
  0
VERTEX
  8
Unknown_Area_Type
  10
428405.500
  20
4616503.500
  0
VERTEX
  8
Unknown_Area_Type
  10
428351.707
  20
4613125.551
  0
VERTEX
  8
Unknown_Area_Type
  10
428891.657
  20
4613120.069
  0
VERTEX
  8
Unknown_Area_Type
  10
428914.587
  20
4615433.069
  0
VERTEX
  8
Unknown_Area_Type
  10
428927.651
  20
4616750.341
  0
SEQEND
  8
Unknown_Area_Type
  0
INSERT
  8
FeatureAttribs
  2
FEATURE
  41
1
  42
1
  43
1
  50
0
  10
401246.909
  20
4628705.898
 66
1
  0
ATTRIB
  8
FeatureAttribs
 70
0
  1
PNOA-H_AMS_1956-57_33k_ES_PAN_2
  2
NAME
  10
401246.909
  20
4628705.898
 40
33.68954
  0
SEQEND
  0
POLYLINE
  8
Unknown_Area_Type
  70
1
  66
1
  0
VERTEX
  8
Unknown_Area_Type
  10
401380.652
  20
4630765.385
  0
VERTEX
  8
Unknown_Area_Type
  10
401365.098
  20
4629640.165
  0
VERTEX
  8
Unknown_Area_Type
  10
401333.138
  20
4627327.088
  0
VERTEX
  8
Unknown_Area_Type
  10
401322.415
  20
4626550.665
  0
VERTEX
  8
Unknown_Area_Type
  10
401141.628
  20
4626536.297
  0
VERTEX
  8
Unknown_Area_Type
  10
401141.628
  20
4630871.006
  0
VERTEX
  8
Unknown_Area_Type
  10
401167.500
  20
4630875.000
  0
VERTEX
  8
Unknown_Area_Type
  10
401171.000
  20
4630875.500
  0
VERTEX
  8
Unknown_Area_Type
  10
401174.500
  20
4630875.500
  0
VERTEX
  8
Unknown_Area_Type
  10
401180.500
  20
4630872.500
  0
VERTEX
  8
Unknown_Area_Type
  10
401380.652
  20
4630765.385
  0
SEQEND
  8
Unknown_Area_Type
  0
INSERT
  8
FeatureAttribs
  2
FEATURE
  41
1
  42
1
  43
1
  50
0
  10
401735.450
  20
4628599.358
 66
1
  0
ATTRIB
  8
FeatureAttribs
 70
0
  1
PNOA-H_AMS_1956-57_33k_ES_PAN_2
  2
NAME
  10
401735.450
  20
4628599.358
 40
33.68954
  0
SEQEND
  0
POLYLINE
  8
Unknown_Area_Type
  70
1
  66
1
  0
VERTEX
  8
Unknown_Area_Type
  10
401380.652
  20
4630765.385
  0
VERTEX
  8
Unknown_Area_Type
  10
402197.000
  20
4630328.500
  0
VERTEX
  8
Unknown_Area_Type
  10
402071.000
  20
4626641.500
  0
VERTEX
  8
Unknown_Area_Type
  10
402070.000
  20
4626612.500
  0
VERTEX
  8
Unknown_Area_Type
  10
402069.000
  20
4626610.000
  0
VERTEX
  8
Unknown_Area_Type
  10
401322.415
  20
4626550.665
  0
VERTEX
  8
Unknown_Area_Type
  10
401333.138
  20
4627327.088
  0
VERTEX
  8
Unknown_Area_Type
  10
401365.098
  20
4629640.165
  0
VERTEX
  8
Unknown_Area_Type
  10
401380.652
  20
4630765.385
  0
SEQEND
  8
Unknown_Area_Type
  0
INSERT
  8
FeatureAttribs
  2
FEATURE
  41
1
  42
1
  43
1
  50
0
  10
401735.450
  20
4628599.358
 66
1
  0
ATTRIB
  8
FeatureAttribs
 70
0
  1
PNOA-H_AMS_1956-57_33k_ES_PAN_2
  2
NAME
  10
401735.450
  20
4628599.358
 40
33.68954
  0
SEQEND
  0
POLYLINE
  8
Unknown_Area_Type
  70
1
  66
1
  0
VERTEX
  8
Unknown_Area_Type
  10
401380.652
  20
4630765.385
  0
VERTEX
  8
Unknown_Area_Type
  10
401365.098
  20
4629640.165
  0
VERTEX
  8
Unknown_Area_Type
  10
401333.138
  20
4627327.088
  0
VERTEX
  8
Unknown_Area_Type
  10
401322.415
  20
4626550.665
  0
VERTEX
  8
Unknown_Area_Type
  10
402069.000
  20
4626610.000
  0
VERTEX
  8
Unknown_Area_Type
  10
402070.000
  20
4626612.500
  0
VERTEX
  8
Unknown_Area_Type
  10
402071.000
  20
4626641.500
  0
VERTEX
  8
Unknown_Area_Type
  10
402197.000
  20
4630328.500
  0
VERTEX
  8
Unknown_Area_Type
  10
401380.652
  20
4630765.385
  0
SEQEND
  8
Unknown_Area_Type
  0
INSERT
  8
FeatureAttribs
  2
FEATURE
  41
1
  42
1
  43
1
  50
0
  10
427652.630
  20
4628078.838
 66
1
  0
ATTRIB
  8
FeatureAttribs
 70
0
  1
PNOA-H_AMS_1956-57_33k_ES_PAN_2
  2
NAME
  10
427652.630
  20
4628078.838
 40
33.68954
  0
SEQEND
  0
POLYLINE
  8
Unknown_Area_Type
  70
1
  66
1
  0
VERTEX
  8
Unknown_Area_Type
  10
426790.000
  20
4629887.500
  0
VERTEX
  8
Unknown_Area_Type
  10
426983.500
  20
4630026.000
  0
VERTEX
  8
Unknown_Area_Type
  10
427664.500
  20
4629988.500
  0
VERTEX
  8
Unknown_Area_Type
  10
427666.000
  20
4629988.500
  0
VERTEX
  8
Unknown_Area_Type
  10
428846.000
  20
4629924.000
  0
VERTEX
  8
Unknown_Area_Type
  10
428332.000
  20
4626004.500
  0
VERTEX
  8
Unknown_Area_Type
  10
426600.500
  20
4626151.000
  0
VERTEX
  8
Unknown_Area_Type
  10
426790.000
  20
4629887.500
  0
SEQEND
  8
Unknown_Area_Type
  0
INSERT
  8
FeatureAttribs
  2
FEATURE
  41
1
  42
1
  43
1
  50
0
  10
427652.630
  20
4628078.838
 66
1
  0
ATTRIB
  8
FeatureAttribs
 70
0
  1
PNOA-H_AMS_1956-57_33k_ES_PAN_2
  2
NAME
  10
427652.630
  20
4628078.838
 40
33.68954
  0
SEQEND
  0
POLYLINE
  8
Unknown_Area_Type
  70
1
  66
1
  0
VERTEX
  8
Unknown_Area_Type
  10
426790.000
  20
4629887.500
  0
VERTEX
  8
Unknown_Area_Type
  10
426600.500
  20
4626151.000
  0
VERTEX
  8
Unknown_Area_Type
  10
428332.000
  20
4626004.500
  0
VERTEX
  8
Unknown_Area_Type
  10
428846.000
  20
4629924.000
  0
VERTEX
  8
Unknown_Area_Type
  10
427666.000
  20
4629988.500
  0
VERTEX
  8
Unknown_Area_Type
  10
427664.500
  20
4629988.500
  0
VERTEX
  8
Unknown_Area_Type
  10
426983.500
  20
4630026.000
  0
VERTEX
  8
Unknown_Area_Type
  10
426790.000
  20
4629887.500
  0
SEQEND
  8
Unknown_Area_Type
  0
INSERT
  8
FeatureAttribs
  2
FEATURE
  41
1
  42
1
  43
1
  50
0
  10
425335.208
  20
4628143.683
 66
1
  0
ATTRIB
  8
FeatureAttribs
 70
0
  1
PNOA-H_AMS_1956-57_33k_ES_PAN_2
  2
NAME
  10
425335.208
  20
4628143.683
 40
33.68954
  0
SEQEND
  0
POLYLINE
  8
Unknown_Area_Type
  70
1
  66
1
  0
VERTEX
  8
Unknown_Area_Type
  10
425618.000
  20
4630061.500
  0
VERTEX
  8
Unknown_Area_Type
  10
426790.000
  20
4629887.500
  0
VERTEX
  8
Unknown_Area_Type
  10
426600.500
  20
4626151.000
  0
VERTEX
  8
Unknown_Area_Type
  10
426245.000
  20
4625977.500
  0
VERTEX
  8
Unknown_Area_Type
  10
425906.500
  20
4626005.500
  0
VERTEX
  8
Unknown_Area_Type
  10
423890.500
  20
4626537.500
  0
VERTEX
  8
Unknown_Area_Type
  10
423979.000
  20
4629916.500
  0
VERTEX
  8
Unknown_Area_Type
  10
424490.500
  20
4630229.000
  0
VERTEX
  8
Unknown_Area_Type
  10
425617.000
  20
4630061.500
  0
VERTEX
  8
Unknown_Area_Type
  10
425618.000
  20
4630061.500
  0
SEQEND
  8
Unknown_Area_Type
  0
INSERT
  8
FeatureAttribs
  2
FEATURE
  41
1
  42
1
  43
1
  50
0
  10
425335.208
  20
4628143.683
 66
1
  0
ATTRIB
  8
FeatureAttribs
 70
0
  1
PNOA-H_AMS_1956-57_33k_ES_PAN_2
  2
NAME
  10
425335.208
  20
4628143.683
 40
33.68954
  0
SEQEND
  0
POLYLINE
  8
Unknown_Area_Type
  70
1
  66
1
  0
VERTEX
  8
Unknown_Area_Type
  10
425618.000
  20
4630061.500
  0
VERTEX
  8
Unknown_Area_Type
  10
425617.000
  20
4630061.500
  0
VERTEX
  8
Unknown_Area_Type
  10
424490.500
  20
4630229.000
  0
VERTEX
  8
Unknown_Area_Type
  10
423979.000
  20
4629916.500
  0
VERTEX
  8
Unknown_Area_Type
  10
423890.500
  20
4626537.500
  0
VERTEX
  8
Unknown_Area_Type
  10
425906.500
  20
4626005.500
  0
VERTEX
  8
Unknown_Area_Type
  10
426245.000
  20
4625977.500
  0
VERTEX
  8
Unknown_Area_Type
  10
426600.500
  20
4626151.000
  0
VERTEX
  8
Unknown_Area_Type
  10
426790.000
  20
4629887.500
  0
VERTEX
  8
Unknown_Area_Type
  10
425618.000
  20
4630061.500
  0
SEQEND
  8
Unknown_Area_Type
  0
INSERT
  8
FeatureAttribs
  2
FEATURE
  41
1
  42
1
  43
1
  50
0
  10
417006.795
  20
4628361.948
 66
1
  0
ATTRIB
  8
FeatureAttribs
 70
0
  1
PNOA-H_AMS_1956-57_33k_ES_PAN_2
  2
NAME
  10
417006.795
  20
4628361.948
 40
33.68954
  0
SEQEND
  0
POLYLINE
  8
Unknown_Area_Type
  70
1
  66
1
  0
VERTEX
  8
Unknown_Area_Type
  10
417426.000
  20
4630379.500
  0
VERTEX
  8
Unknown_Area_Type
  10
418369.000
  20
4630040.000
  0
VERTEX
  8
Unknown_Area_Type
  10
418378.000
  20
4626641.000
  0
VERTEX
  8
Unknown_Area_Type
  10
416666.500
  20
4626204.000
  0
VERTEX
  8
Unknown_Area_Type
  10
415643.500
  20
4626615.500
  0
VERTEX
  8
Unknown_Area_Type
  10
415691.000
  20
4630080.500
  0
VERTEX
  8
Unknown_Area_Type
  10
416867.000
  20
4630581.000
  0
VERTEX
  8
Unknown_Area_Type
  10
417424.500
  20
4630380.000
  0
VERTEX
  8
Unknown_Area_Type
  10
417426.000
  20
4630379.500
  0
SEQEND
  8
Unknown_Area_Type
  0
INSERT
  8
FeatureAttribs
  2
FEATURE
  41
1
  42
1
  43
1
  50
0
  10
417006.795
  20
4628361.948
 66
1
  0
ATTRIB
  8
FeatureAttribs
 70
0
  1
PNOA-H_AMS_1956-57_33k_ES_PAN_2
  2
NAME
  10
417006.795
  20
4628361.948
 40
33.68954
  0
SEQEND
  0
POLYLINE
  8
Unknown_Area_Type
  70
1
  66
1
  0
VERTEX
  8
Unknown_Area_Type
  10
417426.000
  20
4630379.500
  0
VERTEX
  8
Unknown_Area_Type
  10
417424.500
  20
4630380.000
  0
VERTEX
  8
Unknown_Area_Type
  10
416867.000
  20
4630581.000
  0
VERTEX
  8
Unknown_Area_Type
  10
415691.000
  20
4630080.500
  0
VERTEX
  8
Unknown_Area_Type
  10
415643.500
  20
4626615.500
  0
VERTEX
  8
Unknown_Area_Type
  10
416666.500
  20
4626204.000
  0
VERTEX
  8
Unknown_Area_Type
  10
418378.000
  20
4626641.000
  0
VERTEX
  8
Unknown_Area_Type
  10
418369.000
  20
4630040.000
  0
VERTEX
  8
Unknown_Area_Type
  10
417426.000
  20
4630379.500
  0
SEQEND
  8
Unknown_Area_Type
  0
INSERT
  8
FeatureAttribs
  2
FEATURE
  41
1
  42
1
  43
1
  50
0
  10
411809.007
  20
4628478.096
 66
1
  0
ATTRIB
  8
FeatureAttribs
 70
0
  1
PNOA-H_AMS_1956-57_33k_ES_PAN_2
  2
NAME
  10
411809.007
  20
4628478.096
 40
33.68954
  0
SEQEND
  0
POLYLINE
  8
Unknown_Area_Type
  70
1
  66
1
  0
VERTEX
  8
Unknown_Area_Type
  10
411491.000
  20
4630692.500
  0
VERTEX
  8
Unknown_Area_Type
  10
413138.000
  20
4630183.500
  0
VERTEX
  8
Unknown_Area_Type
  10
413022.500
  20
4626572.000
  0
VERTEX
  8
Unknown_Area_Type
  10
410716.500
  20
4626392.500
  0
VERTEX
  8
Unknown_Area_Type
  10
410713.000
  20
4626392.500
  0
VERTEX
  8
Unknown_Area_Type
  10
410706.000
  20
4626396.000
  0
VERTEX
  8
Unknown_Area_Type
  10
410553.000
  20
4626477.000
  0
VERTEX
  8
Unknown_Area_Type
  10
410596.000
  20
4630260.500
  0
VERTEX
  8
Unknown_Area_Type
  10
411490.000
  20
4630692.000
  0
VERTEX
  8
Unknown_Area_Type
  10
411491.000
  20
4630692.500
  0
SEQEND
  8
Unknown_Area_Type
  0
INSERT
  8
FeatureAttribs
  2
FEATURE
  41
1
  42
1
  43
1
  50
0
  10
411809.007
  20
4628478.096
 66
1
  0
ATTRIB
  8
FeatureAttribs
 70
0
  1
PNOA-H_AMS_1956-57_33k_ES_PAN_2
  2
NAME
  10
411809.007
  20
4628478.096
 40
33.68954
  0
SEQEND
  0
POLYLINE
  8
Unknown_Area_Type
  70
1
  66
1
  0
VERTEX
  8
Unknown_Area_Type
  10
411491.000
  20
4630692.500
  0
VERTEX
  8
Unknown_Area_Type
  10
411490.000
  20
4630692.000
  0
VERTEX
  8
Unknown_Area_Type
  10
410596.000
  20
4630260.500
  0
VERTEX
  8
Unknown_Area_Type
  10
410553.000
  20
4626477.000
  0
VERTEX
  8
Unknown_Area_Type
  10
410706.000
  20
4626396.000
  0
VERTEX
  8
Unknown_Area_Type
  10
410713.000
  20
4626392.500
  0
VERTEX
  8
Unknown_Area_Type
  10
410716.500
  20
4626392.500
  0
VERTEX
  8
Unknown_Area_Type
  10
413022.500
  20
4626572.000
  0
VERTEX
  8
Unknown_Area_Type
  10
413138.000
  20
4630183.500
  0
VERTEX
  8
Unknown_Area_Type
  10
411491.000
  20
4630692.500
  0
SEQEND
  8
Unknown_Area_Type
  0
INSERT
  8
FeatureAttribs
  2
FEATURE
  41
1
  42
1
  43
1
  50
0
  10
419751.379
  20
4628342.704
 66
1
  0
ATTRIB
  8
FeatureAttribs
 70
0
  1
PNOA-H_AMS_1956-57_33k_ES_PAN_2
  2
NAME
  10
419751.379
  20
4628342.704
 40
33.68954
  0
SEQEND
  0
POLYLINE
  8
Unknown_Area_Type
  70
1
  66
1
  0
VERTEX
  8
Unknown_Area_Type
  10
419474.000
  20
4630531.500
  0
VERTEX
  8
Unknown_Area_Type
  10
421168.500
  20
4629999.000
  0
VERTEX
  8
Unknown_Area_Type
  10
421128.000
  20
4626612.500
  0
VERTEX
  8
Unknown_Area_Type
  10
419663.000
  20
4626163.500
  0
VERTEX
  8
Unknown_Area_Type
  10
419659.000
  20
4626164.000
  0
VERTEX
  8
Unknown_Area_Type
  10
418378.000
  20
4626641.000
  0
VERTEX
  8
Unknown_Area_Type
  10
418369.000
  20
4630040.000
  0
VERTEX
  8
Unknown_Area_Type
  10
419447.500
  20
4630536.500
  0
VERTEX
  8
Unknown_Area_Type
  10
419452.500
  20
4630538.500
  0
VERTEX
  8
Unknown_Area_Type
  10
419473.000
  20
4630531.500
  0
VERTEX
  8
Unknown_Area_Type
  10
419474.000
  20
4630531.500
  0
SEQEND
  8
Unknown_Area_Type
  0
INSERT
  8
FeatureAttribs
  2
FEATURE
  41
1
  42
1
  43
1
  50
0
  10
419751.379
  20
4628342.704
 66
1
  0
ATTRIB
  8
FeatureAttribs
 70
0
  1
PNOA-H_AMS_1956-57_33k_ES_PAN_2
  2
NAME
  10
419751.379
  20
4628342.704
 40
33.68954
  0
SEQEND
  0
POLYLINE
  8
Unknown_Area_Type
  70
1
  66
1
  0
VERTEX
  8
Unknown_Area_Type
  10
419474.000
  20
4630531.500
  0
VERTEX
  8
Unknown_Area_Type
  10
419473.000
  20
4630531.500
  0
VERTEX
  8
Unknown_Area_Type
  10
419452.500
  20
4630538.500
  0
VERTEX
  8
Unknown_Area_Type
  10
419447.500
  20
4630536.500
  0
VERTEX
  8
Unknown_Area_Type
  10
418369.000
  20
4630040.000
  0
VERTEX
  8
Unknown_Area_Type
  10
418378.000
  20
4626641.000
  0
VERTEX
  8
Unknown_Area_Type
  10
419659.000
  20
4626164.000
  0
VERTEX
  8
Unknown_Area_Type
  10
419663.000
  20
4626163.500
  0
VERTEX
  8
Unknown_Area_Type
  10
421128.000
  20
4626612.500
  0
VERTEX
  8
Unknown_Area_Type
  10
421168.500
  20
4629999.000
  0
VERTEX
  8
Unknown_Area_Type
  10
419474.000
  20
4630531.500
  0
SEQEND
  8
Unknown_Area_Type
  0
INSERT
  8
FeatureAttribs
  2
FEATURE
  41
1
  42
1
  43
1
  50
0
  10
422533.036
  20
4628272.001
 66
1
  0
ATTRIB
  8
FeatureAttribs
 70
0
  1
PNOA-H_AMS_1956-57_33k_ES_PAN_2
  2
NAME
  10
422533.036
  20
4628272.001
 40
33.68954
  0
SEQEND
  0
POLYLINE
  8
Unknown_Area_Type
  70
1
  66
1
  0
VERTEX
  8
Unknown_Area_Type
  10
421521.500
  20
4630186.500
  0
VERTEX
  8
Unknown_Area_Type
  10
421979.500
  20
4630429.500
  0
VERTEX
  8
Unknown_Area_Type
  10
421987.500
  20
4630432.500
  0
VERTEX
  8
Unknown_Area_Type
  10
423979.000
  20
4629916.000
  0
VERTEX
  8
Unknown_Area_Type
  10
423890.000
  20
4626537.000
  0
VERTEX
  8
Unknown_Area_Type
  10
422714.000
  20
4626115.500
  0
VERTEX
  8
Unknown_Area_Type
  10
422695.000
  20
4626109.500
  0
VERTEX
  8
Unknown_Area_Type
  10
421128.000
  20
4626612.500
  0
VERTEX
  8
Unknown_Area_Type
  10
421168.500
  20
4629999.000
  0
VERTEX
  8
Unknown_Area_Type
  10
421520.500
  20
4630186.000
  0
VERTEX
  8
Unknown_Area_Type
  10
421521.500
  20
4630186.500
  0
SEQEND
  8
Unknown_Area_Type
  0
INSERT
  8
FeatureAttribs
  2
FEATURE
  41
1
  42
1
  43
1
  50
0
  10
422533.036
  20
4628272.001
 66
1
  0
ATTRIB
  8
FeatureAttribs
 70
0
  1
PNOA-H_AMS_1956-57_33k_ES_PAN_2
  2
NAME
  10
422533.036
  20
4628272.001
 40
33.68954
  0
SEQEND
  0
POLYLINE
  8
Unknown_Area_Type
  70
1
  66
1
  0
VERTEX
  8
Unknown_Area_Type
  10
421521.500
  20
4630186.500
  0
VERTEX
  8
Unknown_Area_Type
  10
421520.500
  20
4630186.000
  0
VERTEX
  8
Unknown_Area_Type
  10
421168.500
  20
4629999.000
  0
VERTEX
  8
Unknown_Area_Type
  10
421128.000
  20
4626612.500
  0
VERTEX
  8
Unknown_Area_Type
  10
422695.000
  20
4626109.500
  0
VERTEX
  8
Unknown_Area_Type
  10
422714.000
  20
4626115.500
  0
VERTEX
  8
Unknown_Area_Type
  10
423890.000
  20
4626537.000
  0
VERTEX
  8
Unknown_Area_Type
  10
423979.000
  20
4629916.000
  0
VERTEX
  8
Unknown_Area_Type
  10
421987.500
  20
4630432.500
  0
VERTEX
  8
Unknown_Area_Type
  10
421979.500
  20
4630429.500
  0
VERTEX
  8
Unknown_Area_Type
  10
421521.500
  20
4630186.500
  0
SEQEND
  8
Unknown_Area_Type
  0
INSERT
  8
FeatureAttribs
  2
FEATURE
  41
1
  42
1
  43
1
  50
0
  10
409241.630
  20
4628471.234
 66
1
  0
ATTRIB
  8
FeatureAttribs
 70
0
  1
PNOA-H_AMS_1956-57_33k_ES_PAN_2
  2
NAME
  10
409241.630
  20
4628471.234
 40
33.68954
  0
SEQEND
  0
POLYLINE
  8
Unknown_Area_Type
  70
1
  66
1
  0
VERTEX
  8
Unknown_Area_Type
  10
409234.000
  20
4630601.000
  0
VERTEX
  8
Unknown_Area_Type
  10
410596.000
  20
4630260.500
  0
VERTEX
  8
Unknown_Area_Type
  10
410553.000
  20
4626477.500
  0
VERTEX
  8
Unknown_Area_Type
  10
407977.500
  20
4626441.000
  0
VERTEX
  8
Unknown_Area_Type
  10
407911.500
  20
4626478.500
  0
VERTEX
  8
Unknown_Area_Type
  10
407936.000
  20
4630239.500
  0
VERTEX
  8
Unknown_Area_Type
  10
408857.500
  20
4630695.500
  0
VERTEX
  8
Unknown_Area_Type
  10
409232.000
  20
4630601.500
  0
VERTEX
  8
Unknown_Area_Type
  10
409234.000
  20
4630601.000
  0
SEQEND
  8
Unknown_Area_Type
  0
INSERT
  8
FeatureAttribs
  2
FEATURE
  41
1
  42
1
  43
1
  50
0
  10
409241.630
  20
4628471.234
 66
1
  0
ATTRIB
  8
FeatureAttribs
 70
0
  1
PNOA-H_AMS_1956-57_33k_ES_PAN_2
  2
NAME
  10
409241.630
  20
4628471.234
 40
33.68954
  0
SEQEND
  0
POLYLINE
  8
Unknown_Area_Type
  70
1
  66
1
  0
VERTEX
  8
Unknown_Area_Type
  10
409234.000
  20
4630601.000
  0
VERTEX
  8
Unknown_Area_Type
  10
409232.000
  20
4630601.500
  0
VERTEX
  8
Unknown_Area_Type
  10
408857.500
  20
4630695.500
  0
VERTEX
  8
Unknown_Area_Type
  10
407936.000
  20
4630239.500
  0
VERTEX
  8
Unknown_Area_Type
  10
407911.500
  20
4626478.500
  0
VERTEX
  8
Unknown_Area_Type
  10
407977.500
  20
4626441.000
  0
VERTEX
  8
Unknown_Area_Type
  10
410553.000
  20
4626477.500
  0
VERTEX
  8
Unknown_Area_Type
  10
410596.000
  20
4630260.500
  0
VERTEX
  8
Unknown_Area_Type
  10
409234.000
  20
4630601.000
  0
SEQEND
  8
Unknown_Area_Type
  0
INSERT
  8
FeatureAttribs
  2
FEATURE
  41
1
  42
1
  43
1
  50
0
  10
414352.006
  20
4628389.146
 66
1
  0
ATTRIB
  8
FeatureAttribs
 70
0
  1
PNOA-H_AMS_1956-57_33k_ES_PAN_2
  2
NAME
  10
414352.006
  20
4628389.146
 40
33.68954
  0
SEQEND
  0
POLYLINE
  8
Unknown_Area_Type
  70
1
  66
1
  0
VERTEX
  8
Unknown_Area_Type
  10
413329.000
  20
4630266.000
  0
VERTEX
  8
Unknown_Area_Type
  10
414163.000
  20
4630625.500
  0
VERTEX
  8
Unknown_Area_Type
  10
415691.500
  20
4630081.000
  0
VERTEX
  8
Unknown_Area_Type
  10
415643.500
  20
4626615.500
  0
VERTEX
  8
Unknown_Area_Type
  10
413708.500
  20
4626236.500
  0
VERTEX
  8
Unknown_Area_Type
  10
413705.500
  20
4626236.500
  0
VERTEX
  8
Unknown_Area_Type
  10
413685.000
  20
4626246.500
  0
VERTEX
  8
Unknown_Area_Type
  10
413022.500
  20
4626572.000
  0
VERTEX
  8
Unknown_Area_Type
  10
413138.000
  20
4630183.500
  0
VERTEX
  8
Unknown_Area_Type
  10
413328.000
  20
4630265.500
  0
VERTEX
  8
Unknown_Area_Type
  10
413329.000
  20
4630266.000
  0
SEQEND
  8
Unknown_Area_Type
  0
INSERT
  8
FeatureAttribs
  2
FEATURE
  41
1
  42
1
  43
1
  50
0
  10
414352.006
  20
4628389.146
 66
1
  0
ATTRIB
  8
FeatureAttribs
 70
0
  1
PNOA-H_AMS_1956-57_33k_ES_PAN_2
  2
NAME
  10
414352.006
  20
4628389.146
 40
33.68954
  0
SEQEND
  0
POLYLINE
  8
Unknown_Area_Type
  70
1
  66
1
  0
VERTEX
  8
Unknown_Area_Type
  10
413329.000
  20
4630266.000
  0
VERTEX
  8
Unknown_Area_Type
  10
413328.000
  20
4630265.500
  0
VERTEX
  8
Unknown_Area_Type
  10
413138.000
  20
4630183.500
  0
VERTEX
  8
Unknown_Area_Type
  10
413022.500
  20
4626572.000
  0
VERTEX
  8
Unknown_Area_Type
  10
413685.000
  20
4626246.500
  0
VERTEX
  8
Unknown_Area_Type
  10
413705.500
  20
4626236.500
  0
VERTEX
  8
Unknown_Area_Type
  10
413708.500
  20
4626236.500
  0
VERTEX
  8
Unknown_Area_Type
  10
415643.500
  20
4626615.500
  0
VERTEX
  8
Unknown_Area_Type
  10
415691.500
  20
4630081.000
  0
VERTEX
  8
Unknown_Area_Type
  10
414163.000
  20
4630625.500
  0
VERTEX
  8
Unknown_Area_Type
  10
413329.000
  20
4630266.000
  0
SEQEND
  8
Unknown_Area_Type
  0
INSERT
  8
FeatureAttribs
  2
FEATURE
  41
1
  42
1
  43
1
  50
0
  10
403612.222
  20
4628474.456
 66
1
  0
ATTRIB
  8
FeatureAttribs
 70
0
  1
PNOA-H_AMS_1956-57_33k_ES_PAN_2
  2
NAME
  10
403612.222
  20
4628474.456
 40
33.68954
  0
SEQEND
  0
POLYLINE
  8
Unknown_Area_Type
  70
1
  66
1
  0
VERTEX
  8
Unknown_Area_Type
  10
402197.000
  20
4630328.500
  0
VERTEX
  8
Unknown_Area_Type
  10
403696.500
  20
4630796.500
  0
VERTEX
  8
Unknown_Area_Type
  10
403698.500
  20
4630797.000
  0
VERTEX
  8
Unknown_Area_Type
  10
403701.500
  20
4630797.000
  0
VERTEX
  8
Unknown_Area_Type
  10
403711.000
  20
4630793.500
  0
VERTEX
  8
Unknown_Area_Type
  10
405088.500
  20
4630284.500
  0
VERTEX
  8
Unknown_Area_Type
  10
405112.000
  20
4626488.000
  0
VERTEX
  8
Unknown_Area_Type
  10
402512.000
  20
4626355.000
  0
VERTEX
  8
Unknown_Area_Type
  10
402069.500
  20
4626610.500
  0
VERTEX
  8
Unknown_Area_Type
  10
402197.000
  20
4630328.500
  0
SEQEND
  8
Unknown_Area_Type
  0
INSERT
  8
FeatureAttribs
  2
FEATURE
  41
1
  42
1
  43
1
  50
0
  10
403612.222
  20
4628474.456
 66
1
  0
ATTRIB
  8
FeatureAttribs
 70
0
  1
PNOA-H_AMS_1956-57_33k_ES_PAN_2
  2
NAME
  10
403612.222
  20
4628474.456
 40
33.68954
  0
SEQEND
  0
POLYLINE
  8
Unknown_Area_Type
  70
1
  66
1
  0
VERTEX
  8
Unknown_Area_Type
  10
402197.000
  20
4630328.500
  0
VERTEX
  8
Unknown_Area_Type
  10
402069.500
  20
4626610.500
  0
VERTEX
  8
Unknown_Area_Type
  10
402512.000
  20
4626355.000
  0
VERTEX
  8
Unknown_Area_Type
  10
405112.000
  20
4626488.000
  0
VERTEX
  8
Unknown_Area_Type
  10
405088.500
  20
4630284.500
  0
VERTEX
  8
Unknown_Area_Type
  10
403711.000
  20
4630793.500
  0
VERTEX
  8
Unknown_Area_Type
  10
403701.500
  20
4630797.000
  0
VERTEX
  8
Unknown_Area_Type
  10
403698.500
  20
4630797.000
  0
VERTEX
  8
Unknown_Area_Type
  10
403696.500
  20
4630796.500
  0
VERTEX
  8
Unknown_Area_Type
  10
402197.000
  20
4630328.500
  0
SEQEND
  8
Unknown_Area_Type
  0
INSERT
  8
FeatureAttribs
  2
FEATURE
  41
1
  42
1
  43
1
  50
0
  10
429035.312
  20
4623560.636
 66
1
  0
ATTRIB
  8
FeatureAttribs
 70
0
  1
PNOA-H_AMS_1956-57_33k_ES_PAN_2
  2
NAME
  10
429035.312
  20
4623560.636
 40
33.68954
  0
SEQEND
  0
POLYLINE
  8
Unknown_Area_Type
  70
1
  66
1
  0
VERTEX
  8
Unknown_Area_Type
  10
429075.389
  20
4621339.292
  0
VERTEX
  8
Unknown_Area_Type
  10
428973.176
  20
4621338.711
  0
VERTEX
  8
Unknown_Area_Type
  10
428983.433
  20
4622372.122
  0
VERTEX
  8
Unknown_Area_Type
  10
429006.401
  20
4624685.155
  0
VERTEX
  8
Unknown_Area_Type
  10
429017.303
  20
4625782.561
  0
VERTEX
  8
Unknown_Area_Type
  10
429075.389
  20
4625763.735
  0
VERTEX
  8
Unknown_Area_Type
  10
429075.389
  20
4621339.292
  0
SEQEND
  8
Unknown_Area_Type
  0
INSERT
  8
FeatureAttribs
  2
FEATURE
  41
1
  42
1
  43
1
  50
0
  10
427640.739
  20
4623709.211
 66
1
  0
ATTRIB
  8
FeatureAttribs
 70
0
  1
PNOA-H_AMS_1956-57_33k_ES_PAN_2
  2
NAME
  10
427640.739
  20
4623709.211
 40
33.68954
  0
SEQEND
  0
POLYLINE
  8
Unknown_Area_Type
  70
1
  66
1
  0
VERTEX
  8
Unknown_Area_Type
  10
428973.176
  20
4621338.711
  0
VERTEX
  8
Unknown_Area_Type
  10
426384.500
  20
4621324.000
  0
VERTEX
  8
Unknown_Area_Type
  10
426245.000
  20
4625978.000
  0
VERTEX
  8
Unknown_Area_Type
  10
426598.500
  20
4626150.500
  0
VERTEX
  8
Unknown_Area_Type
  10
426599.500
  20
4626151.000
  0
VERTEX
  8
Unknown_Area_Type
  10
428332.500
  20
4626004.500
  0
VERTEX
  8
Unknown_Area_Type
  10
429017.303
  20
4625782.561
  0
VERTEX
  8
Unknown_Area_Type
  10
429006.401
  20
4624685.155
  0
VERTEX
  8
Unknown_Area_Type
  10
428983.433
  20
4622372.122
  0
VERTEX
  8
Unknown_Area_Type
  10
428973.176
  20
4621338.711
  0
SEQEND
  8
Unknown_Area_Type
  0
INSERT
  8
FeatureAttribs
  2
FEATURE
  41
1
  42
1
  43
1
  50
0
  10
427640.739
  20
4623709.211
 66
1
  0
ATTRIB
  8
FeatureAttribs
 70
0
  1
PNOA-H_AMS_1956-57_33k_ES_PAN_2
  2
NAME
  10
427640.739
  20
4623709.211
 40
33.68954
  0
SEQEND
  0
POLYLINE
  8
Unknown_Area_Type
  70
1
  66
1
  0
VERTEX
  8
Unknown_Area_Type
  10
428973.176
  20
4621338.711
  0
VERTEX
  8
Unknown_Area_Type
  10
428983.433
  20
4622372.122
  0
VERTEX
  8
Unknown_Area_Type
  10
429006.401
  20
4624685.155
  0
VERTEX
  8
Unknown_Area_Type
  10
429017.303
  20
4625782.561
  0
VERTEX
  8
Unknown_Area_Type
  10
428332.500
  20
4626004.500
  0
VERTEX
  8
Unknown_Area_Type
  10
426599.500
  20
4626151.000
  0
VERTEX
  8
Unknown_Area_Type
  10
426598.500
  20
4626150.500
  0
VERTEX
  8
Unknown_Area_Type
  10
426245.000
  20
4625978.000
  0
VERTEX
  8
Unknown_Area_Type
  10
426384.500
  20
4621324.000
  0
VERTEX
  8
Unknown_Area_Type
  10
428973.176
  20
4621338.711
  0
SEQEND
  8
Unknown_Area_Type
  0
INSERT
  8
FeatureAttribs
  2
FEATURE
  41
1
  42
1
  43
1
  50
0
  10
406499.761
  20
4628487.895
 66
1
  0
ATTRIB
  8
FeatureAttribs
 70
0
  1
PNOA-H_AMS_1956-57_33k_ES_PAN_2
  2
NAME
  10
406499.761
  20
4628487.895
 40
33.68954
  0
SEQEND
  0
POLYLINE
  8
Unknown_Area_Type
  70
1
  66
1
  0
VERTEX
  8
Unknown_Area_Type
  10
405137.000
  20
4630305.500
  0
VERTEX
  8
Unknown_Area_Type
  10
406214.500
  20
4630769.500
  0
VERTEX
  8
Unknown_Area_Type
  10
406235.500
  20
4630778.500
  0
VERTEX
  8
Unknown_Area_Type
  10
406238.000
  20
4630778.500
  0
VERTEX
  8
Unknown_Area_Type
  10
407936.000
  20
4630239.000
  0
VERTEX
  8
Unknown_Area_Type
  10
407911.500
  20
4626478.500
  0
VERTEX
  8
Unknown_Area_Type
  10
405270.000
  20
4626400.500
  0
VERTEX
  8
Unknown_Area_Type
  10
405112.000
  20
4626488.000
  0
VERTEX
  8
Unknown_Area_Type
  10
405088.500
  20
4630284.500
  0
VERTEX
  8
Unknown_Area_Type
  10
405136.000
  20
4630305.000
  0
VERTEX
  8
Unknown_Area_Type
  10
405137.000
  20
4630305.500
  0
SEQEND
  8
Unknown_Area_Type
  0
INSERT
  8
FeatureAttribs
  2
FEATURE
  41
1
  42
1
  43
1
  50
0
  10
406499.761
  20
4628487.895
 66
1
  0
ATTRIB
  8
FeatureAttribs
 70
0
  1
PNOA-H_AMS_1956-57_33k_ES_PAN_2
  2
NAME
  10
406499.761
  20
4628487.895
 40
33.68954
  0
SEQEND
  0
POLYLINE
  8
Unknown_Area_Type
  70
1
  66
1
  0
VERTEX
  8
Unknown_Area_Type
  10
405137.000
  20
4630305.500
  0
VERTEX
  8
Unknown_Area_Type
  10
405136.000
  20
4630305.000
  0
VERTEX
  8
Unknown_Area_Type
  10
405088.500
  20
4630284.500
  0
VERTEX
  8
Unknown_Area_Type
  10
405112.000
  20
4626488.000
  0
VERTEX
  8
Unknown_Area_Type
  10
405270.000
  20
4626400.500
  0
VERTEX
  8
Unknown_Area_Type
  10
407911.500
  20
4626478.500
  0
VERTEX
  8
Unknown_Area_Type
  10
407936.000
  20
4630239.000
  0
VERTEX
  8
Unknown_Area_Type
  10
406238.000
  20
4630778.500
  0
VERTEX
  8
Unknown_Area_Type
  10
406235.500
  20
4630778.500
  0
VERTEX
  8
Unknown_Area_Type
  10
406214.500
  20
4630769.500
  0
VERTEX
  8
Unknown_Area_Type
  10
405137.000
  20
4630305.500
  0
SEQEND
  8
Unknown_Area_Type
  0
INSERT
  8
FeatureAttribs
  2
FEATURE
  41
1
  42
1
  43
1
  50
0
  10
425194.889
  20
4623010.849
 66
1
  0
ATTRIB
  8
FeatureAttribs
 70
0
  1
PNOA-H_AMS_1956-57_33k_ES_PAN_2
  2
NAME
  10
425194.889
  20
4623010.849
 40
33.68954
  0
SEQEND
  0
POLYLINE
  8
Unknown_Area_Type
  70
1
  66
1
  0
VERTEX
  8
Unknown_Area_Type
  10
423569.000
  20
4622292.500
  0
VERTEX
  8
Unknown_Area_Type
  10
423569.500
  20
4622294.000
  0
VERTEX
  8
Unknown_Area_Type
  10
425905.500
  20
4626005.000
  0
VERTEX
  8
Unknown_Area_Type
  10
425912.500
  20
4626005.500
  0
VERTEX
  8
Unknown_Area_Type
  10
426244.500
  20
4625978.000
  0
VERTEX
  8
Unknown_Area_Type
  10
426384.500
  20
4621323.500
  0
VERTEX
  8
Unknown_Area_Type
  10
426228.000
  20
4621229.500
  0
VERTEX
  8
Unknown_Area_Type
  10
423196.500
  20
4621369.500
  0
VERTEX
  8
Unknown_Area_Type
  10
423051.000
  20
4621470.500
  0
VERTEX
  8
Unknown_Area_Type
  10
423569.000
  20
4622292.500
  0
SEQEND
  8
Unknown_Area_Type
  0
INSERT
  8
FeatureAttribs
  2
FEATURE
  41
1
  42
1
  43
1
  50
0
  10
425194.889
  20
4623010.849
 66
1
  0
ATTRIB
  8
FeatureAttribs
 70
0
  1
PNOA-H_AMS_1956-57_33k_ES_PAN_2
  2
NAME
  10
425194.889
  20
4623010.849
 40
33.68954
  0
SEQEND
  0
POLYLINE
  8
Unknown_Area_Type
  70
1
  66
1
  0
VERTEX
  8
Unknown_Area_Type
  10
423569.000
  20
4622292.500
  0
VERTEX
  8
Unknown_Area_Type
  10
423051.000
  20
4621470.500
  0
VERTEX
  8
Unknown_Area_Type
  10
423196.500
  20
4621369.500
  0
VERTEX
  8
Unknown_Area_Type
  10
426228.000
  20
4621229.500
  0
VERTEX
  8
Unknown_Area_Type
  10
426384.500
  20
4621323.500
  0
VERTEX
  8
Unknown_Area_Type
  10
426244.500
  20
4625978.000
  0
VERTEX
  8
Unknown_Area_Type
  10
425912.500
  20
4626005.500
  0
VERTEX
  8
Unknown_Area_Type
  10
425905.500
  20
4626005.000
  0
VERTEX
  8
Unknown_Area_Type
  10
423569.500
  20
4622294.000
  0
VERTEX
  8
Unknown_Area_Type
  10
423569.000
  20
4622292.500
  0
SEQEND
  8
Unknown_Area_Type
  0
INSERT
  8
FeatureAttribs
  2
FEATURE
  41
1
  42
1
  43
1
  50
0
  10
426934.160
  20
4631413.412
 66
1
  0
ATTRIB
  8
FeatureAttribs
 70
0
  1
PNOA-H_AMS_1956-57_33k_ES_PAN_2
  2
NAME
  10
426934.160
  20
4631413.412
 40
33.68954
  0
SEQEND
  0
POLYLINE
  8
Unknown_Area_Type
  70
1
  66
1
  0
VERTEX
  8
Unknown_Area_Type
  10
427221.800
  20
4631643.187
  0
VERTEX
  8
Unknown_Area_Type
  10
427022.000
  20
4631179.500
  0
VERTEX
  8
Unknown_Area_Type
  10
427020.500
  20
4631176.500
  0
VERTEX
  8
Unknown_Area_Type
  10
427019.000
  20
4631176.000
  0
VERTEX
  8
Unknown_Area_Type
  10
426472.059
  20
4631650.825
  0
VERTEX
  8
Unknown_Area_Type
  10
427221.800
  20
4631643.187
  0
SEQEND
  8
Unknown_Area_Type
  0
INSERT
  8
FeatureAttribs
  2
FEATURE
  41
1
  42
1
  43
1
  50
0
  10
426934.160
  20
4631413.412
 66
1
  0
ATTRIB
  8
FeatureAttribs
 70
0
  1
PNOA-H_AMS_1956-57_33k_ES_PAN_2
  2
NAME
  10
426934.160
  20
4631413.412
 40
33.68954
  0
SEQEND
  0
POLYLINE
  8
Unknown_Area_Type
  70
1
  66
1
  0
VERTEX
  8
Unknown_Area_Type
  10
427221.800
  20
4631643.187
  0
VERTEX
  8
Unknown_Area_Type
  10
427022.000
  20
4631179.500
  0
VERTEX
  8
Unknown_Area_Type
  10
427020.500
  20
4631176.500
  0
VERTEX
  8
Unknown_Area_Type
  10
427019.000
  20
4631176.000
  0
VERTEX
  8
Unknown_Area_Type
  10
426472.059
  20
4631650.825
  0
VERTEX
  8
Unknown_Area_Type
  10
427221.800
  20
4631643.187
  0
SEQEND
  8
Unknown_Area_Type
  0
INSERT
  8
FeatureAttribs
  2
FEATURE
  41
1
  42
1
  43
1
  50
0
  10
426795.437
  20
4631798.229
 66
1
  0
ATTRIB
  8
FeatureAttribs
 70
0
  1
PNOA-H_AMS_1956-57_33k_ES_PAN_2
  2
NAME
  10
426795.437
  20
4631798.229
 40
33.68954
  0
SEQEND
  0
POLYLINE
  8
Unknown_Area_Type
  70
1
  66
1
  0
VERTEX
  8
Unknown_Area_Type
  10
427355.413
  20
4631953.270
  0
VERTEX
  8
Unknown_Area_Type
  10
427221.800
  20
4631643.187
  0
VERTEX
  8
Unknown_Area_Type
  10
426472.059
  20
4631650.825
  0
VERTEX
  8
Unknown_Area_Type
  10
426123.679
  20
4631953.270
  0
VERTEX
  8
Unknown_Area_Type
  10
427355.413
  20
4631953.270
  0
SEQEND
  8
Unknown_Area_Type
  0
INSERT
  8
FeatureAttribs
  2
FEATURE
  41
1
  42
1
  43
1
  50
0
  10
429027.668
  20
4631801.915
 66
1
  0
ATTRIB
  8
FeatureAttribs
 70
0
  1
PNOA-H_AMS_1956-57_33k_ES_PAN_2
  2
NAME
  10
429027.668
  20
4631801.915
 40
33.68954
  0
SEQEND
  0
POLYLINE
  8
Unknown_Area_Type
  70
1
  66
1
  0
VERTEX
  8
Unknown_Area_Type
  10
429075.389
  20
4631650.560
  0
VERTEX
  8
Unknown_Area_Type
  10
428884.505
  20
4631953.270
  0
VERTEX
  8
Unknown_Area_Type
  10
429075.389
  20
4631953.270
  0
VERTEX
  8
Unknown_Area_Type
  10
429075.389
  20
4631650.560
  0
SEQEND
  8
Unknown_Area_Type
  0
INSERT
  8
FeatureAttribs
  2
FEATURE
  41
1
  42
1
  43
1
  50
0
  10
401216.907
  20
4624361.778
 66
1
  0
ATTRIB
  8
FeatureAttribs
 70
0
  1
PNOA-H_AMS_1956-57_33k_ES_PAN_2
  2
NAME
  10
401216.907
  20
4624361.778
 40
33.68954
  0
SEQEND
  0
POLYLINE
  8
Unknown_Area_Type
  70
1
  66
1
  0
VERTEX
  8
Unknown_Area_Type
  10
401261.968
  20
4622172.695
  0
VERTEX
  8
Unknown_Area_Type
  10
401141.628
  20
4622196.931
  0
VERTEX
  8
Unknown_Area_Type
  10
401141.628
  20
4626536.413
  0
VERTEX
  8
Unknown_Area_Type
  10
401322.418
  20
4626550.860
  0
VERTEX
  8
Unknown_Area_Type
  10
401301.192
  20
4625014.018
  0
VERTEX
  8
Unknown_Area_Type
  10
401269.258
  20
4622700.957
  0
VERTEX
  8
Unknown_Area_Type
  10
401261.968
  20
4622172.695
  0
SEQEND
  8
Unknown_Area_Type
  0
INSERT
  8
FeatureAttribs
  2
FEATURE
  41
1
  42
1
  43
1
  50
0
  10
401877.526
  20
4624317.878
 66
1
  0
ATTRIB
  8
FeatureAttribs
 70
0
  1
PNOA-H_AMS_1956-57_33k_ES_PAN_2
  2
NAME
  10
401877.526
  20
4624317.878
 40
33.68954
  0
SEQEND
  0
POLYLINE
  8
Unknown_Area_Type
  70
1
  66
1
  0
VERTEX
  8
Unknown_Area_Type
  10
401322.418
  20
4626550.860
  0
VERTEX
  8
Unknown_Area_Type
  10
402062.500
  20
4626610.000
  0
VERTEX
  8
Unknown_Area_Type
  10
402069.000
  20
4626610.500
  0
VERTEX
  8
Unknown_Area_Type
  10
402513.000
  20
4626355.000
  0
VERTEX
  8
Unknown_Area_Type
  10
402400.000
  20
4621943.500
  0
VERTEX
  8
Unknown_Area_Type
  10
401261.968
  20
4622172.695
  0
VERTEX
  8
Unknown_Area_Type
  10
401269.258
  20
4622700.957
  0
VERTEX
  8
Unknown_Area_Type
  10
401301.192
  20
4625014.018
  0
VERTEX
  8
Unknown_Area_Type
  10
401322.418
  20
4626550.860
  0
SEQEND
  8
Unknown_Area_Type
  0
INSERT
  8
FeatureAttribs
  2
FEATURE
  41
1
  42
1
  43
1
  50
0
  10
401877.526
  20
4624317.878
 66
1
  0
ATTRIB
  8
FeatureAttribs
 70
0
  1
PNOA-H_AMS_1956-57_33k_ES_PAN_2
  2
NAME
  10
401877.526
  20
4624317.878
 40
33.68954
  0
SEQEND
  0
POLYLINE
  8
Unknown_Area_Type
  70
1
  66
1
  0
VERTEX
  8
Unknown_Area_Type
  10
401322.418
  20
4626550.860
  0
VERTEX
  8
Unknown_Area_Type
  10
401301.192
  20
4625014.018
  0
VERTEX
  8
Unknown_Area_Type
  10
401269.258
  20
4622700.957
  0
VERTEX
  8
Unknown_Area_Type
  10
401261.968
  20
4622172.695
  0
VERTEX
  8
Unknown_Area_Type
  10
402400.000
  20
4621943.500
  0
VERTEX
  8
Unknown_Area_Type
  10
402513.000
  20
4626355.000
  0
VERTEX
  8
Unknown_Area_Type
  10
402069.000
  20
4626610.500
  0
VERTEX
  8
Unknown_Area_Type
  10
402062.500
  20
4626610.000
  0
VERTEX
  8
Unknown_Area_Type
  10
401322.418
  20
4626550.860
  0
SEQEND
  8
Unknown_Area_Type
  0
INSERT
  8
FeatureAttribs
  2
FEATURE
  41
1
  42
1
  43
1
  50
0
  10
406673.769
  20
4623946.473
 66
1
  0
ATTRIB
  8
FeatureAttribs
 70
0
  1
PNOA-H_AMS_1956-57_33k_ES_PAN_2
  2
NAME
  10
406673.769
  20
4623946.473
 40
33.68954
  0
SEQEND
  0
POLYLINE
  8
Unknown_Area_Type
  70
1
  66
1
  0
VERTEX
  8
Unknown_Area_Type
  10
407184.000
  20
4626457.500
  0
VERTEX
  8
Unknown_Area_Type
  10
407912.500
  20
4626478.500
  0
VERTEX
  8
Unknown_Area_Type
  10
407977.500
  20
4626441.500
  0
VERTEX
  8
Unknown_Area_Type
  10
407978.500
  20
4626439.500
  0
VERTEX
  8
Unknown_Area_Type
  10
408085.500
  20
4621501.500
  0
VERTEX
  8
Unknown_Area_Type
  10
407825.500
  20
4621367.500
  0
VERTEX
  8
Unknown_Area_Type
  10
405307.000
  20
4621589.500
  0
VERTEX
  8
Unknown_Area_Type
  10
405270.000
  20
4626400.500
  0
VERTEX
  8
Unknown_Area_Type
  10
407167.000
  20
4626457.000
  0
VERTEX
  8
Unknown_Area_Type
  10
407184.000
  20
4626457.500
  0
SEQEND
  8
Unknown_Area_Type
  0
INSERT
  8
FeatureAttribs
  2
FEATURE
  41
1
  42
1
  43
1
  50
0
  10
406673.769
  20
4623946.473
 66
1
  0
ATTRIB
  8
FeatureAttribs
 70
0
  1
PNOA-H_AMS_1956-57_33k_ES_PAN_2
  2
NAME
  10
406673.769
  20
4623946.473
 40
33.68954
  0
SEQEND
  0
POLYLINE
  8
Unknown_Area_Type
  70
1
  66
1
  0
VERTEX
  8
Unknown_Area_Type
  10
407184.000
  20
4626457.500
  0
VERTEX
  8
Unknown_Area_Type
  10
407167.000
  20
4626457.000
  0
VERTEX
  8
Unknown_Area_Type
  10
405270.000
  20
4626400.500
  0
VERTEX
  8
Unknown_Area_Type
  10
405307.000
  20
4621589.500
  0
VERTEX
  8
Unknown_Area_Type
  10
407825.500
  20
4621367.500
  0
VERTEX
  8
Unknown_Area_Type
  10
408085.500
  20
4621501.500
  0
VERTEX
  8
Unknown_Area_Type
  10
407978.500
  20
4626439.500
  0
VERTEX
  8
Unknown_Area_Type
  10
407977.500
  20
4626441.500
  0
VERTEX
  8
Unknown_Area_Type
  10
407912.500
  20
4626478.500
  0
VERTEX
  8
Unknown_Area_Type
  10
407184.000
  20
4626457.500
  0
SEQEND
  8
Unknown_Area_Type
  0
INSERT
  8
FeatureAttribs
  2
FEATURE
  41
1
  42
1
  43
1
  50
0
  10
415181.772
  20
4624000.523
 66
1
  0
ATTRIB
  8
FeatureAttribs
 70
0
  1
PNOA-H_AMS_1956-57_33k_ES_PAN_2
  2
NAME
  10
415181.772
  20
4624000.523
 40
33.68954
  0
SEQEND
  0
POLYLINE
  8
Unknown_Area_Type
  70
1
  66
1
  0
VERTEX
  8
Unknown_Area_Type
  10
413706.500
  20
4626236.500
  0
VERTEX
  8
Unknown_Area_Type
  10
415644.000
  20
4626615.500
  0
VERTEX
  8
Unknown_Area_Type
  10
416666.500
  20
4626204.500
  0
VERTEX
  8
Unknown_Area_Type
  10
416668.000
  20
4624238.000
  0
VERTEX
  8
Unknown_Area_Type
  10
416668.000
  20
4623624.000
  0
VERTEX
  8
Unknown_Area_Type
  10
416669.000
  20
4621665.000
  0
VERTEX
  8
Unknown_Area_Type
  10
414014.500
  20
4621501.500
  0
VERTEX
  8
Unknown_Area_Type
  10
414012.500
  20
4621501.500
  0
VERTEX
  8
Unknown_Area_Type
  10
414003.500
  20
4621506.000
  0
VERTEX
  8
Unknown_Area_Type
  10
413692.500
  20
4621663.000
  0
VERTEX
  8
Unknown_Area_Type
  10
413706.500
  20
4626236.500
  0
SEQEND
  8
Unknown_Area_Type
  0
INSERT
  8
FeatureAttribs
  2
FEATURE
  41
1
  42
1
  43
1
  50
0
  10
415181.772
  20
4624000.523
 66
1
  0
ATTRIB
  8
FeatureAttribs
 70
0
  1
PNOA-H_AMS_1956-57_33k_ES_PAN_2
  2
NAME
  10
415181.772
  20
4624000.523
 40
33.68954
  0
SEQEND
  0
POLYLINE
  8
Unknown_Area_Type
  70
1
  66
1
  0
VERTEX
  8
Unknown_Area_Type
  10
413706.500
  20
4626236.500
  0
VERTEX
  8
Unknown_Area_Type
  10
413692.500
  20
4621663.000
  0
VERTEX
  8
Unknown_Area_Type
  10
414003.500
  20
4621506.000
  0
VERTEX
  8
Unknown_Area_Type
  10
414012.500
  20
4621501.500
  0
VERTEX
  8
Unknown_Area_Type
  10
414014.500
  20
4621501.500
  0
VERTEX
  8
Unknown_Area_Type
  10
416669.000
  20
4621665.000
  0
VERTEX
  8
Unknown_Area_Type
  10
416668.000
  20
4623624.000
  0
VERTEX
  8
Unknown_Area_Type
  10
416668.000
  20
4624238.000
  0
VERTEX
  8
Unknown_Area_Type
  10
416666.500
  20
4626204.500
  0
VERTEX
  8
Unknown_Area_Type
  10
415644.000
  20
4626615.500
  0
VERTEX
  8
Unknown_Area_Type
  10
413706.500
  20
4626236.500
  0
SEQEND
  8
Unknown_Area_Type
  0
INSERT
  8
FeatureAttribs
  2
FEATURE
  41
1
  42
1
  43
1
  50
0
  10
421117.007
  20
4623970.821
 66
1
  0
ATTRIB
  8
FeatureAttribs
 70
0
  1
PNOA-H_AMS_1956-57_33k_ES_PAN_2
  2
NAME
  10
421117.007
  20
4623970.821
 40
33.68954
  0
SEQEND
  0
POLYLINE
  8
Unknown_Area_Type
  70
1
  66
1
  0
VERTEX
  8
Unknown_Area_Type
  10
419661.500
  20
4626163.500
  0
VERTEX
  8
Unknown_Area_Type
  10
421124.500
  20
4626612.000
  0
VERTEX
  8
Unknown_Area_Type
  10
421126.500
  20
4626612.500
  0
VERTEX
  8
Unknown_Area_Type
  10
421129.500
  20
4626612.500
  0
VERTEX
  8
Unknown_Area_Type
  10
421153.000
  20
4626605.000
  0
VERTEX
  8
Unknown_Area_Type
  10
422696.000
  20
4626109.500
  0
VERTEX
  8
Unknown_Area_Type
  10
422584.000
  20
4621692.500
  0
VERTEX
  8
Unknown_Area_Type
  10
420198.500
  20
4621421.500
  0
VERTEX
  8
Unknown_Area_Type
  10
419567.000
  20
4621716.500
  0
VERTEX
  8
Unknown_Area_Type
  10
419661.500
  20
4626163.500
  0
SEQEND
  8
Unknown_Area_Type
  0
INSERT
  8
FeatureAttribs
  2
FEATURE
  41
1
  42
1
  43
1
  50
0
  10
421117.007
  20
4623970.821
 66
1
  0
ATTRIB
  8
FeatureAttribs
 70
0
  1
PNOA-H_AMS_1956-57_33k_ES_PAN_2
  2
NAME
  10
421117.007
  20
4623970.821
 40
33.68954
  0
SEQEND
  0
POLYLINE
  8
Unknown_Area_Type
  70
1
  66
1
  0
VERTEX
  8
Unknown_Area_Type
  10
419661.500
  20
4626163.500
  0
VERTEX
  8
Unknown_Area_Type
  10
419567.000
  20
4621716.500
  0
VERTEX
  8
Unknown_Area_Type
  10
420198.500
  20
4621421.500
  0
VERTEX
  8
Unknown_Area_Type
  10
422584.000
  20
4621692.500
  0
VERTEX
  8
Unknown_Area_Type
  10
422696.000
  20
4626109.500
  0
VERTEX
  8
Unknown_Area_Type
  10
421153.000
  20
4626605.000
  0
VERTEX
  8
Unknown_Area_Type
  10
421129.500
  20
4626612.500
  0
VERTEX
  8
Unknown_Area_Type
  10
421126.500
  20
4626612.500
  0
VERTEX
  8
Unknown_Area_Type
  10
421124.500
  20
4626612.000
  0
VERTEX
  8
Unknown_Area_Type
  10
419661.500
  20
4626163.500
  0
SEQEND
  8
Unknown_Area_Type
  0
INSERT
  8
FeatureAttribs
  2
FEATURE
  41
1
  42
1
  43
1
  50
0
  10
409415.220
  20
4623966.165
 66
1
  0
ATTRIB
  8
FeatureAttribs
 70
0
  1
PNOA-H_AMS_1956-57_33k_ES_PAN_2
  2
NAME
  10
409415.220
  20
4623966.165
 40
33.68954
  0
SEQEND
  0
POLYLINE
  8
Unknown_Area_Type
  70
1
  66
1
  0
VERTEX
  8
Unknown_Area_Type
  10
409211.000
  20
4626458.500
  0
VERTEX
  8
Unknown_Area_Type
  10
410553.000
  20
4626477.500
  0
VERTEX
  8
Unknown_Area_Type
  10
410713.500
  20
4626392.500
  0
VERTEX
  8
Unknown_Area_Type
  10
410877.500
  20
4621482.000
  0
VERTEX
  8
Unknown_Area_Type
  10
408085.500
  20
4621501.500
  0
VERTEX
  8
Unknown_Area_Type
  10
407978.000
  20
4626441.000
  0
VERTEX
  8
Unknown_Area_Type
  10
409176.000
  20
4626458.000
  0
VERTEX
  8
Unknown_Area_Type
  10
409211.000
  20
4626458.500
  0
SEQEND
  8
Unknown_Area_Type
  0
INSERT
  8
FeatureAttribs
  2
FEATURE
  41
1
  42
1
  43
1
  50
0
  10
409415.220
  20
4623966.165
 66
1
  0
ATTRIB
  8
FeatureAttribs
 70
0
  1
PNOA-H_AMS_1956-57_33k_ES_PAN_2
  2
NAME
  10
409415.220
  20
4623966.165
 40
33.68954
  0
SEQEND
  0
POLYLINE
  8
Unknown_Area_Type
  70
1
  66
1
  0
VERTEX
  8
Unknown_Area_Type
  10
409211.000
  20
4626458.500
  0
VERTEX
  8
Unknown_Area_Type
  10
409176.000
  20
4626458.000
  0
VERTEX
  8
Unknown_Area_Type
  10
407978.000
  20
4626441.000
  0
VERTEX
  8
Unknown_Area_Type
  10
408085.500
  20
4621501.500
  0
VERTEX
  8
Unknown_Area_Type
  10
410877.500
  20
4621482.000
  0
VERTEX
  8
Unknown_Area_Type
  10
410713.500
  20
4626392.500
  0
VERTEX
  8
Unknown_Area_Type
  10
410553.000
  20
4626477.500
  0
VERTEX
  8
Unknown_Area_Type
  10
409211.000
  20
4626458.500
  0
SEQEND
  8
Unknown_Area_Type
  0
INSERT
  8
FeatureAttribs
  2
FEATURE
  41
1
  42
1
  43
1
  50
0
  10
401149.978
  20
4614658.450
 66
1
  0
ATTRIB
  8
FeatureAttribs
 70
0
  1
PNOA-H_AMS_1956-57_33k_ES_PAN_2
  2
NAME
  10
401149.978
  20
4614658.450
 40
33.68954
  0
SEQEND
  0
POLYLINE
  8
Unknown_Area_Type
  70
1
  66
1
  0
VERTEX
  8
Unknown_Area_Type
  10
401175.002
  20
4615868.108
  0
VERTEX
  8
Unknown_Area_Type
  10
401173.537
  20
4615761.821
  0
VERTEX
  8
Unknown_Area_Type
  10
401141.656
  20
4613448.792
  0
VERTEX
  8
Unknown_Area_Type
  10
401141.628
  20
4613448.793
  0
VERTEX
  8
Unknown_Area_Type
  10
401141.628
  20
4615817.640
  0
VERTEX
  8
Unknown_Area_Type
  10
401175.002
  20
4615868.108
  0
SEQEND
  8
Unknown_Area_Type
  0
INSERT
  8
FeatureAttribs
  2
FEATURE
  41
1
  42
1
  43
1
  50
0
  10
401141.642
  20
4613448.286
 66
1
  0
ATTRIB
  8
FeatureAttribs
 70
0
  1
PNOA-H_AMS_1956-57_33k_ES_PAN_2
  2
NAME
  10
401141.642
  20
4613448.286
 40
33.68954
  0
SEQEND
  0
POLYLINE
  8
Unknown_Area_Type
  70
1
  66
1
  0
VERTEX
  8
Unknown_Area_Type
  10
401141.628
  20
4613448.793
  0
VERTEX
  8
Unknown_Area_Type
  10
401141.656
  20
4613448.792
  0
VERTEX
  8
Unknown_Area_Type
  10
401141.628
  20
4613446.765
  0
VERTEX
  8
Unknown_Area_Type
  10
401141.628
  20
4613448.793
  0
SEQEND
  8
Unknown_Area_Type
  0
INSERT
  8
FeatureAttribs
  2
FEATURE
  41
1
  42
1
  43
1
  50
0
  10
401739.835
  20
4613349.396
 66
1
  0
ATTRIB
  8
FeatureAttribs
 70
0
  1
PNOA-H_AMS_1956-57_33k_ES_PAN_2
  2
NAME
  10
401739.835
  20
4613349.396
 40
33.68954
  0
SEQEND
  0
POLYLINE
  8
Unknown_Area_Type
  70
1
  66
1
  0
VERTEX
  8
Unknown_Area_Type
  10
402338.000
  20
4613432.596
  0
VERTEX
  8
Unknown_Area_Type
  10
402338.000
  20
4613384.000
  0
VERTEX
  8
Unknown_Area_Type
  10
402338.165
  20
4613250.000
  0
VERTEX
  8
Unknown_Area_Type
  10
401141.628
  20
4613250.000
  0
VERTEX
  8
Unknown_Area_Type
  10
401141.628
  20
4613446.765
  0
VERTEX
  8
Unknown_Area_Type
  10
401141.656
  20
4613448.792
  0
VERTEX
  8
Unknown_Area_Type
  10
402338.000
  20
4613432.596
  0
SEQEND
  8
Unknown_Area_Type
  0
INSERT
  8
FeatureAttribs
  2
FEATURE
  41
1
  42
1
  43
1
  50
0
  10
401775.081
  20
4614988.243
 66
1
  0
ATTRIB
  8
FeatureAttribs
 70
0
  1
PNOA-H_AMS_1956-57_33k_ES_PAN_2
  2
NAME
  10
401775.081
  20
4614988.243
 40
33.68954
  0
SEQEND
  0
POLYLINE
  8
Unknown_Area_Type
  70
1
  66
1
  0
VERTEX
  8
Unknown_Area_Type
  10
402338.000
  20
4613432.596
  0
VERTEX
  8
Unknown_Area_Type
  10
401141.656
  20
4613448.792
  0
VERTEX
  8
Unknown_Area_Type
  10
401173.537
  20
4615761.821
  0
VERTEX
  8
Unknown_Area_Type
  10
401175.002
  20
4615868.108
  0
VERTEX
  8
Unknown_Area_Type
  10
401824.000
  20
4616849.500
  0
VERTEX
  8
Unknown_Area_Type
  10
402333.500
  20
4616636.000
  0
VERTEX
  8
Unknown_Area_Type
  10
402338.000
  20
4613481.000
  0
VERTEX
  8
Unknown_Area_Type
  10
402338.000
  20
4613432.596
  0
SEQEND
  8
Unknown_Area_Type
  0
INSERT
  8
FeatureAttribs
  2
FEATURE
  41
1
  42
1
  43
1
  50
0
  10
401775.081
  20
4614988.243
 66
1
  0
ATTRIB
  8
FeatureAttribs
 70
0
  1
PNOA-H_AMS_1956-57_33k_ES_PAN_2
  2
NAME
  10
401775.081
  20
4614988.243
 40
33.68954
  0
SEQEND
  0
POLYLINE
  8
Unknown_Area_Type
  70
1
  66
1
  0
VERTEX
  8
Unknown_Area_Type
  10
402338.000
  20
4613432.596
  0
VERTEX
  8
Unknown_Area_Type
  10
402338.000
  20
4613481.000
  0
VERTEX
  8
Unknown_Area_Type
  10
402333.500
  20
4616636.000
  0
VERTEX
  8
Unknown_Area_Type
  10
401824.000
  20
4616849.500
  0
VERTEX
  8
Unknown_Area_Type
  10
401175.002
  20
4615868.108
  0
VERTEX
  8
Unknown_Area_Type
  10
401173.537
  20
4615761.821
  0
VERTEX
  8
Unknown_Area_Type
  10
401141.656
  20
4613448.792
  0
VERTEX
  8
Unknown_Area_Type
  10
402338.000
  20
4613432.596
  0
SEQEND
  8
Unknown_Area_Type
  0
INSERT
  8
FeatureAttribs
  2
FEATURE
  41
1
  42
1
  43
1
  50
0
  10
423781.895
  20
4624502.732
 66
1
  0
ATTRIB
  8
FeatureAttribs
 70
0
  1
PNOA-H_AMS_1956-57_33k_ES_PAN_2
  2
NAME
  10
423781.895
  20
4624502.732
 40
33.68954
  0
SEQEND
  0
POLYLINE
  8
Unknown_Area_Type
  70
1
  66
1
  0
VERTEX
  8
Unknown_Area_Type
  10
422696.000
  20
4626109.500
  0
VERTEX
  8
Unknown_Area_Type
  10
423891.000
  20
4626537.500
  0
VERTEX
  8
Unknown_Area_Type
  10
425616.500
  20
4626082.000
  0
VERTEX
  8
Unknown_Area_Type
  10
425618.000
  20
4626081.500
  0
VERTEX
  8
Unknown_Area_Type
  10
425906.500
  20
4626005.500
  0
VERTEX
  8
Unknown_Area_Type
  10
423052.500
  20
4621472.000
  0
VERTEX
  8
Unknown_Area_Type
  10
423051.500
  20
4621470.500
  0
VERTEX
  8
Unknown_Area_Type
  10
423050.000
  20
4621470.500
  0
VERTEX
  8
Unknown_Area_Type
  10
422584.000
  20
4621692.500
  0
VERTEX
  8
Unknown_Area_Type
  10
422696.000
  20
4626109.500
  0
SEQEND
  8
Unknown_Area_Type
  0
INSERT
  8
FeatureAttribs
  2
FEATURE
  41
1
  42
1
  43
1
  50
0
  10
423781.895
  20
4624502.732
 66
1
  0
ATTRIB
  8
FeatureAttribs
 70
0
  1
PNOA-H_AMS_1956-57_33k_ES_PAN_2
  2
NAME
  10
423781.895
  20
4624502.732
 40
33.68954
  0
SEQEND
  0
POLYLINE
  8
Unknown_Area_Type
  70
1
  66
1
  0
VERTEX
  8
Unknown_Area_Type
  10
422696.000
  20
4626109.500
  0
VERTEX
  8
Unknown_Area_Type
  10
422584.000
  20
4621692.500
  0
VERTEX
  8
Unknown_Area_Type
  10
423050.000
  20
4621470.500
  0
VERTEX
  8
Unknown_Area_Type
  10
423051.500
  20
4621470.500
  0
VERTEX
  8
Unknown_Area_Type
  10
423052.500
  20
4621472.000
  0
VERTEX
  8
Unknown_Area_Type
  10
425906.500
  20
4626005.500
  0
VERTEX
  8
Unknown_Area_Type
  10
425618.000
  20
4626081.500
  0
VERTEX
  8
Unknown_Area_Type
  10
425616.500
  20
4626082.000
  0
VERTEX
  8
Unknown_Area_Type
  10
423891.000
  20
4626537.500
  0
VERTEX
  8
Unknown_Area_Type
  10
422696.000
  20
4626109.500
  0
SEQEND
  8
Unknown_Area_Type
  0
INSERT
  8
FeatureAttribs
  2
FEATURE
  41
1
  42
1
  43
1
  50
0
  10
406688.937
  20
4613281.724
 66
1
  0
ATTRIB
  8
FeatureAttribs
 70
0
  1
PNOA-H_AMS_1956-57_33k_ES_PAN_2
  2
NAME
  10
406688.937
  20
4613281.724
 40
33.68954
  0
SEQEND
  0
POLYLINE
  8
Unknown_Area_Type
  70
1
  66
1
  0
VERTEX
  8
Unknown_Area_Type
  10
408122.413
  20
4613356.002
  0
VERTEX
  8
Unknown_Area_Type
  10
408127.123
  20
4613170.000
  0
VERTEX
  8
Unknown_Area_Type
  10
407970.000
  20
4613170.000
  0
VERTEX
  8
Unknown_Area_Type
  10
407970.000
  20
4613250.000
  0
VERTEX
  8
Unknown_Area_Type
  10
405253.896
  20
4613250.000
  0
VERTEX
  8
Unknown_Area_Type
  10
405252.473
  20
4613393.448
  0
VERTEX
  8
Unknown_Area_Type
  10
408079.189
  20
4613356.546
  0
VERTEX
  8
Unknown_Area_Type
  10
408122.413
  20
4613356.002
  0
SEQEND
  8
Unknown_Area_Type
  0
INSERT
  8
FeatureAttribs
  2
FEATURE
  41
1
  42
1
  43
1
  50
0
  10
406677.286
  20
4615007.652
 66
1
  0
ATTRIB
  8
FeatureAttribs
 70
0
  1
PNOA-H_AMS_1956-57_33k_ES_PAN_2
  2
NAME
  10
406677.286
  20
4615007.652
 40
33.68954
  0
SEQEND
  0
POLYLINE
  8
Unknown_Area_Type
  70
1
  66
1
  0
VERTEX
  8
Unknown_Area_Type
  10
408122.413
  20
4613356.002
  0
VERTEX
  8
Unknown_Area_Type
  10
408079.189
  20
4613356.546
  0
VERTEX
  8
Unknown_Area_Type
  10
405252.473
  20
4613393.448
  0
VERTEX
  8
Unknown_Area_Type
  10
405221.500
  20
4616517.000
  0
VERTEX
  8
Unknown_Area_Type
  10
407737.000
  20
4616771.500
  0
VERTEX
  8
Unknown_Area_Type
  10
407742.000
  20
4616772.000
  0
VERTEX
  8
Unknown_Area_Type
  10
407748.000
  20
4616771.000
  0
VERTEX
  8
Unknown_Area_Type
  10
408029.000
  20
4616601.000
  0
VERTEX
  8
Unknown_Area_Type
  10
408039.500
  20
4616594.500
  0
VERTEX
  8
Unknown_Area_Type
  10
408040.500
  20
4616591.000
  0
VERTEX
  8
Unknown_Area_Type
  10
408122.413
  20
4613356.002
  0
SEQEND
  8
Unknown_Area_Type
  0
INSERT
  8
FeatureAttribs
  2
FEATURE
  41
1
  42
1
  43
1
  50
0
  10
406677.286
  20
4615007.652
 66
1
  0
ATTRIB
  8
FeatureAttribs
 70
0
  1
PNOA-H_AMS_1956-57_33k_ES_PAN_2
  2
NAME
  10
406677.286
  20
4615007.652
 40
33.68954
  0
SEQEND
  0
POLYLINE
  8
Unknown_Area_Type
  70
1
  66
1
  0
VERTEX
  8
Unknown_Area_Type
  10
408122.413
  20
4613356.002
  0
VERTEX
  8
Unknown_Area_Type
  10
408040.500
  20
4616591.000
  0
VERTEX
  8
Unknown_Area_Type
  10
408039.500
  20
4616594.500
  0
VERTEX
  8
Unknown_Area_Type
  10
408029.000
  20
4616601.000
  0
VERTEX
  8
Unknown_Area_Type
  10
407748.000
  20
4616771.000
  0
VERTEX
  8
Unknown_Area_Type
  10
407742.000
  20
4616772.000
  0
VERTEX
  8
Unknown_Area_Type
  10
407737.000
  20
4616771.500
  0
VERTEX
  8
Unknown_Area_Type
  10
405221.500
  20
4616517.000
  0
VERTEX
  8
Unknown_Area_Type
  10
405252.473
  20
4613393.448
  0
VERTEX
  8
Unknown_Area_Type
  10
408079.189
  20
4613356.546
  0
VERTEX
  8
Unknown_Area_Type
  10
408122.413
  20
4613356.002
  0
SEQEND
  8
Unknown_Area_Type
  0
INSERT
  8
FeatureAttribs
  2
FEATURE
  41
1
  42
1
  43
1
  50
0
  10
403901.333
  20
4623993.733
 66
1
  0
ATTRIB
  8
FeatureAttribs
 70
0
  1
PNOA-H_AMS_1956-57_33k_ES_PAN_2
  2
NAME
  10
403901.333
  20
4623993.733
 40
33.68954
  0
SEQEND
  0
POLYLINE
  8
Unknown_Area_Type
  70
1
  66
1
  0
VERTEX
  8
Unknown_Area_Type
  10
402513.000
  20
4626355.000
  0
VERTEX
  8
Unknown_Area_Type
  10
405103.500
  20
4626488.000
  0
VERTEX
  8
Unknown_Area_Type
  10
405112.500
  20
4626488.000
  0
VERTEX
  8
Unknown_Area_Type
  10
405115.500
  20
4626486.500
  0
VERTEX
  8
Unknown_Area_Type
  10
405270.000
  20
4626401.000
  0
VERTEX
  8
Unknown_Area_Type
  10
405307.000
  20
4621652.500
  0
VERTEX
  8
Unknown_Area_Type
  10
405307.000
  20
4621589.000
  0
VERTEX
  8
Unknown_Area_Type
  10
405278.000
  20
4621576.000
  0
VERTEX
  8
Unknown_Area_Type
  10
405277.000
  20
4621576.000
  0
VERTEX
  8
Unknown_Area_Type
  10
404843.000
  20
4621383.500
  0
VERTEX
  8
Unknown_Area_Type
  10
402465.000
  20
4621877.500
  0
VERTEX
  8
Unknown_Area_Type
  10
402400.000
  20
4621943.000
  0
VERTEX
  8
Unknown_Area_Type
  10
402513.000
  20
4626355.000
  0
SEQEND
  8
Unknown_Area_Type
  0
INSERT
  8
FeatureAttribs
  2
FEATURE
  41
1
  42
1
  43
1
  50
0
  10
403901.333
  20
4623993.733
 66
1
  0
ATTRIB
  8
FeatureAttribs
 70
0
  1
PNOA-H_AMS_1956-57_33k_ES_PAN_2
  2
NAME
  10
403901.333
  20
4623993.733
 40
33.68954
  0
SEQEND
  0
POLYLINE
  8
Unknown_Area_Type
  70
1
  66
1
  0
VERTEX
  8
Unknown_Area_Type
  10
402513.000
  20
4626355.000
  0
VERTEX
  8
Unknown_Area_Type
  10
402400.000
  20
4621943.000
  0
VERTEX
  8
Unknown_Area_Type
  10
402465.000
  20
4621877.500
  0
VERTEX
  8
Unknown_Area_Type
  10
404843.000
  20
4621383.500
  0
VERTEX
  8
Unknown_Area_Type
  10
405277.000
  20
4621576.000
  0
VERTEX
  8
Unknown_Area_Type
  10
405278.000
  20
4621576.000
  0
VERTEX
  8
Unknown_Area_Type
  10
405307.000
  20
4621589.000
  0
VERTEX
  8
Unknown_Area_Type
  10
405307.000
  20
4621652.500
  0
VERTEX
  8
Unknown_Area_Type
  10
405270.000
  20
4626401.000
  0
VERTEX
  8
Unknown_Area_Type
  10
405115.500
  20
4626486.500
  0
VERTEX
  8
Unknown_Area_Type
  10
405112.500
  20
4626488.000
  0
VERTEX
  8
Unknown_Area_Type
  10
405103.500
  20
4626488.000
  0
VERTEX
  8
Unknown_Area_Type
  10
402513.000
  20
4626355.000
  0
SEQEND
  8
Unknown_Area_Type
  0
INSERT
  8
FeatureAttribs
  2
FEATURE
  41
1
  42
1
  43
1
  50
0
  10
412237.486
  20
4624041.747
 66
1
  0
ATTRIB
  8
FeatureAttribs
 70
0
  1
PNOA-H_AMS_1956-57_33k_ES_PAN_2
  2
NAME
  10
412237.486
  20
4624041.747
 40
33.68954
  0
SEQEND
  0
POLYLINE
  8
Unknown_Area_Type
  70
1
  66
1
  0
VERTEX
  8
Unknown_Area_Type
  10
413021.000
  20
4626572.000
  0
VERTEX
  8
Unknown_Area_Type
  10
413023.000
  20
4626572.000
  0
VERTEX
  8
Unknown_Area_Type
  10
413035.500
  20
4626566.000
  0
VERTEX
  8
Unknown_Area_Type
  10
413706.500
  20
4626236.500
  0
VERTEX
  8
Unknown_Area_Type
  10
413692.500
  20
4621663.000
  0
VERTEX
  8
Unknown_Area_Type
  10
410894.500
  20
4621475.000
  0
VERTEX
  8
Unknown_Area_Type
  10
410890.500
  20
4621475.000
  0
VERTEX
  8
Unknown_Area_Type
  10
410877.500
  20
4621482.000
  0
VERTEX
  8
Unknown_Area_Type
  10
410713.500
  20
4626392.500
  0
VERTEX
  8
Unknown_Area_Type
  10
413014.500
  20
4626571.500
  0
VERTEX
  8
Unknown_Area_Type
  10
413021.000
  20
4626572.000
  0
SEQEND
  8
Unknown_Area_Type
  0
INSERT
  8
FeatureAttribs
  2
FEATURE
  41
1
  42
1
  43
1
  50
0
  10
412237.486
  20
4624041.747
 66
1
  0
ATTRIB
  8
FeatureAttribs
 70
0
  1
PNOA-H_AMS_1956-57_33k_ES_PAN_2
  2
NAME
  10
412237.486
  20
4624041.747
 40
33.68954
  0
SEQEND
  0
POLYLINE
  8
Unknown_Area_Type
  70
1
  66
1
  0
VERTEX
  8
Unknown_Area_Type
  10
413021.000
  20
4626572.000
  0
VERTEX
  8
Unknown_Area_Type
  10
413014.500
  20
4626571.500
  0
VERTEX
  8
Unknown_Area_Type
  10
410713.500
  20
4626392.500
  0
VERTEX
  8
Unknown_Area_Type
  10
410877.500
  20
4621482.000
  0
VERTEX
  8
Unknown_Area_Type
  10
410890.500
  20
4621475.000
  0
VERTEX
  8
Unknown_Area_Type
  10
410894.500
  20
4621475.000
  0
VERTEX
  8
Unknown_Area_Type
  10
413692.500
  20
4621663.000
  0
VERTEX
  8
Unknown_Area_Type
  10
413706.500
  20
4626236.500
  0
VERTEX
  8
Unknown_Area_Type
  10
413035.500
  20
4626566.000
  0
VERTEX
  8
Unknown_Area_Type
  10
413023.000
  20
4626572.000
  0
VERTEX
  8
Unknown_Area_Type
  10
413021.000
  20
4626572.000
  0
SEQEND
  8
Unknown_Area_Type
  0
INSERT
  8
FeatureAttribs
  2
FEATURE
  41
1
  42
1
  43
1
  50
0
  10
418133.024
  20
4624012.229
 66
1
  0
ATTRIB
  8
FeatureAttribs
 70
0
  1
PNOA-H_AMS_1956-57_33k_ES_PAN_2
  2
NAME
  10
418133.024
  20
4624012.229
 40
33.68954
  0
SEQEND
  0
POLYLINE
  8
Unknown_Area_Type
  70
1
  66
1
  0
VERTEX
  8
Unknown_Area_Type
  10
418374.000
  20
4626640.500
  0
VERTEX
  8
Unknown_Area_Type
  10
418376.000
  20
4626641.000
  0
VERTEX
  8
Unknown_Area_Type
  10
418379.500
  20
4626641.000
  0
VERTEX
  8
Unknown_Area_Type
  10
418385.000
  20
4626639.000
  0
VERTEX
  8
Unknown_Area_Type
  10
419661.500
  20
4626163.500
  0
VERTEX
  8
Unknown_Area_Type
  10
419567.500
  20
4621735.000
  0
VERTEX
  8
Unknown_Area_Type
  10
419567.000
  20
4621717.000
  0
VERTEX
  8
Unknown_Area_Type
  10
419565.500
  20
4621716.500
  0
VERTEX
  8
Unknown_Area_Type
  10
417113.000
  20
4621450.500
  0
VERTEX
  8
Unknown_Area_Type
  10
417110.000
  20
4621450.500
  0
VERTEX
  8
Unknown_Area_Type
  10
417095.500
  20
4621457.500
  0
VERTEX
  8
Unknown_Area_Type
  10
416669.000
  20
4621665.000
  0
VERTEX
  8
Unknown_Area_Type
  10
416667.000
  20
4626204.000
  0
VERTEX
  8
Unknown_Area_Type
  10
418374.000
  20
4626640.500
  0
SEQEND
  8
Unknown_Area_Type
  0
INSERT
  8
FeatureAttribs
  2
FEATURE
  41
1
  42
1
  43
1
  50
0
  10
418133.024
  20
4624012.229
 66
1
  0
ATTRIB
  8
FeatureAttribs
 70
0
  1
PNOA-H_AMS_1956-57_33k_ES_PAN_2
  2
NAME
  10
418133.024
  20
4624012.229
 40
33.68954
  0
SEQEND
  0
POLYLINE
  8
Unknown_Area_Type
  70
1
  66
1
  0
VERTEX
  8
Unknown_Area_Type
  10
418374.000
  20
4626640.500
  0
VERTEX
  8
Unknown_Area_Type
  10
416667.000
  20
4626204.000
  0
VERTEX
  8
Unknown_Area_Type
  10
416669.000
  20
4621665.000
  0
VERTEX
  8
Unknown_Area_Type
  10
417095.500
  20
4621457.500
  0
VERTEX
  8
Unknown_Area_Type
  10
417110.000
  20
4621450.500
  0
VERTEX
  8
Unknown_Area_Type
  10
417113.000
  20
4621450.500
  0
VERTEX
  8
Unknown_Area_Type
  10
419565.500
  20
4621716.500
  0
VERTEX
  8
Unknown_Area_Type
  10
419567.000
  20
4621717.000
  0
VERTEX
  8
Unknown_Area_Type
  10
419567.500
  20
4621735.000
  0
VERTEX
  8
Unknown_Area_Type
  10
419661.500
  20
4626163.500
  0
VERTEX
  8
Unknown_Area_Type
  10
418385.000
  20
4626639.000
  0
VERTEX
  8
Unknown_Area_Type
  10
418379.500
  20
4626641.000
  0
VERTEX
  8
Unknown_Area_Type
  10
418376.000
  20
4626641.000
  0
VERTEX
  8
Unknown_Area_Type
  10
418374.000
  20
4626640.500
  0
SEQEND
  8
Unknown_Area_Type
  0
INSERT
  8
FeatureAttribs
  2
FEATURE
  41
1
  42
1
  43
1
  50
0
  10
409545.354
  20
4613263.002
 66
1
  0
ATTRIB
  8
FeatureAttribs
 70
0
  1
PNOA-H_AMS_1956-57_33k_ES_PAN_2
  2
NAME
  10
409545.354
  20
4613263.002
 40
33.68954
  0
SEQEND
  0
POLYLINE
  8
Unknown_Area_Type
  70
1
  66
1
  0
VERTEX
  8
Unknown_Area_Type
  10
410964.666
  20
4613320.271
  0
VERTEX
  8
Unknown_Area_Type
  10
410968.233
  20
4613170.000
  0
VERTEX
  8
Unknown_Area_Type
  10
408127.047
  20
4613170.000
  0
VERTEX
  8
Unknown_Area_Type
  10
408122.319
  20
4613356.003
  0
VERTEX
  8
Unknown_Area_Type
  10
410964.666
  20
4613320.271
  0
SEQEND
  8
Unknown_Area_Type
  0
INSERT
  8
FeatureAttribs
  2
FEATURE
  41
1
  42
1
  43
1
  50
0
  10
409513.333
  20
4614994.603
 66
1
  0
ATTRIB
  8
FeatureAttribs
 70
0
  1
PNOA-H_AMS_1956-57_33k_ES_PAN_2
  2
NAME
  10
409513.333
  20
4614994.603
 40
33.68954
  0
SEQEND
  0
POLYLINE
  8
Unknown_Area_Type
  70
1
  66
1
  0
VERTEX
  8
Unknown_Area_Type
  10
410964.666
  20
4613320.271
  0
VERTEX
  8
Unknown_Area_Type
  10
408122.319
  20
4613356.003
  0
VERTEX
  8
Unknown_Area_Type
  10
408040.000
  20
4616594.000
  0
VERTEX
  8
Unknown_Area_Type
  10
410861.000
  20
4616704.500
  0
VERTEX
  8
Unknown_Area_Type
  10
410873.500
  20
4616705.000
  0
VERTEX
  8
Unknown_Area_Type
  10
410884.000
  20
4616705.000
  0
VERTEX
  8
Unknown_Area_Type
  10
410884.500
  20
4616697.500
  0
VERTEX
  8
Unknown_Area_Type
  10
410964.666
  20
4613320.271
  0
SEQEND
  8
Unknown_Area_Type
  0
INSERT
  8
FeatureAttribs
  2
FEATURE
  41
1
  42
1
  43
1
  50
0
  10
409513.333
  20
4614994.603
 66
1
  0
ATTRIB
  8
FeatureAttribs
 70
0
  1
PNOA-H_AMS_1956-57_33k_ES_PAN_2
  2
NAME
  10
409513.333
  20
4614994.603
 40
33.68954
  0
SEQEND
  0
POLYLINE
  8
Unknown_Area_Type
  70
1
  66
1
  0
VERTEX
  8
Unknown_Area_Type
  10
410964.666
  20
4613320.271
  0
VERTEX
  8
Unknown_Area_Type
  10
410884.500
  20
4616697.500
  0
VERTEX
  8
Unknown_Area_Type
  10
410884.000
  20
4616705.000
  0
VERTEX
  8
Unknown_Area_Type
  10
410873.500
  20
4616705.000
  0
VERTEX
  8
Unknown_Area_Type
  10
410861.000
  20
4616704.500
  0
VERTEX
  8
Unknown_Area_Type
  10
408040.000
  20
4616594.000
  0
VERTEX
  8
Unknown_Area_Type
  10
408122.319
  20
4613356.003
  0
VERTEX
  8
Unknown_Area_Type
  10
410964.666
  20
4613320.271
  0
SEQEND
  8
Unknown_Area_Type
  0
INSERT
  8
FeatureAttribs
  2
FEATURE
  41
1
  42
1
  43
1
  50
0
  10
415292.994
  20
4613202.835
 66
1
  0
ATTRIB
  8
FeatureAttribs
 70
0
  1
PNOA-H_AMS_1956-57_33k_ES_PAN_2
  2
NAME
  10
415292.994
  20
4613202.835
 40
33.68954
  0
SEQEND
  0
POLYLINE
  8
Unknown_Area_Type
  70
1
  66
1
  0
VERTEX
  8
Unknown_Area_Type
  10
416778.057
  20
4613120.050
  0
VERTEX
  8
Unknown_Area_Type
  10
414910.000
  20
4613120.050
  0
VERTEX
  8
Unknown_Area_Type
  10
414910.000
  20
4613170.000
  0
VERTEX
  8
Unknown_Area_Type
  10
413807.158
  20
4613170.000
  0
VERTEX
  8
Unknown_Area_Type
  10
413808.065
  20
4613285.619
  0
VERTEX
  8
Unknown_Area_Type
  10
415016.699
  20
4613271.010
  0
VERTEX
  8
Unknown_Area_Type
  10
416778.870
  20
4613250.561
  0
VERTEX
  8
Unknown_Area_Type
  10
416778.057
  20
4613120.050
  0
SEQEND
  8
Unknown_Area_Type
  0
INSERT
  8
FeatureAttribs
  2
FEATURE
  41
1
  42
1
  43
1
  50
0
  10
415298.437
  20
4614994.486
 66
1
  0
ATTRIB
  8
FeatureAttribs
 70
0
  1
PNOA-H_AMS_1956-57_33k_ES_PAN_2
  2
NAME
  10
415298.437
  20
4614994.486
 40
33.68954
  0
SEQEND
  0
POLYLINE
  8
Unknown_Area_Type
  70
1
  66
1
  0
VERTEX
  8
Unknown_Area_Type
  10
416778.870
  20
4613250.561
  0
VERTEX
  8
Unknown_Area_Type
  10
415016.699
  20
4613271.010
  0
VERTEX
  8
Unknown_Area_Type
  10
413808.065
  20
4613285.619
  0
VERTEX
  8
Unknown_Area_Type
  10
413834.500
  20
4616655.500
  0
VERTEX
  8
Unknown_Area_Type
  10
414065.000
  20
4616799.500
  0
VERTEX
  8
Unknown_Area_Type
  10
415370.500
  20
4616724.500
  0
VERTEX
  8
Unknown_Area_Type
  10
415378.000
  20
4616724.500
  0
VERTEX
  8
Unknown_Area_Type
  10
416800.000
  20
4616642.500
  0
VERTEX
  8
Unknown_Area_Type
  10
416778.870
  20
4613250.561
  0
SEQEND
  8
Unknown_Area_Type
  0
INSERT
  8
FeatureAttribs
  2
FEATURE
  41
1
  42
1
  43
1
  50
0
  10
415298.437
  20
4614994.486
 66
1
  0
ATTRIB
  8
FeatureAttribs
 70
0
  1
PNOA-H_AMS_1956-57_33k_ES_PAN_2
  2
NAME
  10
415298.437
  20
4614994.486
 40
33.68954
  0
SEQEND
  0
POLYLINE
  8
Unknown_Area_Type
  70
1
  66
1
  0
VERTEX
  8
Unknown_Area_Type
  10
416778.870
  20
4613250.561
  0
VERTEX
  8
Unknown_Area_Type
  10
416800.000
  20
4616642.500
  0
VERTEX
  8
Unknown_Area_Type
  10
415378.000
  20
4616724.500
  0
VERTEX
  8
Unknown_Area_Type
  10
415370.500
  20
4616724.500
  0
VERTEX
  8
Unknown_Area_Type
  10
414065.000
  20
4616799.500
  0
VERTEX
  8
Unknown_Area_Type
  10
413834.500
  20
4616655.500
  0
VERTEX
  8
Unknown_Area_Type
  10
413808.065
  20
4613285.619
  0
VERTEX
  8
Unknown_Area_Type
  10
415016.699
  20
4613271.010
  0
VERTEX
  8
Unknown_Area_Type
  10
416778.870
  20
4613250.561
  0
SEQEND
  8
Unknown_Area_Type
  0
INSERT
  8
FeatureAttribs
  2
FEATURE
  41
1
  42
1
  43
1
  50
0
  10
421125.369
  20
4613168.701
 66
1
  0
ATTRIB
  8
FeatureAttribs
 70
0
  1
PNOA-H_AMS_1956-57_33k_ES_PAN_2
  2
NAME
  10
421125.369
  20
4613168.701
 40
33.68954
  0
SEQEND
  0
POLYLINE
  8
Unknown_Area_Type
  70
1
  66
1
  0
VERTEX
  8
Unknown_Area_Type
  10
422559.937
  20
4613120.050
  0
VERTEX
  8
Unknown_Area_Type
  10
419689.970
  20
4613120.050
  0
VERTEX
  8
Unknown_Area_Type
  10
419691.046
  20
4613217.351
  0
VERTEX
  8
Unknown_Area_Type
  10
421954.187
  20
4613192.184
  0
VERTEX
  8
Unknown_Area_Type
  10
422560.331
  20
4613185.737
  0
VERTEX
  8
Unknown_Area_Type
  10
422559.937
  20
4613120.050
  0
SEQEND
  8
Unknown_Area_Type
  0
INSERT
  8
FeatureAttribs
  2
FEATURE
  41
1
  42
1
  43
1
  50
0
  10
421127.157
  20
4614955.561
 66
1
  0
ATTRIB
  8
FeatureAttribs
 70
0
  1
PNOA-H_AMS_1956-57_33k_ES_PAN_2
  2
NAME
  10
421127.157
  20
4614955.561
 40
33.68954
  0
SEQEND
  0
POLYLINE
  8
Unknown_Area_Type
  70
1
  66
1
  0
VERTEX
  8
Unknown_Area_Type
  10
422560.331
  20
4613185.737
  0
VERTEX
  8
Unknown_Area_Type
  10
421954.187
  20
4613192.184
  0
VERTEX
  8
Unknown_Area_Type
  10
419691.046
  20
4613217.351
  0
VERTEX
  8
Unknown_Area_Type
  10
419728.500
  20
4616604.000
  0
VERTEX
  8
Unknown_Area_Type
  10
420205.000
  20
4616862.500
  0
VERTEX
  8
Unknown_Area_Type
  10
421518.500
  20
4616690.000
  0
VERTEX
  8
Unknown_Area_Type
  10
421522.000
  20
4616690.000
  0
VERTEX
  8
Unknown_Area_Type
  10
422580.500
  20
4616551.000
  0
VERTEX
  8
Unknown_Area_Type
  10
422560.331
  20
4613185.737
  0
SEQEND
  8
Unknown_Area_Type
  0
INSERT
  8
FeatureAttribs
  2
FEATURE
  41
1
  42
1
  43
1
  50
0
  10
421127.157
  20
4614955.561
 66
1
  0
ATTRIB
  8
FeatureAttribs
 70
0
  1
PNOA-H_AMS_1956-57_33k_ES_PAN_2
  2
NAME
  10
421127.157
  20
4614955.561
 40
33.68954
  0
SEQEND
  0
POLYLINE
  8
Unknown_Area_Type
  70
1
  66
1
  0
VERTEX
  8
Unknown_Area_Type
  10
422560.331
  20
4613185.737
  0
VERTEX
  8
Unknown_Area_Type
  10
422580.500
  20
4616551.000
  0
VERTEX
  8
Unknown_Area_Type
  10
421522.000
  20
4616690.000
  0
VERTEX
  8
Unknown_Area_Type
  10
421518.500
  20
4616690.000
  0
VERTEX
  8
Unknown_Area_Type
  10
420205.000
  20
4616862.500
  0
VERTEX
  8
Unknown_Area_Type
  10
419728.500
  20
4616604.000
  0
VERTEX
  8
Unknown_Area_Type
  10
419691.046
  20
4613217.351
  0
VERTEX
  8
Unknown_Area_Type
  10
421954.187
  20
4613192.184
  0
VERTEX
  8
Unknown_Area_Type
  10
422560.331
  20
4613185.737
  0
SEQEND
  8
Unknown_Area_Type
  0
INSERT
  8
FeatureAttribs
  2
FEATURE
  41
1
  42
1
  43
1
  50
0
  10
403795.455
  20
4613341.299
 66
1
  0
ATTRIB
  8
FeatureAttribs
 70
0
  1
PNOA-H_AMS_1956-57_33k_ES_PAN_2
  2
NAME
  10
403795.455
  20
4613341.299
 40
33.68954
  0
SEQEND
  0
POLYLINE
  8
Unknown_Area_Type
  70
1
  66
1
  0
VERTEX
  8
Unknown_Area_Type
  10
405252.470
  20
4613393.448
  0
VERTEX
  8
Unknown_Area_Type
  10
405253.892
  20
4613250.000
  0
VERTEX
  8
Unknown_Area_Type
  10
402338.046
  20
4613250.000
  0
VERTEX
  8
Unknown_Area_Type
  10
402337.801
  20
4613432.598
  0
VERTEX
  8
Unknown_Area_Type
  10
404610.425
  20
4613401.830
  0
VERTEX
  8
Unknown_Area_Type
  10
405252.470
  20
4613393.448
  0
SEQEND
  8
Unknown_Area_Type
  0
INSERT
  8
FeatureAttribs
  2
FEATURE
  41
1
  42
1
  43
1
  50
0
  10
403791.492
  20
4615104.519
 66
1
  0
ATTRIB
  8
FeatureAttribs
 70
0
  1
PNOA-H_AMS_1956-57_33k_ES_PAN_2
  2
NAME
  10
403791.492
  20
4615104.519
 40
33.68954
  0
SEQEND
  0
POLYLINE
  8
Unknown_Area_Type
  70
1
  66
1
  0
VERTEX
  8
Unknown_Area_Type
  10
405252.470
  20
4613393.448
  0
VERTEX
  8
Unknown_Area_Type
  10
404610.425
  20
4613401.830
  0
VERTEX
  8
Unknown_Area_Type
  10
402337.801
  20
4613432.598
  0
VERTEX
  8
Unknown_Area_Type
  10
402333.500
  20
4616636.000
  0
VERTEX
  8
Unknown_Area_Type
  10
403085.500
  20
4616773.500
  0
VERTEX
  8
Unknown_Area_Type
  10
403088.000
  20
4616774.000
  0
VERTEX
  8
Unknown_Area_Type
  10
404308.000
  20
4616996.500
  0
VERTEX
  8
Unknown_Area_Type
  10
405221.500
  20
4616517.000
  0
VERTEX
  8
Unknown_Area_Type
  10
405252.470
  20
4613393.448
  0
SEQEND
  8
Unknown_Area_Type
  0
INSERT
  8
FeatureAttribs
  2
FEATURE
  41
1
  42
1
  43
1
  50
0
  10
403791.492
  20
4615104.519
 66
1
  0
ATTRIB
  8
FeatureAttribs
 70
0
  1
PNOA-H_AMS_1956-57_33k_ES_PAN_2
  2
NAME
  10
403791.492
  20
4615104.519
 40
33.68954
  0
SEQEND
  0
POLYLINE
  8
Unknown_Area_Type
  70
1
  66
1
  0
VERTEX
  8
Unknown_Area_Type
  10
405252.470
  20
4613393.448
  0
VERTEX
  8
Unknown_Area_Type
  10
405221.500
  20
4616517.000
  0
VERTEX
  8
Unknown_Area_Type
  10
404308.000
  20
4616996.500
  0
VERTEX
  8
Unknown_Area_Type
  10
403088.000
  20
4616774.000
  0
VERTEX
  8
Unknown_Area_Type
  10
403085.500
  20
4616773.500
  0
VERTEX
  8
Unknown_Area_Type
  10
402333.500
  20
4616636.000
  0
VERTEX
  8
Unknown_Area_Type
  10
402337.801
  20
4613432.598
  0
VERTEX
  8
Unknown_Area_Type
  10
404610.425
  20
4613401.830
  0
VERTEX
  8
Unknown_Area_Type
  10
405252.470
  20
4613393.448
  0
SEQEND
  8
Unknown_Area_Type
  0
INSERT
  8
FeatureAttribs
  2
FEATURE
  41
1
  42
1
  43
1
  50
0
  10
424004.089
  20
4613152.893
 66
1
  0
ATTRIB
  8
FeatureAttribs
 70
0
  1
PNOA-H_AMS_1956-57_33k_ES_PAN_2
  2
NAME
  10
424004.089
  20
4613152.893
 40
33.68954
  0
SEQEND
  0
POLYLINE
  8
Unknown_Area_Type
  70
1
  66
1
  0
VERTEX
  8
Unknown_Area_Type
  10
425448.026
  20
4613155.033
  0
VERTEX
  8
Unknown_Area_Type
  10
425448.341
  20
4613120.050
  0
VERTEX
  8
Unknown_Area_Type
  10
422559.935
  20
4613120.050
  0
VERTEX
  8
Unknown_Area_Type
  10
422560.329
  20
4613185.737
  0
VERTEX
  8
Unknown_Area_Type
  10
425422.924
  20
4613155.288
  0
VERTEX
  8
Unknown_Area_Type
  10
425448.026
  20
4613155.033
  0
SEQEND
  8
Unknown_Area_Type
  0
INSERT
  8
FeatureAttribs
  2
FEATURE
  41
1
  42
1
  43
1
  50
0
  10
423991.091
  20
4614937.947
 66
1
  0
ATTRIB
  8
FeatureAttribs
 70
0
  1
PNOA-H_AMS_1956-57_33k_ES_PAN_2
  2
NAME
  10
423991.091
  20
4614937.947
 40
33.68954
  0
SEQEND
  0
POLYLINE
  8
Unknown_Area_Type
  70
1
  66
1
  0
VERTEX
  8
Unknown_Area_Type
  10
425448.026
  20
4613155.033
  0
VERTEX
  8
Unknown_Area_Type
  10
425422.924
  20
4613155.288
  0
VERTEX
  8
Unknown_Area_Type
  10
422560.329
  20
4613185.737
  0
VERTEX
  8
Unknown_Area_Type
  10
422580.500
  20
4616551.000
  0
VERTEX
  8
Unknown_Area_Type
  10
423235.500
  20
4616883.000
  0
VERTEX
  8
Unknown_Area_Type
  10
423566.500
  20
4616831.000
  0
VERTEX
  8
Unknown_Area_Type
  10
423570.000
  20
4616830.500
  0
VERTEX
  8
Unknown_Area_Type
  10
425417.500
  20
4616543.000
  0
VERTEX
  8
Unknown_Area_Type
  10
425448.026
  20
4613155.033
  0
SEQEND
  8
Unknown_Area_Type
  0
INSERT
  8
FeatureAttribs
  2
FEATURE
  41
1
  42
1
  43
1
  50
0
  10
423991.091
  20
4614937.947
 66
1
  0
ATTRIB
  8
FeatureAttribs
 70
0
  1
PNOA-H_AMS_1956-57_33k_ES_PAN_2
  2
NAME
  10
423991.091
  20
4614937.947
 40
33.68954
  0
SEQEND
  0
POLYLINE
  8
Unknown_Area_Type
  70
1
  66
1
  0
VERTEX
  8
Unknown_Area_Type
  10
425448.026
  20
4613155.033
  0
VERTEX
  8
Unknown_Area_Type
  10
425417.500
  20
4616543.000
  0
VERTEX
  8
Unknown_Area_Type
  10
423570.000
  20
4616830.500
  0
VERTEX
  8
Unknown_Area_Type
  10
423566.500
  20
4616831.000
  0
VERTEX
  8
Unknown_Area_Type
  10
423235.500
  20
4616883.000
  0
VERTEX
  8
Unknown_Area_Type
  10
422580.500
  20
4616551.000
  0
VERTEX
  8
Unknown_Area_Type
  10
422560.329
  20
4613185.737
  0
VERTEX
  8
Unknown_Area_Type
  10
425422.924
  20
4613155.288
  0
VERTEX
  8
Unknown_Area_Type
  10
425448.026
  20
4613155.033
  0
SEQEND
  8
Unknown_Area_Type
  0
INSERT
  8
FeatureAttribs
  2
FEATURE
  41
1
  42
1
  43
1
  50
0
  10
412387.067
  20
4613245.136
 66
1
  0
ATTRIB
  8
FeatureAttribs
 70
0
  1
PNOA-H_AMS_1956-57_33k_ES_PAN_2
  2
NAME
  10
412387.067
  20
4613245.136
 40
33.68954
  0
SEQEND
  0
POLYLINE
  8
Unknown_Area_Type
  70
1
  66
1
  0
VERTEX
  8
Unknown_Area_Type
  10
413808.062
  20
4613285.619
  0
VERTEX
  8
Unknown_Area_Type
  10
413807.154
  20
4613170.000
  0
VERTEX
  8
Unknown_Area_Type
  10
410968.179
  20
4613170.000
  0
VERTEX
  8
Unknown_Area_Type
  10
410964.601
  20
4613320.272
  0
VERTEX
  8
Unknown_Area_Type
  10
411547.946
  20
4613312.939
  0
VERTEX
  8
Unknown_Area_Type
  10
413808.062
  20
4613285.619
  0
SEQEND
  8
Unknown_Area_Type
  0
INSERT
  8
FeatureAttribs
  2
FEATURE
  41
1
  42
1
  43
1
  50
0
  10
412366.358
  20
4615021.670
 66
1
  0
ATTRIB
  8
FeatureAttribs
 70
0
  1
PNOA-H_AMS_1956-57_33k_ES_PAN_2
  2
NAME
  10
412366.358
  20
4615021.670
 40
33.68954
  0
SEQEND
  0
POLYLINE
  8
Unknown_Area_Type
  70
1
  66
1
  0
VERTEX
  8
Unknown_Area_Type
  10
413808.062
  20
4613285.619
  0
VERTEX
  8
Unknown_Area_Type
  10
411547.946
  20
4613312.939
  0
VERTEX
  8
Unknown_Area_Type
  10
410964.601
  20
4613320.272
  0
VERTEX
  8
Unknown_Area_Type
  10
410884.000
  20
4616705.500
  0
VERTEX
  8
Unknown_Area_Type
  10
410992.000
  20
4616779.500
  0
VERTEX
  8
Unknown_Area_Type
  10
410992.500
  20
4616780.500
  0
VERTEX
  8
Unknown_Area_Type
  10
413834.500
  20
4616655.500
  0
VERTEX
  8
Unknown_Area_Type
  10
413808.062
  20
4613285.619
  0
SEQEND
  8
Unknown_Area_Type
  0
INSERT
  8
FeatureAttribs
  2
FEATURE
  41
1
  42
1
  43
1
  50
0
  10
412366.358
  20
4615021.670
 66
1
  0
ATTRIB
  8
FeatureAttribs
 70
0
  1
PNOA-H_AMS_1956-57_33k_ES_PAN_2
  2
NAME
  10
412366.358
  20
4615021.670
 40
33.68954
  0
SEQEND
  0
POLYLINE
  8
Unknown_Area_Type
  70
1
  66
1
  0
VERTEX
  8
Unknown_Area_Type
  10
413808.062
  20
4613285.619
  0
VERTEX
  8
Unknown_Area_Type
  10
413834.500
  20
4616655.500
  0
VERTEX
  8
Unknown_Area_Type
  10
410992.500
  20
4616780.500
  0
VERTEX
  8
Unknown_Area_Type
  10
410992.000
  20
4616779.500
  0
VERTEX
  8
Unknown_Area_Type
  10
410884.000
  20
4616705.500
  0
VERTEX
  8
Unknown_Area_Type
  10
410964.601
  20
4613320.272
  0
VERTEX
  8
Unknown_Area_Type
  10
411547.946
  20
4613312.939
  0
VERTEX
  8
Unknown_Area_Type
  10
413808.062
  20
4613285.619
  0
SEQEND
  8
Unknown_Area_Type
  0
INSERT
  8
FeatureAttribs
  2
FEATURE
  41
1
  42
1
  43
1
  50
0
  10
418234.578
  20
4613185.306
 66
1
  0
ATTRIB
  8
FeatureAttribs
 70
0
  1
PNOA-H_AMS_1956-57_33k_ES_PAN_2
  2
NAME
  10
418234.578
  20
4613185.306
 40
33.68954
  0
SEQEND
  0
POLYLINE
  8
Unknown_Area_Type
  70
1
  66
1
  0
VERTEX
  8
Unknown_Area_Type
  10
419689.970
  20
4613120.050
  0
VERTEX
  8
Unknown_Area_Type
  10
416778.057
  20
4613120.050
  0
VERTEX
  8
Unknown_Area_Type
  10
416778.870
  20
4613250.561
  0
VERTEX
  8
Unknown_Area_Type
  10
418485.445
  20
4613230.758
  0
VERTEX
  8
Unknown_Area_Type
  10
419691.046
  20
4613217.351
  0
VERTEX
  8
Unknown_Area_Type
  10
419689.970
  20
4613120.050
  0
SEQEND
  8
Unknown_Area_Type
  0
INSERT
  8
FeatureAttribs
  2
FEATURE
  41
1
  42
1
  43
1
  50
0
  10
418238.652
  20
4614981.258
 66
1
  0
ATTRIB
  8
FeatureAttribs
 70
0
  1
PNOA-H_AMS_1956-57_33k_ES_PAN_2
  2
NAME
  10
418238.652
  20
4614981.258
 40
33.68954
  0
SEQEND
  0
POLYLINE
  8
Unknown_Area_Type
  70
1
  66
1
  0
VERTEX
  8
Unknown_Area_Type
  10
419691.046
  20
4613217.351
  0
VERTEX
  8
Unknown_Area_Type
  10
418485.445
  20
4613230.758
  0
VERTEX
  8
Unknown_Area_Type
  10
416778.870
  20
4613250.561
  0
VERTEX
  8
Unknown_Area_Type
  10
416800.000
  20
4616642.500
  0
VERTEX
  8
Unknown_Area_Type
  10
417120.500
  20
4616839.500
  0
VERTEX
  8
Unknown_Area_Type
  10
417121.500
  20
4616840.000
  0
VERTEX
  8
Unknown_Area_Type
  10
419728.500
  20
4616604.000
  0
VERTEX
  8
Unknown_Area_Type
  10
419691.046
  20
4613217.351
  0
SEQEND
  8
Unknown_Area_Type
  0
INSERT
  8
FeatureAttribs
  2
FEATURE
  41
1
  42
1
  43
1
  50
0
  10
418238.652
  20
4614981.258
 66
1
  0
ATTRIB
  8
FeatureAttribs
 70
0
  1
PNOA-H_AMS_1956-57_33k_ES_PAN_2
  2
NAME
  10
418238.652
  20
4614981.258
 40
33.68954
  0
SEQEND
  0
POLYLINE
  8
Unknown_Area_Type
  70
1
  66
1
  0
VERTEX
  8
Unknown_Area_Type
  10
419691.046
  20
4613217.351
  0
VERTEX
  8
Unknown_Area_Type
  10
419728.500
  20
4616604.000
  0
VERTEX
  8
Unknown_Area_Type
  10
417121.500
  20
4616840.000
  0
VERTEX
  8
Unknown_Area_Type
  10
417120.500
  20
4616839.500
  0
VERTEX
  8
Unknown_Area_Type
  10
416800.000
  20
4616642.500
  0
VERTEX
  8
Unknown_Area_Type
  10
416778.870
  20
4613250.561
  0
VERTEX
  8
Unknown_Area_Type
  10
418485.445
  20
4613230.758
  0
VERTEX
  8
Unknown_Area_Type
  10
419691.046
  20
4613217.351
  0
SEQEND
  8
Unknown_Area_Type
  0
INSERT
  8
FeatureAttribs
  2
FEATURE
  41
1
  42
1
  43
1
  50
0
  10
426309.479
  20
4613137.541
 66
1
  0
ATTRIB
  8
FeatureAttribs
 70
0
  1
PNOA-H_AMS_1956-57_33k_ES_PAN_2
  2
NAME
  10
426309.479
  20
4613137.541
 40
33.68954
  0
SEQEND
  0
POLYLINE
  8
Unknown_Area_Type
  70
1
  66
1
  0
VERTEX
  8
Unknown_Area_Type
  10
428351.714
  20
4613125.551
  0
VERTEX
  8
Unknown_Area_Type
  10
428351.626
  20
4613120.050
  0
VERTEX
  8
Unknown_Area_Type
  10
425448.345
  20
4613120.050
  0
VERTEX
  8
Unknown_Area_Type
  10
425448.030
  20
4613155.033
  0
VERTEX
  8
Unknown_Area_Type
  10
428351.714
  20
4613125.551
  0
SEQEND
  8
Unknown_Area_Type
  0
INSERT
  8
FeatureAttribs
  2
FEATURE
  41
1
  42
1
  43
1
  50
0
  10
426892.616
  20
4614940.093
 66
1
  0
ATTRIB
  8
FeatureAttribs
 70
0
  1
PNOA-H_AMS_1956-57_33k_ES_PAN_2
  2
NAME
  10
426892.616
  20
4614940.093
 40
33.68954
  0
SEQEND
  0
POLYLINE
  8
Unknown_Area_Type
  70
1
  66
1
  0
VERTEX
  8
Unknown_Area_Type
  10
428351.714
  20
4613125.551
  0
VERTEX
  8
Unknown_Area_Type
  10
425448.030
  20
4613155.033
  0
VERTEX
  8
Unknown_Area_Type
  10
425417.500
  20
4616543.000
  0
VERTEX
  8
Unknown_Area_Type
  10
425616.000
  20
4616637.500
  0
VERTEX
  8
Unknown_Area_Type
  10
425617.000
  20
4616638.000
  0
VERTEX
  8
Unknown_Area_Type
  10
426216.500
  20
4616922.000
  0
VERTEX
  8
Unknown_Area_Type
  10
428405.500
  20
4616503.500
  0
VERTEX
  8
Unknown_Area_Type
  10
428351.714
  20
4613125.551
  0
SEQEND
  8
Unknown_Area_Type
  0
INSERT
  8
FeatureAttribs
  2
FEATURE
  41
1
  42
1
  43
1
  50
0
  10
426892.616
  20
4614940.093
 66
1
  0
ATTRIB
  8
FeatureAttribs
 70
0
  1
PNOA-H_AMS_1956-57_33k_ES_PAN_2
  2
NAME
  10
426892.616
  20
4614940.093
 40
33.68954
  0
SEQEND
  0
POLYLINE
  8
Unknown_Area_Type
  70
1
  66
1
  0
VERTEX
  8
Unknown_Area_Type
  10
428351.714
  20
4613125.551
  0
VERTEX
  8
Unknown_Area_Type
  10
428405.500
  20
4616503.500
  0
VERTEX
  8
Unknown_Area_Type
  10
426216.500
  20
4616922.000
  0
VERTEX
  8
Unknown_Area_Type
  10
425617.000
  20
4616638.000
  0
VERTEX
  8
Unknown_Area_Type
  10
425616.000
  20
4616637.500
  0
VERTEX
  8
Unknown_Area_Type
  10
425417.500
  20
4616543.000
  0
VERTEX
  8
Unknown_Area_Type
  10
425448.030
  20
4613155.033
  0
VERTEX
  8
Unknown_Area_Type
  10
428351.714
  20
4613125.551
  0
SEQEND
  8
Unknown_Area_Type
  0
INSERT
  8
FeatureAttribs
  2
FEATURE
  41
1
  42
1
  43
1
  50
0
  10
429056.743
  20
4627875.463
 66
1
  0
ATTRIB
  8
FeatureAttribs
 70
0
  1
PNOA-H_AMS_1956-57_33k_ES_PAN_2
  2
NAME
  10
429056.743
  20
4627875.463
 40
33.68954
  0
SEQEND
  0
POLYLINE
  8
Unknown_Area_Type
  70
1
  66
1
  0
VERTEX
  8
Unknown_Area_Type
  10
429075.389
  20
4629987.361
  0
VERTEX
  8
Unknown_Area_Type
  10
429075.389
  20
4625763.565
  0
VERTEX
  8
Unknown_Area_Type
  10
429017.301
  20
4625782.359
  0
VERTEX
  8
Unknown_Area_Type
  10
429029.379
  20
4626998.197
  0
VERTEX
  8
Unknown_Area_Type
  10
429052.365
  20
4629311.248
  0
VERTEX
  8
Unknown_Area_Type
  10
429059.042
  20
4629982.846
  0
VERTEX
  8
Unknown_Area_Type
  10
429075.389
  20
4629987.361
  0
SEQEND
  8
Unknown_Area_Type
  0
INSERT
  8
FeatureAttribs
  2
FEATURE
  41
1
  42
1
  43
1
  50
0
  10
428790.257
  20
4627557.262
 66
1
  0
ATTRIB
  8
FeatureAttribs
 70
0
  1
PNOA-H_AMS_1956-57_33k_ES_PAN_2
  2
NAME
  10
428790.257
  20
4627557.262
 40
33.68954
  0
SEQEND
  0
POLYLINE
  8
Unknown_Area_Type
  70
1
  66
1
  0
VERTEX
  8
Unknown_Area_Type
  10
429059.042
  20
4629982.846
  0
VERTEX
  8
Unknown_Area_Type
  10
429052.365
  20
4629311.248
  0
VERTEX
  8
Unknown_Area_Type
  10
429029.379
  20
4626998.197
  0
VERTEX
  8
Unknown_Area_Type
  10
429017.301
  20
4625782.359
  0
VERTEX
  8
Unknown_Area_Type
  10
428341.500
  20
4626001.000
  0
VERTEX
  8
Unknown_Area_Type
  10
428332.500
  20
4626004.000
  0
VERTEX
  8
Unknown_Area_Type
  10
428332.000
  20
4626006.000
  0
VERTEX
  8
Unknown_Area_Type
  10
428846.000
  20
4629924.000
  0
VERTEX
  8
Unknown_Area_Type
  10
429059.042
  20
4629982.846
  0
SEQEND
  8
Unknown_Area_Type
  0
INSERT
  8
FeatureAttribs
  2
FEATURE
  41
1
  42
1
  43
1
  50
0
  10
428790.257
  20
4627557.262
 66
1
  0
ATTRIB
  8
FeatureAttribs
 70
0
  1
PNOA-H_AMS_1956-57_33k_ES_PAN_2
  2
NAME
  10
428790.257
  20
4627557.262
 40
33.68954
  0
SEQEND
  0
POLYLINE
  8
Unknown_Area_Type
  70
1
  66
1
  0
VERTEX
  8
Unknown_Area_Type
  10
429059.042
  20
4629982.846
  0
VERTEX
  8
Unknown_Area_Type
  10
428846.000
  20
4629924.000
  0
VERTEX
  8
Unknown_Area_Type
  10
428332.000
  20
4626006.000
  0
VERTEX
  8
Unknown_Area_Type
  10
428332.500
  20
4626004.000
  0
VERTEX
  8
Unknown_Area_Type
  10
428341.500
  20
4626001.000
  0
VERTEX
  8
Unknown_Area_Type
  10
429017.301
  20
4625782.359
  0
VERTEX
  8
Unknown_Area_Type
  10
429029.379
  20
4626998.197
  0
VERTEX
  8
Unknown_Area_Type
  10
429052.365
  20
4629311.248
  0
VERTEX
  8
Unknown_Area_Type
  10
429059.042
  20
4629982.846
  0
SEQEND
  8
Unknown_Area_Type
  0
INSERT
  8
FeatureAttribs
  2
FEATURE
  41
1
  42
1
  43
1
  50
0
  10
401175.946
  20
4631411.889
 66
1
  0
ATTRIB
  8
FeatureAttribs
 70
0
  1
PNOA-H_AMS_1956-57_33k_ES_PAN_2
  2
NAME
  10
401175.946
  20
4631411.889
 40
33.68954
  0
SEQEND
  0
POLYLINE
  8
Unknown_Area_Type
  70
1
  66
1
  0
VERTEX
  8
Unknown_Area_Type
  10
401246.864
  20
4631953.270
  0
VERTEX
  8
Unknown_Area_Type
  10
401174.000
  20
4630875.500
  0
VERTEX
  8
Unknown_Area_Type
  10
401141.628
  20
4630870.509
  0
VERTEX
  8
Unknown_Area_Type
  10
401141.628
  20
4631953.270
  0
VERTEX
  8
Unknown_Area_Type
  10
401246.864
  20
4631953.270
  0
SEQEND
  8
Unknown_Area_Type
  0
INSERT
  8
FeatureAttribs
  2
FEATURE
  41
1
  42
1
  43
1
  50
0
  10
425443.662
  20
4631802.043
 66
1
  0
ATTRIB
  8
FeatureAttribs
 70
0
  1
PNOA-H_AMS_1956-57_33k_ES_PAN_2
  2
NAME
  10
425443.662
  20
4631802.043
 40
33.68954
  0
SEQEND
  0
POLYLINE
  8
Unknown_Area_Type
  70
1
  66
1
  0
VERTEX
  8
Unknown_Area_Type
  10
426124.297
  20
4631953.270
  0
VERTEX
  8
Unknown_Area_Type
  10
426472.835
  20
4631650.817
  0
VERTEX
  8
Unknown_Area_Type
  10
425615.592
  20
4631659.549
  0
VERTEX
  8
Unknown_Area_Type
  10
424580.631
  20
4631670.594
  0
VERTEX
  8
Unknown_Area_Type
  10
424598.108
  20
4631953.270
  0
VERTEX
  8
Unknown_Area_Type
  10
426124.297
  20
4631953.270
  0
SEQEND
  8
Unknown_Area_Type
  0
INSERT
  8
FeatureAttribs
  2
FEATURE
  41
1
  42
1
  43
1
  50
0
  10
425775.016
  20
4630826.551
 66
1
  0
ATTRIB
  8
FeatureAttribs
 70
0
  1
PNOA-H_AMS_1956-57_33k_ES_PAN_2
  2
NAME
  10
425775.016
  20
4630826.551
 40
33.68954
  0
SEQEND
  0
POLYLINE
  8
Unknown_Area_Type
  70
1
  66
1
  0
VERTEX
  8
Unknown_Area_Type
  10
426472.835
  20
4631650.817
  0
VERTEX
  8
Unknown_Area_Type
  10
427020.000
  20
4631176.000
  0
VERTEX
  8
Unknown_Area_Type
  10
426984.000
  20
4630026.000
  0
VERTEX
  8
Unknown_Area_Type
  10
426791.000
  20
4629887.500
  0
VERTEX
  8
Unknown_Area_Type
  10
424491.500
  20
4630229.000
  0
VERTEX
  8
Unknown_Area_Type
  10
424580.631
  20
4631670.594
  0
VERTEX
  8
Unknown_Area_Type
  10
425615.592
  20
4631659.549
  0
VERTEX
  8
Unknown_Area_Type
  10
426472.835
  20
4631650.817
  0
SEQEND
  8
Unknown_Area_Type
  0
INSERT
  8
FeatureAttribs
  2
FEATURE
  41
1
  42
1
  43
1
  50
0
  10
425775.016
  20
4630826.551
 66
1
  0
ATTRIB
  8
FeatureAttribs
 70
0
  1
PNOA-H_AMS_1956-57_33k_ES_PAN_2
  2
NAME
  10
425775.016
  20
4630826.551
 40
33.68954
  0
SEQEND
  0
POLYLINE
  8
Unknown_Area_Type
  70
1
  66
1
  0
VERTEX
  8
Unknown_Area_Type
  10
426472.835
  20
4631650.817
  0
VERTEX
  8
Unknown_Area_Type
  10
425615.592
  20
4631659.549
  0
VERTEX
  8
Unknown_Area_Type
  10
424580.631
  20
4631670.594
  0
VERTEX
  8
Unknown_Area_Type
  10
424491.500
  20
4630229.000
  0
VERTEX
  8
Unknown_Area_Type
  10
426791.000
  20
4629887.500
  0
VERTEX
  8
Unknown_Area_Type
  10
426984.000
  20
4630026.000
  0
VERTEX
  8
Unknown_Area_Type
  10
427020.000
  20
4631176.000
  0
VERTEX
  8
Unknown_Area_Type
  10
426472.835
  20
4631650.817
  0
SEQEND
  8
Unknown_Area_Type
  0
INSERT
  8
FeatureAttribs
  2
FEATURE
  41
1
  42
1
  43
1
  50
0
  10
428136.456
  20
4631788.788
 66
1
  0
ATTRIB
  8
FeatureAttribs
 70
0
  1
PNOA-H_AMS_1956-57_33k_ES_PAN_2
  2
NAME
  10
428136.456
  20
4631788.788
 40
33.68954
  0
SEQEND
  0
POLYLINE
  8
Unknown_Area_Type
  70
1
  66
1
  0
VERTEX
  8
Unknown_Area_Type
  10
429075.389
  20
4631651.495
  0
VERTEX
  8
Unknown_Area_Type
  10
429075.389
  20
4631627.115
  0
VERTEX
  8
Unknown_Area_Type
  10
429075.361
  20
4631624.306
  0
VERTEX
  8
Unknown_Area_Type
  10
427221.303
  20
4631643.192
  0
VERTEX
  8
Unknown_Area_Type
  10
427355.052
  20
4631953.270
  0
VERTEX
  8
Unknown_Area_Type
  10
428885.079
  20
4631953.270
  0
VERTEX
  8
Unknown_Area_Type
  10
429075.389
  20
4631651.495
  0
SEQEND
  8
Unknown_Area_Type
  0
INSERT
  8
FeatureAttribs
  2
FEATURE
  41
1
  42
1
  43
1
  50
0
  10
429075.375
  20
4631625.008
 66
1
  0
ATTRIB
  8
FeatureAttribs
 70
0
  1
PNOA-H_AMS_1956-57_33k_ES_PAN_2
  2
NAME
  10
429075.375
  20
4631625.008
 40
33.68954
  0
SEQEND
  0
POLYLINE
  8
Unknown_Area_Type
  70
1
  66
1
  0
VERTEX
  8
Unknown_Area_Type
  10
429075.389
  20
4631627.115
  0
VERTEX
  8
Unknown_Area_Type
  10
429075.389
  20
4631624.306
  0
VERTEX
  8
Unknown_Area_Type
  10
429075.361
  20
4631624.306
  0
VERTEX
  8
Unknown_Area_Type
  10
429075.389
  20
4631627.115
  0
SEQEND
  8
Unknown_Area_Type
  0
INSERT
  8
FeatureAttribs
  2
FEATURE
  41
1
  42
1
  43
1
  50
0
  10
429071.295
  20
4630803.469
 66
1
  0
ATTRIB
  8
FeatureAttribs
 70
0
  1
PNOA-H_AMS_1956-57_33k_ES_PAN_2
  2
NAME
  10
429071.295
  20
4630803.469
 40
33.68954
  0
SEQEND
  0
POLYLINE
  8
Unknown_Area_Type
  70
1
  66
1
  0
VERTEX
  8
Unknown_Area_Type
  10
429075.389
  20
4629987.142
  0
VERTEX
  8
Unknown_Area_Type
  10
429059.040
  20
4629982.632
  0
VERTEX
  8
Unknown_Area_Type
  10
429075.361
  20
4631624.306
  0
VERTEX
  8
Unknown_Area_Type
  10
429075.389
  20
4631624.306
  0
VERTEX
  8
Unknown_Area_Type
  10
429075.389
  20
4629987.142
  0
SEQEND
  8
Unknown_Area_Type
  0
INSERT
  8
FeatureAttribs
  2
FEATURE
  41
1
  42
1
  43
1
  50
0
  10
428057.780
  20
4630792.218
 66
1
  0
ATTRIB
  8
FeatureAttribs
 70
0
  1
PNOA-H_AMS_1956-57_33k_ES_PAN_2
  2
NAME
  10
428057.780
  20
4630792.218
 40
33.68954
  0
SEQEND
  0
POLYLINE
  8
Unknown_Area_Type
  70
1
  66
1
  0
VERTEX
  8
Unknown_Area_Type
  10
429059.040
  20
4629982.632
  0
VERTEX
  8
Unknown_Area_Type
  10
428846.500
  20
4629924.000
  0
VERTEX
  8
Unknown_Area_Type
  10
426984.000
  20
4630026.000
  0
VERTEX
  8
Unknown_Area_Type
  10
427020.000
  20
4631176.500
  0
VERTEX
  8
Unknown_Area_Type
  10
427221.303
  20
4631643.192
  0
VERTEX
  8
Unknown_Area_Type
  10
429075.361
  20
4631624.306
  0
VERTEX
  8
Unknown_Area_Type
  10
429059.040
  20
4629982.632
  0
SEQEND
  8
Unknown_Area_Type
  0
INSERT
  8
FeatureAttribs
  2
FEATURE
  41
1
  42
1
  43
1
  50
0
  10
428057.780
  20
4630792.218
 66
1
  0
ATTRIB
  8
FeatureAttribs
 70
0
  1
PNOA-H_AMS_1956-57_33k_ES_PAN_2
  2
NAME
  10
428057.780
  20
4630792.218
 40
33.68954
  0
SEQEND
  0
POLYLINE
  8
Unknown_Area_Type
  70
1
  66
1
  0
VERTEX
  8
Unknown_Area_Type
  10
429059.040
  20
4629982.632
  0
VERTEX
  8
Unknown_Area_Type
  10
429075.361
  20
4631624.306
  0
VERTEX
  8
Unknown_Area_Type
  10
427221.303
  20
4631643.192
  0
VERTEX
  8
Unknown_Area_Type
  10
427020.000
  20
4631176.500
  0
VERTEX
  8
Unknown_Area_Type
  10
426984.000
  20
4630026.000
  0
VERTEX
  8
Unknown_Area_Type
  10
428846.500
  20
4629924.000
  0
VERTEX
  8
Unknown_Area_Type
  10
429059.040
  20
4629982.632
  0
SEQEND
  8
Unknown_Area_Type
  0
INSERT
  8
FeatureAttribs
  2
FEATURE
  41
1
  42
1
  43
1
  50
0
  10
420784.146
  20
4631825.361
 66
1
  0
ATTRIB
  8
FeatureAttribs
 70
0
  1
PNOA-H_AMS_1956-57_33k_ES_PAN_2
  2
NAME
  10
420784.146
  20
4631825.361
 40
33.68954
  0
SEQEND
  0
POLYLINE
  8
Unknown_Area_Type
  70
1
  66
1
  0
VERTEX
  8
Unknown_Area_Type
  10
422084.213
  20
4631953.270
  0
VERTEX
  8
Unknown_Area_Type
  10
422075.500
  20
4631818.500
  0
VERTEX
  8
Unknown_Area_Type
  10
422075.500
  20
4631816.000
  0
VERTEX
  8
Unknown_Area_Type
  10
422067.831
  20
4631697.452
  0
VERTEX
  8
Unknown_Area_Type
  10
419489.241
  20
4631726.221
  0
VERTEX
  8
Unknown_Area_Type
  10
419496.360
  20
4631953.270
  0
VERTEX
  8
Unknown_Area_Type
  10
422084.213
  20
4631953.270
  0
SEQEND
  8
Unknown_Area_Type
  0
INSERT
  8
FeatureAttribs
  2
FEATURE
  41
1
  42
1
  43
1
  50
0
  10
420779.370
  20
4630976.616
 66
1
  0
ATTRIB
  8
FeatureAttribs
 70
0
  1
PNOA-H_AMS_1956-57_33k_ES_PAN_2
  2
NAME
  10
420779.370
  20
4630976.616
 40
33.68954
  0
SEQEND
  0
POLYLINE
  8
Unknown_Area_Type
  70
1
  66
1
  0
VERTEX
  8
Unknown_Area_Type
  10
422067.831
  20
4631697.452
  0
VERTEX
  8
Unknown_Area_Type
  10
421986.000
  20
4630432.500
  0
VERTEX
  8
Unknown_Area_Type
  10
421169.000
  20
4629999.000
  0
VERTEX
  8
Unknown_Area_Type
  10
419452.000
  20
4630538.500
  0
VERTEX
  8
Unknown_Area_Type
  10
419489.241
  20
4631726.221
  0
VERTEX
  8
Unknown_Area_Type
  10
422067.831
  20
4631697.452
  0
SEQEND
  8
Unknown_Area_Type
  0
INSERT
  8
FeatureAttribs
  2
FEATURE
  41
1
  42
1
  43
1
  50
0
  10
420779.370
  20
4630976.616
 66
1
  0
ATTRIB
  8
FeatureAttribs
 70
0
  1
PNOA-H_AMS_1956-57_33k_ES_PAN_2
  2
NAME
  10
420779.370
  20
4630976.616
 40
33.68954
  0
SEQEND
  0
POLYLINE
  8
Unknown_Area_Type
  70
1
  66
1
  0
VERTEX
  8
Unknown_Area_Type
  10
422067.831
  20
4631697.452
  0
VERTEX
  8
Unknown_Area_Type
  10
419489.241
  20
4631726.221
  0
VERTEX
  8
Unknown_Area_Type
  10
419452.000
  20
4630538.500
  0
VERTEX
  8
Unknown_Area_Type
  10
421169.000
  20
4629999.000
  0
VERTEX
  8
Unknown_Area_Type
  10
421986.000
  20
4630432.500
  0
VERTEX
  8
Unknown_Area_Type
  10
422067.831
  20
4631697.452
  0
SEQEND
  8
Unknown_Area_Type
  0
INSERT
  8
FeatureAttribs
  2
FEATURE
  41
1
  42
1
  43
1
  50
0
  10
423332.138
  20
4631811.933
 66
1
  0
ATTRIB
  8
FeatureAttribs
 70
0
  1
PNOA-H_AMS_1956-57_33k_ES_PAN_2
  2
NAME
  10
423332.138
  20
4631811.933
 40
33.68954
  0
SEQEND
  0
POLYLINE
  8
Unknown_Area_Type
  70
1
  66
1
  0
VERTEX
  8
Unknown_Area_Type
  10
424597.840
  20
4631953.270
  0
VERTEX
  8
Unknown_Area_Type
  10
424580.407
  20
4631670.596
  0
VERTEX
  8
Unknown_Area_Type
  10
422155.818
  20
4631696.470
  0
VERTEX
  8
Unknown_Area_Type
  10
422067.754
  20
4631697.453
  0
VERTEX
  8
Unknown_Area_Type
  10
422084.288
  20
4631953.270
  0
VERTEX
  8
Unknown_Area_Type
  10
424597.840
  20
4631953.270
  0
SEQEND
  8
Unknown_Area_Type
  0
INSERT
  8
FeatureAttribs
  2
FEATURE
  41
1
  42
1
  43
1
  50
0
  10
423329.081
  20
4630912.070
 66
1
  0
ATTRIB
  8
FeatureAttribs
 70
0
  1
PNOA-H_AMS_1956-57_33k_ES_PAN_2
  2
NAME
  10
423329.081
  20
4630912.070
 40
33.68954
  0
SEQEND
  0
POLYLINE
  8
Unknown_Area_Type
  70
1
  66
1
  0
VERTEX
  8
Unknown_Area_Type
  10
424580.407
  20
4631670.596
  0
VERTEX
  8
Unknown_Area_Type
  10
424491.500
  20
4630229.000
  0
VERTEX
  8
Unknown_Area_Type
  10
423979.000
  20
4629916.000
  0
VERTEX
  8
Unknown_Area_Type
  10
421986.000
  20
4630432.500
  0
VERTEX
  8
Unknown_Area_Type
  10
422067.754
  20
4631697.453
  0
VERTEX
  8
Unknown_Area_Type
  10
422155.818
  20
4631696.470
  0
VERTEX
  8
Unknown_Area_Type
  10
424580.407
  20
4631670.596
  0
SEQEND
  8
Unknown_Area_Type
  0
INSERT
  8
FeatureAttribs
  2
FEATURE
  41
1
  42
1
  43
1
  50
0
  10
423329.081
  20
4630912.070
 66
1
  0
ATTRIB
  8
FeatureAttribs
 70
0
  1
PNOA-H_AMS_1956-57_33k_ES_PAN_2
  2
NAME
  10
423329.081
  20
4630912.070
 40
33.68954
  0
SEQEND
  0
POLYLINE
  8
Unknown_Area_Type
  70
1
  66
1
  0
VERTEX
  8
Unknown_Area_Type
  10
424580.407
  20
4631670.596
  0
VERTEX
  8
Unknown_Area_Type
  10
422155.818
  20
4631696.470
  0
VERTEX
  8
Unknown_Area_Type
  10
422067.754
  20
4631697.453
  0
VERTEX
  8
Unknown_Area_Type
  10
421986.000
  20
4630432.500
  0
VERTEX
  8
Unknown_Area_Type
  10
423979.000
  20
4629916.000
  0
VERTEX
  8
Unknown_Area_Type
  10
424491.500
  20
4630229.000
  0
VERTEX
  8
Unknown_Area_Type
  10
424580.407
  20
4631670.596
  0
SEQEND
  8
Unknown_Area_Type
  0
INSERT
  8
FeatureAttribs
  2
FEATURE
  41
1
  42
1
  43
1
  50
0
  10
415538.646
  20
4631854.770
 66
1
  0
ATTRIB
  8
FeatureAttribs
 70
0
  1
PNOA-H_AMS_1956-57_33k_ES_PAN_2
  2
NAME
  10
415538.646
  20
4631854.770
 40
33.68954
  0
SEQEND
  0
POLYLINE
  8
Unknown_Area_Type
  70
1
  66
1
  0
VERTEX
  8
Unknown_Area_Type
  10
416876.374
  20
4631953.270
  0
VERTEX
  8
Unknown_Area_Type
  10
416875.029
  20
4631756.270
  0
VERTEX
  8
Unknown_Area_Type
  10
415236.256
  20
4631775.349
  0
VERTEX
  8
Unknown_Area_Type
  10
414199.493
  20
4631787.922
  0
VERTEX
  8
Unknown_Area_Type
  10
414204.681
  20
4631953.270
  0
VERTEX
  8
Unknown_Area_Type
  10
416876.374
  20
4631953.270
  0
SEQEND
  8
Unknown_Area_Type
  0
INSERT
  8
FeatureAttribs
  2
FEATURE
  41
1
  42
1
  43
1
  50
0
  10
415536.802
  20
4631048.166
 66
1
  0
ATTRIB
  8
FeatureAttribs
 70
0
  1
PNOA-H_AMS_1956-57_33k_ES_PAN_2
  2
NAME
  10
415536.802
  20
4631048.166
 40
33.68954
  0
SEQEND
  0
POLYLINE
  8
Unknown_Area_Type
  70
1
  66
1
  0
VERTEX
  8
Unknown_Area_Type
  10
416875.029
  20
4631756.270
  0
VERTEX
  8
Unknown_Area_Type
  10
416867.000
  20
4630580.500
  0
VERTEX
  8
Unknown_Area_Type
  10
415692.000
  20
4630081.000
  0
VERTEX
  8
Unknown_Area_Type
  10
414163.000
  20
4630625.000
  0
VERTEX
  8
Unknown_Area_Type
  10
414199.493
  20
4631787.922
  0
VERTEX
  8
Unknown_Area_Type
  10
415236.256
  20
4631775.349
  0
VERTEX
  8
Unknown_Area_Type
  10
416875.029
  20
4631756.270
  0
SEQEND
  8
Unknown_Area_Type
  0
INSERT
  8
FeatureAttribs
  2
FEATURE
  41
1
  42
1
  43
1
  50
0
  10
415536.802
  20
4631048.166
 66
1
  0
ATTRIB
  8
FeatureAttribs
 70
0
  1
PNOA-H_AMS_1956-57_33k_ES_PAN_2
  2
NAME
  10
415536.802
  20
4631048.166
 40
33.68954
  0
SEQEND
  0
POLYLINE
  8
Unknown_Area_Type
  70
1
  66
1
  0
VERTEX
  8
Unknown_Area_Type
  10
416875.029
  20
4631756.270
  0
VERTEX
  8
Unknown_Area_Type
  10
415236.256
  20
4631775.349
  0
VERTEX
  8
Unknown_Area_Type
  10
414199.493
  20
4631787.922
  0
VERTEX
  8
Unknown_Area_Type
  10
414163.000
  20
4630625.000
  0
VERTEX
  8
Unknown_Area_Type
  10
415692.000
  20
4630081.000
  0
VERTEX
  8
Unknown_Area_Type
  10
416867.000
  20
4630580.500
  0
VERTEX
  8
Unknown_Area_Type
  10
416875.029
  20
4631756.270
  0
SEQEND
  8
Unknown_Area_Type
  0
INSERT
  8
FeatureAttribs
  2
FEATURE
  41
1
  42
1
  43
1
  50
0
  10
401396.736
  20
4631953.260
 66
1
  0
ATTRIB
  8
FeatureAttribs
 70
0
  1
PNOA-H_AMS_1956-57_33k_ES_PAN_2
  2
NAME
  10
401396.736
  20
4631953.260
 40
33.68954
  0
SEQEND
  0
POLYLINE
  8
Unknown_Area_Type
  70
1
  66
1
  0
VERTEX
  8
Unknown_Area_Type
  10
401397.071
  20
4631953.270
  0
VERTEX
  8
Unknown_Area_Type
  10
401397.071
  20
4631953.251
  0
VERTEX
  8
Unknown_Area_Type
  10
401395.732
  20
4631953.270
  0
VERTEX
  8
Unknown_Area_Type
  10
401397.071
  20
4631953.270
  0
SEQEND
  8
Unknown_Area_Type
  0
INSERT
  8
FeatureAttribs
  2
FEATURE
  41
1
  42
1
  43
1
  50
0
  10
403155.544
  20
4631937.336
 66
1
  0
ATTRIB
  8
FeatureAttribs
 70
0
  1
PNOA-H_AMS_1956-57_33k_ES_PAN_2
  2
NAME
  10
403155.544
  20
4631937.336
 40
33.68954
  0
SEQEND
  0
POLYLINE
  8
Unknown_Area_Type
  70
1
  66
1
  0
VERTEX
  8
Unknown_Area_Type
  10
403742.953
  20
4631953.270
  0
VERTEX
  8
Unknown_Area_Type
  10
403741.769
  20
4631921.403
  0
VERTEX
  8
Unknown_Area_Type
  10
401397.071
  20
4631953.251
  0
VERTEX
  8
Unknown_Area_Type
  10
401397.071
  20
4631953.270
  0
VERTEX
  8
Unknown_Area_Type
  10
403742.953
  20
4631953.270
  0
SEQEND
  8
Unknown_Area_Type
  0
INSERT
  8
FeatureAttribs
  2
FEATURE
  41
1
  42
1
  43
1
  50
0
  10
401297.778
  20
4631359.084
 66
1
  0
ATTRIB
  8
FeatureAttribs
 70
0
  1
PNOA-H_AMS_1956-57_33k_ES_PAN_2
  2
NAME
  10
401297.778
  20
4631359.084
 40
33.68954
  0
SEQEND
  0
POLYLINE
  8
Unknown_Area_Type
  70
1
  66
1
  0
VERTEX
  8
Unknown_Area_Type
  10
401380.645
  20
4630764.899
  0
VERTEX
  8
Unknown_Area_Type
  10
401174.000
  20
4630875.500
  0
VERTEX
  8
Unknown_Area_Type
  10
401246.875
  20
4631953.270
  0
VERTEX
  8
Unknown_Area_Type
  10
401395.732
  20
4631953.270
  0
VERTEX
  8
Unknown_Area_Type
  10
401397.071
  20
4631953.251
  0
VERTEX
  8
Unknown_Area_Type
  10
401380.645
  20
4630764.899
  0
SEQEND
  8
Unknown_Area_Type
  0
INSERT
  8
FeatureAttribs
  2
FEATURE
  41
1
  42
1
  43
1
  50
0
  10
402525.041
  20
4631242.234
 66
1
  0
ATTRIB
  8
FeatureAttribs
 70
0
  1
PNOA-H_AMS_1956-57_33k_ES_PAN_2
  2
NAME
  10
402525.041
  20
4631242.234
 40
33.68954
  0
SEQEND
  0
POLYLINE
  8
Unknown_Area_Type
  70
1
  66
1
  0
VERTEX
  8
Unknown_Area_Type
  10
403741.769
  20
4631921.403
  0
VERTEX
  8
Unknown_Area_Type
  10
403700.000
  20
4630797.000
  0
VERTEX
  8
Unknown_Area_Type
  10
402234.000
  20
4630339.500
  0
VERTEX
  8
Unknown_Area_Type
  10
402196.000
  20
4630328.500
  0
VERTEX
  8
Unknown_Area_Type
  10
401380.645
  20
4630764.899
  0
VERTEX
  8
Unknown_Area_Type
  10
401397.071
  20
4631953.251
  0
VERTEX
  8
Unknown_Area_Type
  10
403741.769
  20
4631921.403
  0
SEQEND
  8
Unknown_Area_Type
  0
INSERT
  8
FeatureAttribs
  2
FEATURE
  41
1
  42
1
  43
1
  50
0
  10
402525.041
  20
4631242.234
 66
1
  0
ATTRIB
  8
FeatureAttribs
 70
0
  1
PNOA-H_AMS_1956-57_33k_ES_PAN_2
  2
NAME
  10
402525.041
  20
4631242.234
 40
33.68954
  0
SEQEND
  0
POLYLINE
  8
Unknown_Area_Type
  70
1
  66
1
  0
VERTEX
  8
Unknown_Area_Type
  10
403741.769
  20
4631921.403
  0
VERTEX
  8
Unknown_Area_Type
  10
401397.071
  20
4631953.251
  0
VERTEX
  8
Unknown_Area_Type
  10
401380.645
  20
4630764.899
  0
VERTEX
  8
Unknown_Area_Type
  10
402196.000
  20
4630328.500
  0
VERTEX
  8
Unknown_Area_Type
  10
402234.000
  20
4630339.500
  0
VERTEX
  8
Unknown_Area_Type
  10
403700.000
  20
4630797.000
  0
VERTEX
  8
Unknown_Area_Type
  10
403741.769
  20
4631921.403
  0
SEQEND
  8
Unknown_Area_Type
  0
INSERT
  8
FeatureAttribs
  2
FEATURE
  41
1
  42
1
  43
1
  50
0
  10
405051.489
  20
4631920.404
 66
1
  0
ATTRIB
  8
FeatureAttribs
 70
0
  1
PNOA-H_AMS_1956-57_33k_ES_PAN_2
  2
NAME
  10
405051.489
  20
4631920.404
 40
33.68954
  0
SEQEND
  0
POLYLINE
  8
Unknown_Area_Type
  70
1
  66
1
  0
VERTEX
  8
Unknown_Area_Type
  10
406289.071
  20
4631953.270
  0
VERTEX
  8
Unknown_Area_Type
  10
406286.130
  20
4631887.537
  0
VERTEX
  8
Unknown_Area_Type
  10
404856.876
  20
4631906.257
  0
VERTEX
  8
Unknown_Area_Type
  10
403741.769
  20
4631921.403
  0
VERTEX
  8
Unknown_Area_Type
  10
403742.953
  20
4631953.270
  0
VERTEX
  8
Unknown_Area_Type
  10
406289.071
  20
4631953.270
  0
SEQEND
  8
Unknown_Area_Type
  0
INSERT
  8
FeatureAttribs
  2
FEATURE
  41
1
  42
1
  43
1
  50
0
  10
404991.898
  20
4631213.049
 66
1
  0
ATTRIB
  8
FeatureAttribs
 70
0
  1
PNOA-H_AMS_1956-57_33k_ES_PAN_2
  2
NAME
  10
404991.898
  20
4631213.049
 40
33.68954
  0
SEQEND
  0
POLYLINE
  8
Unknown_Area_Type
  70
1
  66
1
  0
VERTEX
  8
Unknown_Area_Type
  10
406286.130
  20
4631887.537
  0
VERTEX
  8
Unknown_Area_Type
  10
406236.500
  20
4630778.500
  0
VERTEX
  8
Unknown_Area_Type
  10
405089.500
  20
4630284.500
  0
VERTEX
  8
Unknown_Area_Type
  10
405072.000
  20
4630290.000
  0
VERTEX
  8
Unknown_Area_Type
  10
403700.000
  20
4630797.000
  0
VERTEX
  8
Unknown_Area_Type
  10
403741.769
  20
4631921.403
  0
VERTEX
  8
Unknown_Area_Type
  10
404856.876
  20
4631906.257
  0
VERTEX
  8
Unknown_Area_Type
  10
406286.130
  20
4631887.537
  0
SEQEND
  8
Unknown_Area_Type
  0
INSERT
  8
FeatureAttribs
  2
FEATURE
  41
1
  42
1
  43
1
  50
0
  10
404991.898
  20
4631213.049
 66
1
  0
ATTRIB
  8
FeatureAttribs
 70
0
  1
PNOA-H_AMS_1956-57_33k_ES_PAN_2
  2
NAME
  10
404991.898
  20
4631213.049
 40
33.68954
  0
SEQEND
  0
POLYLINE
  8
Unknown_Area_Type
  70
1
  66
1
  0
VERTEX
  8
Unknown_Area_Type
  10
406286.130
  20
4631887.537
  0
VERTEX
  8
Unknown_Area_Type
  10
404856.876
  20
4631906.257
  0
VERTEX
  8
Unknown_Area_Type
  10
403741.769
  20
4631921.403
  0
VERTEX
  8
Unknown_Area_Type
  10
403700.000
  20
4630797.000
  0
VERTEX
  8
Unknown_Area_Type
  10
405072.000
  20
4630290.000
  0
VERTEX
  8
Unknown_Area_Type
  10
405089.500
  20
4630284.500
  0
VERTEX
  8
Unknown_Area_Type
  10
406236.500
  20
4630778.500
  0
VERTEX
  8
Unknown_Area_Type
  10
406286.130
  20
4631887.537
  0
SEQEND
  8
Unknown_Area_Type
  0
INSERT
  8
FeatureAttribs
  2
FEATURE
  41
1
  42
1
  43
1
  50
0
  10
412859.785
  20
4631870.596
 66
1
  0
ATTRIB
  8
FeatureAttribs
 70
0
  1
PNOA-H_AMS_1956-57_33k_ES_PAN_2
  2
NAME
  10
412859.785
  20
4631870.596
 40
33.68954
  0
SEQEND
  0
POLYLINE
  8
Unknown_Area_Type
  70
1
  66
1
  0
VERTEX
  8
Unknown_Area_Type
  10
414204.671
  20
4631953.270
  0
VERTEX
  8
Unknown_Area_Type
  10
414199.482
  20
4631787.922
  0
VERTEX
  8
Unknown_Area_Type
  10
411776.468
  20
4631817.306
  0
VERTEX
  8
Unknown_Area_Type
  10
411516.390
  20
4631820.586
  0
VERTEX
  8
Unknown_Area_Type
  10
411519.318
  20
4631953.270
  0
VERTEX
  8
Unknown_Area_Type
  10
414204.671
  20
4631953.270
  0
SEQEND
  8
Unknown_Area_Type
  0
INSERT
  8
FeatureAttribs
  2
FEATURE
  41
1
  42
1
  43
1
  50
0
  10
412863.191
  20
4631108.114
 66
1
  0
ATTRIB
  8
FeatureAttribs
 70
0
  1
PNOA-H_AMS_1956-57_33k_ES_PAN_2
  2
NAME
  10
412863.191
  20
4631108.114
 40
33.68954
  0
SEQEND
  0
POLYLINE
  8
Unknown_Area_Type
  70
1
  66
1
  0
VERTEX
  8
Unknown_Area_Type
  10
414199.482
  20
4631787.922
  0
VERTEX
  8
Unknown_Area_Type
  10
414163.000
  20
4630625.500
  0
VERTEX
  8
Unknown_Area_Type
  10
413139.000
  20
4630183.500
  0
VERTEX
  8
Unknown_Area_Type
  10
411491.500
  20
4630692.500
  0
VERTEX
  8
Unknown_Area_Type
  10
411516.390
  20
4631820.586
  0
VERTEX
  8
Unknown_Area_Type
  10
411776.468
  20
4631817.306
  0
VERTEX
  8
Unknown_Area_Type
  10
414199.482
  20
4631787.922
  0
SEQEND
  8
Unknown_Area_Type
  0
INSERT
  8
FeatureAttribs
  2
FEATURE
  41
1
  42
1
  43
1
  50
0
  10
412863.191
  20
4631108.114
 66
1
  0
ATTRIB
  8
FeatureAttribs
 70
0
  1
PNOA-H_AMS_1956-57_33k_ES_PAN_2
  2
NAME
  10
412863.191
  20
4631108.114
 40
33.68954
  0
SEQEND
  0
POLYLINE
  8
Unknown_Area_Type
  70
1
  66
1
  0
VERTEX
  8
Unknown_Area_Type
  10
414199.482
  20
4631787.922
  0
VERTEX
  8
Unknown_Area_Type
  10
411776.468
  20
4631817.306
  0
VERTEX
  8
Unknown_Area_Type
  10
411516.390
  20
4631820.586
  0
VERTEX
  8
Unknown_Area_Type
  10
411491.500
  20
4630692.500
  0
VERTEX
  8
Unknown_Area_Type
  10
413139.000
  20
4630183.500
  0
VERTEX
  8
Unknown_Area_Type
  10
414163.000
  20
4630625.500
  0
VERTEX
  8
Unknown_Area_Type
  10
414199.482
  20
4631787.922
  0
SEQEND
  8
Unknown_Area_Type
  0
INSERT
  8
FeatureAttribs
  2
FEATURE
  41
1
  42
1
  43
1
  50
0
  10
418184.204
  20
4631839.745
 66
1
  0
ATTRIB
  8
FeatureAttribs
 70
0
  1
PNOA-H_AMS_1956-57_33k_ES_PAN_2
  2
NAME
  10
418184.204
  20
4631839.745
 40
33.68954
  0
SEQEND
  0
POLYLINE
  8
Unknown_Area_Type
  70
1
  66
1
  0
VERTEX
  8
Unknown_Area_Type
  10
419496.369
  20
4631953.270
  0
VERTEX
  8
Unknown_Area_Type
  10
419489.251
  20
4631726.221
  0
VERTEX
  8
Unknown_Area_Type
  10
418696.040
  20
4631735.070
  0
VERTEX
  8
Unknown_Area_Type
  10
416875.027
  20
4631756.270
  0
VERTEX
  8
Unknown_Area_Type
  10
416876.372
  20
4631953.270
  0
VERTEX
  8
Unknown_Area_Type
  10
419496.369
  20
4631953.270
  0
SEQEND
  8
Unknown_Area_Type
  0
INSERT
  8
FeatureAttribs
  2
FEATURE
  41
1
  42
1
  43
1
  50
0
  10
418183.297
  20
4631014.925
 66
1
  0
ATTRIB
  8
FeatureAttribs
 70
0
  1
PNOA-H_AMS_1956-57_33k_ES_PAN_2
  2
NAME
  10
418183.297
  20
4631014.925
 40
33.68954
  0
SEQEND
  0
POLYLINE
  8
Unknown_Area_Type
  70
1
  66
1
  0
VERTEX
  8
Unknown_Area_Type
  10
419489.251
  20
4631726.221
  0
VERTEX
  8
Unknown_Area_Type
  10
419452.000
  20
4630538.000
  0
VERTEX
  8
Unknown_Area_Type
  10
418369.500
  20
4630040.000
  0
VERTEX
  8
Unknown_Area_Type
  10
416867.000
  20
4630581.000
  0
VERTEX
  8
Unknown_Area_Type
  10
416875.027
  20
4631756.270
  0
VERTEX
  8
Unknown_Area_Type
  10
418696.040
  20
4631735.070
  0
VERTEX
  8
Unknown_Area_Type
  10
419489.251
  20
4631726.221
  0
SEQEND
  8
Unknown_Area_Type
  0
INSERT
  8
FeatureAttribs
  2
FEATURE
  41
1
  42
1
  43
1
  50
0
  10
418183.297
  20
4631014.925
 66
1
  0
ATTRIB
  8
FeatureAttribs
 70
0
  1
PNOA-H_AMS_1956-57_33k_ES_PAN_2
  2
NAME
  10
418183.297
  20
4631014.925
 40
33.68954
  0
SEQEND
  0
POLYLINE
  8
Unknown_Area_Type
  70
1
  66
1
  0
VERTEX
  8
Unknown_Area_Type
  10
419489.251
  20
4631726.221
  0
VERTEX
  8
Unknown_Area_Type
  10
418696.040
  20
4631735.070
  0
VERTEX
  8
Unknown_Area_Type
  10
416875.027
  20
4631756.270
  0
VERTEX
  8
Unknown_Area_Type
  10
416867.000
  20
4630581.000
  0
VERTEX
  8
Unknown_Area_Type
  10
418369.500
  20
4630040.000
  0
VERTEX
  8
Unknown_Area_Type
  10
419452.000
  20
4630538.000
  0
VERTEX
  8
Unknown_Area_Type
  10
419489.251
  20
4631726.221
  0
SEQEND
  8
Unknown_Area_Type
  0
INSERT
  8
FeatureAttribs
  2
FEATURE
  41
1
  42
1
  43
1
  50
0
  10
407588.206
  20
4631903.501
 66
1
  0
ATTRIB
  8
FeatureAttribs
 70
0
  1
PNOA-H_AMS_1956-57_33k_ES_PAN_2
  2
NAME
  10
407588.206
  20
4631903.501
 40
33.68954
  0
SEQEND
  0
POLYLINE
  8
Unknown_Area_Type
  70
1
  66
1
  0
VERTEX
  8
Unknown_Area_Type
  10
408890.869
  20
4631953.270
  0
VERTEX
  8
Unknown_Area_Type
  10
408888.268
  20
4631853.733
  0
VERTEX
  8
Unknown_Area_Type
  10
408316.675
  20
4631860.942
  0
VERTEX
  8
Unknown_Area_Type
  10
406286.130
  20
4631887.537
  0
VERTEX
  8
Unknown_Area_Type
  10
406289.071
  20
4631953.270
  0
VERTEX
  8
Unknown_Area_Type
  10
408890.869
  20
4631953.270
  0
SEQEND
  8
Unknown_Area_Type
  0
INSERT
  8
FeatureAttribs
  2
FEATURE
  41
1
  42
1
  43
1
  50
0
  10
407594.268
  20
4631173.366
 66
1
  0
ATTRIB
  8
FeatureAttribs
 70
0
  1
PNOA-H_AMS_1956-57_33k_ES_PAN_2
  2
NAME
  10
407594.268
  20
4631173.366
 40
33.68954
  0
SEQEND
  0
POLYLINE
  8
Unknown_Area_Type
  70
1
  66
1
  0
VERTEX
  8
Unknown_Area_Type
  10
408888.268
  20
4631853.733
  0
VERTEX
  8
Unknown_Area_Type
  10
408858.000
  20
4630695.500
  0
VERTEX
  8
Unknown_Area_Type
  10
407936.000
  20
4630239.000
  0
VERTEX
  8
Unknown_Area_Type
  10
406236.500
  20
4630778.500
  0
VERTEX
  8
Unknown_Area_Type
  10
406286.130
  20
4631887.537
  0
VERTEX
  8
Unknown_Area_Type
  10
408316.675
  20
4631860.942
  0
VERTEX
  8
Unknown_Area_Type
  10
408888.268
  20
4631853.733
  0
SEQEND
  8
Unknown_Area_Type
  0
INSERT
  8
FeatureAttribs
  2
FEATURE
  41
1
  42
1
  43
1
  50
0
  10
407594.268
  20
4631173.366
 66
1
  0
ATTRIB
  8
FeatureAttribs
 70
0
  1
PNOA-H_AMS_1956-57_33k_ES_PAN_2
  2
NAME
  10
407594.268
  20
4631173.366
 40
33.68954
  0
SEQEND
  0
POLYLINE
  8
Unknown_Area_Type
  70
1
  66
1
  0
VERTEX
  8
Unknown_Area_Type
  10
408888.268
  20
4631853.733
  0
VERTEX
  8
Unknown_Area_Type
  10
408316.675
  20
4631860.942
  0
VERTEX
  8
Unknown_Area_Type
  10
406286.130
  20
4631887.537
  0
VERTEX
  8
Unknown_Area_Type
  10
406236.500
  20
4630778.500
  0
VERTEX
  8
Unknown_Area_Type
  10
407936.000
  20
4630239.000
  0
VERTEX
  8
Unknown_Area_Type
  10
408858.000
  20
4630695.500
  0
VERTEX
  8
Unknown_Area_Type
  10
408888.268
  20
4631853.733
  0
SEQEND
  8
Unknown_Area_Type
  0
INSERT
  8
FeatureAttribs
  2
FEATURE
  41
1
  42
1
  43
1
  50
0
  10
410203.495
  20
4631886.928
 66
1
  0
ATTRIB
  8
FeatureAttribs
 70
0
  1
PNOA-H_AMS_1956-57_33k_ES_PAN_2
  2
NAME
  10
410203.495
  20
4631886.928
 40
33.68954
  0
SEQEND
  0
POLYLINE
  8
Unknown_Area_Type
  70
1
  66
1
  0
VERTEX
  8
Unknown_Area_Type
  10
411519.318
  20
4631953.270
  0
VERTEX
  8
Unknown_Area_Type
  10
411516.390
  20
4631820.586
  0
VERTEX
  8
Unknown_Area_Type
  10
408888.268
  20
4631853.733
  0
VERTEX
  8
Unknown_Area_Type
  10
408890.869
  20
4631953.270
  0
VERTEX
  8
Unknown_Area_Type
  10
411519.318
  20
4631953.270
  0
SEQEND
  8
Unknown_Area_Type
  0
INSERT
  8
FeatureAttribs
  2
FEATURE
  41
1
  42
1
  43
1
  50
0
  10
410203.849
  20
4631151.225
 66
1
  0
ATTRIB
  8
FeatureAttribs
 70
0
  1
PNOA-H_AMS_1956-57_33k_ES_PAN_2
  2
NAME
  10
410203.849
  20
4631151.225
 40
33.68954
  0
SEQEND
  0
POLYLINE
  8
Unknown_Area_Type
  70
1
  66
1
  0
VERTEX
  8
Unknown_Area_Type
  10
411516.390
  20
4631820.586
  0
VERTEX
  8
Unknown_Area_Type
  10
411491.500
  20
4630692.500
  0
VERTEX
  8
Unknown_Area_Type
  10
410597.000
  20
4630260.500
  0
VERTEX
  8
Unknown_Area_Type
  10
410324.000
  20
4630328.000
  0
VERTEX
  8
Unknown_Area_Type
  10
408858.000
  20
4630695.500
  0
VERTEX
  8
Unknown_Area_Type
  10
408888.268
  20
4631853.733
  0
VERTEX
  8
Unknown_Area_Type
  10
411516.390
  20
4631820.586
  0
SEQEND
  8
Unknown_Area_Type
  0
INSERT
  8
FeatureAttribs
  2
FEATURE
  41
1
  42
1
  43
1
  50
0
  10
410203.849
  20
4631151.225
 66
1
  0
ATTRIB
  8
FeatureAttribs
 70
0
  1
PNOA-H_AMS_1956-57_33k_ES_PAN_2
  2
NAME
  10
410203.849
  20
4631151.225
 40
33.68954
  0
SEQEND
  0
POLYLINE
  8
Unknown_Area_Type
  70
1
  66
1
  0
VERTEX
  8
Unknown_Area_Type
  10
411516.390
  20
4631820.586
  0
VERTEX
  8
Unknown_Area_Type
  10
408888.268
  20
4631853.733
  0
VERTEX
  8
Unknown_Area_Type
  10
408858.000
  20
4630695.500
  0
VERTEX
  8
Unknown_Area_Type
  10
410324.000
  20
4630328.000
  0
VERTEX
  8
Unknown_Area_Type
  10
410597.000
  20
4630260.500
  0
VERTEX
  8
Unknown_Area_Type
  10
411491.500
  20
4630692.500
  0
VERTEX
  8
Unknown_Area_Type
  10
411516.390
  20
4631820.586
  0
SEQEND
  8
Unknown_Area_Type
  0
INSERT
  8
FeatureAttribs
  2
FEATURE
  41
1
  42
1
  43
1
  50
0
  10
401163.166
  20
4616571.789
 66
1
  0
ATTRIB
  8
FeatureAttribs
 70
0
  1
PNOA-H_AMS_1956-57_33k_ES_PAN_2
  2
NAME
  10
401163.166
  20
4616571.789
 40
33.68954
  0
SEQEND
  0
POLYLINE
  8
Unknown_Area_Type
  70
1
  66
1
  0
VERTEX
  8
Unknown_Area_Type
  10
401194.593
  20
4617288.848
  0
VERTEX
  8
Unknown_Area_Type
  10
401175.004
  20
4615868.223
  0
VERTEX
  8
Unknown_Area_Type
  10
401141.628
  20
4615817.759
  0
VERTEX
  8
Unknown_Area_Type
  10
401141.628
  20
4617325.819
  0
VERTEX
  8
Unknown_Area_Type
  10
401194.593
  20
4617288.848
  0
SEQEND
  8
Unknown_Area_Type
  0
INSERT
  8
FeatureAttribs
  2
FEATURE
  41
1
  42
1
  43
1
  50
0
  10
401397.865
  20
4616668.857
 66
1
  0
ATTRIB
  8
FeatureAttribs
 70
0
  1
PNOA-H_AMS_1956-57_33k_ES_PAN_2
  2
NAME
  10
401397.865
  20
4616668.857
 40
33.68954
  0
SEQEND
  0
POLYLINE
  8
Unknown_Area_Type
  70
1
  66
1
  0
VERTEX
  8
Unknown_Area_Type
  10
401194.593
  20
4617288.848
  0
VERTEX
  8
Unknown_Area_Type
  10
401824.000
  20
4616849.500
  0
VERTEX
  8
Unknown_Area_Type
  10
401175.004
  20
4615868.223
  0
VERTEX
  8
Unknown_Area_Type
  10
401194.593
  20
4617288.848
  0
SEQEND
  8
Unknown_Area_Type
  0
INSERT
  8
FeatureAttribs
  2
FEATURE
  41
1
  42
1
  43
1
  50
0
  10
401397.865
  20
4616668.857
 66
1
  0
ATTRIB
  8
FeatureAttribs
 70
0
  1
PNOA-H_AMS_1956-57_33k_ES_PAN_2
  2
NAME
  10
401397.865
  20
4616668.857
 40
33.68954
  0
SEQEND
  0
POLYLINE
  8
Unknown_Area_Type
  70
1
  66
1
  0
VERTEX
  8
Unknown_Area_Type
  10
401194.593
  20
4617288.848
  0
VERTEX
  8
Unknown_Area_Type
  10
401175.004
  20
4615868.223
  0
VERTEX
  8
Unknown_Area_Type
  10
401824.000
  20
4616849.500
  0
VERTEX
  8
Unknown_Area_Type
  10
401194.593
  20
4617288.848
  0
SEQEND
  8
Unknown_Area_Type
  0
INSERT
  8
FeatureAttribs
  2
FEATURE
  41
1
  42
1
  43
1
  50
0
  10
401190.440
  20
4620526.624
 66
1
  0
ATTRIB
  8
FeatureAttribs
 70
0
  1
PNOA-H_AMS_1956-57_33k_ES_PAN_2
  2
NAME
  10
401190.440
  20
4620526.624
 40
33.68954
  0
SEQEND
  0
POLYLINE
  8
Unknown_Area_Type
  70
1
  66
1
  0
VERTEX
  8
Unknown_Area_Type
  10
401218.635
  20
4619032.053
  0
VERTEX
  8
Unknown_Area_Type
  10
401141.628
  20
4618856.145
  0
VERTEX
  8
Unknown_Area_Type
  10
401141.628
  20
4622197.104
  0
VERTEX
  8
Unknown_Area_Type
  10
401261.970
  20
4622172.851
  0
VERTEX
  8
Unknown_Area_Type
  10
401237.338
  20
4620387.904
  0
VERTEX
  8
Unknown_Area_Type
  10
401218.635
  20
4619032.053
  0
SEQEND
  8
Unknown_Area_Type
  0
INSERT
  8
FeatureAttribs
  2
FEATURE
  41
1
  42
1
  43
1
  50
0
  10
401654.479
  20
4621042.696
 66
1
  0
ATTRIB
  8
FeatureAttribs
 70
0
  1
PNOA-H_AMS_1956-57_33k_ES_PAN_2
  2
NAME
  10
401654.479
  20
4621042.696
 40
33.68954
  0
SEQEND
  0
POLYLINE
  8
Unknown_Area_Type
  70
1
  66
1
  0
VERTEX
  8
Unknown_Area_Type
  10
401261.970
  20
4622172.851
  0
VERTEX
  8
Unknown_Area_Type
  10
402400.000
  20
4621943.500
  0
VERTEX
  8
Unknown_Area_Type
  10
402464.500
  20
4621878.000
  0
VERTEX
  8
Unknown_Area_Type
  10
401218.635
  20
4619032.053
  0
VERTEX
  8
Unknown_Area_Type
  10
401237.338
  20
4620387.904
  0
VERTEX
  8
Unknown_Area_Type
  10
401261.970
  20
4622172.851
  0
SEQEND
  8
Unknown_Area_Type
  0
INSERT
  8
FeatureAttribs
  2
FEATURE
  41
1
  42
1
  43
1
  50
0
  10
401654.479
  20
4621042.696
 66
1
  0
ATTRIB
  8
FeatureAttribs
 70
0
  1
PNOA-H_AMS_1956-57_33k_ES_PAN_2
  2
NAME
  10
401654.479
  20
4621042.696
 40
33.68954
  0
SEQEND
  0
POLYLINE
  8
Unknown_Area_Type
  70
1
  66
1
  0
VERTEX
  8
Unknown_Area_Type
  10
401261.970
  20
4622172.851
  0
VERTEX
  8
Unknown_Area_Type
  10
401237.338
  20
4620387.904
  0
VERTEX
  8
Unknown_Area_Type
  10
401218.635
  20
4619032.053
  0
VERTEX
  8
Unknown_Area_Type
  10
402464.500
  20
4621878.000
  0
VERTEX
  8
Unknown_Area_Type
  10
402400.000
  20
4621943.500
  0
VERTEX
  8
Unknown_Area_Type
  10
401261.970
  20
4622172.851
  0
SEQEND
  8
Unknown_Area_Type
  0
ENDSEC
  0
EOF
