  0
SECTION
  2
HEADER
  9
$ACADVER
  1
AC1009
  9
$LUNITS
  70
2
  9
$LIMMIN
  10
373391.232
  20
4613448.773
  9
$LIMMAX
  10
401397.099
  20
4632389.666
  9
$EXTMIN
  10
373391.232
  20
4613448.773
  9
$EXTMAX
  10
401397.099
  20
4632389.666
  999
Created by Global Mapper
  999
Projection: UTM
  999
Datum: ETRS89
  999
Ground Units: meters
  999
ZONE: 30
  0
ENDSEC
  0
SECTION
  2
TABLES
  0
ENDSEC
  0
SECTION
  2
BLOCKS
  0
BLOCK
  8
FeatureAttribs
  70
0
  2
FEATURE
  3
FEATURE
  10
0.00000000
  20
0.00000000
  0
ATTDEF
  8
FeatureAttribs
  70
0
  1
 
  2
NAME
  3
NAME
  10
0.00000000
  20
0.00000000
  40
1.00000000
  0
ENDBLK
  0
ENDSEC
  0
SECTION
  2
ENTITIES
  0
INSERT
  8
FeatureAttribs
  2
FEATURE
  41
1
  42
1
  43
1
  50
0
  10
401302.771
  20
4618293.185
 66
1
  0
ATTRIB
  8
FeatureAttribs
 70
0
  1
PNOA-H_AMS_1956-57_33k_ES_PAN_2
  2
NAME
  10
401302.771
  20
4618293.185
 40
33.80955
  0
SEQEND
  0
POLYLINE
  8
Unknown_Area_Type
  70
1
  66
1
  0
VERTEX
  8
Unknown_Area_Type
  10
401397.099
  20
4619439.281
  0
VERTEX
  8
Unknown_Area_Type
  10
401397.099
  20
4617147.089
  0
VERTEX
  8
Unknown_Area_Type
  10
401194.587
  20
4617288.424
  0
VERTEX
  8
Unknown_Area_Type
  10
401205.431
  20
4618074.859
  0
VERTEX
  8
Unknown_Area_Type
  10
401218.628
  20
4619031.584
  0
VERTEX
  8
Unknown_Area_Type
  10
401397.099
  20
4619439.281
  0
SEQEND
  8
Unknown_Area_Type
  0
INSERT
  8
FeatureAttribs
  2
FEATURE
  41
1
  42
1
  43
1
  50
0
  10
401013.904
  20
4618001.169
 66
1
  0
ATTRIB
  8
FeatureAttribs
 70
0
  1
PNOA-H_AMS_1956-57_33k_ES_PAN_2
  2
NAME
  10
401013.904
  20
4618001.169
 40
33.80955
  0
SEQEND
  0
POLYLINE
  8
Unknown_Area_Type
  70
1
  66
1
  0
VERTEX
  8
Unknown_Area_Type
  10
401218.628
  20
4619031.584
  0
VERTEX
  8
Unknown_Area_Type
  10
401205.431
  20
4618074.859
  0
VERTEX
  8
Unknown_Area_Type
  10
401194.587
  20
4617288.424
  0
VERTEX
  8
Unknown_Area_Type
  10
400628.500
  20
4617683.500
  0
VERTEX
  8
Unknown_Area_Type
  10
401218.628
  20
4619031.584
  0
SEQEND
  8
Unknown_Area_Type
  0
INSERT
  8
FeatureAttribs
  2
FEATURE
  41
1
  42
1
  43
1
  50
0
  10
401013.904
  20
4618001.169
 66
1
  0
ATTRIB
  8
FeatureAttribs
 70
0
  1
PNOA-H_AMS_1956-57_33k_ES_PAN_2
  2
NAME
  10
401013.904
  20
4618001.169
 40
33.80955
  0
SEQEND
  0
POLYLINE
  8
Unknown_Area_Type
  70
1
  66
1
  0
VERTEX
  8
Unknown_Area_Type
  10
401218.628
  20
4619031.584
  0
VERTEX
  8
Unknown_Area_Type
  10
400628.500
  20
4617683.500
  0
VERTEX
  8
Unknown_Area_Type
  10
401194.587
  20
4617288.424
  0
VERTEX
  8
Unknown_Area_Type
  10
401205.431
  20
4618074.859
  0
VERTEX
  8
Unknown_Area_Type
  10
401218.628
  20
4619031.584
  0
SEQEND
  8
Unknown_Area_Type
  0
INSERT
  8
FeatureAttribs
  2
FEATURE
  41
1
  42
1
  43
1
  50
0
  10
373539.291
  20
4620688.904
 66
1
  0
ATTRIB
  8
FeatureAttribs
 70
0
  1
PNOA-H_AMS_1956-57_33k_ES_PAN_2
  2
NAME
  10
373539.291
  20
4620688.904
 40
33.80955
  0
SEQEND
  0
POLYLINE
  8
Unknown_Area_Type
  70
1
  66
1
  0
VERTEX
  8
Unknown_Area_Type
  10
373532.406
  20
4621875.981
  0
VERTEX
  8
Unknown_Area_Type
  10
373638.500
  20
4621793.000
  0
VERTEX
  8
Unknown_Area_Type
  10
373490.451
  20
4619501.826
  0
VERTEX
  8
Unknown_Area_Type
  10
373513.814
  20
4620824.119
  0
VERTEX
  8
Unknown_Area_Type
  10
373532.406
  20
4621875.981
  0
SEQEND
  8
Unknown_Area_Type
  0
INSERT
  8
FeatureAttribs
  2
FEATURE
  41
1
  42
1
  43
1
  50
0
  10
373539.291
  20
4620688.904
 66
1
  0
ATTRIB
  8
FeatureAttribs
 70
0
  1
PNOA-H_AMS_1956-57_33k_ES_PAN_2
  2
NAME
  10
373539.291
  20
4620688.904
 40
33.80955
  0
SEQEND
  0
POLYLINE
  8
Unknown_Area_Type
  70
1
  66
1
  0
VERTEX
  8
Unknown_Area_Type
  10
373532.406
  20
4621875.981
  0
VERTEX
  8
Unknown_Area_Type
  10
373638.500
  20
4621793.000
  0
VERTEX
  8
Unknown_Area_Type
  10
373490.451
  20
4619501.826
  0
VERTEX
  8
Unknown_Area_Type
  10
373513.814
  20
4620824.119
  0
VERTEX
  8
Unknown_Area_Type
  10
373532.406
  20
4621875.981
  0
SEQEND
  8
Unknown_Area_Type
  0
INSERT
  8
FeatureAttribs
  2
FEATURE
  41
1
  42
1
  43
1
  50
0
  10
373445.034
  20
4619976.364
 66
1
  0
ATTRIB
  8
FeatureAttribs
 70
0
  1
PNOA-H_AMS_1956-57_33k_ES_PAN_2
  2
NAME
  10
373445.034
  20
4619976.364
 40
33.80955
  0
SEQEND
  0
POLYLINE
  8
Unknown_Area_Type
  70
1
  66
1
  0
VERTEX
  8
Unknown_Area_Type
  10
373532.406
  20
4621875.981
  0
VERTEX
  8
Unknown_Area_Type
  10
373513.814
  20
4620824.119
  0
VERTEX
  8
Unknown_Area_Type
  10
373490.451
  20
4619501.826
  0
VERTEX
  8
Unknown_Area_Type
  10
373391.232
  20
4617966.329
  0
VERTEX
  8
Unknown_Area_Type
  10
373391.232
  20
4621986.400
  0
VERTEX
  8
Unknown_Area_Type
  10
373532.406
  20
4621875.981
  0
SEQEND
  8
Unknown_Area_Type
  0
INSERT
  8
FeatureAttribs
  2
FEATURE
  41
1
  42
1
  43
1
  50
0
  10
401374.313
  20
4628658.025
 66
1
  0
ATTRIB
  8
FeatureAttribs
 70
0
  1
PNOA-H_AMS_1956-57_33k_ES_PAN_2
  2
NAME
  10
401374.313
  20
4628658.025
 40
33.80955
  0
SEQEND
  0
POLYLINE
  8
Unknown_Area_Type
  70
1
  66
1
  0
VERTEX
  8
Unknown_Area_Type
  10
401397.099
  20
4630756.583
  0
VERTEX
  8
Unknown_Area_Type
  10
401397.099
  20
4626556.600
  0
VERTEX
  8
Unknown_Area_Type
  10
401322.415
  20
4626550.665
  0
VERTEX
  8
Unknown_Area_Type
  10
401333.138
  20
4627327.088
  0
VERTEX
  8
Unknown_Area_Type
  10
401365.098
  20
4629640.165
  0
VERTEX
  8
Unknown_Area_Type
  10
401380.652
  20
4630765.385
  0
VERTEX
  8
Unknown_Area_Type
  10
401397.099
  20
4630756.583
  0
SEQEND
  8
Unknown_Area_Type
  0
INSERT
  8
FeatureAttribs
  2
FEATURE
  41
1
  42
1
  43
1
  50
0
  10
400224.154
  20
4628610.168
 66
1
  0
ATTRIB
  8
FeatureAttribs
 70
0
  1
PNOA-H_AMS_1956-57_33k_ES_PAN_2
  2
NAME
  10
400224.154
  20
4628610.168
 40
33.80955
  0
SEQEND
  0
POLYLINE
  8
Unknown_Area_Type
  70
1
  66
1
  0
VERTEX
  8
Unknown_Area_Type
  10
401380.652
  20
4630765.385
  0
VERTEX
  8
Unknown_Area_Type
  10
401365.098
  20
4629640.165
  0
VERTEX
  8
Unknown_Area_Type
  10
401333.138
  20
4627327.088
  0
VERTEX
  8
Unknown_Area_Type
  10
401322.415
  20
4626550.665
  0
VERTEX
  8
Unknown_Area_Type
  10
399628.000
  20
4626416.000
  0
VERTEX
  8
Unknown_Area_Type
  10
399011.000
  20
4626757.000
  0
VERTEX
  8
Unknown_Area_Type
  10
399117.500
  20
4630558.500
  0
VERTEX
  8
Unknown_Area_Type
  10
401167.500
  20
4630875.000
  0
VERTEX
  8
Unknown_Area_Type
  10
401171.000
  20
4630875.500
  0
VERTEX
  8
Unknown_Area_Type
  10
401174.500
  20
4630875.500
  0
VERTEX
  8
Unknown_Area_Type
  10
401180.500
  20
4630872.500
  0
VERTEX
  8
Unknown_Area_Type
  10
401380.652
  20
4630765.385
  0
SEQEND
  8
Unknown_Area_Type
  0
INSERT
  8
FeatureAttribs
  2
FEATURE
  41
1
  42
1
  43
1
  50
0
  10
400224.154
  20
4628610.168
 66
1
  0
ATTRIB
  8
FeatureAttribs
 70
0
  1
PNOA-H_AMS_1956-57_33k_ES_PAN_2
  2
NAME
  10
400224.154
  20
4628610.168
 40
33.80955
  0
SEQEND
  0
POLYLINE
  8
Unknown_Area_Type
  70
1
  66
1
  0
VERTEX
  8
Unknown_Area_Type
  10
401380.652
  20
4630765.385
  0
VERTEX
  8
Unknown_Area_Type
  10
401180.500
  20
4630872.500
  0
VERTEX
  8
Unknown_Area_Type
  10
401174.500
  20
4630875.500
  0
VERTEX
  8
Unknown_Area_Type
  10
401171.000
  20
4630875.500
  0
VERTEX
  8
Unknown_Area_Type
  10
401167.500
  20
4630875.000
  0
VERTEX
  8
Unknown_Area_Type
  10
399117.500
  20
4630558.500
  0
VERTEX
  8
Unknown_Area_Type
  10
399011.000
  20
4626757.000
  0
VERTEX
  8
Unknown_Area_Type
  10
399628.000
  20
4626416.000
  0
VERTEX
  8
Unknown_Area_Type
  10
401322.415
  20
4626550.665
  0
VERTEX
  8
Unknown_Area_Type
  10
401333.138
  20
4627327.088
  0
VERTEX
  8
Unknown_Area_Type
  10
401365.098
  20
4629640.165
  0
VERTEX
  8
Unknown_Area_Type
  10
401380.652
  20
4630765.385
  0
SEQEND
  8
Unknown_Area_Type
  0
INSERT
  8
FeatureAttribs
  2
FEATURE
  41
1
  42
1
  43
1
  50
0
  10
394700.028
  20
4628811.114
 66
1
  0
ATTRIB
  8
FeatureAttribs
 70
0
  1
PNOA-H_AMS_1956-57_33k_ES_PAN_2
  2
NAME
  10
394700.028
  20
4628811.114
 40
33.80955
  0
SEQEND
  0
POLYLINE
  8
Unknown_Area_Type
  70
1
  66
1
  0
VERTEX
  8
Unknown_Area_Type
  10
394898.000
  20
4630909.500
  0
VERTEX
  8
Unknown_Area_Type
  10
396137.000
  20
4630784.500
  0
VERTEX
  8
Unknown_Area_Type
  10
396059.500
  20
4626790.500
  0
VERTEX
  8
Unknown_Area_Type
  10
393347.500
  20
4626613.000
  0
VERTEX
  8
Unknown_Area_Type
  10
393327.500
  20
4626625.500
  0
VERTEX
  8
Unknown_Area_Type
  10
393327.500
  20
4626649.000
  0
VERTEX
  8
Unknown_Area_Type
  10
393352.500
  20
4630801.000
  0
VERTEX
  8
Unknown_Area_Type
  10
393747.000
  20
4631026.000
  0
VERTEX
  8
Unknown_Area_Type
  10
394892.500
  20
4630910.000
  0
VERTEX
  8
Unknown_Area_Type
  10
394898.000
  20
4630909.500
  0
SEQEND
  8
Unknown_Area_Type
  0
INSERT
  8
FeatureAttribs
  2
FEATURE
  41
1
  42
1
  43
1
  50
0
  10
394700.028
  20
4628811.114
 66
1
  0
ATTRIB
  8
FeatureAttribs
 70
0
  1
PNOA-H_AMS_1956-57_33k_ES_PAN_2
  2
NAME
  10
394700.028
  20
4628811.114
 40
33.80955
  0
SEQEND
  0
POLYLINE
  8
Unknown_Area_Type
  70
1
  66
1
  0
VERTEX
  8
Unknown_Area_Type
  10
394898.000
  20
4630909.500
  0
VERTEX
  8
Unknown_Area_Type
  10
394892.500
  20
4630910.000
  0
VERTEX
  8
Unknown_Area_Type
  10
393747.000
  20
4631026.000
  0
VERTEX
  8
Unknown_Area_Type
  10
393352.500
  20
4630801.000
  0
VERTEX
  8
Unknown_Area_Type
  10
393327.500
  20
4626649.000
  0
VERTEX
  8
Unknown_Area_Type
  10
393327.500
  20
4626625.500
  0
VERTEX
  8
Unknown_Area_Type
  10
393347.500
  20
4626613.000
  0
VERTEX
  8
Unknown_Area_Type
  10
396059.500
  20
4626790.500
  0
VERTEX
  8
Unknown_Area_Type
  10
396137.000
  20
4630784.500
  0
VERTEX
  8
Unknown_Area_Type
  10
394898.000
  20
4630909.500
  0
SEQEND
  8
Unknown_Area_Type
  0
INSERT
  8
FeatureAttribs
  2
FEATURE
  41
1
  42
1
  43
1
  50
0
  10
389400.093
  20
4628887.308
 66
1
  0
ATTRIB
  8
FeatureAttribs
 70
0
  1
PNOA-H_AMS_1956-57_33k_ES_PAN_2
  2
NAME
  10
389400.093
  20
4628887.308
 40
33.80955
  0
SEQEND
  0
POLYLINE
  8
Unknown_Area_Type
  70
1
  66
1
  0
VERTEX
  8
Unknown_Area_Type
  10
390802.000
  20
4630913.500
  0
VERTEX
  8
Unknown_Area_Type
  10
390808.500
  20
4630912.500
  0
VERTEX
  8
Unknown_Area_Type
  10
390808.500
  20
4630907.000
  0
VERTEX
  8
Unknown_Area_Type
  10
390665.000
  20
4626773.000
  0
VERTEX
  8
Unknown_Area_Type
  10
390118.000
  20
4626513.000
  0
VERTEX
  8
Unknown_Area_Type
  10
388082.500
  20
4626849.000
  0
VERTEX
  8
Unknown_Area_Type
  10
388034.500
  20
4630911.500
  0
VERTEX
  8
Unknown_Area_Type
  10
388532.500
  20
4631182.000
  0
VERTEX
  8
Unknown_Area_Type
  10
390798.500
  20
4630913.500
  0
VERTEX
  8
Unknown_Area_Type
  10
390802.000
  20
4630913.500
  0
SEQEND
  8
Unknown_Area_Type
  0
INSERT
  8
FeatureAttribs
  2
FEATURE
  41
1
  42
1
  43
1
  50
0
  10
389400.093
  20
4628887.308
 66
1
  0
ATTRIB
  8
FeatureAttribs
 70
0
  1
PNOA-H_AMS_1956-57_33k_ES_PAN_2
  2
NAME
  10
389400.093
  20
4628887.308
 40
33.80955
  0
SEQEND
  0
POLYLINE
  8
Unknown_Area_Type
  70
1
  66
1
  0
VERTEX
  8
Unknown_Area_Type
  10
390802.000
  20
4630913.500
  0
VERTEX
  8
Unknown_Area_Type
  10
390798.500
  20
4630913.500
  0
VERTEX
  8
Unknown_Area_Type
  10
388532.500
  20
4631182.000
  0
VERTEX
  8
Unknown_Area_Type
  10
388034.500
  20
4630911.500
  0
VERTEX
  8
Unknown_Area_Type
  10
388082.500
  20
4626849.000
  0
VERTEX
  8
Unknown_Area_Type
  10
390118.000
  20
4626513.000
  0
VERTEX
  8
Unknown_Area_Type
  10
390665.000
  20
4626773.000
  0
VERTEX
  8
Unknown_Area_Type
  10
390808.500
  20
4630907.000
  0
VERTEX
  8
Unknown_Area_Type
  10
390808.500
  20
4630912.500
  0
VERTEX
  8
Unknown_Area_Type
  10
390802.000
  20
4630913.500
  0
SEQEND
  8
Unknown_Area_Type
  0
INSERT
  8
FeatureAttribs
  2
FEATURE
  41
1
  42
1
  43
1
  50
0
  10
386530.133
  20
4628828.829
 66
1
  0
ATTRIB
  8
FeatureAttribs
 70
0
  1
PNOA-H_AMS_1956-57_33k_ES_PAN_2
  2
NAME
  10
386530.133
  20
4628828.829
 40
33.80955
  0
SEQEND
  0
POLYLINE
  8
Unknown_Area_Type
  70
1
  66
1
  0
VERTEX
  8
Unknown_Area_Type
  10
386706.000
  20
4631144.000
  0
VERTEX
  8
Unknown_Area_Type
  10
388034.500
  20
4630911.000
  0
VERTEX
  8
Unknown_Area_Type
  10
388082.500
  20
4626849.000
  0
VERTEX
  8
Unknown_Area_Type
  10
387039.000
  20
4626406.500
  0
VERTEX
  8
Unknown_Area_Type
  10
387003.500
  20
4626413.000
  0
VERTEX
  8
Unknown_Area_Type
  10
384928.500
  20
4626839.500
  0
VERTEX
  8
Unknown_Area_Type
  10
385061.500
  20
4630847.500
  0
VERTEX
  8
Unknown_Area_Type
  10
385970.000
  20
4631273.000
  0
VERTEX
  8
Unknown_Area_Type
  10
386705.000
  20
4631144.000
  0
VERTEX
  8
Unknown_Area_Type
  10
386706.000
  20
4631144.000
  0
SEQEND
  8
Unknown_Area_Type
  0
INSERT
  8
FeatureAttribs
  2
FEATURE
  41
1
  42
1
  43
1
  50
0
  10
386530.133
  20
4628828.829
 66
1
  0
ATTRIB
  8
FeatureAttribs
 70
0
  1
PNOA-H_AMS_1956-57_33k_ES_PAN_2
  2
NAME
  10
386530.133
  20
4628828.829
 40
33.80955
  0
SEQEND
  0
POLYLINE
  8
Unknown_Area_Type
  70
1
  66
1
  0
VERTEX
  8
Unknown_Area_Type
  10
386706.000
  20
4631144.000
  0
VERTEX
  8
Unknown_Area_Type
  10
386705.000
  20
4631144.000
  0
VERTEX
  8
Unknown_Area_Type
  10
385970.000
  20
4631273.000
  0
VERTEX
  8
Unknown_Area_Type
  10
385061.500
  20
4630847.500
  0
VERTEX
  8
Unknown_Area_Type
  10
384928.500
  20
4626839.500
  0
VERTEX
  8
Unknown_Area_Type
  10
387003.500
  20
4626413.000
  0
VERTEX
  8
Unknown_Area_Type
  10
387039.000
  20
4626406.500
  0
VERTEX
  8
Unknown_Area_Type
  10
388082.500
  20
4626849.000
  0
VERTEX
  8
Unknown_Area_Type
  10
388034.500
  20
4630911.000
  0
VERTEX
  8
Unknown_Area_Type
  10
386706.000
  20
4631144.000
  0
SEQEND
  8
Unknown_Area_Type
  0
INSERT
  8
FeatureAttribs
  2
FEATURE
  41
1
  42
1
  43
1
  50
0
  10
380392.567
  20
4628841.847
 66
1
  0
ATTRIB
  8
FeatureAttribs
 70
0
  1
PNOA-H_AMS_1956-57_33k_ES_PAN_2
  2
NAME
  10
380392.567
  20
4628841.847
 40
33.80955
  0
SEQEND
  0
POLYLINE
  8
Unknown_Area_Type
  70
1
  66
1
  0
VERTEX
  8
Unknown_Area_Type
  10
380795.000
  20
4631397.000
  0
VERTEX
  8
Unknown_Area_Type
  10
381855.500
  20
4630920.500
  0
VERTEX
  8
Unknown_Area_Type
  10
381854.000
  20
4626704.000
  0
VERTEX
  8
Unknown_Area_Type
  10
381136.500
  20
4626388.500
  0
VERTEX
  8
Unknown_Area_Type
  10
378921.500
  20
4626551.000
  0
VERTEX
  8
Unknown_Area_Type
  10
378943.000
  20
4631046.500
  0
VERTEX
  8
Unknown_Area_Type
  10
380792.500
  20
4631396.500
  0
VERTEX
  8
Unknown_Area_Type
  10
380795.000
  20
4631397.000
  0
SEQEND
  8
Unknown_Area_Type
  0
INSERT
  8
FeatureAttribs
  2
FEATURE
  41
1
  42
1
  43
1
  50
0
  10
380392.567
  20
4628841.847
 66
1
  0
ATTRIB
  8
FeatureAttribs
 70
0
  1
PNOA-H_AMS_1956-57_33k_ES_PAN_2
  2
NAME
  10
380392.567
  20
4628841.847
 40
33.80955
  0
SEQEND
  0
POLYLINE
  8
Unknown_Area_Type
  70
1
  66
1
  0
VERTEX
  8
Unknown_Area_Type
  10
380795.000
  20
4631397.000
  0
VERTEX
  8
Unknown_Area_Type
  10
380792.500
  20
4631396.500
  0
VERTEX
  8
Unknown_Area_Type
  10
378943.000
  20
4631046.500
  0
VERTEX
  8
Unknown_Area_Type
  10
378921.500
  20
4626551.000
  0
VERTEX
  8
Unknown_Area_Type
  10
381136.500
  20
4626388.500
  0
VERTEX
  8
Unknown_Area_Type
  10
381854.000
  20
4626704.000
  0
VERTEX
  8
Unknown_Area_Type
  10
381855.500
  20
4630920.500
  0
VERTEX
  8
Unknown_Area_Type
  10
380795.000
  20
4631397.000
  0
SEQEND
  8
Unknown_Area_Type
  0
INSERT
  8
FeatureAttribs
  2
FEATURE
  41
1
  42
1
  43
1
  50
0
  10
397564.835
  20
4628732.238
 66
1
  0
ATTRIB
  8
FeatureAttribs
 70
0
  1
PNOA-H_AMS_1956-57_33k_ES_PAN_2
  2
NAME
  10
397564.835
  20
4628732.238
 40
33.80955
  0
SEQEND
  0
POLYLINE
  8
Unknown_Area_Type
  70
1
  66
1
  0
VERTEX
  8
Unknown_Area_Type
  10
396278.500
  20
4630875.500
  0
VERTEX
  8
Unknown_Area_Type
  10
398706.500
  20
4630843.000
  0
VERTEX
  8
Unknown_Area_Type
  10
399117.500
  20
4630558.500
  0
VERTEX
  8
Unknown_Area_Type
  10
399011.000
  20
4626757.000
  0
VERTEX
  8
Unknown_Area_Type
  10
396620.000
  20
4626478.500
  0
VERTEX
  8
Unknown_Area_Type
  10
396059.500
  20
4626790.000
  0
VERTEX
  8
Unknown_Area_Type
  10
396137.000
  20
4630784.500
  0
VERTEX
  8
Unknown_Area_Type
  10
396278.000
  20
4630874.500
  0
VERTEX
  8
Unknown_Area_Type
  10
396278.500
  20
4630875.500
  0
SEQEND
  8
Unknown_Area_Type
  0
INSERT
  8
FeatureAttribs
  2
FEATURE
  41
1
  42
1
  43
1
  50
0
  10
397564.835
  20
4628732.238
 66
1
  0
ATTRIB
  8
FeatureAttribs
 70
0
  1
PNOA-H_AMS_1956-57_33k_ES_PAN_2
  2
NAME
  10
397564.835
  20
4628732.238
 40
33.80955
  0
SEQEND
  0
POLYLINE
  8
Unknown_Area_Type
  70
1
  66
1
  0
VERTEX
  8
Unknown_Area_Type
  10
396278.500
  20
4630875.500
  0
VERTEX
  8
Unknown_Area_Type
  10
396278.000
  20
4630874.500
  0
VERTEX
  8
Unknown_Area_Type
  10
396137.000
  20
4630784.500
  0
VERTEX
  8
Unknown_Area_Type
  10
396059.500
  20
4626790.000
  0
VERTEX
  8
Unknown_Area_Type
  10
396620.000
  20
4626478.500
  0
VERTEX
  8
Unknown_Area_Type
  10
399011.000
  20
4626757.000
  0
VERTEX
  8
Unknown_Area_Type
  10
399117.500
  20
4630558.500
  0
VERTEX
  8
Unknown_Area_Type
  10
398706.500
  20
4630843.000
  0
VERTEX
  8
Unknown_Area_Type
  10
396278.500
  20
4630875.500
  0
SEQEND
  8
Unknown_Area_Type
  0
INSERT
  8
FeatureAttribs
  2
FEATURE
  41
1
  42
1
  43
1
  50
0
  10
392033.669
  20
4628809.493
 66
1
  0
ATTRIB
  8
FeatureAttribs
 70
0
  1
PNOA-H_AMS_1956-57_33k_ES_PAN_2
  2
NAME
  10
392033.669
  20
4628809.493
 40
33.80955
  0
SEQEND
  0
POLYLINE
  8
Unknown_Area_Type
  70
1
  66
1
  0
VERTEX
  8
Unknown_Area_Type
  10
390801.500
  20
4630719.500
  0
VERTEX
  8
Unknown_Area_Type
  10
390808.500
  20
4630912.500
  0
VERTEX
  8
Unknown_Area_Type
  10
391141.500
  20
4631088.000
  0
VERTEX
  8
Unknown_Area_Type
  10
393352.500
  20
4630800.500
  0
VERTEX
  8
Unknown_Area_Type
  10
393327.500
  20
4626626.000
  0
VERTEX
  8
Unknown_Area_Type
  10
390665.000
  20
4626773.000
  0
VERTEX
  8
Unknown_Area_Type
  10
390801.500
  20
4630705.000
  0
VERTEX
  8
Unknown_Area_Type
  10
390801.500
  20
4630719.500
  0
SEQEND
  8
Unknown_Area_Type
  0
INSERT
  8
FeatureAttribs
  2
FEATURE
  41
1
  42
1
  43
1
  50
0
  10
392033.669
  20
4628809.493
 66
1
  0
ATTRIB
  8
FeatureAttribs
 70
0
  1
PNOA-H_AMS_1956-57_33k_ES_PAN_2
  2
NAME
  10
392033.669
  20
4628809.493
 40
33.80955
  0
SEQEND
  0
POLYLINE
  8
Unknown_Area_Type
  70
1
  66
1
  0
VERTEX
  8
Unknown_Area_Type
  10
390801.500
  20
4630719.500
  0
VERTEX
  8
Unknown_Area_Type
  10
390801.500
  20
4630705.000
  0
VERTEX
  8
Unknown_Area_Type
  10
390665.000
  20
4626773.000
  0
VERTEX
  8
Unknown_Area_Type
  10
393327.500
  20
4626626.000
  0
VERTEX
  8
Unknown_Area_Type
  10
393352.500
  20
4630800.500
  0
VERTEX
  8
Unknown_Area_Type
  10
391141.500
  20
4631088.000
  0
VERTEX
  8
Unknown_Area_Type
  10
390808.500
  20
4630912.500
  0
VERTEX
  8
Unknown_Area_Type
  10
390801.500
  20
4630719.500
  0
SEQEND
  8
Unknown_Area_Type
  0
INSERT
  8
FeatureAttribs
  2
FEATURE
  41
1
  42
1
  43
1
  50
0
  10
373523.024
  20
4628797.357
 66
1
  0
ATTRIB
  8
FeatureAttribs
 70
0
  1
PNOA-H_AMS_1956-57_33k_ES_PAN_2
  2
NAME
  10
373523.024
  20
4628797.357
 40
33.80955
  0
SEQEND
  0
POLYLINE
  8
Unknown_Area_Type
  70
1
  66
1
  0
VERTEX
  8
Unknown_Area_Type
  10
373612.154
  20
4626386.055
  0
VERTEX
  8
Unknown_Area_Type
  10
373391.232
  20
4626397.366
  0
VERTEX
  8
Unknown_Area_Type
  10
373391.232
  20
4631181.859
  0
VERTEX
  8
Unknown_Area_Type
  10
373697.498
  20
4631208.659
  0
VERTEX
  8
Unknown_Area_Type
  10
373677.454
  20
4630076.526
  0
VERTEX
  8
Unknown_Area_Type
  10
373636.519
  20
4627763.412
  0
VERTEX
  8
Unknown_Area_Type
  10
373612.154
  20
4626386.055
  0
SEQEND
  8
Unknown_Area_Type
  0
INSERT
  8
FeatureAttribs
  2
FEATURE
  41
1
  42
1
  43
1
  50
0
  10
374892.484
  20
4628780.028
 66
1
  0
ATTRIB
  8
FeatureAttribs
 70
0
  1
PNOA-H_AMS_1956-57_33k_ES_PAN_2
  2
NAME
  10
374892.484
  20
4628780.028
 40
33.80955
  0
SEQEND
  0
POLYLINE
  8
Unknown_Area_Type
  70
1
  66
1
  0
VERTEX
  8
Unknown_Area_Type
  10
373697.498
  20
4631208.659
  0
VERTEX
  8
Unknown_Area_Type
  10
375547.000
  20
4631370.500
  0
VERTEX
  8
Unknown_Area_Type
  10
375552.500
  20
4631371.000
  0
VERTEX
  8
Unknown_Area_Type
  10
375557.500
  20
4631371.000
  0
VERTEX
  8
Unknown_Area_Type
  10
375563.500
  20
4631368.000
  0
VERTEX
  8
Unknown_Area_Type
  10
376079.500
  20
4631095.500
  0
VERTEX
  8
Unknown_Area_Type
  10
376176.000
  20
4626505.000
  0
VERTEX
  8
Unknown_Area_Type
  10
375664.000
  20
4626281.000
  0
VERTEX
  8
Unknown_Area_Type
  10
373612.154
  20
4626386.055
  0
VERTEX
  8
Unknown_Area_Type
  10
373636.519
  20
4627763.412
  0
VERTEX
  8
Unknown_Area_Type
  10
373677.454
  20
4630076.526
  0
VERTEX
  8
Unknown_Area_Type
  10
373697.498
  20
4631208.659
  0
SEQEND
  8
Unknown_Area_Type
  0
INSERT
  8
FeatureAttribs
  2
FEATURE
  41
1
  42
1
  43
1
  50
0
  10
374892.484
  20
4628780.028
 66
1
  0
ATTRIB
  8
FeatureAttribs
 70
0
  1
PNOA-H_AMS_1956-57_33k_ES_PAN_2
  2
NAME
  10
374892.484
  20
4628780.028
 40
33.80955
  0
SEQEND
  0
POLYLINE
  8
Unknown_Area_Type
  70
1
  66
1
  0
VERTEX
  8
Unknown_Area_Type
  10
373697.498
  20
4631208.659
  0
VERTEX
  8
Unknown_Area_Type
  10
373677.454
  20
4630076.526
  0
VERTEX
  8
Unknown_Area_Type
  10
373636.519
  20
4627763.412
  0
VERTEX
  8
Unknown_Area_Type
  10
373612.154
  20
4626386.055
  0
VERTEX
  8
Unknown_Area_Type
  10
375664.000
  20
4626281.000
  0
VERTEX
  8
Unknown_Area_Type
  10
376176.000
  20
4626505.000
  0
VERTEX
  8
Unknown_Area_Type
  10
376079.500
  20
4631095.500
  0
VERTEX
  8
Unknown_Area_Type
  10
375563.500
  20
4631368.000
  0
VERTEX
  8
Unknown_Area_Type
  10
375557.500
  20
4631371.000
  0
VERTEX
  8
Unknown_Area_Type
  10
375552.500
  20
4631371.000
  0
VERTEX
  8
Unknown_Area_Type
  10
375547.000
  20
4631370.500
  0
VERTEX
  8
Unknown_Area_Type
  10
373697.498
  20
4631208.659
  0
SEQEND
  8
Unknown_Area_Type
  0
INSERT
  8
FeatureAttribs
  2
FEATURE
  41
1
  42
1
  43
1
  50
0
  10
397239.679
  20
4620010.533
 66
1
  0
ATTRIB
  8
FeatureAttribs
 70
0
  1
PNOA-H_AMS_1956-57_33k_ES_PAN_2
  2
NAME
  10
397239.679
  20
4620010.533
 40
33.80955
  0
SEQEND
  0
POLYLINE
  8
Unknown_Area_Type
  70
1
  66
1
  0
VERTEX
  8
Unknown_Area_Type
  10
396946.000
  20
4622454.500
  0
VERTEX
  8
Unknown_Area_Type
  10
398666.000
  20
4622077.000
  0
VERTEX
  8
Unknown_Area_Type
  10
398837.000
  20
4617797.500
  0
VERTEX
  8
Unknown_Area_Type
  10
398461.500
  20
4617608.500
  0
VERTEX
  8
Unknown_Area_Type
  10
395966.000
  20
4617664.500
  0
VERTEX
  8
Unknown_Area_Type
  10
395946.000
  20
4617665.000
  0
VERTEX
  8
Unknown_Area_Type
  10
395945.500
  20
4617666.000
  0
VERTEX
  8
Unknown_Area_Type
  10
395587.000
  20
4622089.500
  0
VERTEX
  8
Unknown_Area_Type
  10
396450.500
  20
4622563.000
  0
VERTEX
  8
Unknown_Area_Type
  10
396945.000
  20
4622454.500
  0
VERTEX
  8
Unknown_Area_Type
  10
396946.000
  20
4622454.500
  0
SEQEND
  8
Unknown_Area_Type
  0
INSERT
  8
FeatureAttribs
  2
FEATURE
  41
1
  42
1
  43
1
  50
0
  10
397239.679
  20
4620010.533
 66
1
  0
ATTRIB
  8
FeatureAttribs
 70
0
  1
PNOA-H_AMS_1956-57_33k_ES_PAN_2
  2
NAME
  10
397239.679
  20
4620010.533
 40
33.80955
  0
SEQEND
  0
POLYLINE
  8
Unknown_Area_Type
  70
1
  66
1
  0
VERTEX
  8
Unknown_Area_Type
  10
396946.000
  20
4622454.500
  0
VERTEX
  8
Unknown_Area_Type
  10
396945.000
  20
4622454.500
  0
VERTEX
  8
Unknown_Area_Type
  10
396450.500
  20
4622563.000
  0
VERTEX
  8
Unknown_Area_Type
  10
395587.000
  20
4622089.500
  0
VERTEX
  8
Unknown_Area_Type
  10
395945.500
  20
4617666.000
  0
VERTEX
  8
Unknown_Area_Type
  10
395946.000
  20
4617665.000
  0
VERTEX
  8
Unknown_Area_Type
  10
395966.000
  20
4617664.500
  0
VERTEX
  8
Unknown_Area_Type
  10
398461.500
  20
4617608.500
  0
VERTEX
  8
Unknown_Area_Type
  10
398837.000
  20
4617797.500
  0
VERTEX
  8
Unknown_Area_Type
  10
398666.000
  20
4622077.000
  0
VERTEX
  8
Unknown_Area_Type
  10
396946.000
  20
4622454.500
  0
SEQEND
  8
Unknown_Area_Type
  0
INSERT
  8
FeatureAttribs
  2
FEATURE
  41
1
  42
1
  43
1
  50
0
  10
388783.954
  20
4619624.399
 66
1
  0
ATTRIB
  8
FeatureAttribs
 70
0
  1
PNOA-H_AMS_1956-57_33k_ES_PAN_2
  2
NAME
  10
388783.954
  20
4619624.399
 40
33.80955
  0
SEQEND
  0
POLYLINE
  8
Unknown_Area_Type
  70
1
  66
1
  0
VERTEX
  8
Unknown_Area_Type
  10
388751.500
  20
4621965.000
  0
VERTEX
  8
Unknown_Area_Type
  10
389998.000
  20
4621991.000
  0
VERTEX
  8
Unknown_Area_Type
  10
390294.500
  20
4617431.000
  0
VERTEX
  8
Unknown_Area_Type
  10
390294.000
  20
4617426.000
  0
VERTEX
  8
Unknown_Area_Type
  10
390234.000
  20
4617390.500
  0
VERTEX
  8
Unknown_Area_Type
  10
390227.000
  20
4617386.500
  0
VERTEX
  8
Unknown_Area_Type
  10
390217.500
  20
4617386.000
  0
VERTEX
  8
Unknown_Area_Type
  10
387454.000
  20
4617361.500
  0
VERTEX
  8
Unknown_Area_Type
  10
387434.500
  20
4617361.500
  0
VERTEX
  8
Unknown_Area_Type
  10
387403.500
  20
4617381.000
  0
VERTEX
  8
Unknown_Area_Type
  10
387425.500
  20
4621936.500
  0
VERTEX
  8
Unknown_Area_Type
  10
388728.000
  20
4621964.500
  0
VERTEX
  8
Unknown_Area_Type
  10
388751.500
  20
4621965.000
  0
SEQEND
  8
Unknown_Area_Type
  0
INSERT
  8
FeatureAttribs
  2
FEATURE
  41
1
  42
1
  43
1
  50
0
  10
388783.954
  20
4619624.399
 66
1
  0
ATTRIB
  8
FeatureAttribs
 70
0
  1
PNOA-H_AMS_1956-57_33k_ES_PAN_2
  2
NAME
  10
388783.954
  20
4619624.399
 40
33.80955
  0
SEQEND
  0
POLYLINE
  8
Unknown_Area_Type
  70
1
  66
1
  0
VERTEX
  8
Unknown_Area_Type
  10
388751.500
  20
4621965.000
  0
VERTEX
  8
Unknown_Area_Type
  10
388728.000
  20
4621964.500
  0
VERTEX
  8
Unknown_Area_Type
  10
387425.500
  20
4621936.500
  0
VERTEX
  8
Unknown_Area_Type
  10
387403.500
  20
4617381.000
  0
VERTEX
  8
Unknown_Area_Type
  10
387434.500
  20
4617361.500
  0
VERTEX
  8
Unknown_Area_Type
  10
387454.000
  20
4617361.500
  0
VERTEX
  8
Unknown_Area_Type
  10
390217.500
  20
4617386.000
  0
VERTEX
  8
Unknown_Area_Type
  10
390227.000
  20
4617386.500
  0
VERTEX
  8
Unknown_Area_Type
  10
390234.000
  20
4617390.500
  0
VERTEX
  8
Unknown_Area_Type
  10
390294.000
  20
4617426.000
  0
VERTEX
  8
Unknown_Area_Type
  10
390294.500
  20
4617431.000
  0
VERTEX
  8
Unknown_Area_Type
  10
389998.000
  20
4621991.000
  0
VERTEX
  8
Unknown_Area_Type
  10
388751.500
  20
4621965.000
  0
SEQEND
  8
Unknown_Area_Type
  0
INSERT
  8
FeatureAttribs
  2
FEATURE
  41
1
  42
1
  43
1
  50
0
  10
383420.143
  20
4628881.877
 66
1
  0
ATTRIB
  8
FeatureAttribs
 70
0
  1
PNOA-H_AMS_1956-57_33k_ES_PAN_2
  2
NAME
  10
383420.143
  20
4628881.877
 40
33.80955
  0
SEQEND
  0
POLYLINE
  8
Unknown_Area_Type
  70
1
  66
1
  0
VERTEX
  8
Unknown_Area_Type
  10
382609.000
  20
4631157.000
  0
VERTEX
  8
Unknown_Area_Type
  10
383396.000
  20
4631404.000
  0
VERTEX
  8
Unknown_Area_Type
  10
385061.500
  20
4630847.500
  0
VERTEX
  8
Unknown_Area_Type
  10
384928.500
  20
4626839.500
  0
VERTEX
  8
Unknown_Area_Type
  10
383956.000
  20
4626417.000
  0
VERTEX
  8
Unknown_Area_Type
  10
381854.000
  20
4626704.500
  0
VERTEX
  8
Unknown_Area_Type
  10
381855.500
  20
4630920.000
  0
VERTEX
  8
Unknown_Area_Type
  10
382607.000
  20
4631156.500
  0
VERTEX
  8
Unknown_Area_Type
  10
382609.000
  20
4631157.000
  0
SEQEND
  8
Unknown_Area_Type
  0
INSERT
  8
FeatureAttribs
  2
FEATURE
  41
1
  42
1
  43
1
  50
0
  10
383420.143
  20
4628881.877
 66
1
  0
ATTRIB
  8
FeatureAttribs
 70
0
  1
PNOA-H_AMS_1956-57_33k_ES_PAN_2
  2
NAME
  10
383420.143
  20
4628881.877
 40
33.80955
  0
SEQEND
  0
POLYLINE
  8
Unknown_Area_Type
  70
1
  66
1
  0
VERTEX
  8
Unknown_Area_Type
  10
382609.000
  20
4631157.000
  0
VERTEX
  8
Unknown_Area_Type
  10
382607.000
  20
4631156.500
  0
VERTEX
  8
Unknown_Area_Type
  10
381855.500
  20
4630920.000
  0
VERTEX
  8
Unknown_Area_Type
  10
381854.000
  20
4626704.500
  0
VERTEX
  8
Unknown_Area_Type
  10
383956.000
  20
4626417.000
  0
VERTEX
  8
Unknown_Area_Type
  10
384928.500
  20
4626839.500
  0
VERTEX
  8
Unknown_Area_Type
  10
385061.500
  20
4630847.500
  0
VERTEX
  8
Unknown_Area_Type
  10
383396.000
  20
4631404.000
  0
VERTEX
  8
Unknown_Area_Type
  10
382609.000
  20
4631157.000
  0
SEQEND
  8
Unknown_Area_Type
  0
INSERT
  8
FeatureAttribs
  2
FEATURE
  41
1
  42
1
  43
1
  50
0
  10
386086.936
  20
4619637.238
 66
1
  0
ATTRIB
  8
FeatureAttribs
 70
0
  1
PNOA-H_AMS_1956-57_33k_ES_PAN_2
  2
NAME
  10
386086.936
  20
4619637.238
 40
33.80955
  0
SEQEND
  0
POLYLINE
  8
Unknown_Area_Type
  70
1
  66
1
  0
VERTEX
  8
Unknown_Area_Type
  10
386701.500
  20
4621991.000
  0
VERTEX
  8
Unknown_Area_Type
  10
387237.500
  20
4622046.000
  0
VERTEX
  8
Unknown_Area_Type
  10
387425.500
  20
4621937.000
  0
VERTEX
  8
Unknown_Area_Type
  10
387403.500
  20
4617381.000
  0
VERTEX
  8
Unknown_Area_Type
  10
384630.000
  20
4617451.500
  0
VERTEX
  8
Unknown_Area_Type
  10
384621.000
  20
4617452.000
  0
VERTEX
  8
Unknown_Area_Type
  10
384596.000
  20
4617468.500
  0
VERTEX
  8
Unknown_Area_Type
  10
384864.500
  20
4621801.500
  0
VERTEX
  8
Unknown_Area_Type
  10
386696.500
  20
4621990.500
  0
VERTEX
  8
Unknown_Area_Type
  10
386701.500
  20
4621991.000
  0
SEQEND
  8
Unknown_Area_Type
  0
INSERT
  8
FeatureAttribs
  2
FEATURE
  41
1
  42
1
  43
1
  50
0
  10
386086.936
  20
4619637.238
 66
1
  0
ATTRIB
  8
FeatureAttribs
 70
0
  1
PNOA-H_AMS_1956-57_33k_ES_PAN_2
  2
NAME
  10
386086.936
  20
4619637.238
 40
33.80955
  0
SEQEND
  0
POLYLINE
  8
Unknown_Area_Type
  70
1
  66
1
  0
VERTEX
  8
Unknown_Area_Type
  10
386701.500
  20
4621991.000
  0
VERTEX
  8
Unknown_Area_Type
  10
386696.500
  20
4621990.500
  0
VERTEX
  8
Unknown_Area_Type
  10
384864.500
  20
4621801.500
  0
VERTEX
  8
Unknown_Area_Type
  10
384596.000
  20
4617468.500
  0
VERTEX
  8
Unknown_Area_Type
  10
384621.000
  20
4617452.000
  0
VERTEX
  8
Unknown_Area_Type
  10
384630.000
  20
4617451.500
  0
VERTEX
  8
Unknown_Area_Type
  10
387403.500
  20
4617381.000
  0
VERTEX
  8
Unknown_Area_Type
  10
387425.500
  20
4621937.000
  0
VERTEX
  8
Unknown_Area_Type
  10
387237.500
  20
4622046.000
  0
VERTEX
  8
Unknown_Area_Type
  10
386701.500
  20
4621991.000
  0
SEQEND
  8
Unknown_Area_Type
  0
INSERT
  8
FeatureAttribs
  2
FEATURE
  41
1
  42
1
  43
1
  50
0
  10
394318.056
  20
4619905.296
 66
1
  0
ATTRIB
  8
FeatureAttribs
 70
0
  1
PNOA-H_AMS_1956-57_33k_ES_PAN_2
  2
NAME
  10
394318.056
  20
4619905.296
 40
33.80955
  0
SEQEND
  0
POLYLINE
  8
Unknown_Area_Type
  70
1
  66
1
  0
VERTEX
  8
Unknown_Area_Type
  10
392849.500
  20
4622145.500
  0
VERTEX
  8
Unknown_Area_Type
  10
393371.500
  20
4622454.000
  0
VERTEX
  8
Unknown_Area_Type
  10
393377.500
  20
4622457.500
  0
VERTEX
  8
Unknown_Area_Type
  10
393381.000
  20
4622457.500
  0
VERTEX
  8
Unknown_Area_Type
  10
395587.000
  20
4622089.500
  0
VERTEX
  8
Unknown_Area_Type
  10
395946.000
  20
4617666.000
  0
VERTEX
  8
Unknown_Area_Type
  10
395946.000
  20
4617665.000
  0
VERTEX
  8
Unknown_Area_Type
  10
395941.500
  20
4617662.500
  0
VERTEX
  8
Unknown_Area_Type
  10
395702.500
  20
4617532.000
  0
VERTEX
  8
Unknown_Area_Type
  10
395697.500
  20
4617529.500
  0
VERTEX
  8
Unknown_Area_Type
  10
395607.000
  20
4617529.000
  0
VERTEX
  8
Unknown_Area_Type
  10
393099.000
  20
4617520.500
  0
VERTEX
  8
Unknown_Area_Type
  10
392708.500
  20
4622057.500
  0
VERTEX
  8
Unknown_Area_Type
  10
392708.500
  20
4622062.500
  0
VERTEX
  8
Unknown_Area_Type
  10
392848.500
  20
4622145.000
  0
VERTEX
  8
Unknown_Area_Type
  10
392849.500
  20
4622145.500
  0
SEQEND
  8
Unknown_Area_Type
  0
INSERT
  8
FeatureAttribs
  2
FEATURE
  41
1
  42
1
  43
1
  50
0
  10
394318.056
  20
4619905.296
 66
1
  0
ATTRIB
  8
FeatureAttribs
 70
0
  1
PNOA-H_AMS_1956-57_33k_ES_PAN_2
  2
NAME
  10
394318.056
  20
4619905.296
 40
33.80955
  0
SEQEND
  0
POLYLINE
  8
Unknown_Area_Type
  70
1
  66
1
  0
VERTEX
  8
Unknown_Area_Type
  10
392849.500
  20
4622145.500
  0
VERTEX
  8
Unknown_Area_Type
  10
392848.500
  20
4622145.000
  0
VERTEX
  8
Unknown_Area_Type
  10
392708.500
  20
4622062.500
  0
VERTEX
  8
Unknown_Area_Type
  10
392708.500
  20
4622057.500
  0
VERTEX
  8
Unknown_Area_Type
  10
393099.000
  20
4617520.500
  0
VERTEX
  8
Unknown_Area_Type
  10
395607.000
  20
4617529.000
  0
VERTEX
  8
Unknown_Area_Type
  10
395697.500
  20
4617529.500
  0
VERTEX
  8
Unknown_Area_Type
  10
395702.500
  20
4617532.000
  0
VERTEX
  8
Unknown_Area_Type
  10
395941.500
  20
4617662.500
  0
VERTEX
  8
Unknown_Area_Type
  10
395946.000
  20
4617665.000
  0
VERTEX
  8
Unknown_Area_Type
  10
395946.000
  20
4617666.000
  0
VERTEX
  8
Unknown_Area_Type
  10
395587.000
  20
4622089.500
  0
VERTEX
  8
Unknown_Area_Type
  10
393381.000
  20
4622457.500
  0
VERTEX
  8
Unknown_Area_Type
  10
393377.500
  20
4622457.500
  0
VERTEX
  8
Unknown_Area_Type
  10
393371.500
  20
4622454.000
  0
VERTEX
  8
Unknown_Area_Type
  10
392849.500
  20
4622145.500
  0
SEQEND
  8
Unknown_Area_Type
  0
INSERT
  8
FeatureAttribs
  2
FEATURE
  41
1
  42
1
  43
1
  50
0
  10
377539.707
  20
4628856.817
 66
1
  0
ATTRIB
  8
FeatureAttribs
 70
0
  1
PNOA-H_AMS_1956-57_33k_ES_PAN_2
  2
NAME
  10
377539.707
  20
4628856.817
 40
33.80955
  0
SEQEND
  0
POLYLINE
  8
Unknown_Area_Type
  70
1
  66
1
  0
VERTEX
  8
Unknown_Area_Type
  10
376465.500
  20
4631156.000
  0
VERTEX
  8
Unknown_Area_Type
  10
378181.500
  20
4631424.000
  0
VERTEX
  8
Unknown_Area_Type
  10
378943.000
  20
4631046.500
  0
VERTEX
  8
Unknown_Area_Type
  10
378921.500
  20
4626551.000
  0
VERTEX
  8
Unknown_Area_Type
  10
378418.000
  20
4626333.000
  0
VERTEX
  8
Unknown_Area_Type
  10
376176.000
  20
4626505.000
  0
VERTEX
  8
Unknown_Area_Type
  10
376079.500
  20
4631095.500
  0
VERTEX
  8
Unknown_Area_Type
  10
376462.000
  20
4631155.500
  0
VERTEX
  8
Unknown_Area_Type
  10
376465.500
  20
4631156.000
  0
SEQEND
  8
Unknown_Area_Type
  0
INSERT
  8
FeatureAttribs
  2
FEATURE
  41
1
  42
1
  43
1
  50
0
  10
377539.707
  20
4628856.817
 66
1
  0
ATTRIB
  8
FeatureAttribs
 70
0
  1
PNOA-H_AMS_1956-57_33k_ES_PAN_2
  2
NAME
  10
377539.707
  20
4628856.817
 40
33.80955
  0
SEQEND
  0
POLYLINE
  8
Unknown_Area_Type
  70
1
  66
1
  0
VERTEX
  8
Unknown_Area_Type
  10
376465.500
  20
4631156.000
  0
VERTEX
  8
Unknown_Area_Type
  10
376462.000
  20
4631155.500
  0
VERTEX
  8
Unknown_Area_Type
  10
376079.500
  20
4631095.500
  0
VERTEX
  8
Unknown_Area_Type
  10
376176.000
  20
4626505.000
  0
VERTEX
  8
Unknown_Area_Type
  10
378418.000
  20
4626333.000
  0
VERTEX
  8
Unknown_Area_Type
  10
378921.500
  20
4626551.000
  0
VERTEX
  8
Unknown_Area_Type
  10
378943.000
  20
4631046.500
  0
VERTEX
  8
Unknown_Area_Type
  10
378181.500
  20
4631424.000
  0
VERTEX
  8
Unknown_Area_Type
  10
376465.500
  20
4631156.000
  0
SEQEND
  8
Unknown_Area_Type
  0
INSERT
  8
FeatureAttribs
  2
FEATURE
  41
1
  42
1
  43
1
  50
0
  10
380632.298
  20
4619737.730
 66
1
  0
ATTRIB
  8
FeatureAttribs
 70
0
  1
PNOA-H_AMS_1956-57_33k_ES_PAN_2
  2
NAME
  10
380632.298
  20
4619737.730
 40
33.80955
  0
SEQEND
  0
POLYLINE
  8
Unknown_Area_Type
  70
1
  66
1
  0
VERTEX
  8
Unknown_Area_Type
  10
381392.500
  20
4622085.500
  0
VERTEX
  8
Unknown_Area_Type
  10
381401.500
  20
4622082.000
  0
VERTEX
  8
Unknown_Area_Type
  10
382135.000
  20
4621703.500
  0
VERTEX
  8
Unknown_Area_Type
  10
381920.000
  20
4617620.500
  0
VERTEX
  8
Unknown_Area_Type
  10
381919.000
  20
4617618.500
  0
VERTEX
  8
Unknown_Area_Type
  10
381912.500
  20
4617615.000
  0
VERTEX
  8
Unknown_Area_Type
  10
381774.000
  20
4617542.500
  0
VERTEX
  8
Unknown_Area_Type
  10
379063.000
  20
4617670.500
  0
VERTEX
  8
Unknown_Area_Type
  10
379059.500
  20
4617671.000
  0
VERTEX
  8
Unknown_Area_Type
  10
379054.000
  20
4617674.500
  0
VERTEX
  8
Unknown_Area_Type
  10
379332.000
  20
4621677.500
  0
VERTEX
  8
Unknown_Area_Type
  10
381390.000
  20
4622085.000
  0
VERTEX
  8
Unknown_Area_Type
  10
381392.500
  20
4622085.500
  0
SEQEND
  8
Unknown_Area_Type
  0
INSERT
  8
FeatureAttribs
  2
FEATURE
  41
1
  42
1
  43
1
  50
0
  10
380632.298
  20
4619737.730
 66
1
  0
ATTRIB
  8
FeatureAttribs
 70
0
  1
PNOA-H_AMS_1956-57_33k_ES_PAN_2
  2
NAME
  10
380632.298
  20
4619737.730
 40
33.80955
  0
SEQEND
  0
POLYLINE
  8
Unknown_Area_Type
  70
1
  66
1
  0
VERTEX
  8
Unknown_Area_Type
  10
381392.500
  20
4622085.500
  0
VERTEX
  8
Unknown_Area_Type
  10
381390.000
  20
4622085.000
  0
VERTEX
  8
Unknown_Area_Type
  10
379332.000
  20
4621677.500
  0
VERTEX
  8
Unknown_Area_Type
  10
379054.000
  20
4617674.500
  0
VERTEX
  8
Unknown_Area_Type
  10
379059.500
  20
4617671.000
  0
VERTEX
  8
Unknown_Area_Type
  10
379063.000
  20
4617670.500
  0
VERTEX
  8
Unknown_Area_Type
  10
381774.000
  20
4617542.500
  0
VERTEX
  8
Unknown_Area_Type
  10
381912.500
  20
4617615.000
  0
VERTEX
  8
Unknown_Area_Type
  10
381919.000
  20
4617618.500
  0
VERTEX
  8
Unknown_Area_Type
  10
381920.000
  20
4617620.500
  0
VERTEX
  8
Unknown_Area_Type
  10
382135.000
  20
4621703.500
  0
VERTEX
  8
Unknown_Area_Type
  10
381401.500
  20
4622082.000
  0
VERTEX
  8
Unknown_Area_Type
  10
381392.500
  20
4622085.500
  0
SEQEND
  8
Unknown_Area_Type
  0
INSERT
  8
FeatureAttribs
  2
FEATURE
  41
1
  42
1
  43
1
  50
0
  10
391519.368
  20
4619764.860
 66
1
  0
ATTRIB
  8
FeatureAttribs
 70
0
  1
PNOA-H_AMS_1956-57_33k_ES_PAN_2
  2
NAME
  10
391519.368
  20
4619764.860
 40
33.80955
  0
SEQEND
  0
POLYLINE
  8
Unknown_Area_Type
  70
1
  66
1
  0
VERTEX
  8
Unknown_Area_Type
  10
390802.000
  20
4622162.500
  0
VERTEX
  8
Unknown_Area_Type
  10
392708.500
  20
4622062.000
  0
VERTEX
  8
Unknown_Area_Type
  10
393099.000
  20
4617520.500
  0
VERTEX
  8
Unknown_Area_Type
  10
392958.500
  20
4617441.000
  0
VERTEX
  8
Unknown_Area_Type
  10
390337.000
  20
4617426.500
  0
VERTEX
  8
Unknown_Area_Type
  10
390294.500
  20
4617426.500
  0
VERTEX
  8
Unknown_Area_Type
  10
390294.000
  20
4617431.000
  0
VERTEX
  8
Unknown_Area_Type
  10
389998.000
  20
4621991.500
  0
VERTEX
  8
Unknown_Area_Type
  10
390303.500
  20
4622188.500
  0
VERTEX
  8
Unknown_Area_Type
  10
390797.500
  20
4622162.500
  0
VERTEX
  8
Unknown_Area_Type
  10
390802.000
  20
4622162.500
  0
SEQEND
  8
Unknown_Area_Type
  0
INSERT
  8
FeatureAttribs
  2
FEATURE
  41
1
  42
1
  43
1
  50
0
  10
391519.368
  20
4619764.860
 66
1
  0
ATTRIB
  8
FeatureAttribs
 70
0
  1
PNOA-H_AMS_1956-57_33k_ES_PAN_2
  2
NAME
  10
391519.368
  20
4619764.860
 40
33.80955
  0
SEQEND
  0
POLYLINE
  8
Unknown_Area_Type
  70
1
  66
1
  0
VERTEX
  8
Unknown_Area_Type
  10
390802.000
  20
4622162.500
  0
VERTEX
  8
Unknown_Area_Type
  10
390797.500
  20
4622162.500
  0
VERTEX
  8
Unknown_Area_Type
  10
390303.500
  20
4622188.500
  0
VERTEX
  8
Unknown_Area_Type
  10
389998.000
  20
4621991.500
  0
VERTEX
  8
Unknown_Area_Type
  10
390294.000
  20
4617431.000
  0
VERTEX
  8
Unknown_Area_Type
  10
390294.500
  20
4617426.500
  0
VERTEX
  8
Unknown_Area_Type
  10
390337.000
  20
4617426.500
  0
VERTEX
  8
Unknown_Area_Type
  10
392958.500
  20
4617441.000
  0
VERTEX
  8
Unknown_Area_Type
  10
393099.000
  20
4617520.500
  0
VERTEX
  8
Unknown_Area_Type
  10
392708.500
  20
4622062.000
  0
VERTEX
  8
Unknown_Area_Type
  10
390802.000
  20
4622162.500
  0
SEQEND
  8
Unknown_Area_Type
  0
INSERT
  8
FeatureAttribs
  2
FEATURE
  41
1
  42
1
  43
1
  50
0
  10
373458.475
  20
4618729.153
 66
1
  0
ATTRIB
  8
FeatureAttribs
 70
0
  1
PNOA-H_AMS_1956-57_33k_ES_PAN_2
  2
NAME
  10
373458.475
  20
4618729.153
 40
33.80955
  0
SEQEND
  0
POLYLINE
  8
Unknown_Area_Type
  70
1
  66
1
  0
VERTEX
  8
Unknown_Area_Type
  10
373463.047
  20
4617950.549
  0
VERTEX
  8
Unknown_Area_Type
  10
373391.232
  20
4617954.433
  0
VERTEX
  8
Unknown_Area_Type
  10
373391.232
  20
4617973.531
  0
VERTEX
  8
Unknown_Area_Type
  10
373490.556
  20
4619507.757
  0
VERTEX
  8
Unknown_Area_Type
  10
373472.946
  20
4618511.037
  0
VERTEX
  8
Unknown_Area_Type
  10
373463.047
  20
4617950.549
  0
SEQEND
  8
Unknown_Area_Type
  0
INSERT
  8
FeatureAttribs
  2
FEATURE
  41
1
  42
1
  43
1
  50
0
  10
374957.547
  20
4619950.971
 66
1
  0
ATTRIB
  8
FeatureAttribs
 70
0
  1
PNOA-H_AMS_1956-57_33k_ES_PAN_2
  2
NAME
  10
374957.547
  20
4619950.971
 40
33.80955
  0
SEQEND
  0
POLYLINE
  8
Unknown_Area_Type
  70
1
  66
1
  0
VERTEX
  8
Unknown_Area_Type
  10
373490.556
  20
4619507.757
  0
VERTEX
  8
Unknown_Area_Type
  10
373638.500
  20
4621793.000
  0
VERTEX
  8
Unknown_Area_Type
  10
374413.500
  20
4621935.500
  0
VERTEX
  8
Unknown_Area_Type
  10
374416.500
  20
4621936.000
  0
VERTEX
  8
Unknown_Area_Type
  10
375810.500
  20
4622192.000
  0
VERTEX
  8
Unknown_Area_Type
  10
376499.500
  20
4621725.500
  0
VERTEX
  8
Unknown_Area_Type
  10
376163.000
  20
4617804.500
  0
VERTEX
  8
Unknown_Area_Type
  10
373463.047
  20
4617950.549
  0
VERTEX
  8
Unknown_Area_Type
  10
373472.946
  20
4618511.037
  0
VERTEX
  8
Unknown_Area_Type
  10
373490.556
  20
4619507.757
  0
SEQEND
  8
Unknown_Area_Type
  0
INSERT
  8
FeatureAttribs
  2
FEATURE
  41
1
  42
1
  43
1
  50
0
  10
374957.547
  20
4619950.971
 66
1
  0
ATTRIB
  8
FeatureAttribs
 70
0
  1
PNOA-H_AMS_1956-57_33k_ES_PAN_2
  2
NAME
  10
374957.547
  20
4619950.971
 40
33.80955
  0
SEQEND
  0
POLYLINE
  8
Unknown_Area_Type
  70
1
  66
1
  0
VERTEX
  8
Unknown_Area_Type
  10
373490.556
  20
4619507.757
  0
VERTEX
  8
Unknown_Area_Type
  10
373472.946
  20
4618511.037
  0
VERTEX
  8
Unknown_Area_Type
  10
373463.047
  20
4617950.549
  0
VERTEX
  8
Unknown_Area_Type
  10
376163.000
  20
4617804.500
  0
VERTEX
  8
Unknown_Area_Type
  10
376499.500
  20
4621725.500
  0
VERTEX
  8
Unknown_Area_Type
  10
375810.500
  20
4622192.000
  0
VERTEX
  8
Unknown_Area_Type
  10
374416.500
  20
4621936.000
  0
VERTEX
  8
Unknown_Area_Type
  10
374413.500
  20
4621935.500
  0
VERTEX
  8
Unknown_Area_Type
  10
373638.500
  20
4621793.000
  0
VERTEX
  8
Unknown_Area_Type
  10
373490.556
  20
4619507.757
  0
SEQEND
  8
Unknown_Area_Type
  0
INSERT
  8
FeatureAttribs
  2
FEATURE
  41
1
  42
1
  43
1
  50
0
  10
383406.025
  20
4619737.280
 66
1
  0
ATTRIB
  8
FeatureAttribs
 70
0
  1
PNOA-H_AMS_1956-57_33k_ES_PAN_2
  2
NAME
  10
383406.025
  20
4619737.280
 40
33.80955
  0
SEQEND
  0
POLYLINE
  8
Unknown_Area_Type
  70
1
  66
1
  0
VERTEX
  8
Unknown_Area_Type
  10
382607.500
  20
4621793.500
  0
VERTEX
  8
Unknown_Area_Type
  10
384264.500
  20
4622109.000
  0
VERTEX
  8
Unknown_Area_Type
  10
384864.500
  20
4621802.000
  0
VERTEX
  8
Unknown_Area_Type
  10
384596.000
  20
4617468.500
  0
VERTEX
  8
Unknown_Area_Type
  10
381919.500
  20
4617619.000
  0
VERTEX
  8
Unknown_Area_Type
  10
382134.500
  20
4621701.500
  0
VERTEX
  8
Unknown_Area_Type
  10
382135.000
  20
4621703.500
  0
VERTEX
  8
Unknown_Area_Type
  10
382137.500
  20
4621704.000
  0
VERTEX
  8
Unknown_Area_Type
  10
382605.000
  20
4621793.000
  0
VERTEX
  8
Unknown_Area_Type
  10
382607.500
  20
4621793.500
  0
SEQEND
  8
Unknown_Area_Type
  0
INSERT
  8
FeatureAttribs
  2
FEATURE
  41
1
  42
1
  43
1
  50
0
  10
383406.025
  20
4619737.280
 66
1
  0
ATTRIB
  8
FeatureAttribs
 70
0
  1
PNOA-H_AMS_1956-57_33k_ES_PAN_2
  2
NAME
  10
383406.025
  20
4619737.280
 40
33.80955
  0
SEQEND
  0
POLYLINE
  8
Unknown_Area_Type
  70
1
  66
1
  0
VERTEX
  8
Unknown_Area_Type
  10
382607.500
  20
4621793.500
  0
VERTEX
  8
Unknown_Area_Type
  10
382605.000
  20
4621793.000
  0
VERTEX
  8
Unknown_Area_Type
  10
382137.500
  20
4621704.000
  0
VERTEX
  8
Unknown_Area_Type
  10
382135.000
  20
4621703.500
  0
VERTEX
  8
Unknown_Area_Type
  10
382134.500
  20
4621701.500
  0
VERTEX
  8
Unknown_Area_Type
  10
381919.500
  20
4617619.000
  0
VERTEX
  8
Unknown_Area_Type
  10
384596.000
  20
4617468.500
  0
VERTEX
  8
Unknown_Area_Type
  10
384864.500
  20
4621802.000
  0
VERTEX
  8
Unknown_Area_Type
  10
384264.500
  20
4622109.000
  0
VERTEX
  8
Unknown_Area_Type
  10
382607.500
  20
4621793.500
  0
SEQEND
  8
Unknown_Area_Type
  0
INSERT
  8
FeatureAttribs
  2
FEATURE
  41
1
  42
1
  43
1
  50
0
  10
377784.056
  20
4619819.563
 66
1
  0
ATTRIB
  8
FeatureAttribs
 70
0
  1
PNOA-H_AMS_1956-57_33k_ES_PAN_2
  2
NAME
  10
377784.056
  20
4619819.563
 40
33.80955
  0
SEQEND
  0
POLYLINE
  8
Unknown_Area_Type
  70
1
  66
1
  0
VERTEX
  8
Unknown_Area_Type
  10
376465.500
  20
4621332.000
  0
VERTEX
  8
Unknown_Area_Type
  10
376499.500
  20
4621725.500
  0
VERTEX
  8
Unknown_Area_Type
  10
378576.000
  20
4622136.000
  0
VERTEX
  8
Unknown_Area_Type
  10
379332.000
  20
4621678.000
  0
VERTEX
  8
Unknown_Area_Type
  10
379054.000
  20
4617675.000
  0
VERTEX
  8
Unknown_Area_Type
  10
376209.000
  20
4617779.500
  0
VERTEX
  8
Unknown_Area_Type
  10
376201.000
  20
4617780.500
  0
VERTEX
  8
Unknown_Area_Type
  10
376163.000
  20
4617804.500
  0
VERTEX
  8
Unknown_Area_Type
  10
376465.500
  20
4621326.000
  0
VERTEX
  8
Unknown_Area_Type
  10
376465.500
  20
4621332.000
  0
SEQEND
  8
Unknown_Area_Type
  0
INSERT
  8
FeatureAttribs
  2
FEATURE
  41
1
  42
1
  43
1
  50
0
  10
377784.056
  20
4619819.563
 66
1
  0
ATTRIB
  8
FeatureAttribs
 70
0
  1
PNOA-H_AMS_1956-57_33k_ES_PAN_2
  2
NAME
  10
377784.056
  20
4619819.563
 40
33.80955
  0
SEQEND
  0
POLYLINE
  8
Unknown_Area_Type
  70
1
  66
1
  0
VERTEX
  8
Unknown_Area_Type
  10
376465.500
  20
4621332.000
  0
VERTEX
  8
Unknown_Area_Type
  10
376465.500
  20
4621326.000
  0
VERTEX
  8
Unknown_Area_Type
  10
376163.000
  20
4617804.500
  0
VERTEX
  8
Unknown_Area_Type
  10
376201.000
  20
4617780.500
  0
VERTEX
  8
Unknown_Area_Type
  10
376209.000
  20
4617779.500
  0
VERTEX
  8
Unknown_Area_Type
  10
379054.000
  20
4617675.000
  0
VERTEX
  8
Unknown_Area_Type
  10
379332.000
  20
4621678.000
  0
VERTEX
  8
Unknown_Area_Type
  10
378576.000
  20
4622136.000
  0
VERTEX
  8
Unknown_Area_Type
  10
376499.500
  20
4621725.500
  0
VERTEX
  8
Unknown_Area_Type
  10
376465.500
  20
4621332.000
  0
SEQEND
  8
Unknown_Area_Type
  0
INSERT
  8
FeatureAttribs
  2
FEATURE
  41
1
  42
1
  43
1
  50
0
  10
373481.799
  20
4624136.291
 66
1
  0
ATTRIB
  8
FeatureAttribs
 70
0
  1
PNOA-H_AMS_1956-57_33k_ES_PAN_2
  2
NAME
  10
373481.799
  20
4624136.291
 40
33.80955
  0
SEQEND
  0
POLYLINE
  8
Unknown_Area_Type
  70
1
  66
1
  0
VERTEX
  8
Unknown_Area_Type
  10
373612.152
  20
4626385.940
  0
VERTEX
  8
Unknown_Area_Type
  10
373595.600
  20
4625450.307
  0
VERTEX
  8
Unknown_Area_Type
  10
373554.699
  20
4623137.209
  0
VERTEX
  8
Unknown_Area_Type
  10
373532.393
  20
4621875.247
  0
VERTEX
  8
Unknown_Area_Type
  10
373391.232
  20
4621985.736
  0
VERTEX
  8
Unknown_Area_Type
  10
373391.232
  20
4626397.336
  0
VERTEX
  8
Unknown_Area_Type
  10
373612.152
  20
4626385.940
  0
SEQEND
  8
Unknown_Area_Type
  0
INSERT
  8
FeatureAttribs
  2
FEATURE
  41
1
  42
1
  43
1
  50
0
  10
374633.807
  20
4624118.722
 66
1
  0
ATTRIB
  8
FeatureAttribs
 70
0
  1
PNOA-H_AMS_1956-57_33k_ES_PAN_2
  2
NAME
  10
374633.807
  20
4624118.722
 40
33.80955
  0
SEQEND
  0
POLYLINE
  8
Unknown_Area_Type
  70
1
  66
1
  0
VERTEX
  8
Unknown_Area_Type
  10
373612.152
  20
4626385.940
  0
VERTEX
  8
Unknown_Area_Type
  10
374415.500
  20
4626344.500
  0
VERTEX
  8
Unknown_Area_Type
  10
374418.000
  20
4626344.500
  0
VERTEX
  8
Unknown_Area_Type
  10
375663.000
  20
4626281.000
  0
VERTEX
  8
Unknown_Area_Type
  10
375810.000
  20
4622192.000
  0
VERTEX
  8
Unknown_Area_Type
  10
373641.500
  20
4621793.000
  0
VERTEX
  8
Unknown_Area_Type
  10
373637.500
  20
4621793.000
  0
VERTEX
  8
Unknown_Area_Type
  10
373633.000
  20
4621796.500
  0
VERTEX
  8
Unknown_Area_Type
  10
373532.393
  20
4621875.247
  0
VERTEX
  8
Unknown_Area_Type
  10
373554.699
  20
4623137.209
  0
VERTEX
  8
Unknown_Area_Type
  10
373595.600
  20
4625450.307
  0
VERTEX
  8
Unknown_Area_Type
  10
373612.152
  20
4626385.940
  0
SEQEND
  8
Unknown_Area_Type
  0
INSERT
  8
FeatureAttribs
  2
FEATURE
  41
1
  42
1
  43
1
  50
0
  10
374633.807
  20
4624118.722
 66
1
  0
ATTRIB
  8
FeatureAttribs
 70
0
  1
PNOA-H_AMS_1956-57_33k_ES_PAN_2
  2
NAME
  10
374633.807
  20
4624118.722
 40
33.80955
  0
SEQEND
  0
POLYLINE
  8
Unknown_Area_Type
  70
1
  66
1
  0
VERTEX
  8
Unknown_Area_Type
  10
373612.152
  20
4626385.940
  0
VERTEX
  8
Unknown_Area_Type
  10
373595.600
  20
4625450.307
  0
VERTEX
  8
Unknown_Area_Type
  10
373554.699
  20
4623137.209
  0
VERTEX
  8
Unknown_Area_Type
  10
373532.393
  20
4621875.247
  0
VERTEX
  8
Unknown_Area_Type
  10
373633.000
  20
4621796.500
  0
VERTEX
  8
Unknown_Area_Type
  10
373637.500
  20
4621793.000
  0
VERTEX
  8
Unknown_Area_Type
  10
373641.500
  20
4621793.000
  0
VERTEX
  8
Unknown_Area_Type
  10
375810.000
  20
4622192.000
  0
VERTEX
  8
Unknown_Area_Type
  10
375663.000
  20
4626281.000
  0
VERTEX
  8
Unknown_Area_Type
  10
374418.000
  20
4626344.500
  0
VERTEX
  8
Unknown_Area_Type
  10
374415.500
  20
4626344.500
  0
VERTEX
  8
Unknown_Area_Type
  10
373612.152
  20
4626385.940
  0
SEQEND
  8
Unknown_Area_Type
  0
INSERT
  8
FeatureAttribs
  2
FEATURE
  41
1
  42
1
  43
1
  50
0
  10
379872.549
  20
4624161.112
 66
1
  0
ATTRIB
  8
FeatureAttribs
 70
0
  1
PNOA-H_AMS_1956-57_33k_ES_PAN_2
  2
NAME
  10
379872.549
  20
4624161.112
 40
33.80955
  0
SEQEND
  0
POLYLINE
  8
Unknown_Area_Type
  70
1
  66
1
  0
VERTEX
  8
Unknown_Area_Type
  10
378513.000
  20
4626374.500
  0
VERTEX
  8
Unknown_Area_Type
  10
378920.500
  20
4626551.000
  0
VERTEX
  8
Unknown_Area_Type
  10
381136.000
  20
4626388.500
  0
VERTEX
  8
Unknown_Area_Type
  10
381394.000
  20
4622085.500
  0
VERTEX
  8
Unknown_Area_Type
  10
379332.000
  20
4621677.500
  0
VERTEX
  8
Unknown_Area_Type
  10
378576.500
  20
4622135.500
  0
VERTEX
  8
Unknown_Area_Type
  10
378417.500
  20
4626330.500
  0
VERTEX
  8
Unknown_Area_Type
  10
378418.000
  20
4626333.500
  0
VERTEX
  8
Unknown_Area_Type
  10
378511.500
  20
4626374.000
  0
VERTEX
  8
Unknown_Area_Type
  10
378513.000
  20
4626374.500
  0
SEQEND
  8
Unknown_Area_Type
  0
INSERT
  8
FeatureAttribs
  2
FEATURE
  41
1
  42
1
  43
1
  50
0
  10
379872.549
  20
4624161.112
 66
1
  0
ATTRIB
  8
FeatureAttribs
 70
0
  1
PNOA-H_AMS_1956-57_33k_ES_PAN_2
  2
NAME
  10
379872.549
  20
4624161.112
 40
33.80955
  0
SEQEND
  0
POLYLINE
  8
Unknown_Area_Type
  70
1
  66
1
  0
VERTEX
  8
Unknown_Area_Type
  10
378513.000
  20
4626374.500
  0
VERTEX
  8
Unknown_Area_Type
  10
378511.500
  20
4626374.000
  0
VERTEX
  8
Unknown_Area_Type
  10
378418.000
  20
4626333.500
  0
VERTEX
  8
Unknown_Area_Type
  10
378417.500
  20
4626330.500
  0
VERTEX
  8
Unknown_Area_Type
  10
378576.500
  20
4622135.500
  0
VERTEX
  8
Unknown_Area_Type
  10
379332.000
  20
4621677.500
  0
VERTEX
  8
Unknown_Area_Type
  10
381394.000
  20
4622085.500
  0
VERTEX
  8
Unknown_Area_Type
  10
381136.000
  20
4626388.500
  0
VERTEX
  8
Unknown_Area_Type
  10
378920.500
  20
4626551.000
  0
VERTEX
  8
Unknown_Area_Type
  10
378513.000
  20
4626374.500
  0
SEQEND
  8
Unknown_Area_Type
  0
INSERT
  8
FeatureAttribs
  2
FEATURE
  41
1
  42
1
  43
1
  50
0
  10
377105.858
  20
4624173.195
 66
1
  0
ATTRIB
  8
FeatureAttribs
 70
0
  1
PNOA-H_AMS_1956-57_33k_ES_PAN_2
  2
NAME
  10
377105.858
  20
4624173.195
 40
33.80955
  0
SEQEND
  0
POLYLINE
  8
Unknown_Area_Type
  70
1
  66
1
  0
VERTEX
  8
Unknown_Area_Type
  10
376175.000
  20
4626505.000
  0
VERTEX
  8
Unknown_Area_Type
  10
378417.500
  20
4626333.000
  0
VERTEX
  8
Unknown_Area_Type
  10
378575.000
  20
4622183.000
  0
VERTEX
  8
Unknown_Area_Type
  10
378576.000
  20
4622135.500
  0
VERTEX
  8
Unknown_Area_Type
  10
376499.000
  20
4621725.500
  0
VERTEX
  8
Unknown_Area_Type
  10
375810.000
  20
4622192.000
  0
VERTEX
  8
Unknown_Area_Type
  10
375663.000
  20
4626281.000
  0
VERTEX
  8
Unknown_Area_Type
  10
376173.500
  20
4626504.500
  0
VERTEX
  8
Unknown_Area_Type
  10
376175.000
  20
4626505.000
  0
SEQEND
  8
Unknown_Area_Type
  0
INSERT
  8
FeatureAttribs
  2
FEATURE
  41
1
  42
1
  43
1
  50
0
  10
377105.858
  20
4624173.195
 66
1
  0
ATTRIB
  8
FeatureAttribs
 70
0
  1
PNOA-H_AMS_1956-57_33k_ES_PAN_2
  2
NAME
  10
377105.858
  20
4624173.195
 40
33.80955
  0
SEQEND
  0
POLYLINE
  8
Unknown_Area_Type
  70
1
  66
1
  0
VERTEX
  8
Unknown_Area_Type
  10
376175.000
  20
4626505.000
  0
VERTEX
  8
Unknown_Area_Type
  10
376173.500
  20
4626504.500
  0
VERTEX
  8
Unknown_Area_Type
  10
375663.000
  20
4626281.000
  0
VERTEX
  8
Unknown_Area_Type
  10
375810.000
  20
4622192.000
  0
VERTEX
  8
Unknown_Area_Type
  10
376499.000
  20
4621725.500
  0
VERTEX
  8
Unknown_Area_Type
  10
378576.000
  20
4622135.500
  0
VERTEX
  8
Unknown_Area_Type
  10
378575.000
  20
4622183.000
  0
VERTEX
  8
Unknown_Area_Type
  10
378417.500
  20
4626333.000
  0
VERTEX
  8
Unknown_Area_Type
  10
376175.000
  20
4626505.000
  0
SEQEND
  8
Unknown_Area_Type
  0
INSERT
  8
FeatureAttribs
  2
FEATURE
  41
1
  42
1
  43
1
  50
0
  10
394958.288
  20
4624513.527
 66
1
  0
ATTRIB
  8
FeatureAttribs
 70
0
  1
PNOA-H_AMS_1956-57_33k_ES_PAN_2
  2
NAME
  10
394958.288
  20
4624513.527
 40
33.80955
  0
SEQEND
  0
POLYLINE
  8
Unknown_Area_Type
  70
1
  66
1
  0
VERTEX
  8
Unknown_Area_Type
  10
396056.500
  20
4626790.500
  0
VERTEX
  8
Unknown_Area_Type
  10
396062.500
  20
4626789.000
  0
VERTEX
  8
Unknown_Area_Type
  10
396620.500
  20
4626478.500
  0
VERTEX
  8
Unknown_Area_Type
  10
396451.500
  20
4622565.000
  0
VERTEX
  8
Unknown_Area_Type
  10
396451.000
  20
4622563.000
  0
VERTEX
  8
Unknown_Area_Type
  10
396447.000
  20
4622560.500
  0
VERTEX
  8
Unknown_Area_Type
  10
395588.000
  20
4622089.500
  0
VERTEX
  8
Unknown_Area_Type
  10
393378.500
  20
4622457.500
  0
VERTEX
  8
Unknown_Area_Type
  10
393348.500
  20
4626613.000
  0
VERTEX
  8
Unknown_Area_Type
  10
396049.000
  20
4626790.000
  0
VERTEX
  8
Unknown_Area_Type
  10
396056.500
  20
4626790.500
  0
SEQEND
  8
Unknown_Area_Type
  0
INSERT
  8
FeatureAttribs
  2
FEATURE
  41
1
  42
1
  43
1
  50
0
  10
394958.288
  20
4624513.527
 66
1
  0
ATTRIB
  8
FeatureAttribs
 70
0
  1
PNOA-H_AMS_1956-57_33k_ES_PAN_2
  2
NAME
  10
394958.288
  20
4624513.527
 40
33.80955
  0
SEQEND
  0
POLYLINE
  8
Unknown_Area_Type
  70
1
  66
1
  0
VERTEX
  8
Unknown_Area_Type
  10
396056.500
  20
4626790.500
  0
VERTEX
  8
Unknown_Area_Type
  10
396049.000
  20
4626790.000
  0
VERTEX
  8
Unknown_Area_Type
  10
393348.500
  20
4626613.000
  0
VERTEX
  8
Unknown_Area_Type
  10
393378.500
  20
4622457.500
  0
VERTEX
  8
Unknown_Area_Type
  10
395588.000
  20
4622089.500
  0
VERTEX
  8
Unknown_Area_Type
  10
396447.000
  20
4622560.500
  0
VERTEX
  8
Unknown_Area_Type
  10
396451.000
  20
4622563.000
  0
VERTEX
  8
Unknown_Area_Type
  10
396451.500
  20
4622565.000
  0
VERTEX
  8
Unknown_Area_Type
  10
396620.500
  20
4626478.500
  0
VERTEX
  8
Unknown_Area_Type
  10
396062.500
  20
4626789.000
  0
VERTEX
  8
Unknown_Area_Type
  10
396056.500
  20
4626790.500
  0
SEQEND
  8
Unknown_Area_Type
  0
INSERT
  8
FeatureAttribs
  2
FEATURE
  41
1
  42
1
  43
1
  50
0
  10
388665.978
  20
4624323.056
 66
1
  0
ATTRIB
  8
FeatureAttribs
 70
0
  1
PNOA-H_AMS_1956-57_33k_ES_PAN_2
  2
NAME
  10
388665.978
  20
4624323.056
 40
33.80955
  0
SEQEND
  0
POLYLINE
  8
Unknown_Area_Type
  70
1
  66
1
  0
VERTEX
  8
Unknown_Area_Type
  10
388754.000
  20
4626738.000
  0
VERTEX
  8
Unknown_Area_Type
  10
390117.500
  20
4626513.000
  0
VERTEX
  8
Unknown_Area_Type
  10
390304.000
  20
4622188.500
  0
VERTEX
  8
Unknown_Area_Type
  10
389998.000
  20
4621991.000
  0
VERTEX
  8
Unknown_Area_Type
  10
387425.500
  20
4621936.500
  0
VERTEX
  8
Unknown_Area_Type
  10
387237.000
  20
4622046.000
  0
VERTEX
  8
Unknown_Area_Type
  10
387038.000
  20
4626406.500
  0
VERTEX
  8
Unknown_Area_Type
  10
388081.500
  20
4626849.000
  0
VERTEX
  8
Unknown_Area_Type
  10
388751.000
  20
4626738.500
  0
VERTEX
  8
Unknown_Area_Type
  10
388754.000
  20
4626738.000
  0
SEQEND
  8
Unknown_Area_Type
  0
INSERT
  8
FeatureAttribs
  2
FEATURE
  41
1
  42
1
  43
1
  50
0
  10
388665.978
  20
4624323.056
 66
1
  0
ATTRIB
  8
FeatureAttribs
 70
0
  1
PNOA-H_AMS_1956-57_33k_ES_PAN_2
  2
NAME
  10
388665.978
  20
4624323.056
 40
33.80955
  0
SEQEND
  0
POLYLINE
  8
Unknown_Area_Type
  70
1
  66
1
  0
VERTEX
  8
Unknown_Area_Type
  10
388754.000
  20
4626738.000
  0
VERTEX
  8
Unknown_Area_Type
  10
388751.000
  20
4626738.500
  0
VERTEX
  8
Unknown_Area_Type
  10
388081.500
  20
4626849.000
  0
VERTEX
  8
Unknown_Area_Type
  10
387038.000
  20
4626406.500
  0
VERTEX
  8
Unknown_Area_Type
  10
387237.000
  20
4622046.000
  0
VERTEX
  8
Unknown_Area_Type
  10
387425.500
  20
4621936.500
  0
VERTEX
  8
Unknown_Area_Type
  10
389998.000
  20
4621991.000
  0
VERTEX
  8
Unknown_Area_Type
  10
390304.000
  20
4622188.500
  0
VERTEX
  8
Unknown_Area_Type
  10
390117.500
  20
4626513.000
  0
VERTEX
  8
Unknown_Area_Type
  10
388754.000
  20
4626738.000
  0
SEQEND
  8
Unknown_Area_Type
  0
INSERT
  8
FeatureAttribs
  2
FEATURE
  41
1
  42
1
  43
1
  50
0
  10
401344.570
  20
4624351.154
 66
1
  0
ATTRIB
  8
FeatureAttribs
 70
0
  1
PNOA-H_AMS_1956-57_33k_ES_PAN_2
  2
NAME
  10
401344.570
  20
4624351.154
 40
33.80955
  0
SEQEND
  0
POLYLINE
  8
Unknown_Area_Type
  70
1
  66
1
  0
VERTEX
  8
Unknown_Area_Type
  10
401397.099
  20
4622145.480
  0
VERTEX
  8
Unknown_Area_Type
  10
401261.968
  20
4622172.695
  0
VERTEX
  8
Unknown_Area_Type
  10
401269.258
  20
4622700.957
  0
VERTEX
  8
Unknown_Area_Type
  10
401301.192
  20
4625014.018
  0
VERTEX
  8
Unknown_Area_Type
  10
401322.418
  20
4626550.860
  0
VERTEX
  8
Unknown_Area_Type
  10
401397.099
  20
4626556.828
  0
VERTEX
  8
Unknown_Area_Type
  10
401397.099
  20
4622145.480
  0
SEQEND
  8
Unknown_Area_Type
  0
INSERT
  8
FeatureAttribs
  2
FEATURE
  41
1
  42
1
  43
1
  50
0
  10
400435.600
  20
4624394.052
 66
1
  0
ATTRIB
  8
FeatureAttribs
 70
0
  1
PNOA-H_AMS_1956-57_33k_ES_PAN_2
  2
NAME
  10
400435.600
  20
4624394.052
 40
33.80955
  0
SEQEND
  0
POLYLINE
  8
Unknown_Area_Type
  70
1
  66
1
  0
VERTEX
  8
Unknown_Area_Type
  10
401261.968
  20
4622172.695
  0
VERTEX
  8
Unknown_Area_Type
  10
399463.000
  20
4622535.000
  0
VERTEX
  8
Unknown_Area_Type
  10
399628.500
  20
4626415.500
  0
VERTEX
  8
Unknown_Area_Type
  10
401322.418
  20
4626550.860
  0
VERTEX
  8
Unknown_Area_Type
  10
401301.192
  20
4625014.018
  0
VERTEX
  8
Unknown_Area_Type
  10
401269.258
  20
4622700.957
  0
VERTEX
  8
Unknown_Area_Type
  10
401261.968
  20
4622172.695
  0
SEQEND
  8
Unknown_Area_Type
  0
INSERT
  8
FeatureAttribs
  2
FEATURE
  41
1
  42
1
  43
1
  50
0
  10
400435.600
  20
4624394.052
 66
1
  0
ATTRIB
  8
FeatureAttribs
 70
0
  1
PNOA-H_AMS_1956-57_33k_ES_PAN_2
  2
NAME
  10
400435.600
  20
4624394.052
 40
33.80955
  0
SEQEND
  0
POLYLINE
  8
Unknown_Area_Type
  70
1
  66
1
  0
VERTEX
  8
Unknown_Area_Type
  10
401261.968
  20
4622172.695
  0
VERTEX
  8
Unknown_Area_Type
  10
401269.258
  20
4622700.957
  0
VERTEX
  8
Unknown_Area_Type
  10
401301.192
  20
4625014.018
  0
VERTEX
  8
Unknown_Area_Type
  10
401322.418
  20
4626550.860
  0
VERTEX
  8
Unknown_Area_Type
  10
399628.500
  20
4626415.500
  0
VERTEX
  8
Unknown_Area_Type
  10
399463.000
  20
4622535.000
  0
VERTEX
  8
Unknown_Area_Type
  10
401261.968
  20
4622172.695
  0
SEQEND
  8
Unknown_Area_Type
  0
INSERT
  8
FeatureAttribs
  2
FEATURE
  41
1
  42
1
  43
1
  50
0
  10
385606.085
  20
4624294.247
 66
1
  0
ATTRIB
  8
FeatureAttribs
 70
0
  1
PNOA-H_AMS_1956-57_33k_ES_PAN_2
  2
NAME
  10
385606.085
  20
4624294.247
 40
33.80955
  0
SEQEND
  0
POLYLINE
  8
Unknown_Area_Type
  70
1
  66
1
  0
VERTEX
  8
Unknown_Area_Type
  10
384657.500
  20
4626722.000
  0
VERTEX
  8
Unknown_Area_Type
  10
384929.000
  20
4626839.500
  0
VERTEX
  8
Unknown_Area_Type
  10
387038.000
  20
4626406.500
  0
VERTEX
  8
Unknown_Area_Type
  10
387237.000
  20
4622046.000
  0
VERTEX
  8
Unknown_Area_Type
  10
384864.500
  20
4621801.500
  0
VERTEX
  8
Unknown_Area_Type
  10
384265.000
  20
4622109.000
  0
VERTEX
  8
Unknown_Area_Type
  10
383955.000
  20
4626417.000
  0
VERTEX
  8
Unknown_Area_Type
  10
384656.000
  20
4626721.500
  0
VERTEX
  8
Unknown_Area_Type
  10
384657.500
  20
4626722.000
  0
SEQEND
  8
Unknown_Area_Type
  0
INSERT
  8
FeatureAttribs
  2
FEATURE
  41
1
  42
1
  43
1
  50
0
  10
385606.085
  20
4624294.247
 66
1
  0
ATTRIB
  8
FeatureAttribs
 70
0
  1
PNOA-H_AMS_1956-57_33k_ES_PAN_2
  2
NAME
  10
385606.085
  20
4624294.247
 40
33.80955
  0
SEQEND
  0
POLYLINE
  8
Unknown_Area_Type
  70
1
  66
1
  0
VERTEX
  8
Unknown_Area_Type
  10
384657.500
  20
4626722.000
  0
VERTEX
  8
Unknown_Area_Type
  10
384656.000
  20
4626721.500
  0
VERTEX
  8
Unknown_Area_Type
  10
383955.000
  20
4626417.000
  0
VERTEX
  8
Unknown_Area_Type
  10
384265.000
  20
4622109.000
  0
VERTEX
  8
Unknown_Area_Type
  10
384864.500
  20
4621801.500
  0
VERTEX
  8
Unknown_Area_Type
  10
387237.000
  20
4622046.000
  0
VERTEX
  8
Unknown_Area_Type
  10
387038.000
  20
4626406.500
  0
VERTEX
  8
Unknown_Area_Type
  10
384929.000
  20
4626839.500
  0
VERTEX
  8
Unknown_Area_Type
  10
384657.500
  20
4626722.000
  0
SEQEND
  8
Unknown_Area_Type
  0
INSERT
  8
FeatureAttribs
  2
FEATURE
  41
1
  42
1
  43
1
  50
0
  10
391778.305
  20
4624440.970
 66
1
  0
ATTRIB
  8
FeatureAttribs
 70
0
  1
PNOA-H_AMS_1956-57_33k_ES_PAN_2
  2
NAME
  10
391778.305
  20
4624440.970
 40
33.80955
  0
SEQEND
  0
POLYLINE
  8
Unknown_Area_Type
  70
1
  66
1
  0
VERTEX
  8
Unknown_Area_Type
  10
390664.000
  20
4626773.000
  0
VERTEX
  8
Unknown_Area_Type
  10
393319.500
  20
4626626.500
  0
VERTEX
  8
Unknown_Area_Type
  10
393327.500
  20
4626626.000
  0
VERTEX
  8
Unknown_Area_Type
  10
393348.500
  20
4626613.000
  0
VERTEX
  8
Unknown_Area_Type
  10
393378.500
  20
4622457.500
  0
VERTEX
  8
Unknown_Area_Type
  10
392711.500
  20
4622063.500
  0
VERTEX
  8
Unknown_Area_Type
  10
392708.500
  20
4622062.000
  0
VERTEX
  8
Unknown_Area_Type
  10
392704.500
  20
4622062.000
  0
VERTEX
  8
Unknown_Area_Type
  10
390304.000
  20
4622188.500
  0
VERTEX
  8
Unknown_Area_Type
  10
390117.500
  20
4626513.000
  0
VERTEX
  8
Unknown_Area_Type
  10
390663.000
  20
4626772.500
  0
VERTEX
  8
Unknown_Area_Type
  10
390664.000
  20
4626773.000
  0
SEQEND
  8
Unknown_Area_Type
  0
INSERT
  8
FeatureAttribs
  2
FEATURE
  41
1
  42
1
  43
1
  50
0
  10
391778.305
  20
4624440.970
 66
1
  0
ATTRIB
  8
FeatureAttribs
 70
0
  1
PNOA-H_AMS_1956-57_33k_ES_PAN_2
  2
NAME
  10
391778.305
  20
4624440.970
 40
33.80955
  0
SEQEND
  0
POLYLINE
  8
Unknown_Area_Type
  70
1
  66
1
  0
VERTEX
  8
Unknown_Area_Type
  10
390664.000
  20
4626773.000
  0
VERTEX
  8
Unknown_Area_Type
  10
390663.000
  20
4626772.500
  0
VERTEX
  8
Unknown_Area_Type
  10
390117.500
  20
4626513.000
  0
VERTEX
  8
Unknown_Area_Type
  10
390304.000
  20
4622188.500
  0
VERTEX
  8
Unknown_Area_Type
  10
392704.500
  20
4622062.000
  0
VERTEX
  8
Unknown_Area_Type
  10
392708.500
  20
4622062.000
  0
VERTEX
  8
Unknown_Area_Type
  10
392711.500
  20
4622063.500
  0
VERTEX
  8
Unknown_Area_Type
  10
393378.500
  20
4622457.500
  0
VERTEX
  8
Unknown_Area_Type
  10
393348.500
  20
4626613.000
  0
VERTEX
  8
Unknown_Area_Type
  10
393327.500
  20
4626626.000
  0
VERTEX
  8
Unknown_Area_Type
  10
393319.500
  20
4626626.500
  0
VERTEX
  8
Unknown_Area_Type
  10
390664.000
  20
4626773.000
  0
SEQEND
  8
Unknown_Area_Type
  0
INSERT
  8
FeatureAttribs
  2
FEATURE
  41
1
  42
1
  43
1
  50
0
  10
398061.480
  20
4624462.276
 66
1
  0
ATTRIB
  8
FeatureAttribs
 70
0
  1
PNOA-H_AMS_1956-57_33k_ES_PAN_2
  2
NAME
  10
398061.480
  20
4624462.276
 40
33.80955
  0
SEQEND
  0
POLYLINE
  8
Unknown_Area_Type
  70
1
  66
1
  0
VERTEX
  8
Unknown_Area_Type
  10
396943.500
  20
4626516.500
  0
VERTEX
  8
Unknown_Area_Type
  10
399011.500
  20
4626757.000
  0
VERTEX
  8
Unknown_Area_Type
  10
399629.000
  20
4626416.000
  0
VERTEX
  8
Unknown_Area_Type
  10
399463.000
  20
4622535.000
  0
VERTEX
  8
Unknown_Area_Type
  10
398666.500
  20
4622077.000
  0
VERTEX
  8
Unknown_Area_Type
  10
396451.000
  20
4622563.000
  0
VERTEX
  8
Unknown_Area_Type
  10
396620.000
  20
4626476.500
  0
VERTEX
  8
Unknown_Area_Type
  10
396621.500
  20
4626479.000
  0
VERTEX
  8
Unknown_Area_Type
  10
396939.500
  20
4626516.000
  0
VERTEX
  8
Unknown_Area_Type
  10
396943.500
  20
4626516.500
  0
SEQEND
  8
Unknown_Area_Type
  0
INSERT
  8
FeatureAttribs
  2
FEATURE
  41
1
  42
1
  43
1
  50
0
  10
398061.480
  20
4624462.276
 66
1
  0
ATTRIB
  8
FeatureAttribs
 70
0
  1
PNOA-H_AMS_1956-57_33k_ES_PAN_2
  2
NAME
  10
398061.480
  20
4624462.276
 40
33.80955
  0
SEQEND
  0
POLYLINE
  8
Unknown_Area_Type
  70
1
  66
1
  0
VERTEX
  8
Unknown_Area_Type
  10
396943.500
  20
4626516.500
  0
VERTEX
  8
Unknown_Area_Type
  10
396939.500
  20
4626516.000
  0
VERTEX
  8
Unknown_Area_Type
  10
396621.500
  20
4626479.000
  0
VERTEX
  8
Unknown_Area_Type
  10
396620.000
  20
4626476.500
  0
VERTEX
  8
Unknown_Area_Type
  10
396451.000
  20
4622563.000
  0
VERTEX
  8
Unknown_Area_Type
  10
398666.500
  20
4622077.000
  0
VERTEX
  8
Unknown_Area_Type
  10
399463.000
  20
4622535.000
  0
VERTEX
  8
Unknown_Area_Type
  10
399629.000
  20
4626416.000
  0
VERTEX
  8
Unknown_Area_Type
  10
399011.500
  20
4626757.000
  0
VERTEX
  8
Unknown_Area_Type
  10
396943.500
  20
4626516.500
  0
SEQEND
  8
Unknown_Area_Type
  0
INSERT
  8
FeatureAttribs
  2
FEATURE
  41
1
  42
1
  43
1
  50
0
  10
382672.170
  20
4624221.789
 66
1
  0
ATTRIB
  8
FeatureAttribs
 70
0
  1
PNOA-H_AMS_1956-57_33k_ES_PAN_2
  2
NAME
  10
382672.170
  20
4624221.789
 40
33.80955
  0
SEQEND
  0
POLYLINE
  8
Unknown_Area_Type
  70
1
  66
1
  0
VERTEX
  8
Unknown_Area_Type
  10
382610.000
  20
4626601.000
  0
VERTEX
  8
Unknown_Area_Type
  10
383955.000
  20
4626417.000
  0
VERTEX
  8
Unknown_Area_Type
  10
384265.000
  20
4622109.000
  0
VERTEX
  8
Unknown_Area_Type
  10
382137.500
  20
4621703.500
  0
VERTEX
  8
Unknown_Area_Type
  10
382134.000
  20
4621703.500
  0
VERTEX
  8
Unknown_Area_Type
  10
382121.000
  20
4621710.000
  0
VERTEX
  8
Unknown_Area_Type
  10
381394.000
  20
4622085.500
  0
VERTEX
  8
Unknown_Area_Type
  10
381136.000
  20
4626388.500
  0
VERTEX
  8
Unknown_Area_Type
  10
381854.000
  20
4626704.500
  0
VERTEX
  8
Unknown_Area_Type
  10
382608.000
  20
4626601.000
  0
VERTEX
  8
Unknown_Area_Type
  10
382610.000
  20
4626601.000
  0
SEQEND
  8
Unknown_Area_Type
  0
INSERT
  8
FeatureAttribs
  2
FEATURE
  41
1
  42
1
  43
1
  50
0
  10
382672.170
  20
4624221.789
 66
1
  0
ATTRIB
  8
FeatureAttribs
 70
0
  1
PNOA-H_AMS_1956-57_33k_ES_PAN_2
  2
NAME
  10
382672.170
  20
4624221.789
 40
33.80955
  0
SEQEND
  0
POLYLINE
  8
Unknown_Area_Type
  70
1
  66
1
  0
VERTEX
  8
Unknown_Area_Type
  10
382610.000
  20
4626601.000
  0
VERTEX
  8
Unknown_Area_Type
  10
382608.000
  20
4626601.000
  0
VERTEX
  8
Unknown_Area_Type
  10
381854.000
  20
4626704.500
  0
VERTEX
  8
Unknown_Area_Type
  10
381136.000
  20
4626388.500
  0
VERTEX
  8
Unknown_Area_Type
  10
381394.000
  20
4622085.500
  0
VERTEX
  8
Unknown_Area_Type
  10
382121.000
  20
4621710.000
  0
VERTEX
  8
Unknown_Area_Type
  10
382134.000
  20
4621703.500
  0
VERTEX
  8
Unknown_Area_Type
  10
382137.500
  20
4621703.500
  0
VERTEX
  8
Unknown_Area_Type
  10
384265.000
  20
4622109.000
  0
VERTEX
  8
Unknown_Area_Type
  10
383955.000
  20
4626417.000
  0
VERTEX
  8
Unknown_Area_Type
  10
382610.000
  20
4626601.000
  0
SEQEND
  8
Unknown_Area_Type
  0
INSERT
  8
FeatureAttribs
  2
FEATURE
  41
1
  42
1
  43
1
  50
0
  10
401278.871
  20
4614826.364
 66
1
  0
ATTRIB
  8
FeatureAttribs
 70
0
  1
PNOA-H_AMS_1956-57_33k_ES_PAN_2
  2
NAME
  10
401278.871
  20
4614826.364
 40
33.80955
  0
SEQEND
  0
POLYLINE
  8
Unknown_Area_Type
  70
1
  66
1
  0
VERTEX
  8
Unknown_Area_Type
  10
401397.099
  20
4616203.955
  0
VERTEX
  8
Unknown_Area_Type
  10
401397.099
  20
4613448.773
  0
VERTEX
  8
Unknown_Area_Type
  10
401143.055
  20
4613448.773
  0
VERTEX
  8
Unknown_Area_Type
  10
401141.656
  20
4613448.792
  0
VERTEX
  8
Unknown_Area_Type
  10
401173.537
  20
4615761.821
  0
VERTEX
  8
Unknown_Area_Type
  10
401175.002
  20
4615868.108
  0
VERTEX
  8
Unknown_Area_Type
  10
401397.099
  20
4616203.955
  0
SEQEND
  8
Unknown_Area_Type
  0
INSERT
  8
FeatureAttribs
  2
FEATURE
  41
1
  42
1
  43
1
  50
0
  10
399974.271
  20
4613459.665
 66
1
  0
ATTRIB
  8
FeatureAttribs
 70
0
  1
PNOA-H_AMS_1956-57_33k_ES_PAN_2
  2
NAME
  10
399974.271
  20
4613459.665
 40
33.80955
  0
SEQEND
  0
POLYLINE
  8
Unknown_Area_Type
  70
1
  66
1
  0
VERTEX
  8
Unknown_Area_Type
  10
399589.494
  20
4613470.557
  0
VERTEX
  8
Unknown_Area_Type
  10
401141.656
  20
4613448.792
  0
VERTEX
  8
Unknown_Area_Type
  10
401141.655
  20
4613448.773
  0
VERTEX
  8
Unknown_Area_Type
  10
399575.088
  20
4613448.773
  0
VERTEX
  8
Unknown_Area_Type
  10
399589.494
  20
4613470.557
  0
SEQEND
  8
Unknown_Area_Type
  0
INSERT
  8
FeatureAttribs
  2
FEATURE
  41
1
  42
1
  43
1
  50
0
  10
401142.005
  20
4613448.783
 66
1
  0
ATTRIB
  8
FeatureAttribs
 70
0
  1
PNOA-H_AMS_1956-57_33k_ES_PAN_2
  2
NAME
  10
401142.005
  20
4613448.783
 40
33.80955
  0
SEQEND
  0
POLYLINE
  8
Unknown_Area_Type
  70
1
  66
1
  0
VERTEX
  8
Unknown_Area_Type
  10
401141.656
  20
4613448.792
  0
VERTEX
  8
Unknown_Area_Type
  10
401143.055
  20
4613448.773
  0
VERTEX
  8
Unknown_Area_Type
  10
401141.655
  20
4613448.773
  0
VERTEX
  8
Unknown_Area_Type
  10
401141.656
  20
4613448.792
  0
SEQEND
  8
Unknown_Area_Type
  0
INSERT
  8
FeatureAttribs
  2
FEATURE
  41
1
  42
1
  43
1
  50
0
  10
400635.384
  20
4614262.486
 66
1
  0
ATTRIB
  8
FeatureAttribs
 70
0
  1
PNOA-H_AMS_1956-57_33k_ES_PAN_2
  2
NAME
  10
400635.384
  20
4614262.486
 40
33.80955
  0
SEQEND
  0
POLYLINE
  8
Unknown_Area_Type
  70
1
  66
1
  0
VERTEX
  8
Unknown_Area_Type
  10
401175.002
  20
4615868.108
  0
VERTEX
  8
Unknown_Area_Type
  10
401173.537
  20
4615761.821
  0
VERTEX
  8
Unknown_Area_Type
  10
401141.656
  20
4613448.792
  0
VERTEX
  8
Unknown_Area_Type
  10
399589.494
  20
4613470.557
  0
VERTEX
  8
Unknown_Area_Type
  10
401175.002
  20
4615868.108
  0
SEQEND
  8
Unknown_Area_Type
  0
INSERT
  8
FeatureAttribs
  2
FEATURE
  41
1
  42
1
  43
1
  50
0
  10
400635.384
  20
4614262.486
 66
1
  0
ATTRIB
  8
FeatureAttribs
 70
0
  1
PNOA-H_AMS_1956-57_33k_ES_PAN_2
  2
NAME
  10
400635.384
  20
4614262.486
 40
33.80955
  0
SEQEND
  0
POLYLINE
  8
Unknown_Area_Type
  70
1
  66
1
  0
VERTEX
  8
Unknown_Area_Type
  10
401175.002
  20
4615868.108
  0
VERTEX
  8
Unknown_Area_Type
  10
399589.494
  20
4613470.557
  0
VERTEX
  8
Unknown_Area_Type
  10
401141.656
  20
4613448.792
  0
VERTEX
  8
Unknown_Area_Type
  10
401173.537
  20
4615761.821
  0
VERTEX
  8
Unknown_Area_Type
  10
401175.002
  20
4615868.108
  0
SEQEND
  8
Unknown_Area_Type
  0
INSERT
  8
FeatureAttribs
  2
FEATURE
  41
1
  42
1
  43
1
  50
0
  10
395038.015
  20
4632207.685
 66
1
  0
ATTRIB
  8
FeatureAttribs
 70
0
  1
PNOA-H_AMS_1956-57_33k_ES_PAN_2
  2
NAME
  10
395038.015
  20
4632207.685
 40
33.80955
  0
SEQEND
  0
POLYLINE
  8
Unknown_Area_Type
  70
1
  66
1
  0
VERTEX
  8
Unknown_Area_Type
  10
396310.813
  20
4632389.666
  0
VERTEX
  8
Unknown_Area_Type
  10
396303.287
  20
4632025.703
  0
VERTEX
  8
Unknown_Area_Type
  10
394477.444
  20
4632052.275
  0
VERTEX
  8
Unknown_Area_Type
  10
393766.292
  20
4632062.970
  0
VERTEX
  8
Unknown_Area_Type
  10
393772.359
  20
4632389.666
  0
VERTEX
  8
Unknown_Area_Type
  10
396310.813
  20
4632389.666
  0
SEQEND
  8
Unknown_Area_Type
  0
INSERT
  8
FeatureAttribs
  2
FEATURE
  41
1
  42
1
  43
1
  50
0
  10
395060.766
  20
4631470.507
 66
1
  0
ATTRIB
  8
FeatureAttribs
 70
0
  1
PNOA-H_AMS_1956-57_33k_ES_PAN_2
  2
NAME
  10
395060.766
  20
4631470.507
 40
33.80955
  0
SEQEND
  0
POLYLINE
  8
Unknown_Area_Type
  70
1
  66
1
  0
VERTEX
  8
Unknown_Area_Type
  10
396303.287
  20
4632025.703
  0
VERTEX
  8
Unknown_Area_Type
  10
396279.500
  20
4630875.500
  0
VERTEX
  8
Unknown_Area_Type
  10
396138.500
  20
4630785.000
  0
VERTEX
  8
Unknown_Area_Type
  10
396135.000
  20
4630784.500
  0
VERTEX
  8
Unknown_Area_Type
  10
393749.000
  20
4631025.500
  0
VERTEX
  8
Unknown_Area_Type
  10
393747.500
  20
4631026.000
  0
VERTEX
  8
Unknown_Area_Type
  10
393747.500
  20
4631051.000
  0
VERTEX
  8
Unknown_Area_Type
  10
393766.292
  20
4632062.970
  0
VERTEX
  8
Unknown_Area_Type
  10
394477.444
  20
4632052.275
  0
VERTEX
  8
Unknown_Area_Type
  10
396303.287
  20
4632025.703
  0
SEQEND
  8
Unknown_Area_Type
  0
INSERT
  8
FeatureAttribs
  2
FEATURE
  41
1
  42
1
  43
1
  50
0
  10
395060.766
  20
4631470.507
 66
1
  0
ATTRIB
  8
FeatureAttribs
 70
0
  1
PNOA-H_AMS_1956-57_33k_ES_PAN_2
  2
NAME
  10
395060.766
  20
4631470.507
 40
33.80955
  0
SEQEND
  0
POLYLINE
  8
Unknown_Area_Type
  70
1
  66
1
  0
VERTEX
  8
Unknown_Area_Type
  10
396303.287
  20
4632025.703
  0
VERTEX
  8
Unknown_Area_Type
  10
394477.444
  20
4632052.275
  0
VERTEX
  8
Unknown_Area_Type
  10
393766.292
  20
4632062.970
  0
VERTEX
  8
Unknown_Area_Type
  10
393747.500
  20
4631051.000
  0
VERTEX
  8
Unknown_Area_Type
  10
393747.500
  20
4631026.000
  0
VERTEX
  8
Unknown_Area_Type
  10
393749.000
  20
4631025.500
  0
VERTEX
  8
Unknown_Area_Type
  10
396135.000
  20
4630784.500
  0
VERTEX
  8
Unknown_Area_Type
  10
396138.500
  20
4630785.000
  0
VERTEX
  8
Unknown_Area_Type
  10
396279.500
  20
4630875.500
  0
VERTEX
  8
Unknown_Area_Type
  10
396303.287
  20
4632025.703
  0
SEQEND
  8
Unknown_Area_Type
  0
INSERT
  8
FeatureAttribs
  2
FEATURE
  41
1
  42
1
  43
1
  50
0
  10
397544.370
  20
4632189.931
 66
1
  0
ATTRIB
  8
FeatureAttribs
 70
0
  1
PNOA-H_AMS_1956-57_33k_ES_PAN_2
  2
NAME
  10
397544.370
  20
4632189.931
 40
33.80955
  0
SEQEND
  0
POLYLINE
  8
Unknown_Area_Type
  70
1
  66
1
  0
VERTEX
  8
Unknown_Area_Type
  10
398793.261
  20
4632389.666
  0
VERTEX
  8
Unknown_Area_Type
  10
398770.853
  20
4631990.196
  0
VERTEX
  8
Unknown_Area_Type
  10
397937.260
  20
4632001.923
  0
VERTEX
  8
Unknown_Area_Type
  10
396303.287
  20
4632025.703
  0
VERTEX
  8
Unknown_Area_Type
  10
396310.813
  20
4632389.666
  0
VERTEX
  8
Unknown_Area_Type
  10
398793.261
  20
4632389.666
  0
SEQEND
  8
Unknown_Area_Type
  0
INSERT
  8
FeatureAttribs
  2
FEATURE
  41
1
  42
1
  43
1
  50
0
  10
397514.644
  20
4631435.129
 66
1
  0
ATTRIB
  8
FeatureAttribs
 70
0
  1
PNOA-H_AMS_1956-57_33k_ES_PAN_2
  2
NAME
  10
397514.644
  20
4631435.129
 40
33.80955
  0
SEQEND
  0
POLYLINE
  8
Unknown_Area_Type
  70
1
  66
1
  0
VERTEX
  8
Unknown_Area_Type
  10
398770.853
  20
4631990.196
  0
VERTEX
  8
Unknown_Area_Type
  10
398706.500
  20
4630843.000
  0
VERTEX
  8
Unknown_Area_Type
  10
396279.500
  20
4630875.500
  0
VERTEX
  8
Unknown_Area_Type
  10
396303.287
  20
4632025.703
  0
VERTEX
  8
Unknown_Area_Type
  10
397937.260
  20
4632001.923
  0
VERTEX
  8
Unknown_Area_Type
  10
398770.853
  20
4631990.196
  0
SEQEND
  8
Unknown_Area_Type
  0
INSERT
  8
FeatureAttribs
  2
FEATURE
  41
1
  42
1
  43
1
  50
0
  10
397514.644
  20
4631435.129
 66
1
  0
ATTRIB
  8
FeatureAttribs
 70
0
  1
PNOA-H_AMS_1956-57_33k_ES_PAN_2
  2
NAME
  10
397514.644
  20
4631435.129
 40
33.80955
  0
SEQEND
  0
POLYLINE
  8
Unknown_Area_Type
  70
1
  66
1
  0
VERTEX
  8
Unknown_Area_Type
  10
398770.853
  20
4631990.196
  0
VERTEX
  8
Unknown_Area_Type
  10
397937.260
  20
4632001.923
  0
VERTEX
  8
Unknown_Area_Type
  10
396303.287
  20
4632025.703
  0
VERTEX
  8
Unknown_Area_Type
  10
396279.500
  20
4630875.500
  0
VERTEX
  8
Unknown_Area_Type
  10
398706.500
  20
4630843.000
  0
VERTEX
  8
Unknown_Area_Type
  10
398770.853
  20
4631990.196
  0
SEQEND
  8
Unknown_Area_Type
  0
INSERT
  8
FeatureAttribs
  2
FEATURE
  41
1
  42
1
  43
1
  50
0
  10
392480.125
  20
4632226.315
 66
1
  0
ATTRIB
  8
FeatureAttribs
 70
0
  1
PNOA-H_AMS_1956-57_33k_ES_PAN_2
  2
NAME
  10
392480.125
  20
4632226.315
 40
33.80955
  0
SEQEND
  0
POLYLINE
  8
Unknown_Area_Type
  70
1
  66
1
  0
VERTEX
  8
Unknown_Area_Type
  10
393772.649
  20
4632389.666
  0
VERTEX
  8
Unknown_Area_Type
  10
393766.624
  20
4632062.965
  0
VERTEX
  8
Unknown_Area_Type
  10
391185.295
  20
4632101.784
  0
VERTEX
  8
Unknown_Area_Type
  10
391197.589
  20
4632389.666
  0
VERTEX
  8
Unknown_Area_Type
  10
393772.649
  20
4632389.666
  0
SEQEND
  8
Unknown_Area_Type
  0
INSERT
  8
FeatureAttribs
  2
FEATURE
  41
1
  42
1
  43
1
  50
0
  10
392494.223
  20
4631507.168
 66
1
  0
ATTRIB
  8
FeatureAttribs
 70
0
  1
PNOA-H_AMS_1956-57_33k_ES_PAN_2
  2
NAME
  10
392494.223
  20
4631507.168
 40
33.80955
  0
SEQEND
  0
POLYLINE
  8
Unknown_Area_Type
  70
1
  66
1
  0
VERTEX
  8
Unknown_Area_Type
  10
393766.624
  20
4632062.965
  0
VERTEX
  8
Unknown_Area_Type
  10
393747.500
  20
4631026.000
  0
VERTEX
  8
Unknown_Area_Type
  10
393352.500
  20
4630800.500
  0
VERTEX
  8
Unknown_Area_Type
  10
391142.000
  20
4631088.000
  0
VERTEX
  8
Unknown_Area_Type
  10
391185.295
  20
4632101.784
  0
VERTEX
  8
Unknown_Area_Type
  10
393766.624
  20
4632062.965
  0
SEQEND
  8
Unknown_Area_Type
  0
INSERT
  8
FeatureAttribs
  2
FEATURE
  41
1
  42
1
  43
1
  50
0
  10
392494.223
  20
4631507.168
 66
1
  0
ATTRIB
  8
FeatureAttribs
 70
0
  1
PNOA-H_AMS_1956-57_33k_ES_PAN_2
  2
NAME
  10
392494.223
  20
4631507.168
 40
33.80955
  0
SEQEND
  0
POLYLINE
  8
Unknown_Area_Type
  70
1
  66
1
  0
VERTEX
  8
Unknown_Area_Type
  10
393766.624
  20
4632062.965
  0
VERTEX
  8
Unknown_Area_Type
  10
391185.295
  20
4632101.784
  0
VERTEX
  8
Unknown_Area_Type
  10
391142.000
  20
4631088.000
  0
VERTEX
  8
Unknown_Area_Type
  10
393352.500
  20
4630800.500
  0
VERTEX
  8
Unknown_Area_Type
  10
393747.500
  20
4631026.000
  0
VERTEX
  8
Unknown_Area_Type
  10
393766.624
  20
4632062.965
  0
SEQEND
  8
Unknown_Area_Type
  0
INSERT
  8
FeatureAttribs
  2
FEATURE
  41
1
  42
1
  43
1
  50
0
  10
387294.641
  20
4632265.863
 66
1
  0
ATTRIB
  8
FeatureAttribs
 70
0
  1
PNOA-H_AMS_1956-57_33k_ES_PAN_2
  2
NAME
  10
387294.641
  20
4632265.863
 40
33.80955
  0
SEQEND
  0
POLYLINE
  8
Unknown_Area_Type
  70
1
  66
1
  0
VERTEX
  8
Unknown_Area_Type
  10
388599.131
  20
4632389.666
  0
VERTEX
  8
Unknown_Area_Type
  10
388585.573
  20
4632142.060
  0
VERTEX
  8
Unknown_Area_Type
  10
387557.792
  20
4632158.016
  0
VERTEX
  8
Unknown_Area_Type
  10
385994.726
  20
4632183.039
  0
VERTEX
  8
Unknown_Area_Type
  10
386000.226
  20
4632389.666
  0
VERTEX
  8
Unknown_Area_Type
  10
388599.131
  20
4632389.666
  0
SEQEND
  8
Unknown_Area_Type
  0
INSERT
  8
FeatureAttribs
  2
FEATURE
  41
1
  42
1
  43
1
  50
0
  10
387313.204
  20
4631619.182
 66
1
  0
ATTRIB
  8
FeatureAttribs
 70
0
  1
PNOA-H_AMS_1956-57_33k_ES_PAN_2
  2
NAME
  10
387313.204
  20
4631619.182
 40
33.80955
  0
SEQEND
  0
POLYLINE
  8
Unknown_Area_Type
  70
1
  66
1
  0
VERTEX
  8
Unknown_Area_Type
  10
388585.573
  20
4632142.060
  0
VERTEX
  8
Unknown_Area_Type
  10
388533.000
  20
4631182.000
  0
VERTEX
  8
Unknown_Area_Type
  10
388034.500
  20
4630911.000
  0
VERTEX
  8
Unknown_Area_Type
  10
385970.500
  20
4631273.000
  0
VERTEX
  8
Unknown_Area_Type
  10
385994.726
  20
4632183.039
  0
VERTEX
  8
Unknown_Area_Type
  10
387557.792
  20
4632158.016
  0
VERTEX
  8
Unknown_Area_Type
  10
388585.573
  20
4632142.060
  0
SEQEND
  8
Unknown_Area_Type
  0
INSERT
  8
FeatureAttribs
  2
FEATURE
  41
1
  42
1
  43
1
  50
0
  10
387313.204
  20
4631619.182
 66
1
  0
ATTRIB
  8
FeatureAttribs
 70
0
  1
PNOA-H_AMS_1956-57_33k_ES_PAN_2
  2
NAME
  10
387313.204
  20
4631619.182
 40
33.80955
  0
SEQEND
  0
POLYLINE
  8
Unknown_Area_Type
  70
1
  66
1
  0
VERTEX
  8
Unknown_Area_Type
  10
388585.573
  20
4632142.060
  0
VERTEX
  8
Unknown_Area_Type
  10
387557.792
  20
4632158.016
  0
VERTEX
  8
Unknown_Area_Type
  10
385994.726
  20
4632183.039
  0
VERTEX
  8
Unknown_Area_Type
  10
385970.500
  20
4631273.000
  0
VERTEX
  8
Unknown_Area_Type
  10
388034.500
  20
4630911.000
  0
VERTEX
  8
Unknown_Area_Type
  10
388533.000
  20
4631182.000
  0
VERTEX
  8
Unknown_Area_Type
  10
388585.573
  20
4632142.060
  0
SEQEND
  8
Unknown_Area_Type
  0
INSERT
  8
FeatureAttribs
  2
FEATURE
  41
1
  42
1
  43
1
  50
0
  10
400021.351
  20
4632172.514
 66
1
  0
ATTRIB
  8
FeatureAttribs
 70
0
  1
PNOA-H_AMS_1956-57_33k_ES_PAN_2
  2
NAME
  10
400021.351
  20
4632172.514
 40
33.80955
  0
SEQEND
  0
POLYLINE
  8
Unknown_Area_Type
  70
1
  66
1
  0
VERTEX
  8
Unknown_Area_Type
  10
401276.367
  20
4632389.666
  0
VERTEX
  8
Unknown_Area_Type
  10
401247.006
  20
4631955.362
  0
VERTEX
  8
Unknown_Area_Type
  10
398770.802
  20
4631990.197
  0
VERTEX
  8
Unknown_Area_Type
  10
398793.183
  20
4632389.666
  0
VERTEX
  8
Unknown_Area_Type
  10
401276.367
  20
4632389.666
  0
SEQEND
  8
Unknown_Area_Type
  0
INSERT
  8
FeatureAttribs
  2
FEATURE
  41
1
  42
1
  43
1
  50
0
  10
399928.083
  20
4631340.869
 66
1
  0
ATTRIB
  8
FeatureAttribs
 70
0
  1
PNOA-H_AMS_1956-57_33k_ES_PAN_2
  2
NAME
  10
399928.083
  20
4631340.869
 40
33.80955
  0
SEQEND
  0
POLYLINE
  8
Unknown_Area_Type
  70
1
  66
1
  0
VERTEX
  8
Unknown_Area_Type
  10
401247.006
  20
4631955.362
  0
VERTEX
  8
Unknown_Area_Type
  10
401174.000
  20
4630875.500
  0
VERTEX
  8
Unknown_Area_Type
  10
399118.000
  20
4630558.500
  0
VERTEX
  8
Unknown_Area_Type
  10
398706.500
  20
4630842.500
  0
VERTEX
  8
Unknown_Area_Type
  10
398770.802
  20
4631990.197
  0
VERTEX
  8
Unknown_Area_Type
  10
401247.006
  20
4631955.362
  0
SEQEND
  8
Unknown_Area_Type
  0
INSERT
  8
FeatureAttribs
  2
FEATURE
  41
1
  42
1
  43
1
  50
0
  10
399928.083
  20
4631340.869
 66
1
  0
ATTRIB
  8
FeatureAttribs
 70
0
  1
PNOA-H_AMS_1956-57_33k_ES_PAN_2
  2
NAME
  10
399928.083
  20
4631340.869
 40
33.80955
  0
SEQEND
  0
POLYLINE
  8
Unknown_Area_Type
  70
1
  66
1
  0
VERTEX
  8
Unknown_Area_Type
  10
401247.006
  20
4631955.362
  0
VERTEX
  8
Unknown_Area_Type
  10
398770.802
  20
4631990.197
  0
VERTEX
  8
Unknown_Area_Type
  10
398706.500
  20
4630842.500
  0
VERTEX
  8
Unknown_Area_Type
  10
399118.000
  20
4630558.500
  0
VERTEX
  8
Unknown_Area_Type
  10
401174.000
  20
4630875.500
  0
VERTEX
  8
Unknown_Area_Type
  10
401247.006
  20
4631955.362
  0
SEQEND
  8
Unknown_Area_Type
  0
INSERT
  8
FeatureAttribs
  2
FEATURE
  41
1
  42
1
  43
1
  50
0
  10
384702.574
  20
4632286.353
 66
1
  0
ATTRIB
  8
FeatureAttribs
 70
0
  1
PNOA-H_AMS_1956-57_33k_ES_PAN_2
  2
NAME
  10
384702.574
  20
4632286.353
 40
33.80955
  0
SEQEND
  0
POLYLINE
  8
Unknown_Area_Type
  70
1
  66
1
  0
VERTEX
  8
Unknown_Area_Type
  10
386000.226
  20
4632389.666
  0
VERTEX
  8
Unknown_Area_Type
  10
385994.726
  20
4632183.039
  0
VERTEX
  8
Unknown_Area_Type
  10
384097.956
  20
4632213.405
  0
VERTEX
  8
Unknown_Area_Type
  10
383406.823
  20
4632224.804
  0
VERTEX
  8
Unknown_Area_Type
  10
383409.097
  20
4632389.666
  0
VERTEX
  8
Unknown_Area_Type
  10
386000.226
  20
4632389.666
  0
SEQEND
  8
Unknown_Area_Type
  0
INSERT
  8
FeatureAttribs
  2
FEATURE
  41
1
  42
1
  43
1
  50
0
  10
384734.522
  20
4631643.277
 66
1
  0
ATTRIB
  8
FeatureAttribs
 70
0
  1
PNOA-H_AMS_1956-57_33k_ES_PAN_2
  2
NAME
  10
384734.522
  20
4631643.277
 40
33.80955
  0
SEQEND
  0
POLYLINE
  8
Unknown_Area_Type
  70
1
  66
1
  0
VERTEX
  8
Unknown_Area_Type
  10
385994.726
  20
4632183.039
  0
VERTEX
  8
Unknown_Area_Type
  10
385970.500
  20
4631273.000
  0
VERTEX
  8
Unknown_Area_Type
  10
385075.500
  20
4630853.500
  0
VERTEX
  8
Unknown_Area_Type
  10
385060.500
  20
4630847.500
  0
VERTEX
  8
Unknown_Area_Type
  10
383395.500
  20
4631404.000
  0
VERTEX
  8
Unknown_Area_Type
  10
383406.823
  20
4632224.804
  0
VERTEX
  8
Unknown_Area_Type
  10
384097.956
  20
4632213.405
  0
VERTEX
  8
Unknown_Area_Type
  10
385994.726
  20
4632183.039
  0
SEQEND
  8
Unknown_Area_Type
  0
INSERT
  8
FeatureAttribs
  2
FEATURE
  41
1
  42
1
  43
1
  50
0
  10
384734.522
  20
4631643.277
 66
1
  0
ATTRIB
  8
FeatureAttribs
 70
0
  1
PNOA-H_AMS_1956-57_33k_ES_PAN_2
  2
NAME
  10
384734.522
  20
4631643.277
 40
33.80955
  0
SEQEND
  0
POLYLINE
  8
Unknown_Area_Type
  70
1
  66
1
  0
VERTEX
  8
Unknown_Area_Type
  10
385994.726
  20
4632183.039
  0
VERTEX
  8
Unknown_Area_Type
  10
384097.956
  20
4632213.405
  0
VERTEX
  8
Unknown_Area_Type
  10
383406.823
  20
4632224.804
  0
VERTEX
  8
Unknown_Area_Type
  10
383395.500
  20
4631404.000
  0
VERTEX
  8
Unknown_Area_Type
  10
385060.500
  20
4630847.500
  0
VERTEX
  8
Unknown_Area_Type
  10
385075.500
  20
4630853.500
  0
VERTEX
  8
Unknown_Area_Type
  10
385970.500
  20
4631273.000
  0
VERTEX
  8
Unknown_Area_Type
  10
385994.726
  20
4632183.039
  0
SEQEND
  8
Unknown_Area_Type
  0
INSERT
  8
FeatureAttribs
  2
FEATURE
  41
1
  42
1
  43
1
  50
0
  10
382112.959
  20
4632307.235
 66
1
  0
ATTRIB
  8
FeatureAttribs
 70
0
  1
PNOA-H_AMS_1956-57_33k_ES_PAN_2
  2
NAME
  10
382112.959
  20
4632307.235
 40
33.80955
  0
SEQEND
  0
POLYLINE
  8
Unknown_Area_Type
  70
1
  66
1
  0
VERTEX
  8
Unknown_Area_Type
  10
383409.099
  20
4632389.666
  0
VERTEX
  8
Unknown_Area_Type
  10
383406.824
  20
4632224.804
  0
VERTEX
  8
Unknown_Area_Type
  10
380816.999
  20
4632267.522
  0
VERTEX
  8
Unknown_Area_Type
  10
380819.946
  20
4632389.666
  0
VERTEX
  8
Unknown_Area_Type
  10
383409.099
  20
4632389.666
  0
SEQEND
  8
Unknown_Area_Type
  0
INSERT
  8
FeatureAttribs
  2
FEATURE
  41
1
  42
1
  43
1
  50
0
  10
382074.442
  20
4631694.193
 66
1
  0
ATTRIB
  8
FeatureAttribs
 70
0
  1
PNOA-H_AMS_1956-57_33k_ES_PAN_2
  2
NAME
  10
382074.442
  20
4631694.193
 40
33.80955
  0
SEQEND
  0
POLYLINE
  8
Unknown_Area_Type
  70
1
  66
1
  0
VERTEX
  8
Unknown_Area_Type
  10
383406.824
  20
4632224.804
  0
VERTEX
  8
Unknown_Area_Type
  10
383395.500
  20
4631404.000
  0
VERTEX
  8
Unknown_Area_Type
  10
381856.000
  20
4630920.000
  0
VERTEX
  8
Unknown_Area_Type
  10
380796.000
  20
4631397.000
  0
VERTEX
  8
Unknown_Area_Type
  10
380816.999
  20
4632267.522
  0
VERTEX
  8
Unknown_Area_Type
  10
383406.824
  20
4632224.804
  0
SEQEND
  8
Unknown_Area_Type
  0
INSERT
  8
FeatureAttribs
  2
FEATURE
  41
1
  42
1
  43
1
  50
0
  10
382074.442
  20
4631694.193
 66
1
  0
ATTRIB
  8
FeatureAttribs
 70
0
  1
PNOA-H_AMS_1956-57_33k_ES_PAN_2
  2
NAME
  10
382074.442
  20
4631694.193
 40
33.80955
  0
SEQEND
  0
POLYLINE
  8
Unknown_Area_Type
  70
1
  66
1
  0
VERTEX
  8
Unknown_Area_Type
  10
383406.824
  20
4632224.804
  0
VERTEX
  8
Unknown_Area_Type
  10
380816.999
  20
4632267.522
  0
VERTEX
  8
Unknown_Area_Type
  10
380796.000
  20
4631397.000
  0
VERTEX
  8
Unknown_Area_Type
  10
381856.000
  20
4630920.000
  0
VERTEX
  8
Unknown_Area_Type
  10
383395.500
  20
4631404.000
  0
VERTEX
  8
Unknown_Area_Type
  10
383406.824
  20
4632224.804
  0
SEQEND
  8
Unknown_Area_Type
  0
INSERT
  8
FeatureAttribs
  2
FEATURE
  41
1
  42
1
  43
1
  50
0
  10
389891.454
  20
4632245.723
 66
1
  0
ATTRIB
  8
FeatureAttribs
 70
0
  1
PNOA-H_AMS_1956-57_33k_ES_PAN_2
  2
NAME
  10
389891.454
  20
4632245.723
 40
33.80955
  0
SEQEND
  0
POLYLINE
  8
Unknown_Area_Type
  70
1
  66
1
  0
VERTEX
  8
Unknown_Area_Type
  10
391197.899
  20
4632389.666
  0
VERTEX
  8
Unknown_Area_Type
  10
391185.642
  20
4632101.779
  0
VERTEX
  8
Unknown_Area_Type
  10
391017.621
  20
4632104.306
  0
VERTEX
  8
Unknown_Area_Type
  10
388585.472
  20
4632142.062
  0
VERTEX
  8
Unknown_Area_Type
  10
388599.005
  20
4632389.666
  0
VERTEX
  8
Unknown_Area_Type
  10
391197.899
  20
4632389.666
  0
SEQEND
  8
Unknown_Area_Type
  0
INSERT
  8
FeatureAttribs
  2
FEATURE
  41
1
  42
1
  43
1
  50
0
  10
389898.340
  20
4631578.568
 66
1
  0
ATTRIB
  8
FeatureAttribs
 70
0
  1
PNOA-H_AMS_1956-57_33k_ES_PAN_2
  2
NAME
  10
389898.340
  20
4631578.568
 40
33.80955
  0
SEQEND
  0
POLYLINE
  8
Unknown_Area_Type
  70
1
  66
1
  0
VERTEX
  8
Unknown_Area_Type
  10
391185.642
  20
4632101.779
  0
VERTEX
  8
Unknown_Area_Type
  10
391142.500
  20
4631088.500
  0
VERTEX
  8
Unknown_Area_Type
  10
390809.000
  20
4630912.500
  0
VERTEX
  8
Unknown_Area_Type
  10
388533.000
  20
4631182.000
  0
VERTEX
  8
Unknown_Area_Type
  10
388585.472
  20
4632142.062
  0
VERTEX
  8
Unknown_Area_Type
  10
391017.621
  20
4632104.306
  0
VERTEX
  8
Unknown_Area_Type
  10
391185.642
  20
4632101.779
  0
SEQEND
  8
Unknown_Area_Type
  0
INSERT
  8
FeatureAttribs
  2
FEATURE
  41
1
  42
1
  43
1
  50
0
  10
389898.340
  20
4631578.568
 66
1
  0
ATTRIB
  8
FeatureAttribs
 70
0
  1
PNOA-H_AMS_1956-57_33k_ES_PAN_2
  2
NAME
  10
389898.340
  20
4631578.568
 40
33.80955
  0
SEQEND
  0
POLYLINE
  8
Unknown_Area_Type
  70
1
  66
1
  0
VERTEX
  8
Unknown_Area_Type
  10
391185.642
  20
4632101.779
  0
VERTEX
  8
Unknown_Area_Type
  10
391017.621
  20
4632104.306
  0
VERTEX
  8
Unknown_Area_Type
  10
388585.472
  20
4632142.062
  0
VERTEX
  8
Unknown_Area_Type
  10
388533.000
  20
4631182.000
  0
VERTEX
  8
Unknown_Area_Type
  10
390809.000
  20
4630912.500
  0
VERTEX
  8
Unknown_Area_Type
  10
391142.500
  20
4631088.500
  0
VERTEX
  8
Unknown_Area_Type
  10
391185.642
  20
4632101.779
  0
SEQEND
  8
Unknown_Area_Type
  0
INSERT
  8
FeatureAttribs
  2
FEATURE
  41
1
  42
1
  43
1
  50
0
  10
377075.117
  20
4632350.741
 66
1
  0
ATTRIB
  8
FeatureAttribs
 70
0
  1
PNOA-H_AMS_1956-57_33k_ES_PAN_2
  2
NAME
  10
377075.117
  20
4632350.741
 40
33.80955
  0
SEQEND
  0
POLYLINE
  8
Unknown_Area_Type
  70
1
  66
1
  0
VERTEX
  8
Unknown_Area_Type
  10
378205.147
  20
4632389.666
  0
VERTEX
  8
Unknown_Area_Type
  10
378203.241
  20
4632311.816
  0
VERTEX
  8
Unknown_Area_Type
  10
377178.263
  20
4632329.220
  0
VERTEX
  8
Unknown_Area_Type
  10
375583.925
  20
4632357.066
  0
VERTEX
  8
Unknown_Area_Type
  10
375584.816
  20
4632389.666
  0
VERTEX
  8
Unknown_Area_Type
  10
378205.147
  20
4632389.666
  0
SEQEND
  8
Unknown_Area_Type
  0
INSERT
  8
FeatureAttribs
  2
FEATURE
  41
1
  42
1
  43
1
  50
0
  10
376824.954
  20
4631790.255
 66
1
  0
ATTRIB
  8
FeatureAttribs
 70
0
  1
PNOA-H_AMS_1956-57_33k_ES_PAN_2
  2
NAME
  10
376824.954
  20
4631790.255
 40
33.80955
  0
SEQEND
  0
POLYLINE
  8
Unknown_Area_Type
  70
1
  66
1
  0
VERTEX
  8
Unknown_Area_Type
  10
378203.241
  20
4632311.816
  0
VERTEX
  8
Unknown_Area_Type
  10
378181.500
  20
4631424.000
  0
VERTEX
  8
Unknown_Area_Type
  10
376081.500
  20
4631095.500
  0
VERTEX
  8
Unknown_Area_Type
  10
376075.500
  20
4631097.000
  0
VERTEX
  8
Unknown_Area_Type
  10
375557.000
  20
4631371.000
  0
VERTEX
  8
Unknown_Area_Type
  10
375583.925
  20
4632357.066
  0
VERTEX
  8
Unknown_Area_Type
  10
377178.263
  20
4632329.220
  0
VERTEX
  8
Unknown_Area_Type
  10
378203.241
  20
4632311.816
  0
SEQEND
  8
Unknown_Area_Type
  0
INSERT
  8
FeatureAttribs
  2
FEATURE
  41
1
  42
1
  43
1
  50
0
  10
376824.954
  20
4631790.255
 66
1
  0
ATTRIB
  8
FeatureAttribs
 70
0
  1
PNOA-H_AMS_1956-57_33k_ES_PAN_2
  2
NAME
  10
376824.954
  20
4631790.255
 40
33.80955
  0
SEQEND
  0
POLYLINE
  8
Unknown_Area_Type
  70
1
  66
1
  0
VERTEX
  8
Unknown_Area_Type
  10
378203.241
  20
4632311.816
  0
VERTEX
  8
Unknown_Area_Type
  10
377178.263
  20
4632329.220
  0
VERTEX
  8
Unknown_Area_Type
  10
375583.925
  20
4632357.066
  0
VERTEX
  8
Unknown_Area_Type
  10
375557.000
  20
4631371.000
  0
VERTEX
  8
Unknown_Area_Type
  10
376075.500
  20
4631097.000
  0
VERTEX
  8
Unknown_Area_Type
  10
376081.500
  20
4631095.500
  0
VERTEX
  8
Unknown_Area_Type
  10
378181.500
  20
4631424.000
  0
VERTEX
  8
Unknown_Area_Type
  10
378203.241
  20
4632311.816
  0
SEQEND
  8
Unknown_Area_Type
  0
INSERT
  8
FeatureAttribs
  2
FEATURE
  41
1
  42
1
  43
1
  50
0
  10
373718.142
  20
4632389.657
 66
1
  0
ATTRIB
  8
FeatureAttribs
 70
0
  1
PNOA-H_AMS_1956-57_33k_ES_PAN_2
  2
NAME
  10
373718.142
  20
4632389.657
 40
33.80955
  0
SEQEND
  0
POLYLINE
  8
Unknown_Area_Type
  70
1
  66
1
  0
VERTEX
  8
Unknown_Area_Type
  10
373718.407
  20
4632389.666
  0
VERTEX
  8
Unknown_Area_Type
  10
373718.406
  20
4632389.647
  0
VERTEX
  8
Unknown_Area_Type
  10
373717.351
  20
4632389.666
  0
VERTEX
  8
Unknown_Area_Type
  10
373718.407
  20
4632389.666
  0
SEQEND
  8
Unknown_Area_Type
  0
INSERT
  8
FeatureAttribs
  2
FEATURE
  41
1
  42
1
  43
1
  50
0
  10
375117.497
  20
4632373.366
 66
1
  0
ATTRIB
  8
FeatureAttribs
 70
0
  1
PNOA-H_AMS_1956-57_33k_ES_PAN_2
  2
NAME
  10
375117.497
  20
4632373.366
 40
33.80955
  0
SEQEND
  0
POLYLINE
  8
Unknown_Area_Type
  70
1
  66
1
  0
VERTEX
  8
Unknown_Area_Type
  10
375584.816
  20
4632389.666
  0
VERTEX
  8
Unknown_Area_Type
  10
375583.925
  20
4632357.066
  0
VERTEX
  8
Unknown_Area_Type
  10
373718.406
  20
4632389.647
  0
VERTEX
  8
Unknown_Area_Type
  10
373718.407
  20
4632389.666
  0
VERTEX
  8
Unknown_Area_Type
  10
375584.816
  20
4632389.666
  0
SEQEND
  8
Unknown_Area_Type
  0
INSERT
  8
FeatureAttribs
  2
FEATURE
  41
1
  42
1
  43
1
  50
0
  10
373549.471
  20
4631785.510
 66
1
  0
ATTRIB
  8
FeatureAttribs
 70
0
  1
PNOA-H_AMS_1956-57_33k_ES_PAN_2
  2
NAME
  10
373549.471
  20
4631785.510
 40
33.80955
  0
SEQEND
  0
POLYLINE
  8
Unknown_Area_Type
  70
1
  66
1
  0
VERTEX
  8
Unknown_Area_Type
  10
373697.489
  20
4631208.171
  0
VERTEX
  8
Unknown_Area_Type
  10
373391.232
  20
4631181.354
  0
VERTEX
  8
Unknown_Area_Type
  10
373391.232
  20
4632389.666
  0
VERTEX
  8
Unknown_Area_Type
  10
373717.351
  20
4632389.666
  0
VERTEX
  8
Unknown_Area_Type
  10
373718.406
  20
4632389.647
  0
VERTEX
  8
Unknown_Area_Type
  10
373697.489
  20
4631208.171
  0
SEQEND
  8
Unknown_Area_Type
  0
INSERT
  8
FeatureAttribs
  2
FEATURE
  41
1
  42
1
  43
1
  50
0
  10
374611.179
  20
4631830.992
 66
1
  0
ATTRIB
  8
FeatureAttribs
 70
0
  1
PNOA-H_AMS_1956-57_33k_ES_PAN_2
  2
NAME
  10
374611.179
  20
4631830.992
 40
33.80955
  0
SEQEND
  0
POLYLINE
  8
Unknown_Area_Type
  70
1
  66
1
  0
VERTEX
  8
Unknown_Area_Type
  10
375583.925
  20
4632357.066
  0
VERTEX
  8
Unknown_Area_Type
  10
375557.000
  20
4631371.000
  0
VERTEX
  8
Unknown_Area_Type
  10
373697.489
  20
4631208.171
  0
VERTEX
  8
Unknown_Area_Type
  10
373718.406
  20
4632389.647
  0
VERTEX
  8
Unknown_Area_Type
  10
375583.925
  20
4632357.066
  0
SEQEND
  8
Unknown_Area_Type
  0
INSERT
  8
FeatureAttribs
  2
FEATURE
  41
1
  42
1
  43
1
  50
0
  10
374611.179
  20
4631830.992
 66
1
  0
ATTRIB
  8
FeatureAttribs
 70
0
  1
PNOA-H_AMS_1956-57_33k_ES_PAN_2
  2
NAME
  10
374611.179
  20
4631830.992
 40
33.80955
  0
SEQEND
  0
POLYLINE
  8
Unknown_Area_Type
  70
1
  66
1
  0
VERTEX
  8
Unknown_Area_Type
  10
375583.925
  20
4632357.066
  0
VERTEX
  8
Unknown_Area_Type
  10
373718.406
  20
4632389.647
  0
VERTEX
  8
Unknown_Area_Type
  10
373697.489
  20
4631208.171
  0
VERTEX
  8
Unknown_Area_Type
  10
375557.000
  20
4631371.000
  0
VERTEX
  8
Unknown_Area_Type
  10
375583.925
  20
4632357.066
  0
SEQEND
  8
Unknown_Area_Type
  0
INSERT
  8
FeatureAttribs
  2
FEATURE
  41
1
  42
1
  43
1
  50
0
  10
379511.163
  20
4632328.593
 66
1
  0
ATTRIB
  8
FeatureAttribs
 70
0
  1
PNOA-H_AMS_1956-57_33k_ES_PAN_2
  2
NAME
  10
379511.163
  20
4632328.593
 40
33.80955
  0
SEQEND
  0
POLYLINE
  8
Unknown_Area_Type
  70
1
  66
1
  0
VERTEX
  8
Unknown_Area_Type
  10
380820.069
  20
4632389.666
  0
VERTEX
  8
Unknown_Area_Type
  10
380817.108
  20
4632267.520
  0
VERTEX
  8
Unknown_Area_Type
  10
380638.113
  20
4632270.473
  0
VERTEX
  8
Unknown_Area_Type
  10
378203.325
  20
4632311.815
  0
VERTEX
  8
Unknown_Area_Type
  10
378205.237
  20
4632389.666
  0
VERTEX
  8
Unknown_Area_Type
  10
380820.069
  20
4632389.666
  0
SEQEND
  8
Unknown_Area_Type
  0
INSERT
  8
FeatureAttribs
  2
FEATURE
  41
1
  42
1
  43
1
  50
0
  10
379462.369
  20
4631752.655
 66
1
  0
ATTRIB
  8
FeatureAttribs
 70
0
  1
PNOA-H_AMS_1956-57_33k_ES_PAN_2
  2
NAME
  10
379462.369
  20
4631752.655
 40
33.80955
  0
SEQEND
  0
POLYLINE
  8
Unknown_Area_Type
  70
1
  66
1
  0
VERTEX
  8
Unknown_Area_Type
  10
380817.108
  20
4632267.520
  0
VERTEX
  8
Unknown_Area_Type
  10
380796.000
  20
4631397.000
  0
VERTEX
  8
Unknown_Area_Type
  10
378942.500
  20
4631046.500
  0
VERTEX
  8
Unknown_Area_Type
  10
378181.500
  20
4631423.500
  0
VERTEX
  8
Unknown_Area_Type
  10
378203.325
  20
4632311.815
  0
VERTEX
  8
Unknown_Area_Type
  10
380638.113
  20
4632270.473
  0
VERTEX
  8
Unknown_Area_Type
  10
380817.108
  20
4632267.520
  0
SEQEND
  8
Unknown_Area_Type
  0
INSERT
  8
FeatureAttribs
  2
FEATURE
  41
1
  42
1
  43
1
  50
0
  10
379462.369
  20
4631752.655
 66
1
  0
ATTRIB
  8
FeatureAttribs
 70
0
  1
PNOA-H_AMS_1956-57_33k_ES_PAN_2
  2
NAME
  10
379462.369
  20
4631752.655
 40
33.80955
  0
SEQEND
  0
POLYLINE
  8
Unknown_Area_Type
  70
1
  66
1
  0
VERTEX
  8
Unknown_Area_Type
  10
380817.108
  20
4632267.520
  0
VERTEX
  8
Unknown_Area_Type
  10
380638.113
  20
4632270.473
  0
VERTEX
  8
Unknown_Area_Type
  10
378203.325
  20
4632311.815
  0
VERTEX
  8
Unknown_Area_Type
  10
378181.500
  20
4631423.500
  0
VERTEX
  8
Unknown_Area_Type
  10
378942.500
  20
4631046.500
  0
VERTEX
  8
Unknown_Area_Type
  10
380796.000
  20
4631397.000
  0
VERTEX
  8
Unknown_Area_Type
  10
380817.108
  20
4632267.520
  0
SEQEND
  8
Unknown_Area_Type
  0
INSERT
  8
FeatureAttribs
  2
FEATURE
  41
1
  42
1
  43
1
  50
0
  10
401329.363
  20
4632171.458
 66
1
  0
ATTRIB
  8
FeatureAttribs
 70
0
  1
PNOA-H_AMS_1956-57_33k_ES_PAN_2
  2
NAME
  10
401329.363
  20
4632171.458
 40
33.80955
  0
SEQEND
  0
POLYLINE
  8
Unknown_Area_Type
  70
1
  66
1
  0
VERTEX
  8
Unknown_Area_Type
  10
401276.382
  20
4632389.666
  0
VERTEX
  8
Unknown_Area_Type
  10
401397.099
  20
4632389.666
  0
VERTEX
  8
Unknown_Area_Type
  10
401397.099
  20
4631955.276
  0
VERTEX
  8
Unknown_Area_Type
  10
401397.071
  20
4631953.251
  0
VERTEX
  8
Unknown_Area_Type
  10
401247.016
  20
4631955.362
  0
VERTEX
  8
Unknown_Area_Type
  10
401276.382
  20
4632389.666
  0
SEQEND
  8
Unknown_Area_Type
  0
INSERT
  8
FeatureAttribs
  2
FEATURE
  41
1
  42
1
  43
1
  50
0
  10
401397.085
  20
4631953.757
 66
1
  0
ATTRIB
  8
FeatureAttribs
 70
0
  1
PNOA-H_AMS_1956-57_33k_ES_PAN_2
  2
NAME
  10
401397.085
  20
4631953.757
 40
33.80955
  0
SEQEND
  0
POLYLINE
  8
Unknown_Area_Type
  70
1
  66
1
  0
VERTEX
  8
Unknown_Area_Type
  10
401397.099
  20
4631955.276
  0
VERTEX
  8
Unknown_Area_Type
  10
401397.099
  20
4631953.250
  0
VERTEX
  8
Unknown_Area_Type
  10
401397.071
  20
4631953.251
  0
VERTEX
  8
Unknown_Area_Type
  10
401397.099
  20
4631955.276
  0
SEQEND
  8
Unknown_Area_Type
  0
INSERT
  8
FeatureAttribs
  2
FEATURE
  41
1
  42
1
  43
1
  50
0
  10
401392.948
  20
4631354.671
 66
1
  0
ATTRIB
  8
FeatureAttribs
 70
0
  1
PNOA-H_AMS_1956-57_33k_ES_PAN_2
  2
NAME
  10
401392.948
  20
4631354.671
 40
33.80955
  0
SEQEND
  0
POLYLINE
  8
Unknown_Area_Type
  70
1
  66
1
  0
VERTEX
  8
Unknown_Area_Type
  10
401397.099
  20
4630756.092
  0
VERTEX
  8
Unknown_Area_Type
  10
401380.645
  20
4630764.899
  0
VERTEX
  8
Unknown_Area_Type
  10
401397.071
  20
4631953.251
  0
VERTEX
  8
Unknown_Area_Type
  10
401397.099
  20
4631953.250
  0
VERTEX
  8
Unknown_Area_Type
  10
401397.099
  20
4630756.092
  0
SEQEND
  8
Unknown_Area_Type
  0
INSERT
  8
FeatureAttribs
  2
FEATURE
  41
1
  42
1
  43
1
  50
0
  10
401299.600
  20
4631355.025
 66
1
  0
ATTRIB
  8
FeatureAttribs
 70
0
  1
PNOA-H_AMS_1956-57_33k_ES_PAN_2
  2
NAME
  10
401299.600
  20
4631355.025
 40
33.80955
  0
SEQEND
  0
POLYLINE
  8
Unknown_Area_Type
  70
1
  66
1
  0
VERTEX
  8
Unknown_Area_Type
  10
401380.645
  20
4630764.899
  0
VERTEX
  8
Unknown_Area_Type
  10
401174.000
  20
4630875.500
  0
VERTEX
  8
Unknown_Area_Type
  10
401247.016
  20
4631955.362
  0
VERTEX
  8
Unknown_Area_Type
  10
401397.071
  20
4631953.251
  0
VERTEX
  8
Unknown_Area_Type
  10
401380.645
  20
4630764.899
  0
SEQEND
  8
Unknown_Area_Type
  0
INSERT
  8
FeatureAttribs
  2
FEATURE
  41
1
  42
1
  43
1
  50
0
  10
401299.600
  20
4631355.025
 66
1
  0
ATTRIB
  8
FeatureAttribs
 70
0
  1
PNOA-H_AMS_1956-57_33k_ES_PAN_2
  2
NAME
  10
401299.600
  20
4631355.025
 40
33.80955
  0
SEQEND
  0
POLYLINE
  8
Unknown_Area_Type
  70
1
  66
1
  0
VERTEX
  8
Unknown_Area_Type
  10
401380.645
  20
4630764.899
  0
VERTEX
  8
Unknown_Area_Type
  10
401397.071
  20
4631953.251
  0
VERTEX
  8
Unknown_Area_Type
  10
401247.016
  20
4631955.362
  0
VERTEX
  8
Unknown_Area_Type
  10
401174.000
  20
4630875.500
  0
VERTEX
  8
Unknown_Area_Type
  10
401380.645
  20
4630764.899
  0
SEQEND
  8
Unknown_Area_Type
  0
INSERT
  8
FeatureAttribs
  2
FEATURE
  41
1
  42
1
  43
1
  50
0
  10
373409.207
  20
4615919.665
 66
1
  0
ATTRIB
  8
FeatureAttribs
 70
0
  1
PNOA-H_AMS_1956-57_33k_ES_PAN_2
  2
NAME
  10
373409.207
  20
4615919.665
 40
33.80955
  0
SEQEND
  0
POLYLINE
  8
Unknown_Area_Type
  70
1
  66
1
  0
VERTEX
  8
Unknown_Area_Type
  10
373463.047
  20
4617950.561
  0
VERTEX
  8
Unknown_Area_Type
  10
373432.094
  20
4616197.962
  0
VERTEX
  8
Unknown_Area_Type
  10
373391.260
  20
4613884.896
  0
VERTEX
  8
Unknown_Area_Type
  10
373391.232
  20
4613884.896
  0
VERTEX
  8
Unknown_Area_Type
  10
373391.232
  20
4617954.434
  0
VERTEX
  8
Unknown_Area_Type
  10
373463.047
  20
4617950.561
  0
SEQEND
  8
Unknown_Area_Type
  0
INSERT
  8
FeatureAttribs
  2
FEATURE
  41
1
  42
1
  43
1
  50
0
  10
373391.246
  20
4613884.499
 66
1
  0
ATTRIB
  8
FeatureAttribs
 70
0
  1
PNOA-H_AMS_1956-57_33k_ES_PAN_2
  2
NAME
  10
373391.246
  20
4613884.499
 40
33.80955
  0
SEQEND
  0
POLYLINE
  8
Unknown_Area_Type
  70
1
  66
1
  0
VERTEX
  8
Unknown_Area_Type
  10
373391.232
  20
4613884.896
  0
VERTEX
  8
Unknown_Area_Type
  10
373391.260
  20
4613884.896
  0
VERTEX
  8
Unknown_Area_Type
  10
373391.232
  20
4613883.309
  0
VERTEX
  8
Unknown_Area_Type
  10
373391.232
  20
4613884.896
  0
SEQEND
  8
Unknown_Area_Type
  0
INSERT
  8
FeatureAttribs
  2
FEATURE
  41
1
  42
1
  43
1
  50
0
  10
374754.439
  20
4613772.448
 66
1
  0
ATTRIB
  8
FeatureAttribs
 70
0
  1
PNOA-H_AMS_1956-57_33k_ES_PAN_2
  2
NAME
  10
374754.439
  20
4613772.448
 40
33.80955
  0
SEQEND
  0
POLYLINE
  8
Unknown_Area_Type
  70
1
  66
1
  0
VERTEX
  8
Unknown_Area_Type
  10
376119.022
  20
4613837.410
  0
VERTEX
  8
Unknown_Area_Type
  10
376115.265
  20
4613660.000
  0
VERTEX
  8
Unknown_Area_Type
  10
373391.232
  20
4613660.000
  0
VERTEX
  8
Unknown_Area_Type
  10
373391.232
  20
4613883.309
  0
VERTEX
  8
Unknown_Area_Type
  10
373391.260
  20
4613884.896
  0
VERTEX
  8
Unknown_Area_Type
  10
376119.022
  20
4613837.410
  0
SEQEND
  8
Unknown_Area_Type
  0
INSERT
  8
FeatureAttribs
  2
FEATURE
  41
1
  42
1
  43
1
  50
0
  10
374788.391
  20
4615870.769
 66
1
  0
ATTRIB
  8
FeatureAttribs
 70
0
  1
PNOA-H_AMS_1956-57_33k_ES_PAN_2
  2
NAME
  10
374788.391
  20
4615870.769
 40
33.80955
  0
SEQEND
  0
POLYLINE
  8
Unknown_Area_Type
  70
1
  66
1
  0
VERTEX
  8
Unknown_Area_Type
  10
376119.022
  20
4613837.410
  0
VERTEX
  8
Unknown_Area_Type
  10
373391.260
  20
4613884.896
  0
VERTEX
  8
Unknown_Area_Type
  10
373432.094
  20
4616197.962
  0
VERTEX
  8
Unknown_Area_Type
  10
373463.047
  20
4617950.561
  0
VERTEX
  8
Unknown_Area_Type
  10
376162.500
  20
4617805.000
  0
VERTEX
  8
Unknown_Area_Type
  10
376202.500
  20
4617780.000
  0
VERTEX
  8
Unknown_Area_Type
  10
376119.022
  20
4613837.410
  0
SEQEND
  8
Unknown_Area_Type
  0
INSERT
  8
FeatureAttribs
  2
FEATURE
  41
1
  42
1
  43
1
  50
0
  10
374788.391
  20
4615870.769
 66
1
  0
ATTRIB
  8
FeatureAttribs
 70
0
  1
PNOA-H_AMS_1956-57_33k_ES_PAN_2
  2
NAME
  10
374788.391
  20
4615870.769
 40
33.80955
  0
SEQEND
  0
POLYLINE
  8
Unknown_Area_Type
  70
1
  66
1
  0
VERTEX
  8
Unknown_Area_Type
  10
376119.022
  20
4613837.410
  0
VERTEX
  8
Unknown_Area_Type
  10
376202.500
  20
4617780.000
  0
VERTEX
  8
Unknown_Area_Type
  10
376162.500
  20
4617805.000
  0
VERTEX
  8
Unknown_Area_Type
  10
373463.047
  20
4617950.561
  0
VERTEX
  8
Unknown_Area_Type
  10
373432.094
  20
4616197.962
  0
VERTEX
  8
Unknown_Area_Type
  10
373391.260
  20
4613884.896
  0
VERTEX
  8
Unknown_Area_Type
  10
376119.022
  20
4613837.410
  0
SEQEND
  8
Unknown_Area_Type
  0
INSERT
  8
FeatureAttribs
  2
FEATURE
  41
1
  42
1
  43
1
  50
0
  10
383158.084
  20
4613645.707
 66
1
  0
ATTRIB
  8
FeatureAttribs
 70
0
  1
PNOA-H_AMS_1956-57_33k_ES_PAN_2
  2
NAME
  10
383158.084
  20
4613645.707
 40
33.80955
  0
SEQEND
  0
POLYLINE
  8
Unknown_Area_Type
  70
1
  66
1
  0
VERTEX
  8
Unknown_Area_Type
  10
384504.599
  20
4613697.492
  0
VERTEX
  8
Unknown_Area_Type
  10
384500.007
  20
4613550.000
  0
VERTEX
  8
Unknown_Area_Type
  10
381814.155
  20
4613550.000
  0
VERTEX
  8
Unknown_Area_Type
  10
381812.206
  20
4613741.415
  0
VERTEX
  8
Unknown_Area_Type
  10
383797.712
  20
4613708.771
  0
VERTEX
  8
Unknown_Area_Type
  10
384504.599
  20
4613697.492
  0
SEQEND
  8
Unknown_Area_Type
  0
INSERT
  8
FeatureAttribs
  2
FEATURE
  41
1
  42
1
  43
1
  50
0
  10
383172.159
  20
4615650.555
 66
1
  0
ATTRIB
  8
FeatureAttribs
 70
0
  1
PNOA-H_AMS_1956-57_33k_ES_PAN_2
  2
NAME
  10
383172.159
  20
4615650.555
 40
33.80955
  0
SEQEND
  0
POLYLINE
  8
Unknown_Area_Type
  70
1
  66
1
  0
VERTEX
  8
Unknown_Area_Type
  10
384504.599
  20
4613697.492
  0
VERTEX
  8
Unknown_Area_Type
  10
383797.712
  20
4613708.771
  0
VERTEX
  8
Unknown_Area_Type
  10
381812.206
  20
4613741.415
  0
VERTEX
  8
Unknown_Area_Type
  10
381773.500
  20
4617542.500
  0
VERTEX
  8
Unknown_Area_Type
  10
381918.000
  20
4617618.500
  0
VERTEX
  8
Unknown_Area_Type
  10
381919.000
  20
4617619.000
  0
VERTEX
  8
Unknown_Area_Type
  10
384591.000
  20
4617469.000
  0
VERTEX
  8
Unknown_Area_Type
  10
384596.500
  20
4617468.500
  0
VERTEX
  8
Unknown_Area_Type
  10
384621.500
  20
4617452.000
  0
VERTEX
  8
Unknown_Area_Type
  10
384504.599
  20
4613697.492
  0
SEQEND
  8
Unknown_Area_Type
  0
INSERT
  8
FeatureAttribs
  2
FEATURE
  41
1
  42
1
  43
1
  50
0
  10
383172.159
  20
4615650.555
 66
1
  0
ATTRIB
  8
FeatureAttribs
 70
0
  1
PNOA-H_AMS_1956-57_33k_ES_PAN_2
  2
NAME
  10
383172.159
  20
4615650.555
 40
33.80955
  0
SEQEND
  0
POLYLINE
  8
Unknown_Area_Type
  70
1
  66
1
  0
VERTEX
  8
Unknown_Area_Type
  10
384504.599
  20
4613697.492
  0
VERTEX
  8
Unknown_Area_Type
  10
384621.500
  20
4617452.000
  0
VERTEX
  8
Unknown_Area_Type
  10
384596.500
  20
4617468.500
  0
VERTEX
  8
Unknown_Area_Type
  10
384591.000
  20
4617469.000
  0
VERTEX
  8
Unknown_Area_Type
  10
381919.000
  20
4617619.000
  0
VERTEX
  8
Unknown_Area_Type
  10
381918.000
  20
4617618.500
  0
VERTEX
  8
Unknown_Area_Type
  10
381773.500
  20
4617542.500
  0
VERTEX
  8
Unknown_Area_Type
  10
381812.206
  20
4613741.415
  0
VERTEX
  8
Unknown_Area_Type
  10
383797.712
  20
4613708.771
  0
VERTEX
  8
Unknown_Area_Type
  10
384504.599
  20
4613697.492
  0
SEQEND
  8
Unknown_Area_Type
  0
INSERT
  8
FeatureAttribs
  2
FEATURE
  41
1
  42
1
  43
1
  50
0
  10
380401.774
  20
4613669.208
 66
1
  0
ATTRIB
  8
FeatureAttribs
 70
0
  1
PNOA-H_AMS_1956-57_33k_ES_PAN_2
  2
NAME
  10
380401.774
  20
4613669.208
 40
33.80955
  0
SEQEND
  0
POLYLINE
  8
Unknown_Area_Type
  70
1
  66
1
  0
VERTEX
  8
Unknown_Area_Type
  10
381812.226
  20
4613741.414
  0
VERTEX
  8
Unknown_Area_Type
  10
381814.176
  20
4613550.000
  0
VERTEX
  8
Unknown_Area_Type
  10
380220.000
  20
4613550.000
  0
VERTEX
  8
Unknown_Area_Type
  10
380220.000
  20
4613660.000
  0
VERTEX
  8
Unknown_Area_Type
  10
378990.424
  20
4613660.000
  0
VERTEX
  8
Unknown_Area_Type
  10
378992.669
  20
4613788.417
  0
VERTEX
  8
Unknown_Area_Type
  10
380328.902
  20
4613765.801
  0
VERTEX
  8
Unknown_Area_Type
  10
381812.226
  20
4613741.414
  0
SEQEND
  8
Unknown_Area_Type
  0
INSERT
  8
FeatureAttribs
  2
FEATURE
  41
1
  42
1
  43
1
  50
0
  10
380404.592
  20
4615673.609
 66
1
  0
ATTRIB
  8
FeatureAttribs
 70
0
  1
PNOA-H_AMS_1956-57_33k_ES_PAN_2
  2
NAME
  10
380404.592
  20
4615673.609
 40
33.80955
  0
SEQEND
  0
POLYLINE
  8
Unknown_Area_Type
  70
1
  66
1
  0
VERTEX
  8
Unknown_Area_Type
  10
381812.226
  20
4613741.414
  0
VERTEX
  8
Unknown_Area_Type
  10
380328.902
  20
4613765.801
  0
VERTEX
  8
Unknown_Area_Type
  10
378992.669
  20
4613788.417
  0
VERTEX
  8
Unknown_Area_Type
  10
379060.500
  20
4617669.000
  0
VERTEX
  8
Unknown_Area_Type
  10
379060.500
  20
4617671.000
  0
VERTEX
  8
Unknown_Area_Type
  10
381773.500
  20
4617542.500
  0
VERTEX
  8
Unknown_Area_Type
  10
381812.226
  20
4613741.414
  0
SEQEND
  8
Unknown_Area_Type
  0
INSERT
  8
FeatureAttribs
  2
FEATURE
  41
1
  42
1
  43
1
  50
0
  10
380404.592
  20
4615673.609
 66
1
  0
ATTRIB
  8
FeatureAttribs
 70
0
  1
PNOA-H_AMS_1956-57_33k_ES_PAN_2
  2
NAME
  10
380404.592
  20
4615673.609
 40
33.80955
  0
SEQEND
  0
POLYLINE
  8
Unknown_Area_Type
  70
1
  66
1
  0
VERTEX
  8
Unknown_Area_Type
  10
381812.226
  20
4613741.414
  0
VERTEX
  8
Unknown_Area_Type
  10
381773.500
  20
4617542.500
  0
VERTEX
  8
Unknown_Area_Type
  10
379060.500
  20
4617671.000
  0
VERTEX
  8
Unknown_Area_Type
  10
379060.500
  20
4617669.000
  0
VERTEX
  8
Unknown_Area_Type
  10
378992.669
  20
4613788.417
  0
VERTEX
  8
Unknown_Area_Type
  10
380328.902
  20
4613765.801
  0
VERTEX
  8
Unknown_Area_Type
  10
381812.226
  20
4613741.414
  0
SEQEND
  8
Unknown_Area_Type
  0
INSERT
  8
FeatureAttribs
  2
FEATURE
  41
1
  42
1
  43
1
  50
0
  10
377554.556
  20
4613748.705
 66
1
  0
ATTRIB
  8
FeatureAttribs
 70
0
  1
PNOA-H_AMS_1956-57_33k_ES_PAN_2
  2
NAME
  10
377554.556
  20
4613748.705
 40
33.80955
  0
SEQEND
  0
POLYLINE
  8
Unknown_Area_Type
  70
1
  66
1
  0
VERTEX
  8
Unknown_Area_Type
  10
378992.662
  20
4613788.417
  0
VERTEX
  8
Unknown_Area_Type
  10
378990.419
  20
4613660.000
  0
VERTEX
  8
Unknown_Area_Type
  10
376115.265
  20
4613660.000
  0
VERTEX
  8
Unknown_Area_Type
  10
376119.022
  20
4613837.410
  0
VERTEX
  8
Unknown_Area_Type
  10
376860.085
  20
4613824.510
  0
VERTEX
  8
Unknown_Area_Type
  10
378992.662
  20
4613788.417
  0
SEQEND
  8
Unknown_Area_Type
  0
INSERT
  8
FeatureAttribs
  2
FEATURE
  41
1
  42
1
  43
1
  50
0
  10
377590.197
  20
4615768.494
 66
1
  0
ATTRIB
  8
FeatureAttribs
 70
0
  1
PNOA-H_AMS_1956-57_33k_ES_PAN_2
  2
NAME
  10
377590.197
  20
4615768.494
 40
33.80955
  0
SEQEND
  0
POLYLINE
  8
Unknown_Area_Type
  70
1
  66
1
  0
VERTEX
  8
Unknown_Area_Type
  10
378992.662
  20
4613788.417
  0
VERTEX
  8
Unknown_Area_Type
  10
376860.085
  20
4613824.510
  0
VERTEX
  8
Unknown_Area_Type
  10
376119.022
  20
4613837.410
  0
VERTEX
  8
Unknown_Area_Type
  10
376202.500
  20
4617780.000
  0
VERTEX
  8
Unknown_Area_Type
  10
378504.500
  20
4617695.000
  0
VERTEX
  8
Unknown_Area_Type
  10
378514.000
  20
4617695.000
  0
VERTEX
  8
Unknown_Area_Type
  10
379048.000
  20
4617675.500
  0
VERTEX
  8
Unknown_Area_Type
  10
379054.000
  20
4617675.000
  0
VERTEX
  8
Unknown_Area_Type
  10
379060.500
  20
4617671.000
  0
VERTEX
  8
Unknown_Area_Type
  10
378992.662
  20
4613788.417
  0
SEQEND
  8
Unknown_Area_Type
  0
INSERT
  8
FeatureAttribs
  2
FEATURE
  41
1
  42
1
  43
1
  50
0
  10
377590.197
  20
4615768.494
 66
1
  0
ATTRIB
  8
FeatureAttribs
 70
0
  1
PNOA-H_AMS_1956-57_33k_ES_PAN_2
  2
NAME
  10
377590.197
  20
4615768.494
 40
33.80955
  0
SEQEND
  0
POLYLINE
  8
Unknown_Area_Type
  70
1
  66
1
  0
VERTEX
  8
Unknown_Area_Type
  10
378992.662
  20
4613788.417
  0
VERTEX
  8
Unknown_Area_Type
  10
379060.500
  20
4617671.000
  0
VERTEX
  8
Unknown_Area_Type
  10
379054.000
  20
4617675.000
  0
VERTEX
  8
Unknown_Area_Type
  10
379048.000
  20
4617675.500
  0
VERTEX
  8
Unknown_Area_Type
  10
378514.000
  20
4617695.000
  0
VERTEX
  8
Unknown_Area_Type
  10
378504.500
  20
4617695.000
  0
VERTEX
  8
Unknown_Area_Type
  10
376202.500
  20
4617780.000
  0
VERTEX
  8
Unknown_Area_Type
  10
376119.022
  20
4613837.410
  0
VERTEX
  8
Unknown_Area_Type
  10
376860.085
  20
4613824.510
  0
VERTEX
  8
Unknown_Area_Type
  10
378992.662
  20
4613788.417
  0
SEQEND
  8
Unknown_Area_Type
  0
INSERT
  8
FeatureAttribs
  2
FEATURE
  41
1
  42
1
  43
1
  50
0
  10
388741.092
  20
4613550.525
 66
1
  0
ATTRIB
  8
FeatureAttribs
 70
0
  1
PNOA-H_AMS_1956-57_33k_ES_PAN_2
  2
NAME
  10
388741.092
  20
4613550.525
 40
33.80955
  0
SEQEND
  0
POLYLINE
  8
Unknown_Area_Type
  70
1
  66
1
  0
VERTEX
  8
Unknown_Area_Type
  10
390142.135
  20
4613448.773
  0
VERTEX
  8
Unknown_Area_Type
  10
387335.289
  20
4613448.773
  0
VERTEX
  8
Unknown_Area_Type
  10
387340.450
  20
4613652.276
  0
VERTEX
  8
Unknown_Area_Type
  10
390145.566
  20
4613608.871
  0
VERTEX
  8
Unknown_Area_Type
  10
390142.135
  20
4613448.773
  0
SEQEND
  8
Unknown_Area_Type
  0
INSERT
  8
FeatureAttribs
  2
FEATURE
  41
1
  42
1
  43
1
  50
0
  10
388790.965
  20
4615500.731
 66
1
  0
ATTRIB
  8
FeatureAttribs
 70
0
  1
PNOA-H_AMS_1956-57_33k_ES_PAN_2
  2
NAME
  10
388790.965
  20
4615500.731
 40
33.80955
  0
SEQEND
  0
POLYLINE
  8
Unknown_Area_Type
  70
1
  66
1
  0
VERTEX
  8
Unknown_Area_Type
  10
390145.566
  20
4613608.871
  0
VERTEX
  8
Unknown_Area_Type
  10
387340.450
  20
4613652.276
  0
VERTEX
  8
Unknown_Area_Type
  10
387434.500
  20
4617361.000
  0
VERTEX
  8
Unknown_Area_Type
  10
387454.000
  20
4617362.000
  0
VERTEX
  8
Unknown_Area_Type
  10
390161.000
  20
4617386.000
  0
VERTEX
  8
Unknown_Area_Type
  10
390217.500
  20
4617386.500
  0
VERTEX
  8
Unknown_Area_Type
  10
390226.000
  20
4617386.500
  0
VERTEX
  8
Unknown_Area_Type
  10
390226.000
  20
4617363.000
  0
VERTEX
  8
Unknown_Area_Type
  10
390145.566
  20
4613608.871
  0
SEQEND
  8
Unknown_Area_Type
  0
INSERT
  8
FeatureAttribs
  2
FEATURE
  41
1
  42
1
  43
1
  50
0
  10
388790.965
  20
4615500.731
 66
1
  0
ATTRIB
  8
FeatureAttribs
 70
0
  1
PNOA-H_AMS_1956-57_33k_ES_PAN_2
  2
NAME
  10
388790.965
  20
4615500.731
 40
33.80955
  0
SEQEND
  0
POLYLINE
  8
Unknown_Area_Type
  70
1
  66
1
  0
VERTEX
  8
Unknown_Area_Type
  10
390145.566
  20
4613608.871
  0
VERTEX
  8
Unknown_Area_Type
  10
390226.000
  20
4617363.000
  0
VERTEX
  8
Unknown_Area_Type
  10
390226.000
  20
4617386.500
  0
VERTEX
  8
Unknown_Area_Type
  10
390217.500
  20
4617386.500
  0
VERTEX
  8
Unknown_Area_Type
  10
390161.000
  20
4617386.000
  0
VERTEX
  8
Unknown_Area_Type
  10
387454.000
  20
4617362.000
  0
VERTEX
  8
Unknown_Area_Type
  10
387434.500
  20
4617361.000
  0
VERTEX
  8
Unknown_Area_Type
  10
387340.450
  20
4613652.276
  0
VERTEX
  8
Unknown_Area_Type
  10
390145.566
  20
4613608.871
  0
SEQEND
  8
Unknown_Area_Type
  0
INSERT
  8
FeatureAttribs
  2
FEATURE
  41
1
  42
1
  43
1
  50
0
  10
394280.337
  20
4613508.174
 66
1
  0
ATTRIB
  8
FeatureAttribs
 70
0
  1
PNOA-H_AMS_1956-57_33k_ES_PAN_2
  2
NAME
  10
394280.337
  20
4613508.174
 40
33.80955
  0
SEQEND
  0
POLYLINE
  8
Unknown_Area_Type
  70
1
  66
1
  0
VERTEX
  8
Unknown_Area_Type
  10
395680.109
  20
4613448.773
  0
VERTEX
  8
Unknown_Area_Type
  10
392879.131
  20
4613448.773
  0
VERTEX
  8
Unknown_Area_Type
  10
392881.492
  20
4613567.575
  0
VERTEX
  8
Unknown_Area_Type
  10
394204.098
  20
4613547.750
  0
VERTEX
  8
Unknown_Area_Type
  10
395680.439
  20
4613526.334
  0
VERTEX
  8
Unknown_Area_Type
  10
395680.109
  20
4613448.773
  0
SEQEND
  8
Unknown_Area_Type
  0
INSERT
  8
FeatureAttribs
  2
FEATURE
  41
1
  42
1
  43
1
  50
0
  10
394308.355
  20
4615527.435
 66
1
  0
ATTRIB
  8
FeatureAttribs
 70
0
  1
PNOA-H_AMS_1956-57_33k_ES_PAN_2
  2
NAME
  10
394308.355
  20
4615527.435
 40
33.80955
  0
SEQEND
  0
POLYLINE
  8
Unknown_Area_Type
  70
1
  66
1
  0
VERTEX
  8
Unknown_Area_Type
  10
395680.439
  20
4613526.334
  0
VERTEX
  8
Unknown_Area_Type
  10
394204.098
  20
4613547.750
  0
VERTEX
  8
Unknown_Area_Type
  10
392881.492
  20
4613567.575
  0
VERTEX
  8
Unknown_Area_Type
  10
392958.500
  20
4617441.500
  0
VERTEX
  8
Unknown_Area_Type
  10
393098.500
  20
4617520.500
  0
VERTEX
  8
Unknown_Area_Type
  10
394729.500
  20
4617526.500
  0
VERTEX
  8
Unknown_Area_Type
  10
394875.500
  20
4617527.000
  0
VERTEX
  8
Unknown_Area_Type
  10
395697.500
  20
4617529.500
  0
VERTEX
  8
Unknown_Area_Type
  10
395680.439
  20
4613526.334
  0
SEQEND
  8
Unknown_Area_Type
  0
INSERT
  8
FeatureAttribs
  2
FEATURE
  41
1
  42
1
  43
1
  50
0
  10
394308.355
  20
4615527.435
 66
1
  0
ATTRIB
  8
FeatureAttribs
 70
0
  1
PNOA-H_AMS_1956-57_33k_ES_PAN_2
  2
NAME
  10
394308.355
  20
4615527.435
 40
33.80955
  0
SEQEND
  0
POLYLINE
  8
Unknown_Area_Type
  70
1
  66
1
  0
VERTEX
  8
Unknown_Area_Type
  10
395680.439
  20
4613526.334
  0
VERTEX
  8
Unknown_Area_Type
  10
395697.500
  20
4617529.500
  0
VERTEX
  8
Unknown_Area_Type
  10
394875.500
  20
4617527.000
  0
VERTEX
  8
Unknown_Area_Type
  10
394729.500
  20
4617526.500
  0
VERTEX
  8
Unknown_Area_Type
  10
393098.500
  20
4617520.500
  0
VERTEX
  8
Unknown_Area_Type
  10
392958.500
  20
4617441.500
  0
VERTEX
  8
Unknown_Area_Type
  10
392881.492
  20
4613567.575
  0
VERTEX
  8
Unknown_Area_Type
  10
394204.098
  20
4613547.750
  0
VERTEX
  8
Unknown_Area_Type
  10
395680.439
  20
4613526.334
  0
SEQEND
  8
Unknown_Area_Type
  0
INSERT
  8
FeatureAttribs
  2
FEATURE
  41
1
  42
1
  43
1
  50
0
  10
397028.532
  20
4613487.557
 66
1
  0
ATTRIB
  8
FeatureAttribs
 70
0
  1
PNOA-H_AMS_1956-57_33k_ES_PAN_2
  2
NAME
  10
397028.532
  20
4613487.557
 40
33.80955
  0
SEQEND
  0
POLYLINE
  8
Unknown_Area_Type
  70
1
  66
1
  0
VERTEX
  8
Unknown_Area_Type
  10
398518.152
  20
4613485.580
  0
VERTEX
  8
Unknown_Area_Type
  10
398518.666
  20
4613448.773
  0
VERTEX
  8
Unknown_Area_Type
  10
395679.729
  20
4613448.773
  0
VERTEX
  8
Unknown_Area_Type
  10
395680.066
  20
4613526.340
  0
VERTEX
  8
Unknown_Area_Type
  10
397672.880
  20
4613497.432
  0
VERTEX
  8
Unknown_Area_Type
  10
398518.152
  20
4613485.580
  0
SEQEND
  8
Unknown_Area_Type
  0
INSERT
  8
FeatureAttribs
  2
FEATURE
  41
1
  42
1
  43
1
  50
0
  10
397089.942
  20
4615560.278
 66
1
  0
ATTRIB
  8
FeatureAttribs
 70
0
  1
PNOA-H_AMS_1956-57_33k_ES_PAN_2
  2
NAME
  10
397089.942
  20
4615560.278
 40
33.80955
  0
SEQEND
  0
POLYLINE
  8
Unknown_Area_Type
  70
1
  66
1
  0
VERTEX
  8
Unknown_Area_Type
  10
398518.152
  20
4613485.580
  0
VERTEX
  8
Unknown_Area_Type
  10
397672.880
  20
4613497.432
  0
VERTEX
  8
Unknown_Area_Type
  10
395680.066
  20
4613526.340
  0
VERTEX
  8
Unknown_Area_Type
  10
395697.500
  20
4617530.000
  0
VERTEX
  8
Unknown_Area_Type
  10
395944.000
  20
4617664.500
  0
VERTEX
  8
Unknown_Area_Type
  10
395945.000
  20
4617665.000
  0
VERTEX
  8
Unknown_Area_Type
  10
398460.500
  20
4617608.500
  0
VERTEX
  8
Unknown_Area_Type
  10
398518.152
  20
4613485.580
  0
SEQEND
  8
Unknown_Area_Type
  0
INSERT
  8
FeatureAttribs
  2
FEATURE
  41
1
  42
1
  43
1
  50
0
  10
397089.942
  20
4615560.278
 66
1
  0
ATTRIB
  8
FeatureAttribs
 70
0
  1
PNOA-H_AMS_1956-57_33k_ES_PAN_2
  2
NAME
  10
397089.942
  20
4615560.278
 40
33.80955
  0
SEQEND
  0
POLYLINE
  8
Unknown_Area_Type
  70
1
  66
1
  0
VERTEX
  8
Unknown_Area_Type
  10
398518.152
  20
4613485.580
  0
VERTEX
  8
Unknown_Area_Type
  10
398460.500
  20
4617608.500
  0
VERTEX
  8
Unknown_Area_Type
  10
395945.000
  20
4617665.000
  0
VERTEX
  8
Unknown_Area_Type
  10
395944.000
  20
4617664.500
  0
VERTEX
  8
Unknown_Area_Type
  10
395697.500
  20
4617530.000
  0
VERTEX
  8
Unknown_Area_Type
  10
395680.066
  20
4613526.340
  0
VERTEX
  8
Unknown_Area_Type
  10
397672.880
  20
4613497.432
  0
VERTEX
  8
Unknown_Area_Type
  10
398518.152
  20
4613485.580
  0
SEQEND
  8
Unknown_Area_Type
  0
INSERT
  8
FeatureAttribs
  2
FEATURE
  41
1
  42
1
  43
1
  50
0
  10
385919.674
  20
4613573.132
 66
1
  0
ATTRIB
  8
FeatureAttribs
 70
0
  1
PNOA-H_AMS_1956-57_33k_ES_PAN_2
  2
NAME
  10
385919.674
  20
4613573.132
 40
33.80955
  0
SEQEND
  0
POLYLINE
  8
Unknown_Area_Type
  70
1
  66
1
  0
VERTEX
  8
Unknown_Area_Type
  10
387335.373
  20
4613448.773
  0
VERTEX
  8
Unknown_Area_Type
  10
387160.000
  20
4613448.773
  0
VERTEX
  8
Unknown_Area_Type
  10
387160.000
  20
4613550.000
  0
VERTEX
  8
Unknown_Area_Type
  10
384500.086
  20
4613550.000
  0
VERTEX
  8
Unknown_Area_Type
  10
384504.691
  20
4613697.490
  0
VERTEX
  8
Unknown_Area_Type
  10
387266.514
  20
4613653.420
  0
VERTEX
  8
Unknown_Area_Type
  10
387340.555
  20
4613652.274
  0
VERTEX
  8
Unknown_Area_Type
  10
387335.373
  20
4613448.773
  0
SEQEND
  8
Unknown_Area_Type
  0
INSERT
  8
FeatureAttribs
  2
FEATURE
  41
1
  42
1
  43
1
  50
0
  10
385973.882
  20
4615543.194
 66
1
  0
ATTRIB
  8
FeatureAttribs
 70
0
  1
PNOA-H_AMS_1956-57_33k_ES_PAN_2
  2
NAME
  10
385973.882
  20
4615543.194
 40
33.80955
  0
SEQEND
  0
POLYLINE
  8
Unknown_Area_Type
  70
1
  66
1
  0
VERTEX
  8
Unknown_Area_Type
  10
387340.555
  20
4613652.274
  0
VERTEX
  8
Unknown_Area_Type
  10
387266.514
  20
4613653.420
  0
VERTEX
  8
Unknown_Area_Type
  10
384504.691
  20
4613697.490
  0
VERTEX
  8
Unknown_Area_Type
  10
384621.500
  20
4617438.500
  0
VERTEX
  8
Unknown_Area_Type
  10
384621.500
  20
4617452.000
  0
VERTEX
  8
Unknown_Area_Type
  10
387402.000
  20
4617381.500
  0
VERTEX
  8
Unknown_Area_Type
  10
387435.000
  20
4617361.500
  0
VERTEX
  8
Unknown_Area_Type
  10
387340.555
  20
4613652.274
  0
SEQEND
  8
Unknown_Area_Type
  0
INSERT
  8
FeatureAttribs
  2
FEATURE
  41
1
  42
1
  43
1
  50
0
  10
385973.882
  20
4615543.194
 66
1
  0
ATTRIB
  8
FeatureAttribs
 70
0
  1
PNOA-H_AMS_1956-57_33k_ES_PAN_2
  2
NAME
  10
385973.882
  20
4615543.194
 40
33.80955
  0
SEQEND
  0
POLYLINE
  8
Unknown_Area_Type
  70
1
  66
1
  0
VERTEX
  8
Unknown_Area_Type
  10
387340.555
  20
4613652.274
  0
VERTEX
  8
Unknown_Area_Type
  10
387435.000
  20
4617361.500
  0
VERTEX
  8
Unknown_Area_Type
  10
387402.000
  20
4617381.500
  0
VERTEX
  8
Unknown_Area_Type
  10
384621.500
  20
4617452.000
  0
VERTEX
  8
Unknown_Area_Type
  10
384621.500
  20
4617438.500
  0
VERTEX
  8
Unknown_Area_Type
  10
384504.691
  20
4613697.490
  0
VERTEX
  8
Unknown_Area_Type
  10
387266.514
  20
4613653.420
  0
VERTEX
  8
Unknown_Area_Type
  10
387340.555
  20
4613652.274
  0
SEQEND
  8
Unknown_Area_Type
  0
INSERT
  8
FeatureAttribs
  2
FEATURE
  41
1
  42
1
  43
1
  50
0
  10
401290.949
  20
4616578.536
 66
1
  0
ATTRIB
  8
FeatureAttribs
 70
0
  1
PNOA-H_AMS_1956-57_33k_ES_PAN_2
  2
NAME
  10
401290.949
  20
4616578.536
 40
33.80955
  0
SEQEND
  0
POLYLINE
  8
Unknown_Area_Type
  70
1
  66
1
  0
VERTEX
  8
Unknown_Area_Type
  10
401397.099
  20
4617147.492
  0
VERTEX
  8
Unknown_Area_Type
  10
401397.099
  20
4616204.029
  0
VERTEX
  8
Unknown_Area_Type
  10
401175.004
  20
4615868.223
  0
VERTEX
  8
Unknown_Area_Type
  10
401194.593
  20
4617288.848
  0
VERTEX
  8
Unknown_Area_Type
  10
401397.099
  20
4617147.492
  0
SEQEND
  8
Unknown_Area_Type
  0
INSERT
  8
FeatureAttribs
  2
FEATURE
  41
1
  42
1
  43
1
  50
0
  10
399052.522
  20
4613467.179
 66
1
  0
ATTRIB
  8
FeatureAttribs
 70
0
  1
PNOA-H_AMS_1956-57_33k_ES_PAN_2
  2
NAME
  10
399052.522
  20
4613467.179
 40
33.80955
  0
SEQEND
  0
POLYLINE
  8
Unknown_Area_Type
  70
1
  66
1
  0
VERTEX
  8
Unknown_Area_Type
  10
399589.239
  20
4613470.561
  0
VERTEX
  8
Unknown_Area_Type
  10
399574.830
  20
4613448.773
  0
VERTEX
  8
Unknown_Area_Type
  10
398518.297
  20
4613448.773
  0
VERTEX
  8
Unknown_Area_Type
  10
398517.786
  20
4613485.585
  0
VERTEX
  8
Unknown_Area_Type
  10
399589.239
  20
4613470.561
  0
SEQEND
  8
Unknown_Area_Type
  0
INSERT
  8
FeatureAttribs
  2
FEATURE
  41
1
  42
1
  43
1
  50
0
  10
399652.592
  20
4615856.661
 66
1
  0
ATTRIB
  8
FeatureAttribs
 70
0
  1
PNOA-H_AMS_1956-57_33k_ES_PAN_2
  2
NAME
  10
399652.592
  20
4615856.661
 40
33.80955
  0
SEQEND
  0
POLYLINE
  8
Unknown_Area_Type
  70
1
  66
1
  0
VERTEX
  8
Unknown_Area_Type
  10
401194.593
  20
4617288.848
  0
VERTEX
  8
Unknown_Area_Type
  10
401175.004
  20
4615868.223
  0
VERTEX
  8
Unknown_Area_Type
  10
399589.239
  20
4613470.561
  0
VERTEX
  8
Unknown_Area_Type
  10
398517.786
  20
4613485.585
  0
VERTEX
  8
Unknown_Area_Type
  10
398460.500
  20
4617608.500
  0
VERTEX
  8
Unknown_Area_Type
  10
398835.000
  20
4617797.000
  0
VERTEX
  8
Unknown_Area_Type
  10
398836.000
  20
4617797.500
  0
VERTEX
  8
Unknown_Area_Type
  10
400628.500
  20
4617684.000
  0
VERTEX
  8
Unknown_Area_Type
  10
401194.593
  20
4617288.848
  0
SEQEND
  8
Unknown_Area_Type
  0
INSERT
  8
FeatureAttribs
  2
FEATURE
  41
1
  42
1
  43
1
  50
0
  10
399652.592
  20
4615856.661
 66
1
  0
ATTRIB
  8
FeatureAttribs
 70
0
  1
PNOA-H_AMS_1956-57_33k_ES_PAN_2
  2
NAME
  10
399652.592
  20
4615856.661
 40
33.80955
  0
SEQEND
  0
POLYLINE
  8
Unknown_Area_Type
  70
1
  66
1
  0
VERTEX
  8
Unknown_Area_Type
  10
401194.593
  20
4617288.848
  0
VERTEX
  8
Unknown_Area_Type
  10
400628.500
  20
4617684.000
  0
VERTEX
  8
Unknown_Area_Type
  10
398836.000
  20
4617797.500
  0
VERTEX
  8
Unknown_Area_Type
  10
398835.000
  20
4617797.000
  0
VERTEX
  8
Unknown_Area_Type
  10
398460.500
  20
4617608.500
  0
VERTEX
  8
Unknown_Area_Type
  10
398517.786
  20
4613485.585
  0
VERTEX
  8
Unknown_Area_Type
  10
399589.239
  20
4613470.561
  0
VERTEX
  8
Unknown_Area_Type
  10
401175.004
  20
4615868.223
  0
VERTEX
  8
Unknown_Area_Type
  10
401194.593
  20
4617288.848
  0
SEQEND
  8
Unknown_Area_Type
  0
INSERT
  8
FeatureAttribs
  2
FEATURE
  41
1
  42
1
  43
1
  50
0
  10
391512.050
  20
4613528.826
 66
1
  0
ATTRIB
  8
FeatureAttribs
 70
0
  1
PNOA-H_AMS_1956-57_33k_ES_PAN_2
  2
NAME
  10
391512.050
  20
4613528.826
 40
33.80955
  0
SEQEND
  0
POLYLINE
  8
Unknown_Area_Type
  70
1
  66
1
  0
VERTEX
  8
Unknown_Area_Type
  10
392879.141
  20
4613448.773
  0
VERTEX
  8
Unknown_Area_Type
  10
390141.652
  20
4613448.773
  0
VERTEX
  8
Unknown_Area_Type
  10
390145.082
  20
4613608.879
  0
VERTEX
  8
Unknown_Area_Type
  10
390735.310
  20
4613599.746
  0
VERTEX
  8
Unknown_Area_Type
  10
392881.502
  20
4613567.575
  0
VERTEX
  8
Unknown_Area_Type
  10
392879.141
  20
4613448.773
  0
SEQEND
  8
Unknown_Area_Type
  0
INSERT
  8
FeatureAttribs
  2
FEATURE
  41
1
  42
1
  43
1
  50
0
  10
391556.443
  20
4615509.962
 66
1
  0
ATTRIB
  8
FeatureAttribs
 70
0
  1
PNOA-H_AMS_1956-57_33k_ES_PAN_2
  2
NAME
  10
391556.443
  20
4615509.962
 40
33.80955
  0
SEQEND
  0
POLYLINE
  8
Unknown_Area_Type
  70
1
  66
1
  0
VERTEX
  8
Unknown_Area_Type
  10
392881.502
  20
4613567.575
  0
VERTEX
  8
Unknown_Area_Type
  10
390735.310
  20
4613599.746
  0
VERTEX
  8
Unknown_Area_Type
  10
390145.082
  20
4613608.879
  0
VERTEX
  8
Unknown_Area_Type
  10
390226.000
  20
4617386.500
  0
VERTEX
  8
Unknown_Area_Type
  10
390294.000
  20
4617426.500
  0
VERTEX
  8
Unknown_Area_Type
  10
390701.000
  20
4617429.000
  0
VERTEX
  8
Unknown_Area_Type
  10
390792.000
  20
4617429.500
  0
VERTEX
  8
Unknown_Area_Type
  10
392958.500
  20
4617441.000
  0
VERTEX
  8
Unknown_Area_Type
  10
392881.502
  20
4613567.575
  0
SEQEND
  8
Unknown_Area_Type
  0
INSERT
  8
FeatureAttribs
  2
FEATURE
  41
1
  42
1
  43
1
  50
0
  10
391556.443
  20
4615509.962
 66
1
  0
ATTRIB
  8
FeatureAttribs
 70
0
  1
PNOA-H_AMS_1956-57_33k_ES_PAN_2
  2
NAME
  10
391556.443
  20
4615509.962
 40
33.80955
  0
SEQEND
  0
POLYLINE
  8
Unknown_Area_Type
  70
1
  66
1
  0
VERTEX
  8
Unknown_Area_Type
  10
392881.502
  20
4613567.575
  0
VERTEX
  8
Unknown_Area_Type
  10
392958.500
  20
4617441.000
  0
VERTEX
  8
Unknown_Area_Type
  10
390792.000
  20
4617429.500
  0
VERTEX
  8
Unknown_Area_Type
  10
390701.000
  20
4617429.000
  0
VERTEX
  8
Unknown_Area_Type
  10
390294.000
  20
4617426.500
  0
VERTEX
  8
Unknown_Area_Type
  10
390226.000
  20
4617386.500
  0
VERTEX
  8
Unknown_Area_Type
  10
390145.082
  20
4613608.879
  0
VERTEX
  8
Unknown_Area_Type
  10
390735.310
  20
4613599.746
  0
VERTEX
  8
Unknown_Area_Type
  10
392881.502
  20
4613567.575
  0
SEQEND
  8
Unknown_Area_Type
  0
INSERT
  8
FeatureAttribs
  2
FEATURE
  41
1
  42
1
  43
1
  50
0
  10
401318.699
  20
4620602.452
 66
1
  0
ATTRIB
  8
FeatureAttribs
 70
0
  1
PNOA-H_AMS_1956-57_33k_ES_PAN_2
  2
NAME
  10
401318.699
  20
4620602.452
 40
33.80955
  0
SEQEND
  0
POLYLINE
  8
Unknown_Area_Type
  70
1
  66
1
  0
VERTEX
  8
Unknown_Area_Type
  10
401397.099
  20
4619439.721
  0
VERTEX
  8
Unknown_Area_Type
  10
401218.635
  20
4619032.053
  0
VERTEX
  8
Unknown_Area_Type
  10
401237.338
  20
4620387.904
  0
VERTEX
  8
Unknown_Area_Type
  10
401261.970
  20
4622172.851
  0
VERTEX
  8
Unknown_Area_Type
  10
401397.099
  20
4622145.618
  0
VERTEX
  8
Unknown_Area_Type
  10
401397.099
  20
4619439.721
  0
SEQEND
  8
Unknown_Area_Type
  0
INSERT
  8
FeatureAttribs
  2
FEATURE
  41
1
  42
1
  43
1
  50
0
  10
399955.814
  20
4620140.106
 66
1
  0
ATTRIB
  8
FeatureAttribs
 70
0
  1
PNOA-H_AMS_1956-57_33k_ES_PAN_2
  2
NAME
  10
399955.814
  20
4620140.106
 40
33.80955
  0
SEQEND
  0
POLYLINE
  8
Unknown_Area_Type
  70
1
  66
1
  0
VERTEX
  8
Unknown_Area_Type
  10
401218.635
  20
4619032.053
  0
VERTEX
  8
Unknown_Area_Type
  10
400628.500
  20
4617684.000
  0
VERTEX
  8
Unknown_Area_Type
  10
398837.000
  20
4617797.500
  0
VERTEX
  8
Unknown_Area_Type
  10
398666.000
  20
4622077.000
  0
VERTEX
  8
Unknown_Area_Type
  10
398992.500
  20
4622265.000
  0
VERTEX
  8
Unknown_Area_Type
  10
398993.500
  20
4622265.500
  0
VERTEX
  8
Unknown_Area_Type
  10
399453.500
  20
4622530.000
  0
VERTEX
  8
Unknown_Area_Type
  10
399462.500
  20
4622535.000
  0
VERTEX
  8
Unknown_Area_Type
  10
399465.000
  20
4622535.000
  0
VERTEX
  8
Unknown_Area_Type
  10
401261.970
  20
4622172.851
  0
VERTEX
  8
Unknown_Area_Type
  10
401237.338
  20
4620387.904
  0
VERTEX
  8
Unknown_Area_Type
  10
401218.635
  20
4619032.053
  0
SEQEND
  8
Unknown_Area_Type
  0
INSERT
  8
FeatureAttribs
  2
FEATURE
  41
1
  42
1
  43
1
  50
0
  10
399955.814
  20
4620140.106
 66
1
  0
ATTRIB
  8
FeatureAttribs
 70
0
  1
PNOA-H_AMS_1956-57_33k_ES_PAN_2
  2
NAME
  10
399955.814
  20
4620140.106
 40
33.80955
  0
SEQEND
  0
POLYLINE
  8
Unknown_Area_Type
  70
1
  66
1
  0
VERTEX
  8
Unknown_Area_Type
  10
401218.635
  20
4619032.053
  0
VERTEX
  8
Unknown_Area_Type
  10
401237.338
  20
4620387.904
  0
VERTEX
  8
Unknown_Area_Type
  10
401261.970
  20
4622172.851
  0
VERTEX
  8
Unknown_Area_Type
  10
399465.000
  20
4622535.000
  0
VERTEX
  8
Unknown_Area_Type
  10
399462.500
  20
4622535.000
  0
VERTEX
  8
Unknown_Area_Type
  10
399453.500
  20
4622530.000
  0
VERTEX
  8
Unknown_Area_Type
  10
398993.500
  20
4622265.500
  0
VERTEX
  8
Unknown_Area_Type
  10
398992.500
  20
4622265.000
  0
VERTEX
  8
Unknown_Area_Type
  10
398666.000
  20
4622077.000
  0
VERTEX
  8
Unknown_Area_Type
  10
398837.000
  20
4617797.500
  0
VERTEX
  8
Unknown_Area_Type
  10
400628.500
  20
4617684.000
  0
VERTEX
  8
Unknown_Area_Type
  10
401218.635
  20
4619032.053
  0
SEQEND
  8
Unknown_Area_Type
  0
ENDSEC
  0
EOF
