  0
SECTION
  2
HEADER
  9
$ACADVER
  1
AC1009
  9
$LUNITS
  70
2
  9
$LIMMIN
  10
345640.331
  20
4613884.877
  9
$LIMMAX
  10
373718.434
  20
4632933.549
  9
$EXTMIN
  10
345640.331
  20
4613884.877
  9
$EXTMAX
  10
373718.434
  20
4632933.549
  999
Created by Global Mapper
  999
Projection: UTM
  999
Datum: ETRS89
  999
Ground Units: meters
  999
ZONE: 30
  0
ENDSEC
  0
SECTION
  2
TABLES
  0
ENDSEC
  0
SECTION
  2
BLOCKS
  0
BLOCK
  8
FeatureAttribs
  70
0
  2
FEATURE
  3
FEATURE
  10
0.00000000
  20
0.00000000
  0
ATTDEF
  8
FeatureAttribs
  70
0
  1
 
  2
NAME
  3
NAME
  10
0.00000000
  20
0.00000000
  40
1.00000000
  0
ENDBLK
  0
ENDSEC
  0
SECTION
  2
ENTITIES
  0
INSERT
  8
FeatureAttribs
  2
FEATURE
  41
1
  42
1
  43
1
  50
0
  10
345802.669
  20
4629493.222
 66
1
  0
ATTRIB
  8
FeatureAttribs
 70
0
  1
PNOA-H_AMS_1956-57_33k_ES_PAN_2
  2
NAME
  10
345802.669
  20
4629493.222
 40
33.92981
  0
SEQEND
  0
POLYLINE
  8
Unknown_Area_Type
  70
1
  66
1
  0
VERTEX
  8
Unknown_Area_Type
  10
345915.717
  20
4627208.571
  0
VERTEX
  8
Unknown_Area_Type
  10
345640.331
  20
4627168.748
  0
VERTEX
  8
Unknown_Area_Type
  10
345640.331
  20
4631817.695
  0
VERTEX
  8
Unknown_Area_Type
  10
346015.030
  20
4631810.974
  0
VERTEX
  8
Unknown_Area_Type
  10
345989.328
  20
4630620.364
  0
VERTEX
  8
Unknown_Area_Type
  10
345939.414
  20
4628307.206
  0
VERTEX
  8
Unknown_Area_Type
  10
345915.717
  20
4627208.571
  0
SEQEND
  8
Unknown_Area_Type
  0
INSERT
  8
FeatureAttribs
  2
FEATURE
  41
1
  42
1
  43
1
  50
0
  10
346391.466
  20
4629520.216
 66
1
  0
ATTRIB
  8
FeatureAttribs
 70
0
  1
PNOA-H_AMS_1956-57_33k_ES_PAN_2
  2
NAME
  10
346391.466
  20
4629520.216
 40
33.92981
  0
SEQEND
  0
POLYLINE
  8
Unknown_Area_Type
  70
1
  66
1
  0
VERTEX
  8
Unknown_Area_Type
  10
346015.030
  20
4631810.974
  0
VERTEX
  8
Unknown_Area_Type
  10
346682.500
  20
4631799.000
  0
VERTEX
  8
Unknown_Area_Type
  10
346857.000
  20
4631701.000
  0
VERTEX
  8
Unknown_Area_Type
  10
346796.000
  20
4627732.000
  0
VERTEX
  8
Unknown_Area_Type
  10
346796.000
  20
4627720.000
  0
VERTEX
  8
Unknown_Area_Type
  10
346790.000
  20
4627335.000
  0
VERTEX
  8
Unknown_Area_Type
  10
345915.717
  20
4627208.571
  0
VERTEX
  8
Unknown_Area_Type
  10
345939.414
  20
4628307.206
  0
VERTEX
  8
Unknown_Area_Type
  10
345989.328
  20
4630620.364
  0
VERTEX
  8
Unknown_Area_Type
  10
346015.030
  20
4631810.974
  0
SEQEND
  8
Unknown_Area_Type
  0
INSERT
  8
FeatureAttribs
  2
FEATURE
  41
1
  42
1
  43
1
  50
0
  10
346391.466
  20
4629520.216
 66
1
  0
ATTRIB
  8
FeatureAttribs
 70
0
  1
PNOA-H_AMS_1956-57_33k_ES_PAN_2
  2
NAME
  10
346391.466
  20
4629520.216
 40
33.92981
  0
SEQEND
  0
POLYLINE
  8
Unknown_Area_Type
  70
1
  66
1
  0
VERTEX
  8
Unknown_Area_Type
  10
346015.030
  20
4631810.974
  0
VERTEX
  8
Unknown_Area_Type
  10
345989.328
  20
4630620.364
  0
VERTEX
  8
Unknown_Area_Type
  10
345939.414
  20
4628307.206
  0
VERTEX
  8
Unknown_Area_Type
  10
345915.717
  20
4627208.571
  0
VERTEX
  8
Unknown_Area_Type
  10
346790.000
  20
4627335.000
  0
VERTEX
  8
Unknown_Area_Type
  10
346796.000
  20
4627720.000
  0
VERTEX
  8
Unknown_Area_Type
  10
346796.000
  20
4627732.000
  0
VERTEX
  8
Unknown_Area_Type
  10
346857.000
  20
4631701.000
  0
VERTEX
  8
Unknown_Area_Type
  10
346682.500
  20
4631799.000
  0
VERTEX
  8
Unknown_Area_Type
  10
346015.030
  20
4631810.974
  0
SEQEND
  8
Unknown_Area_Type
  0
INSERT
  8
FeatureAttribs
  2
FEATURE
  41
1
  42
1
  43
1
  50
0
  10
345670.746
  20
4621243.356
 66
1
  0
ATTRIB
  8
FeatureAttribs
 70
0
  1
PNOA-H_AMS_1956-57_33k_ES_PAN_2
  2
NAME
  10
345670.746
  20
4621243.356
 40
33.92981
  0
SEQEND
  0
POLYLINE
  8
Unknown_Area_Type
  70
1
  66
1
  0
VERTEX
  8
Unknown_Area_Type
  10
345640.331
  20
4622930.555
  0
VERTEX
  8
Unknown_Area_Type
  10
345744.500
  20
4622878.000
  0
VERTEX
  8
Unknown_Area_Type
  10
345746.000
  20
4622877.500
  0
VERTEX
  8
Unknown_Area_Type
  10
345759.500
  20
4622871.000
  0
VERTEX
  8
Unknown_Area_Type
  10
345759.500
  20
4622861.500
  0
VERTEX
  8
Unknown_Area_Type
  10
345640.331
  20
4619556.157
  0
VERTEX
  8
Unknown_Area_Type
  10
345640.331
  20
4622930.555
  0
SEQEND
  8
Unknown_Area_Type
  0
INSERT
  8
FeatureAttribs
  2
FEATURE
  41
1
  42
1
  43
1
  50
0
  10
371762.280
  20
4628792.706
 66
1
  0
ATTRIB
  8
FeatureAttribs
 70
0
  1
PNOA-H_AMS_1956-57_33k_ES_PAN_2
  2
NAME
  10
371762.280
  20
4628792.706
 40
33.92981
  0
SEQEND
  0
POLYLINE
  8
Unknown_Area_Type
  70
1
  66
1
  0
VERTEX
  8
Unknown_Area_Type
  10
370193.500
  20
4631214.000
  0
VERTEX
  8
Unknown_Area_Type
  10
370320.000
  20
4631289.500
  0
VERTEX
  8
Unknown_Area_Type
  10
370321.000
  20
4631290.000
  0
VERTEX
  8
Unknown_Area_Type
  10
372921.500
  20
4631304.500
  0
VERTEX
  8
Unknown_Area_Type
  10
373163.000
  20
4631162.000
  0
VERTEX
  8
Unknown_Area_Type
  10
373310.500
  20
4626401.000
  0
VERTEX
  8
Unknown_Area_Type
  10
372990.000
  20
4626248.000
  0
VERTEX
  8
Unknown_Area_Type
  10
370383.500
  20
4626310.000
  0
VERTEX
  8
Unknown_Area_Type
  10
370193.000
  20
4631202.500
  0
VERTEX
  8
Unknown_Area_Type
  10
370193.500
  20
4631214.000
  0
SEQEND
  8
Unknown_Area_Type
  0
INSERT
  8
FeatureAttribs
  2
FEATURE
  41
1
  42
1
  43
1
  50
0
  10
371762.280
  20
4628792.706
 66
1
  0
ATTRIB
  8
FeatureAttribs
 70
0
  1
PNOA-H_AMS_1956-57_33k_ES_PAN_2
  2
NAME
  10
371762.280
  20
4628792.706
 40
33.92981
  0
SEQEND
  0
POLYLINE
  8
Unknown_Area_Type
  70
1
  66
1
  0
VERTEX
  8
Unknown_Area_Type
  10
370193.500
  20
4631214.000
  0
VERTEX
  8
Unknown_Area_Type
  10
370193.000
  20
4631202.500
  0
VERTEX
  8
Unknown_Area_Type
  10
370383.500
  20
4626310.000
  0
VERTEX
  8
Unknown_Area_Type
  10
372990.000
  20
4626248.000
  0
VERTEX
  8
Unknown_Area_Type
  10
373310.500
  20
4626401.000
  0
VERTEX
  8
Unknown_Area_Type
  10
373163.000
  20
4631162.000
  0
VERTEX
  8
Unknown_Area_Type
  10
372921.500
  20
4631304.500
  0
VERTEX
  8
Unknown_Area_Type
  10
370321.000
  20
4631290.000
  0
VERTEX
  8
Unknown_Area_Type
  10
370320.000
  20
4631289.500
  0
VERTEX
  8
Unknown_Area_Type
  10
370193.500
  20
4631214.000
  0
SEQEND
  8
Unknown_Area_Type
  0
INSERT
  8
FeatureAttribs
  2
FEATURE
  41
1
  42
1
  43
1
  50
0
  10
368800.009
  20
4628736.049
 66
1
  0
ATTRIB
  8
FeatureAttribs
 70
0
  1
PNOA-H_AMS_1956-57_33k_ES_PAN_2
  2
NAME
  10
368800.009
  20
4628736.049
 40
33.92981
  0
SEQEND
  0
POLYLINE
  8
Unknown_Area_Type
  70
1
  66
1
  0
VERTEX
  8
Unknown_Area_Type
  10
367637.000
  20
4631347.500
  0
VERTEX
  8
Unknown_Area_Type
  10
370193.000
  20
4631213.000
  0
VERTEX
  8
Unknown_Area_Type
  10
370383.500
  20
4626309.500
  0
VERTEX
  8
Unknown_Area_Type
  10
370185.000
  20
4626206.500
  0
VERTEX
  8
Unknown_Area_Type
  10
370175.000
  20
4626201.500
  0
VERTEX
  8
Unknown_Area_Type
  10
370114.500
  20
4626201.500
  0
VERTEX
  8
Unknown_Area_Type
  10
367383.500
  20
4626221.000
  0
VERTEX
  8
Unknown_Area_Type
  10
367255.500
  20
4631150.000
  0
VERTEX
  8
Unknown_Area_Type
  10
367636.000
  20
4631347.000
  0
VERTEX
  8
Unknown_Area_Type
  10
367637.000
  20
4631347.500
  0
SEQEND
  8
Unknown_Area_Type
  0
INSERT
  8
FeatureAttribs
  2
FEATURE
  41
1
  42
1
  43
1
  50
0
  10
368800.009
  20
4628736.049
 66
1
  0
ATTRIB
  8
FeatureAttribs
 70
0
  1
PNOA-H_AMS_1956-57_33k_ES_PAN_2
  2
NAME
  10
368800.009
  20
4628736.049
 40
33.92981
  0
SEQEND
  0
POLYLINE
  8
Unknown_Area_Type
  70
1
  66
1
  0
VERTEX
  8
Unknown_Area_Type
  10
367637.000
  20
4631347.500
  0
VERTEX
  8
Unknown_Area_Type
  10
367636.000
  20
4631347.000
  0
VERTEX
  8
Unknown_Area_Type
  10
367255.500
  20
4631150.000
  0
VERTEX
  8
Unknown_Area_Type
  10
367383.500
  20
4626221.000
  0
VERTEX
  8
Unknown_Area_Type
  10
370114.500
  20
4626201.500
  0
VERTEX
  8
Unknown_Area_Type
  10
370175.000
  20
4626201.500
  0
VERTEX
  8
Unknown_Area_Type
  10
370185.000
  20
4626206.500
  0
VERTEX
  8
Unknown_Area_Type
  10
370383.500
  20
4626309.500
  0
VERTEX
  8
Unknown_Area_Type
  10
370193.000
  20
4631213.000
  0
VERTEX
  8
Unknown_Area_Type
  10
367637.000
  20
4631347.500
  0
SEQEND
  8
Unknown_Area_Type
  0
INSERT
  8
FeatureAttribs
  2
FEATURE
  41
1
  42
1
  43
1
  50
0
  10
365802.774
  20
4628698.988
 66
1
  0
ATTRIB
  8
FeatureAttribs
 70
0
  1
PNOA-H_AMS_1956-57_33k_ES_PAN_2
  2
NAME
  10
365802.774
  20
4628698.988
 40
33.92981
  0
SEQEND
  0
POLYLINE
  8
Unknown_Area_Type
  70
1
  66
1
  0
VERTEX
  8
Unknown_Area_Type
  10
366226.000
  20
4631260.500
  0
VERTEX
  8
Unknown_Area_Type
  10
367255.500
  20
4631149.500
  0
VERTEX
  8
Unknown_Area_Type
  10
367383.500
  20
4626220.500
  0
VERTEX
  8
Unknown_Area_Type
  10
364612.000
  20
4626139.500
  0
VERTEX
  8
Unknown_Area_Type
  10
364596.000
  20
4626139.500
  0
VERTEX
  8
Unknown_Area_Type
  10
364267.500
  20
4626309.500
  0
VERTEX
  8
Unknown_Area_Type
  10
364337.500
  20
4631125.000
  0
VERTEX
  8
Unknown_Area_Type
  10
364960.000
  20
4631396.500
  0
VERTEX
  8
Unknown_Area_Type
  10
366223.500
  20
4631260.500
  0
VERTEX
  8
Unknown_Area_Type
  10
366226.000
  20
4631260.500
  0
SEQEND
  8
Unknown_Area_Type
  0
INSERT
  8
FeatureAttribs
  2
FEATURE
  41
1
  42
1
  43
1
  50
0
  10
365802.774
  20
4628698.988
 66
1
  0
ATTRIB
  8
FeatureAttribs
 70
0
  1
PNOA-H_AMS_1956-57_33k_ES_PAN_2
  2
NAME
  10
365802.774
  20
4628698.988
 40
33.92981
  0
SEQEND
  0
POLYLINE
  8
Unknown_Area_Type
  70
1
  66
1
  0
VERTEX
  8
Unknown_Area_Type
  10
366226.000
  20
4631260.500
  0
VERTEX
  8
Unknown_Area_Type
  10
366223.500
  20
4631260.500
  0
VERTEX
  8
Unknown_Area_Type
  10
364960.000
  20
4631396.500
  0
VERTEX
  8
Unknown_Area_Type
  10
364337.500
  20
4631125.000
  0
VERTEX
  8
Unknown_Area_Type
  10
364267.500
  20
4626309.500
  0
VERTEX
  8
Unknown_Area_Type
  10
364596.000
  20
4626139.500
  0
VERTEX
  8
Unknown_Area_Type
  10
364612.000
  20
4626139.500
  0
VERTEX
  8
Unknown_Area_Type
  10
367383.500
  20
4626220.500
  0
VERTEX
  8
Unknown_Area_Type
  10
367255.500
  20
4631149.500
  0
VERTEX
  8
Unknown_Area_Type
  10
366226.000
  20
4631260.500
  0
SEQEND
  8
Unknown_Area_Type
  0
INSERT
  8
FeatureAttribs
  2
FEATURE
  41
1
  42
1
  43
1
  50
0
  10
359843.545
  20
4628924.227
 66
1
  0
ATTRIB
  8
FeatureAttribs
 70
0
  1
PNOA-H_AMS_1956-57_33k_ES_PAN_2
  2
NAME
  10
359843.545
  20
4628924.227
 40
33.92981
  0
SEQEND
  0
POLYLINE
  8
Unknown_Area_Type
  70
1
  66
1
  0
VERTEX
  8
Unknown_Area_Type
  10
360082.000
  20
4631539.000
  0
VERTEX
  8
Unknown_Area_Type
  10
361430.000
  20
4631203.500
  0
VERTEX
  8
Unknown_Area_Type
  10
361191.500
  20
4626446.000
  0
VERTEX
  8
Unknown_Area_Type
  10
358693.500
  20
4626355.000
  0
VERTEX
  8
Unknown_Area_Type
  10
358282.000
  20
4626577.500
  0
VERTEX
  8
Unknown_Area_Type
  10
358487.000
  20
4631261.000
  0
VERTEX
  8
Unknown_Area_Type
  10
359729.000
  20
4631626.500
  0
VERTEX
  8
Unknown_Area_Type
  10
360081.000
  20
4631539.000
  0
VERTEX
  8
Unknown_Area_Type
  10
360082.000
  20
4631539.000
  0
SEQEND
  8
Unknown_Area_Type
  0
INSERT
  8
FeatureAttribs
  2
FEATURE
  41
1
  42
1
  43
1
  50
0
  10
359843.545
  20
4628924.227
 66
1
  0
ATTRIB
  8
FeatureAttribs
 70
0
  1
PNOA-H_AMS_1956-57_33k_ES_PAN_2
  2
NAME
  10
359843.545
  20
4628924.227
 40
33.92981
  0
SEQEND
  0
POLYLINE
  8
Unknown_Area_Type
  70
1
  66
1
  0
VERTEX
  8
Unknown_Area_Type
  10
360082.000
  20
4631539.000
  0
VERTEX
  8
Unknown_Area_Type
  10
360081.000
  20
4631539.000
  0
VERTEX
  8
Unknown_Area_Type
  10
359729.000
  20
4631626.500
  0
VERTEX
  8
Unknown_Area_Type
  10
358487.000
  20
4631261.000
  0
VERTEX
  8
Unknown_Area_Type
  10
358282.000
  20
4626577.500
  0
VERTEX
  8
Unknown_Area_Type
  10
358693.500
  20
4626355.000
  0
VERTEX
  8
Unknown_Area_Type
  10
361191.500
  20
4626446.000
  0
VERTEX
  8
Unknown_Area_Type
  10
361430.000
  20
4631203.500
  0
VERTEX
  8
Unknown_Area_Type
  10
360082.000
  20
4631539.000
  0
SEQEND
  8
Unknown_Area_Type
  0
INSERT
  8
FeatureAttribs
  2
FEATURE
  41
1
  42
1
  43
1
  50
0
  10
373539.291
  20
4620688.904
 66
1
  0
ATTRIB
  8
FeatureAttribs
 70
0
  1
PNOA-H_AMS_1956-57_33k_ES_PAN_2
  2
NAME
  10
373539.291
  20
4620688.904
 40
33.92981
  0
SEQEND
  0
POLYLINE
  8
Unknown_Area_Type
  70
1
  66
1
  0
VERTEX
  8
Unknown_Area_Type
  10
373532.406
  20
4621875.981
  0
VERTEX
  8
Unknown_Area_Type
  10
373638.500
  20
4621793.000
  0
VERTEX
  8
Unknown_Area_Type
  10
373490.451
  20
4619501.826
  0
VERTEX
  8
Unknown_Area_Type
  10
373513.814
  20
4620824.119
  0
VERTEX
  8
Unknown_Area_Type
  10
373532.406
  20
4621875.981
  0
SEQEND
  8
Unknown_Area_Type
  0
INSERT
  8
FeatureAttribs
  2
FEATURE
  41
1
  42
1
  43
1
  50
0
  10
372129.828
  20
4620040.569
 66
1
  0
ATTRIB
  8
FeatureAttribs
 70
0
  1
PNOA-H_AMS_1956-57_33k_ES_PAN_2
  2
NAME
  10
372129.828
  20
4620040.569
 40
33.92981
  0
SEQEND
  0
POLYLINE
  8
Unknown_Area_Type
  70
1
  66
1
  0
VERTEX
  8
Unknown_Area_Type
  10
373532.406
  20
4621875.981
  0
VERTEX
  8
Unknown_Area_Type
  10
373513.814
  20
4620824.119
  0
VERTEX
  8
Unknown_Area_Type
  10
373490.451
  20
4619501.826
  0
VERTEX
  8
Unknown_Area_Type
  10
373390.500
  20
4617955.000
  0
VERTEX
  8
Unknown_Area_Type
  10
373361.500
  20
4617940.500
  0
VERTEX
  8
Unknown_Area_Type
  10
370661.000
  20
4618083.500
  0
VERTEX
  8
Unknown_Area_Type
  10
370789.500
  20
4621865.000
  0
VERTEX
  8
Unknown_Area_Type
  10
373025.500
  20
4622270.000
  0
VERTEX
  8
Unknown_Area_Type
  10
373028.000
  20
4622270.500
  0
VERTEX
  8
Unknown_Area_Type
  10
373532.406
  20
4621875.981
  0
SEQEND
  8
Unknown_Area_Type
  0
INSERT
  8
FeatureAttribs
  2
FEATURE
  41
1
  42
1
  43
1
  50
0
  10
372129.828
  20
4620040.569
 66
1
  0
ATTRIB
  8
FeatureAttribs
 70
0
  1
PNOA-H_AMS_1956-57_33k_ES_PAN_2
  2
NAME
  10
372129.828
  20
4620040.569
 40
33.92981
  0
SEQEND
  0
POLYLINE
  8
Unknown_Area_Type
  70
1
  66
1
  0
VERTEX
  8
Unknown_Area_Type
  10
373532.406
  20
4621875.981
  0
VERTEX
  8
Unknown_Area_Type
  10
373028.000
  20
4622270.500
  0
VERTEX
  8
Unknown_Area_Type
  10
373025.500
  20
4622270.000
  0
VERTEX
  8
Unknown_Area_Type
  10
370789.500
  20
4621865.000
  0
VERTEX
  8
Unknown_Area_Type
  10
370661.000
  20
4618083.500
  0
VERTEX
  8
Unknown_Area_Type
  10
373361.500
  20
4617940.500
  0
VERTEX
  8
Unknown_Area_Type
  10
373390.500
  20
4617955.000
  0
VERTEX
  8
Unknown_Area_Type
  10
373490.451
  20
4619501.826
  0
VERTEX
  8
Unknown_Area_Type
  10
373513.814
  20
4620824.119
  0
VERTEX
  8
Unknown_Area_Type
  10
373532.406
  20
4621875.981
  0
SEQEND
  8
Unknown_Area_Type
  0
INSERT
  8
FeatureAttribs
  2
FEATURE
  41
1
  42
1
  43
1
  50
0
  10
362794.070
  20
4628765.325
 66
1
  0
ATTRIB
  8
FeatureAttribs
 70
0
  1
PNOA-H_AMS_1956-57_33k_ES_PAN_2
  2
NAME
  10
362794.070
  20
4628765.325
 40
33.92981
  0
SEQEND
  0
POLYLINE
  8
Unknown_Area_Type
  70
1
  66
1
  0
VERTEX
  8
Unknown_Area_Type
  10
362129.000
  20
4631450.500
  0
VERTEX
  8
Unknown_Area_Type
  10
362300.000
  20
4631511.000
  0
VERTEX
  8
Unknown_Area_Type
  10
362305.500
  20
4631512.000
  0
VERTEX
  8
Unknown_Area_Type
  10
364337.500
  20
4631125.000
  0
VERTEX
  8
Unknown_Area_Type
  10
364267.500
  20
4626309.500
  0
VERTEX
  8
Unknown_Area_Type
  10
361721.000
  20
4626166.000
  0
VERTEX
  8
Unknown_Area_Type
  10
361191.500
  20
4626445.500
  0
VERTEX
  8
Unknown_Area_Type
  10
361430.000
  20
4631203.500
  0
VERTEX
  8
Unknown_Area_Type
  10
362127.500
  20
4631450.000
  0
VERTEX
  8
Unknown_Area_Type
  10
362129.000
  20
4631450.500
  0
SEQEND
  8
Unknown_Area_Type
  0
INSERT
  8
FeatureAttribs
  2
FEATURE
  41
1
  42
1
  43
1
  50
0
  10
362794.070
  20
4628765.325
 66
1
  0
ATTRIB
  8
FeatureAttribs
 70
0
  1
PNOA-H_AMS_1956-57_33k_ES_PAN_2
  2
NAME
  10
362794.070
  20
4628765.325
 40
33.92981
  0
SEQEND
  0
POLYLINE
  8
Unknown_Area_Type
  70
1
  66
1
  0
VERTEX
  8
Unknown_Area_Type
  10
362129.000
  20
4631450.500
  0
VERTEX
  8
Unknown_Area_Type
  10
362127.500
  20
4631450.000
  0
VERTEX
  8
Unknown_Area_Type
  10
361430.000
  20
4631203.500
  0
VERTEX
  8
Unknown_Area_Type
  10
361191.500
  20
4626445.500
  0
VERTEX
  8
Unknown_Area_Type
  10
361721.000
  20
4626166.000
  0
VERTEX
  8
Unknown_Area_Type
  10
364267.500
  20
4626309.500
  0
VERTEX
  8
Unknown_Area_Type
  10
364337.500
  20
4631125.000
  0
VERTEX
  8
Unknown_Area_Type
  10
362305.500
  20
4631512.000
  0
VERTEX
  8
Unknown_Area_Type
  10
362300.000
  20
4631511.000
  0
VERTEX
  8
Unknown_Area_Type
  10
362129.000
  20
4631450.500
  0
SEQEND
  8
Unknown_Area_Type
  0
INSERT
  8
FeatureAttribs
  2
FEATURE
  41
1
  42
1
  43
1
  50
0
  10
348214.046
  20
4629410.367
 66
1
  0
ATTRIB
  8
FeatureAttribs
 70
0
  1
PNOA-H_AMS_1956-57_33k_ES_PAN_2
  2
NAME
  10
348214.046
  20
4629410.367
 40
33.92981
  0
SEQEND
  0
POLYLINE
  8
Unknown_Area_Type
  70
1
  66
1
  0
VERTEX
  8
Unknown_Area_Type
  10
346857.000
  20
4631701.000
  0
VERTEX
  8
Unknown_Area_Type
  10
349257.000
  20
4631838.500
  0
VERTEX
  8
Unknown_Area_Type
  10
349266.000
  20
4631839.000
  0
VERTEX
  8
Unknown_Area_Type
  10
349270.000
  20
4631839.000
  0
VERTEX
  8
Unknown_Area_Type
  10
349620.000
  20
4631662.000
  0
VERTEX
  8
Unknown_Area_Type
  10
349559.000
  20
4627119.000
  0
VERTEX
  8
Unknown_Area_Type
  10
347613.500
  20
4626931.000
  0
VERTEX
  8
Unknown_Area_Type
  10
347611.000
  20
4626931.000
  0
VERTEX
  8
Unknown_Area_Type
  10
347592.500
  20
4626940.000
  0
VERTEX
  8
Unknown_Area_Type
  10
346790.000
  20
4627335.000
  0
VERTEX
  8
Unknown_Area_Type
  10
346857.000
  20
4631701.000
  0
SEQEND
  8
Unknown_Area_Type
  0
INSERT
  8
FeatureAttribs
  2
FEATURE
  41
1
  42
1
  43
1
  50
0
  10
348214.046
  20
4629410.367
 66
1
  0
ATTRIB
  8
FeatureAttribs
 70
0
  1
PNOA-H_AMS_1956-57_33k_ES_PAN_2
  2
NAME
  10
348214.046
  20
4629410.367
 40
33.92981
  0
SEQEND
  0
POLYLINE
  8
Unknown_Area_Type
  70
1
  66
1
  0
VERTEX
  8
Unknown_Area_Type
  10
346857.000
  20
4631701.000
  0
VERTEX
  8
Unknown_Area_Type
  10
346790.000
  20
4627335.000
  0
VERTEX
  8
Unknown_Area_Type
  10
347592.500
  20
4626940.000
  0
VERTEX
  8
Unknown_Area_Type
  10
347611.000
  20
4626931.000
  0
VERTEX
  8
Unknown_Area_Type
  10
347613.500
  20
4626931.000
  0
VERTEX
  8
Unknown_Area_Type
  10
349559.000
  20
4627119.000
  0
VERTEX
  8
Unknown_Area_Type
  10
349620.000
  20
4631662.000
  0
VERTEX
  8
Unknown_Area_Type
  10
349270.000
  20
4631839.000
  0
VERTEX
  8
Unknown_Area_Type
  10
349266.000
  20
4631839.000
  0
VERTEX
  8
Unknown_Area_Type
  10
349257.000
  20
4631838.500
  0
VERTEX
  8
Unknown_Area_Type
  10
346857.000
  20
4631701.000
  0
SEQEND
  8
Unknown_Area_Type
  0
INSERT
  8
FeatureAttribs
  2
FEATURE
  41
1
  42
1
  43
1
  50
0
  10
366422.183
  20
4620147.079
 66
1
  0
ATTRIB
  8
FeatureAttribs
 70
0
  1
PNOA-H_AMS_1956-57_33k_ES_PAN_2
  2
NAME
  10
366422.183
  20
4620147.079
 40
33.92981
  0
SEQEND
  0
POLYLINE
  8
Unknown_Area_Type
  70
1
  66
1
  0
VERTEX
  8
Unknown_Area_Type
  10
367368.000
  20
4622347.500
  0
VERTEX
  8
Unknown_Area_Type
  10
367374.000
  20
4622343.500
  0
VERTEX
  8
Unknown_Area_Type
  10
367931.500
  20
4621858.000
  0
VERTEX
  8
Unknown_Area_Type
  10
367822.000
  20
4618180.000
  0
VERTEX
  8
Unknown_Area_Type
  10
367664.000
  20
4618104.000
  0
VERTEX
  8
Unknown_Area_Type
  10
364918.000
  20
4618221.000
  0
VERTEX
  8
Unknown_Area_Type
  10
364914.500
  20
4618222.000
  0
VERTEX
  8
Unknown_Area_Type
  10
364849.500
  20
4618261.500
  0
VERTEX
  8
Unknown_Area_Type
  10
364995.000
  20
4621940.500
  0
VERTEX
  8
Unknown_Area_Type
  10
367365.000
  20
4622347.000
  0
VERTEX
  8
Unknown_Area_Type
  10
367368.000
  20
4622347.500
  0
SEQEND
  8
Unknown_Area_Type
  0
INSERT
  8
FeatureAttribs
  2
FEATURE
  41
1
  42
1
  43
1
  50
0
  10
366422.183
  20
4620147.079
 66
1
  0
ATTRIB
  8
FeatureAttribs
 70
0
  1
PNOA-H_AMS_1956-57_33k_ES_PAN_2
  2
NAME
  10
366422.183
  20
4620147.079
 40
33.92981
  0
SEQEND
  0
POLYLINE
  8
Unknown_Area_Type
  70
1
  66
1
  0
VERTEX
  8
Unknown_Area_Type
  10
367368.000
  20
4622347.500
  0
VERTEX
  8
Unknown_Area_Type
  10
367365.000
  20
4622347.000
  0
VERTEX
  8
Unknown_Area_Type
  10
364995.000
  20
4621940.500
  0
VERTEX
  8
Unknown_Area_Type
  10
364849.500
  20
4618261.500
  0
VERTEX
  8
Unknown_Area_Type
  10
364914.500
  20
4618222.000
  0
VERTEX
  8
Unknown_Area_Type
  10
364918.000
  20
4618221.000
  0
VERTEX
  8
Unknown_Area_Type
  10
367664.000
  20
4618104.000
  0
VERTEX
  8
Unknown_Area_Type
  10
367822.000
  20
4618180.000
  0
VERTEX
  8
Unknown_Area_Type
  10
367931.500
  20
4621858.000
  0
VERTEX
  8
Unknown_Area_Type
  10
367374.000
  20
4622343.500
  0
VERTEX
  8
Unknown_Area_Type
  10
367368.000
  20
4622347.500
  0
SEQEND
  8
Unknown_Area_Type
  0
INSERT
  8
FeatureAttribs
  2
FEATURE
  41
1
  42
1
  43
1
  50
0
  10
353911.918
  20
4629211.955
 66
1
  0
ATTRIB
  8
FeatureAttribs
 70
0
  1
PNOA-H_AMS_1956-57_33k_ES_PAN_2
  2
NAME
  10
353911.918
  20
4629211.955
 40
33.92981
  0
SEQEND
  0
POLYLINE
  8
Unknown_Area_Type
  70
1
  66
1
  0
VERTEX
  8
Unknown_Area_Type
  10
354433.000
  20
4631816.500
  0
VERTEX
  8
Unknown_Area_Type
  10
354437.000
  20
4631816.500
  0
VERTEX
  8
Unknown_Area_Type
  10
354445.500
  20
4631813.000
  0
VERTEX
  8
Unknown_Area_Type
  10
355529.500
  20
4631355.500
  0
VERTEX
  8
Unknown_Area_Type
  10
355291.500
  20
4626775.000
  0
VERTEX
  8
Unknown_Area_Type
  10
353030.000
  20
4626633.500
  0
VERTEX
  8
Unknown_Area_Type
  10
352383.500
  20
4626957.000
  0
VERTEX
  8
Unknown_Area_Type
  10
352439.000
  20
4631537.000
  0
VERTEX
  8
Unknown_Area_Type
  10
354429.500
  20
4631816.000
  0
VERTEX
  8
Unknown_Area_Type
  10
354433.000
  20
4631816.500
  0
SEQEND
  8
Unknown_Area_Type
  0
INSERT
  8
FeatureAttribs
  2
FEATURE
  41
1
  42
1
  43
1
  50
0
  10
353911.918
  20
4629211.955
 66
1
  0
ATTRIB
  8
FeatureAttribs
 70
0
  1
PNOA-H_AMS_1956-57_33k_ES_PAN_2
  2
NAME
  10
353911.918
  20
4629211.955
 40
33.92981
  0
SEQEND
  0
POLYLINE
  8
Unknown_Area_Type
  70
1
  66
1
  0
VERTEX
  8
Unknown_Area_Type
  10
354433.000
  20
4631816.500
  0
VERTEX
  8
Unknown_Area_Type
  10
354429.500
  20
4631816.000
  0
VERTEX
  8
Unknown_Area_Type
  10
352439.000
  20
4631537.000
  0
VERTEX
  8
Unknown_Area_Type
  10
352383.500
  20
4626957.000
  0
VERTEX
  8
Unknown_Area_Type
  10
353030.000
  20
4626633.500
  0
VERTEX
  8
Unknown_Area_Type
  10
355291.500
  20
4626775.000
  0
VERTEX
  8
Unknown_Area_Type
  10
355529.500
  20
4631355.500
  0
VERTEX
  8
Unknown_Area_Type
  10
354445.500
  20
4631813.000
  0
VERTEX
  8
Unknown_Area_Type
  10
354437.000
  20
4631816.500
  0
VERTEX
  8
Unknown_Area_Type
  10
354433.000
  20
4631816.500
  0
SEQEND
  8
Unknown_Area_Type
  0
INSERT
  8
FeatureAttribs
  2
FEATURE
  41
1
  42
1
  43
1
  50
0
  10
351002.357
  20
4629301.251
 66
1
  0
ATTRIB
  8
FeatureAttribs
 70
0
  1
PNOA-H_AMS_1956-57_33k_ES_PAN_2
  2
NAME
  10
351002.357
  20
4629301.251
 40
33.92981
  0
SEQEND
  0
POLYLINE
  8
Unknown_Area_Type
  70
1
  66
1
  0
VERTEX
  8
Unknown_Area_Type
  10
349838.000
  20
4631676.000
  0
VERTEX
  8
Unknown_Area_Type
  10
351906.500
  20
4631804.500
  0
VERTEX
  8
Unknown_Area_Type
  10
352439.000
  20
4631537.000
  0
VERTEX
  8
Unknown_Area_Type
  10
352383.500
  20
4626957.000
  0
VERTEX
  8
Unknown_Area_Type
  10
350336.000
  20
4626765.500
  0
VERTEX
  8
Unknown_Area_Type
  10
350331.000
  20
4626765.500
  0
VERTEX
  8
Unknown_Area_Type
  10
350324.000
  20
4626768.500
  0
VERTEX
  8
Unknown_Area_Type
  10
349559.000
  20
4627119.000
  0
VERTEX
  8
Unknown_Area_Type
  10
349619.500
  20
4631656.500
  0
VERTEX
  8
Unknown_Area_Type
  10
349620.000
  20
4631662.000
  0
VERTEX
  8
Unknown_Area_Type
  10
349621.000
  20
4631662.500
  0
VERTEX
  8
Unknown_Area_Type
  10
349830.000
  20
4631675.500
  0
VERTEX
  8
Unknown_Area_Type
  10
349838.000
  20
4631676.000
  0
SEQEND
  8
Unknown_Area_Type
  0
INSERT
  8
FeatureAttribs
  2
FEATURE
  41
1
  42
1
  43
1
  50
0
  10
351002.357
  20
4629301.251
 66
1
  0
ATTRIB
  8
FeatureAttribs
 70
0
  1
PNOA-H_AMS_1956-57_33k_ES_PAN_2
  2
NAME
  10
351002.357
  20
4629301.251
 40
33.92981
  0
SEQEND
  0
POLYLINE
  8
Unknown_Area_Type
  70
1
  66
1
  0
VERTEX
  8
Unknown_Area_Type
  10
349838.000
  20
4631676.000
  0
VERTEX
  8
Unknown_Area_Type
  10
349830.000
  20
4631675.500
  0
VERTEX
  8
Unknown_Area_Type
  10
349621.000
  20
4631662.500
  0
VERTEX
  8
Unknown_Area_Type
  10
349620.000
  20
4631662.000
  0
VERTEX
  8
Unknown_Area_Type
  10
349619.500
  20
4631656.500
  0
VERTEX
  8
Unknown_Area_Type
  10
349559.000
  20
4627119.000
  0
VERTEX
  8
Unknown_Area_Type
  10
350324.000
  20
4626768.500
  0
VERTEX
  8
Unknown_Area_Type
  10
350331.000
  20
4626765.500
  0
VERTEX
  8
Unknown_Area_Type
  10
350336.000
  20
4626765.500
  0
VERTEX
  8
Unknown_Area_Type
  10
352383.500
  20
4626957.000
  0
VERTEX
  8
Unknown_Area_Type
  10
352439.000
  20
4631537.000
  0
VERTEX
  8
Unknown_Area_Type
  10
351906.500
  20
4631804.500
  0
VERTEX
  8
Unknown_Area_Type
  10
349838.000
  20
4631676.000
  0
SEQEND
  8
Unknown_Area_Type
  0
INSERT
  8
FeatureAttribs
  2
FEATURE
  41
1
  42
1
  43
1
  50
0
  10
360642.271
  20
4620350.855
 66
1
  0
ATTRIB
  8
FeatureAttribs
 70
0
  1
PNOA-H_AMS_1956-57_33k_ES_PAN_2
  2
NAME
  10
360642.271
  20
4620350.855
 40
33.92981
  0
SEQEND
  0
POLYLINE
  8
Unknown_Area_Type
  70
1
  66
1
  0
VERTEX
  8
Unknown_Area_Type
  10
361496.500
  20
4622550.000
  0
VERTEX
  8
Unknown_Area_Type
  10
361499.500
  20
4622550.000
  0
VERTEX
  8
Unknown_Area_Type
  10
361506.000
  20
4622544.000
  0
VERTEX
  8
Unknown_Area_Type
  10
362014.500
  20
4622062.000
  0
VERTEX
  8
Unknown_Area_Type
  10
362037.500
  20
4618342.500
  0
VERTEX
  8
Unknown_Area_Type
  10
359218.500
  20
4618407.000
  0
VERTEX
  8
Unknown_Area_Type
  10
359228.500
  20
4622123.000
  0
VERTEX
  8
Unknown_Area_Type
  10
361493.500
  20
4622549.500
  0
VERTEX
  8
Unknown_Area_Type
  10
361496.500
  20
4622550.000
  0
SEQEND
  8
Unknown_Area_Type
  0
INSERT
  8
FeatureAttribs
  2
FEATURE
  41
1
  42
1
  43
1
  50
0
  10
360642.271
  20
4620350.855
 66
1
  0
ATTRIB
  8
FeatureAttribs
 70
0
  1
PNOA-H_AMS_1956-57_33k_ES_PAN_2
  2
NAME
  10
360642.271
  20
4620350.855
 40
33.92981
  0
SEQEND
  0
POLYLINE
  8
Unknown_Area_Type
  70
1
  66
1
  0
VERTEX
  8
Unknown_Area_Type
  10
361496.500
  20
4622550.000
  0
VERTEX
  8
Unknown_Area_Type
  10
361493.500
  20
4622549.500
  0
VERTEX
  8
Unknown_Area_Type
  10
359228.500
  20
4622123.000
  0
VERTEX
  8
Unknown_Area_Type
  10
359218.500
  20
4618407.000
  0
VERTEX
  8
Unknown_Area_Type
  10
362037.500
  20
4618342.500
  0
VERTEX
  8
Unknown_Area_Type
  10
362014.500
  20
4622062.000
  0
VERTEX
  8
Unknown_Area_Type
  10
361506.000
  20
4622544.000
  0
VERTEX
  8
Unknown_Area_Type
  10
361499.500
  20
4622550.000
  0
VERTEX
  8
Unknown_Area_Type
  10
361496.500
  20
4622550.000
  0
SEQEND
  8
Unknown_Area_Type
  0
INSERT
  8
FeatureAttribs
  2
FEATURE
  41
1
  42
1
  43
1
  50
0
  10
369331.429
  20
4620101.879
 66
1
  0
ATTRIB
  8
FeatureAttribs
 70
0
  1
PNOA-H_AMS_1956-57_33k_ES_PAN_2
  2
NAME
  10
369331.429
  20
4620101.879
 40
33.92981
  0
SEQEND
  0
POLYLINE
  8
Unknown_Area_Type
  70
1
  66
1
  0
VERTEX
  8
Unknown_Area_Type
  10
368273.000
  20
4621931.500
  0
VERTEX
  8
Unknown_Area_Type
  10
370201.500
  20
4622348.500
  0
VERTEX
  8
Unknown_Area_Type
  10
370789.500
  20
4621865.500
  0
VERTEX
  8
Unknown_Area_Type
  10
370661.000
  20
4618083.000
  0
VERTEX
  8
Unknown_Area_Type
  10
370502.500
  20
4618008.500
  0
VERTEX
  8
Unknown_Area_Type
  10
367822.000
  20
4618180.000
  0
VERTEX
  8
Unknown_Area_Type
  10
367931.500
  20
4621857.500
  0
VERTEX
  8
Unknown_Area_Type
  10
368271.000
  20
4621931.000
  0
VERTEX
  8
Unknown_Area_Type
  10
368273.000
  20
4621931.500
  0
SEQEND
  8
Unknown_Area_Type
  0
INSERT
  8
FeatureAttribs
  2
FEATURE
  41
1
  42
1
  43
1
  50
0
  10
369331.429
  20
4620101.879
 66
1
  0
ATTRIB
  8
FeatureAttribs
 70
0
  1
PNOA-H_AMS_1956-57_33k_ES_PAN_2
  2
NAME
  10
369331.429
  20
4620101.879
 40
33.92981
  0
SEQEND
  0
POLYLINE
  8
Unknown_Area_Type
  70
1
  66
1
  0
VERTEX
  8
Unknown_Area_Type
  10
368273.000
  20
4621931.500
  0
VERTEX
  8
Unknown_Area_Type
  10
368271.000
  20
4621931.000
  0
VERTEX
  8
Unknown_Area_Type
  10
367931.500
  20
4621857.500
  0
VERTEX
  8
Unknown_Area_Type
  10
367822.000
  20
4618180.000
  0
VERTEX
  8
Unknown_Area_Type
  10
370502.500
  20
4618008.500
  0
VERTEX
  8
Unknown_Area_Type
  10
370661.000
  20
4618083.000
  0
VERTEX
  8
Unknown_Area_Type
  10
370789.500
  20
4621865.500
  0
VERTEX
  8
Unknown_Area_Type
  10
370201.500
  20
4622348.500
  0
VERTEX
  8
Unknown_Area_Type
  10
368273.000
  20
4621931.500
  0
SEQEND
  8
Unknown_Area_Type
  0
INSERT
  8
FeatureAttribs
  2
FEATURE
  41
1
  42
1
  43
1
  50
0
  10
357902.491
  20
4620430.723
 66
1
  0
ATTRIB
  8
FeatureAttribs
 70
0
  1
PNOA-H_AMS_1956-57_33k_ES_PAN_2
  2
NAME
  10
357902.491
  20
4620430.723
 40
33.92981
  0
SEQEND
  0
POLYLINE
  8
Unknown_Area_Type
  70
1
  66
1
  0
VERTEX
  8
Unknown_Area_Type
  10
358496.500
  20
4622689.000
  0
VERTEX
  8
Unknown_Area_Type
  10
359228.500
  20
4622123.000
  0
VERTEX
  8
Unknown_Area_Type
  10
359219.000
  20
4618488.000
  0
VERTEX
  8
Unknown_Area_Type
  10
359218.500
  20
4618407.000
  0
VERTEX
  8
Unknown_Area_Type
  10
359211.000
  20
4618403.000
  0
VERTEX
  8
Unknown_Area_Type
  10
356504.000
  20
4618500.000
  0
VERTEX
  8
Unknown_Area_Type
  10
356589.000
  20
4622174.000
  0
VERTEX
  8
Unknown_Area_Type
  10
358495.000
  20
4622688.500
  0
VERTEX
  8
Unknown_Area_Type
  10
358496.500
  20
4622689.000
  0
SEQEND
  8
Unknown_Area_Type
  0
INSERT
  8
FeatureAttribs
  2
FEATURE
  41
1
  42
1
  43
1
  50
0
  10
357902.491
  20
4620430.723
 66
1
  0
ATTRIB
  8
FeatureAttribs
 70
0
  1
PNOA-H_AMS_1956-57_33k_ES_PAN_2
  2
NAME
  10
357902.491
  20
4620430.723
 40
33.92981
  0
SEQEND
  0
POLYLINE
  8
Unknown_Area_Type
  70
1
  66
1
  0
VERTEX
  8
Unknown_Area_Type
  10
358496.500
  20
4622689.000
  0
VERTEX
  8
Unknown_Area_Type
  10
358495.000
  20
4622688.500
  0
VERTEX
  8
Unknown_Area_Type
  10
356589.000
  20
4622174.000
  0
VERTEX
  8
Unknown_Area_Type
  10
356504.000
  20
4618500.000
  0
VERTEX
  8
Unknown_Area_Type
  10
359211.000
  20
4618403.000
  0
VERTEX
  8
Unknown_Area_Type
  10
359218.500
  20
4618407.000
  0
VERTEX
  8
Unknown_Area_Type
  10
359219.000
  20
4618488.000
  0
VERTEX
  8
Unknown_Area_Type
  10
359228.500
  20
4622123.000
  0
VERTEX
  8
Unknown_Area_Type
  10
358496.500
  20
4622689.000
  0
SEQEND
  8
Unknown_Area_Type
  0
INSERT
  8
FeatureAttribs
  2
FEATURE
  41
1
  42
1
  43
1
  50
0
  10
363493.539
  20
4620285.481
 66
1
  0
ATTRIB
  8
FeatureAttribs
 70
0
  1
PNOA-H_AMS_1956-57_33k_ES_PAN_2
  2
NAME
  10
363493.539
  20
4620285.481
 40
33.92981
  0
SEQEND
  0
POLYLINE
  8
Unknown_Area_Type
  70
1
  66
1
  0
VERTEX
  8
Unknown_Area_Type
  10
362127.000
  20
4622078.000
  0
VERTEX
  8
Unknown_Area_Type
  10
364508.500
  20
4622421.500
  0
VERTEX
  8
Unknown_Area_Type
  10
364995.000
  20
4621940.500
  0
VERTEX
  8
Unknown_Area_Type
  10
364849.500
  20
4618261.500
  0
VERTEX
  8
Unknown_Area_Type
  10
362069.000
  20
4618329.500
  0
VERTEX
  8
Unknown_Area_Type
  10
362058.500
  20
4618330.000
  0
VERTEX
  8
Unknown_Area_Type
  10
362037.500
  20
4618342.500
  0
VERTEX
  8
Unknown_Area_Type
  10
362014.500
  20
4622061.500
  0
VERTEX
  8
Unknown_Area_Type
  10
362124.000
  20
4622077.500
  0
VERTEX
  8
Unknown_Area_Type
  10
362127.000
  20
4622078.000
  0
SEQEND
  8
Unknown_Area_Type
  0
INSERT
  8
FeatureAttribs
  2
FEATURE
  41
1
  42
1
  43
1
  50
0
  10
363493.539
  20
4620285.481
 66
1
  0
ATTRIB
  8
FeatureAttribs
 70
0
  1
PNOA-H_AMS_1956-57_33k_ES_PAN_2
  2
NAME
  10
363493.539
  20
4620285.481
 40
33.92981
  0
SEQEND
  0
POLYLINE
  8
Unknown_Area_Type
  70
1
  66
1
  0
VERTEX
  8
Unknown_Area_Type
  10
362127.000
  20
4622078.000
  0
VERTEX
  8
Unknown_Area_Type
  10
362124.000
  20
4622077.500
  0
VERTEX
  8
Unknown_Area_Type
  10
362014.500
  20
4622061.500
  0
VERTEX
  8
Unknown_Area_Type
  10
362037.500
  20
4618342.500
  0
VERTEX
  8
Unknown_Area_Type
  10
362058.500
  20
4618330.000
  0
VERTEX
  8
Unknown_Area_Type
  10
362069.000
  20
4618329.500
  0
VERTEX
  8
Unknown_Area_Type
  10
364849.500
  20
4618261.500
  0
VERTEX
  8
Unknown_Area_Type
  10
364995.000
  20
4621940.500
  0
VERTEX
  8
Unknown_Area_Type
  10
364508.500
  20
4622421.500
  0
VERTEX
  8
Unknown_Area_Type
  10
362127.000
  20
4622078.000
  0
SEQEND
  8
Unknown_Area_Type
  0
INSERT
  8
FeatureAttribs
  2
FEATURE
  41
1
  42
1
  43
1
  50
0
  10
352568.491
  20
4620626.413
 66
1
  0
ATTRIB
  8
FeatureAttribs
 70
0
  1
PNOA-H_AMS_1956-57_33k_ES_PAN_2
  2
NAME
  10
352568.491
  20
4620626.413
 40
33.92981
  0
SEQEND
  0
POLYLINE
  8
Unknown_Area_Type
  70
1
  66
1
  0
VERTEX
  8
Unknown_Area_Type
  10
351889.500
  20
4622647.000
  0
VERTEX
  8
Unknown_Area_Type
  10
352709.500
  20
4622954.000
  0
VERTEX
  8
Unknown_Area_Type
  10
353966.500
  20
4622260.500
  0
VERTEX
  8
Unknown_Area_Type
  10
353847.000
  20
4618642.500
  0
VERTEX
  8
Unknown_Area_Type
  10
353445.500
  20
4618468.500
  0
VERTEX
  8
Unknown_Area_Type
  10
353437.500
  20
4618468.500
  0
VERTEX
  8
Unknown_Area_Type
  10
351116.500
  20
4618778.000
  0
VERTEX
  8
Unknown_Area_Type
  10
351298.000
  20
4622425.500
  0
VERTEX
  8
Unknown_Area_Type
  10
351888.000
  20
4622646.500
  0
VERTEX
  8
Unknown_Area_Type
  10
351889.500
  20
4622647.000
  0
SEQEND
  8
Unknown_Area_Type
  0
INSERT
  8
FeatureAttribs
  2
FEATURE
  41
1
  42
1
  43
1
  50
0
  10
352568.491
  20
4620626.413
 66
1
  0
ATTRIB
  8
FeatureAttribs
 70
0
  1
PNOA-H_AMS_1956-57_33k_ES_PAN_2
  2
NAME
  10
352568.491
  20
4620626.413
 40
33.92981
  0
SEQEND
  0
POLYLINE
  8
Unknown_Area_Type
  70
1
  66
1
  0
VERTEX
  8
Unknown_Area_Type
  10
351889.500
  20
4622647.000
  0
VERTEX
  8
Unknown_Area_Type
  10
351888.000
  20
4622646.500
  0
VERTEX
  8
Unknown_Area_Type
  10
351298.000
  20
4622425.500
  0
VERTEX
  8
Unknown_Area_Type
  10
351116.500
  20
4618778.000
  0
VERTEX
  8
Unknown_Area_Type
  10
353437.500
  20
4618468.500
  0
VERTEX
  8
Unknown_Area_Type
  10
353445.500
  20
4618468.500
  0
VERTEX
  8
Unknown_Area_Type
  10
353847.000
  20
4618642.500
  0
VERTEX
  8
Unknown_Area_Type
  10
353966.500
  20
4622260.500
  0
VERTEX
  8
Unknown_Area_Type
  10
352709.500
  20
4622954.000
  0
VERTEX
  8
Unknown_Area_Type
  10
351889.500
  20
4622647.000
  0
SEQEND
  8
Unknown_Area_Type
  0
INSERT
  8
FeatureAttribs
  2
FEATURE
  41
1
  42
1
  43
1
  50
0
  10
349841.786
  20
4620773.126
 66
1
  0
ATTRIB
  8
FeatureAttribs
 70
0
  1
PNOA-H_AMS_1956-57_33k_ES_PAN_2
  2
NAME
  10
349841.786
  20
4620773.126
 40
33.92981
  0
SEQEND
  0
POLYLINE
  8
Unknown_Area_Type
  70
1
  66
1
  0
VERTEX
  8
Unknown_Area_Type
  10
349899.500
  20
4623111.500
  0
VERTEX
  8
Unknown_Area_Type
  10
351298.000
  20
4622425.000
  0
VERTEX
  8
Unknown_Area_Type
  10
351116.500
  20
4618778.000
  0
VERTEX
  8
Unknown_Area_Type
  10
350576.000
  20
4618554.500
  0
VERTEX
  8
Unknown_Area_Type
  10
348376.000
  20
4618896.500
  0
VERTEX
  8
Unknown_Area_Type
  10
348558.500
  20
4622663.000
  0
VERTEX
  8
Unknown_Area_Type
  10
349898.000
  20
4623111.000
  0
VERTEX
  8
Unknown_Area_Type
  10
349899.500
  20
4623111.500
  0
SEQEND
  8
Unknown_Area_Type
  0
INSERT
  8
FeatureAttribs
  2
FEATURE
  41
1
  42
1
  43
1
  50
0
  10
349841.786
  20
4620773.126
 66
1
  0
ATTRIB
  8
FeatureAttribs
 70
0
  1
PNOA-H_AMS_1956-57_33k_ES_PAN_2
  2
NAME
  10
349841.786
  20
4620773.126
 40
33.92981
  0
SEQEND
  0
POLYLINE
  8
Unknown_Area_Type
  70
1
  66
1
  0
VERTEX
  8
Unknown_Area_Type
  10
349899.500
  20
4623111.500
  0
VERTEX
  8
Unknown_Area_Type
  10
349898.000
  20
4623111.000
  0
VERTEX
  8
Unknown_Area_Type
  10
348558.500
  20
4622663.000
  0
VERTEX
  8
Unknown_Area_Type
  10
348376.000
  20
4618896.500
  0
VERTEX
  8
Unknown_Area_Type
  10
350576.000
  20
4618554.500
  0
VERTEX
  8
Unknown_Area_Type
  10
351116.500
  20
4618778.000
  0
VERTEX
  8
Unknown_Area_Type
  10
351298.000
  20
4622425.000
  0
VERTEX
  8
Unknown_Area_Type
  10
349899.500
  20
4623111.500
  0
SEQEND
  8
Unknown_Area_Type
  0
INSERT
  8
FeatureAttribs
  2
FEATURE
  41
1
  42
1
  43
1
  50
0
  10
355245.485
  20
4620510.491
 66
1
  0
ATTRIB
  8
FeatureAttribs
 70
0
  1
PNOA-H_AMS_1956-57_33k_ES_PAN_2
  2
NAME
  10
355245.485
  20
4620510.491
 40
33.92981
  0
SEQEND
  0
POLYLINE
  8
Unknown_Area_Type
  70
1
  66
1
  0
VERTEX
  8
Unknown_Area_Type
  10
353937.500
  20
4621389.000
  0
VERTEX
  8
Unknown_Area_Type
  10
353966.500
  20
4622260.500
  0
VERTEX
  8
Unknown_Area_Type
  10
355590.000
  20
4622794.500
  0
VERTEX
  8
Unknown_Area_Type
  10
356589.000
  20
4622174.000
  0
VERTEX
  8
Unknown_Area_Type
  10
356504.000
  20
4618500.000
  0
VERTEX
  8
Unknown_Area_Type
  10
356294.000
  20
4618397.500
  0
VERTEX
  8
Unknown_Area_Type
  10
353847.000
  20
4618642.500
  0
VERTEX
  8
Unknown_Area_Type
  10
353937.500
  20
4621374.000
  0
VERTEX
  8
Unknown_Area_Type
  10
353937.500
  20
4621389.000
  0
SEQEND
  8
Unknown_Area_Type
  0
INSERT
  8
FeatureAttribs
  2
FEATURE
  41
1
  42
1
  43
1
  50
0
  10
355245.485
  20
4620510.491
 66
1
  0
ATTRIB
  8
FeatureAttribs
 70
0
  1
PNOA-H_AMS_1956-57_33k_ES_PAN_2
  2
NAME
  10
355245.485
  20
4620510.491
 40
33.92981
  0
SEQEND
  0
POLYLINE
  8
Unknown_Area_Type
  70
1
  66
1
  0
VERTEX
  8
Unknown_Area_Type
  10
353937.500
  20
4621389.000
  0
VERTEX
  8
Unknown_Area_Type
  10
353937.500
  20
4621374.000
  0
VERTEX
  8
Unknown_Area_Type
  10
353847.000
  20
4618642.500
  0
VERTEX
  8
Unknown_Area_Type
  10
356294.000
  20
4618397.500
  0
VERTEX
  8
Unknown_Area_Type
  10
356504.000
  20
4618500.000
  0
VERTEX
  8
Unknown_Area_Type
  10
356589.000
  20
4622174.000
  0
VERTEX
  8
Unknown_Area_Type
  10
355590.000
  20
4622794.500
  0
VERTEX
  8
Unknown_Area_Type
  10
353966.500
  20
4622260.500
  0
VERTEX
  8
Unknown_Area_Type
  10
353937.500
  20
4621389.000
  0
SEQEND
  8
Unknown_Area_Type
  0
INSERT
  8
FeatureAttribs
  2
FEATURE
  41
1
  42
1
  43
1
  50
0
  10
356897.936
  20
4629033.666
 66
1
  0
ATTRIB
  8
FeatureAttribs
 70
0
  1
PNOA-H_AMS_1956-57_33k_ES_PAN_2
  2
NAME
  10
356897.936
  20
4629033.666
 40
33.92981
  0
SEQEND
  0
POLYLINE
  8
Unknown_Area_Type
  70
1
  66
1
  0
VERTEX
  8
Unknown_Area_Type
  10
355984.500
  20
4631461.000
  0
VERTEX
  8
Unknown_Area_Type
  10
357091.000
  20
4631716.000
  0
VERTEX
  8
Unknown_Area_Type
  10
358487.000
  20
4631261.500
  0
VERTEX
  8
Unknown_Area_Type
  10
358282.000
  20
4626577.500
  0
VERTEX
  8
Unknown_Area_Type
  10
355791.000
  20
4626514.000
  0
VERTEX
  8
Unknown_Area_Type
  10
355292.000
  20
4626775.000
  0
VERTEX
  8
Unknown_Area_Type
  10
355529.500
  20
4631355.500
  0
VERTEX
  8
Unknown_Area_Type
  10
355982.500
  20
4631460.500
  0
VERTEX
  8
Unknown_Area_Type
  10
355984.500
  20
4631461.000
  0
SEQEND
  8
Unknown_Area_Type
  0
INSERT
  8
FeatureAttribs
  2
FEATURE
  41
1
  42
1
  43
1
  50
0
  10
356897.936
  20
4629033.666
 66
1
  0
ATTRIB
  8
FeatureAttribs
 70
0
  1
PNOA-H_AMS_1956-57_33k_ES_PAN_2
  2
NAME
  10
356897.936
  20
4629033.666
 40
33.92981
  0
SEQEND
  0
POLYLINE
  8
Unknown_Area_Type
  70
1
  66
1
  0
VERTEX
  8
Unknown_Area_Type
  10
355984.500
  20
4631461.000
  0
VERTEX
  8
Unknown_Area_Type
  10
355982.500
  20
4631460.500
  0
VERTEX
  8
Unknown_Area_Type
  10
355529.500
  20
4631355.500
  0
VERTEX
  8
Unknown_Area_Type
  10
355292.000
  20
4626775.000
  0
VERTEX
  8
Unknown_Area_Type
  10
355791.000
  20
4626514.000
  0
VERTEX
  8
Unknown_Area_Type
  10
358282.000
  20
4626577.500
  0
VERTEX
  8
Unknown_Area_Type
  10
358487.000
  20
4631261.500
  0
VERTEX
  8
Unknown_Area_Type
  10
357091.000
  20
4631716.000
  0
VERTEX
  8
Unknown_Area_Type
  10
355984.500
  20
4631461.000
  0
SEQEND
  8
Unknown_Area_Type
  0
INSERT
  8
FeatureAttribs
  2
FEATURE
  41
1
  42
1
  43
1
  50
0
  10
345734.777
  20
4620918.097
 66
1
  0
ATTRIB
  8
FeatureAttribs
 70
0
  1
PNOA-H_AMS_1956-57_33k_ES_PAN_2
  2
NAME
  10
345734.777
  20
4620918.097
 40
33.92981
  0
SEQEND
  0
POLYLINE
  8
Unknown_Area_Type
  70
1
  66
1
  0
VERTEX
  8
Unknown_Area_Type
  10
345737.626
  20
4618946.156
  0
VERTEX
  8
Unknown_Area_Type
  10
345640.331
  20
4618961.201
  0
VERTEX
  8
Unknown_Area_Type
  10
345640.331
  20
4619556.042
  0
VERTEX
  8
Unknown_Area_Type
  10
345745.500
  20
4622472.500
  0
VERTEX
  8
Unknown_Area_Type
  10
345745.500
  20
4622486.500
  0
VERTEX
  8
Unknown_Area_Type
  10
345759.500
  20
4622871.000
  0
VERTEX
  8
Unknown_Area_Type
  10
345822.602
  20
4622890.038
  0
VERTEX
  8
Unknown_Area_Type
  10
345789.794
  20
4621367.776
  0
VERTEX
  8
Unknown_Area_Type
  10
345739.962
  20
4619054.648
  0
VERTEX
  8
Unknown_Area_Type
  10
345737.626
  20
4618946.156
  0
SEQEND
  8
Unknown_Area_Type
  0
INSERT
  8
FeatureAttribs
  2
FEATURE
  41
1
  42
1
  43
1
  50
0
  10
347125.049
  20
4620934.538
 66
1
  0
ATTRIB
  8
FeatureAttribs
 70
0
  1
PNOA-H_AMS_1956-57_33k_ES_PAN_2
  2
NAME
  10
347125.049
  20
4620934.538
 40
33.92981
  0
SEQEND
  0
POLYLINE
  8
Unknown_Area_Type
  70
1
  66
1
  0
VERTEX
  8
Unknown_Area_Type
  10
345822.602
  20
4622890.038
  0
VERTEX
  8
Unknown_Area_Type
  10
347234.500
  20
4623316.000
  0
VERTEX
  8
Unknown_Area_Type
  10
348558.500
  20
4622663.000
  0
VERTEX
  8
Unknown_Area_Type
  10
348376.000
  20
4618896.500
  0
VERTEX
  8
Unknown_Area_Type
  10
347717.500
  20
4618640.000
  0
VERTEX
  8
Unknown_Area_Type
  10
345737.626
  20
4618946.156
  0
VERTEX
  8
Unknown_Area_Type
  10
345739.962
  20
4619054.648
  0
VERTEX
  8
Unknown_Area_Type
  10
345789.794
  20
4621367.776
  0
VERTEX
  8
Unknown_Area_Type
  10
345822.602
  20
4622890.038
  0
SEQEND
  8
Unknown_Area_Type
  0
INSERT
  8
FeatureAttribs
  2
FEATURE
  41
1
  42
1
  43
1
  50
0
  10
347125.049
  20
4620934.538
 66
1
  0
ATTRIB
  8
FeatureAttribs
 70
0
  1
PNOA-H_AMS_1956-57_33k_ES_PAN_2
  2
NAME
  10
347125.049
  20
4620934.538
 40
33.92981
  0
SEQEND
  0
POLYLINE
  8
Unknown_Area_Type
  70
1
  66
1
  0
VERTEX
  8
Unknown_Area_Type
  10
345822.602
  20
4622890.038
  0
VERTEX
  8
Unknown_Area_Type
  10
345789.794
  20
4621367.776
  0
VERTEX
  8
Unknown_Area_Type
  10
345739.962
  20
4619054.648
  0
VERTEX
  8
Unknown_Area_Type
  10
345737.626
  20
4618946.156
  0
VERTEX
  8
Unknown_Area_Type
  10
347717.500
  20
4618640.000
  0
VERTEX
  8
Unknown_Area_Type
  10
348376.000
  20
4618896.500
  0
VERTEX
  8
Unknown_Area_Type
  10
348558.500
  20
4622663.000
  0
VERTEX
  8
Unknown_Area_Type
  10
347234.500
  20
4623316.000
  0
VERTEX
  8
Unknown_Area_Type
  10
345822.602
  20
4622890.038
  0
SEQEND
  8
Unknown_Area_Type
  0
INSERT
  8
FeatureAttribs
  2
FEATURE
  41
1
  42
1
  43
1
  50
0
  10
373686.609
  20
4628795.552
 66
1
  0
ATTRIB
  8
FeatureAttribs
 70
0
  1
PNOA-H_AMS_1956-57_33k_ES_PAN_2
  2
NAME
  10
373686.609
  20
4628795.552
 40
33.92981
  0
SEQEND
  0
POLYLINE
  8
Unknown_Area_Type
  70
1
  66
1
  0
VERTEX
  8
Unknown_Area_Type
  10
373718.434
  20
4626380.614
  0
VERTEX
  8
Unknown_Area_Type
  10
373612.154
  20
4626386.055
  0
VERTEX
  8
Unknown_Area_Type
  10
373636.519
  20
4627763.412
  0
VERTEX
  8
Unknown_Area_Type
  10
373677.454
  20
4630076.526
  0
VERTEX
  8
Unknown_Area_Type
  10
373697.498
  20
4631208.659
  0
VERTEX
  8
Unknown_Area_Type
  10
373718.434
  20
4631210.491
  0
VERTEX
  8
Unknown_Area_Type
  10
373718.434
  20
4626380.614
  0
SEQEND
  8
Unknown_Area_Type
  0
INSERT
  8
FeatureAttribs
  2
FEATURE
  41
1
  42
1
  43
1
  50
0
  10
373444.687
  20
4629012.356
 66
1
  0
ATTRIB
  8
FeatureAttribs
 70
0
  1
PNOA-H_AMS_1956-57_33k_ES_PAN_2
  2
NAME
  10
373444.687
  20
4629012.356
 40
33.92981
  0
SEQEND
  0
POLYLINE
  8
Unknown_Area_Type
  70
1
  66
1
  0
VERTEX
  8
Unknown_Area_Type
  10
373612.154
  20
4626386.055
  0
VERTEX
  8
Unknown_Area_Type
  10
373310.500
  20
4626401.500
  0
VERTEX
  8
Unknown_Area_Type
  10
373163.000
  20
4631157.000
  0
VERTEX
  8
Unknown_Area_Type
  10
373163.000
  20
4631161.500
  0
VERTEX
  8
Unknown_Area_Type
  10
373170.000
  20
4631162.500
  0
VERTEX
  8
Unknown_Area_Type
  10
373697.498
  20
4631208.659
  0
VERTEX
  8
Unknown_Area_Type
  10
373677.454
  20
4630076.526
  0
VERTEX
  8
Unknown_Area_Type
  10
373636.519
  20
4627763.412
  0
VERTEX
  8
Unknown_Area_Type
  10
373612.154
  20
4626386.055
  0
SEQEND
  8
Unknown_Area_Type
  0
INSERT
  8
FeatureAttribs
  2
FEATURE
  41
1
  42
1
  43
1
  50
0
  10
373444.687
  20
4629012.356
 66
1
  0
ATTRIB
  8
FeatureAttribs
 70
0
  1
PNOA-H_AMS_1956-57_33k_ES_PAN_2
  2
NAME
  10
373444.687
  20
4629012.356
 40
33.92981
  0
SEQEND
  0
POLYLINE
  8
Unknown_Area_Type
  70
1
  66
1
  0
VERTEX
  8
Unknown_Area_Type
  10
373612.154
  20
4626386.055
  0
VERTEX
  8
Unknown_Area_Type
  10
373636.519
  20
4627763.412
  0
VERTEX
  8
Unknown_Area_Type
  10
373677.454
  20
4630076.526
  0
VERTEX
  8
Unknown_Area_Type
  10
373697.498
  20
4631208.659
  0
VERTEX
  8
Unknown_Area_Type
  10
373170.000
  20
4631162.500
  0
VERTEX
  8
Unknown_Area_Type
  10
373163.000
  20
4631161.500
  0
VERTEX
  8
Unknown_Area_Type
  10
373163.000
  20
4631157.000
  0
VERTEX
  8
Unknown_Area_Type
  10
373310.500
  20
4626401.500
  0
VERTEX
  8
Unknown_Area_Type
  10
373612.154
  20
4626386.055
  0
SEQEND
  8
Unknown_Area_Type
  0
INSERT
  8
FeatureAttribs
  2
FEATURE
  41
1
  42
1
  43
1
  50
0
  10
373458.475
  20
4618729.153
 66
1
  0
ATTRIB
  8
FeatureAttribs
 70
0
  1
PNOA-H_AMS_1956-57_33k_ES_PAN_2
  2
NAME
  10
373458.475
  20
4618729.153
 40
33.92981
  0
SEQEND
  0
POLYLINE
  8
Unknown_Area_Type
  70
1
  66
1
  0
VERTEX
  8
Unknown_Area_Type
  10
373463.047
  20
4617950.549
  0
VERTEX
  8
Unknown_Area_Type
  10
373390.000
  20
4617954.500
  0
VERTEX
  8
Unknown_Area_Type
  10
373490.556
  20
4619507.757
  0
VERTEX
  8
Unknown_Area_Type
  10
373472.946
  20
4618511.037
  0
VERTEX
  8
Unknown_Area_Type
  10
373463.047
  20
4617950.549
  0
SEQEND
  8
Unknown_Area_Type
  0
INSERT
  8
FeatureAttribs
  2
FEATURE
  41
1
  42
1
  43
1
  50
0
  10
373458.475
  20
4618729.153
 66
1
  0
ATTRIB
  8
FeatureAttribs
 70
0
  1
PNOA-H_AMS_1956-57_33k_ES_PAN_2
  2
NAME
  10
373458.475
  20
4618729.153
 40
33.92981
  0
SEQEND
  0
POLYLINE
  8
Unknown_Area_Type
  70
1
  66
1
  0
VERTEX
  8
Unknown_Area_Type
  10
373463.047
  20
4617950.549
  0
VERTEX
  8
Unknown_Area_Type
  10
373390.000
  20
4617954.500
  0
VERTEX
  8
Unknown_Area_Type
  10
373490.556
  20
4619507.757
  0
VERTEX
  8
Unknown_Area_Type
  10
373472.946
  20
4618511.037
  0
VERTEX
  8
Unknown_Area_Type
  10
373463.047
  20
4617950.549
  0
SEQEND
  8
Unknown_Area_Type
  0
INSERT
  8
FeatureAttribs
  2
FEATURE
  41
1
  42
1
  43
1
  50
0
  10
373616.292
  20
4619872.216
 66
1
  0
ATTRIB
  8
FeatureAttribs
 70
0
  1
PNOA-H_AMS_1956-57_33k_ES_PAN_2
  2
NAME
  10
373616.292
  20
4619872.216
 40
33.92981
  0
SEQEND
  0
POLYLINE
  8
Unknown_Area_Type
  70
1
  66
1
  0
VERTEX
  8
Unknown_Area_Type
  10
373718.434
  20
4617936.734
  0
VERTEX
  8
Unknown_Area_Type
  10
373463.047
  20
4617950.549
  0
VERTEX
  8
Unknown_Area_Type
  10
373472.946
  20
4618511.037
  0
VERTEX
  8
Unknown_Area_Type
  10
373490.556
  20
4619507.757
  0
VERTEX
  8
Unknown_Area_Type
  10
373638.500
  20
4621793.000
  0
VERTEX
  8
Unknown_Area_Type
  10
373718.434
  20
4621807.698
  0
VERTEX
  8
Unknown_Area_Type
  10
373718.434
  20
4617936.734
  0
SEQEND
  8
Unknown_Area_Type
  0
INSERT
  8
FeatureAttribs
  2
FEATURE
  41
1
  42
1
  43
1
  50
0
  10
345754.636
  20
4625039.612
 66
1
  0
ATTRIB
  8
FeatureAttribs
 70
0
  1
PNOA-H_AMS_1956-57_33k_ES_PAN_2
  2
NAME
  10
345754.636
  20
4625039.612
 40
33.92981
  0
SEQEND
  0
POLYLINE
  8
Unknown_Area_Type
  70
1
  66
1
  0
VERTEX
  8
Unknown_Area_Type
  10
345822.589
  20
4622889.443
  0
VERTEX
  8
Unknown_Area_Type
  10
345761.500
  20
4622871.000
  0
VERTEX
  8
Unknown_Area_Type
  10
345758.500
  20
4622871.000
  0
VERTEX
  8
Unknown_Area_Type
  10
345729.500
  20
4622885.500
  0
VERTEX
  8
Unknown_Area_Type
  10
345640.331
  20
4622930.447
  0
VERTEX
  8
Unknown_Area_Type
  10
345640.331
  20
4627168.199
  0
VERTEX
  8
Unknown_Area_Type
  10
345915.709
  20
4627208.224
  0
VERTEX
  8
Unknown_Area_Type
  10
345889.520
  20
4625994.055
  0
VERTEX
  8
Unknown_Area_Type
  10
345839.647
  20
4623680.912
  0
VERTEX
  8
Unknown_Area_Type
  10
345822.589
  20
4622889.443
  0
SEQEND
  8
Unknown_Area_Type
  0
INSERT
  8
FeatureAttribs
  2
FEATURE
  41
1
  42
1
  43
1
  50
0
  10
346632.152
  20
4625226.214
 66
1
  0
ATTRIB
  8
FeatureAttribs
 70
0
  1
PNOA-H_AMS_1956-57_33k_ES_PAN_2
  2
NAME
  10
346632.152
  20
4625226.214
 40
33.92981
  0
SEQEND
  0
POLYLINE
  8
Unknown_Area_Type
  70
1
  66
1
  0
VERTEX
  8
Unknown_Area_Type
  10
345915.709
  20
4627208.224
  0
VERTEX
  8
Unknown_Area_Type
  10
346784.500
  20
4627334.500
  0
VERTEX
  8
Unknown_Area_Type
  10
346788.000
  20
4627335.000
  0
VERTEX
  8
Unknown_Area_Type
  10
346791.000
  20
4627335.000
  0
VERTEX
  8
Unknown_Area_Type
  10
346817.500
  20
4627322.000
  0
VERTEX
  8
Unknown_Area_Type
  10
347611.500
  20
4626931.000
  0
VERTEX
  8
Unknown_Area_Type
  10
347235.500
  20
4623316.000
  0
VERTEX
  8
Unknown_Area_Type
  10
345822.589
  20
4622889.443
  0
VERTEX
  8
Unknown_Area_Type
  10
345839.647
  20
4623680.912
  0
VERTEX
  8
Unknown_Area_Type
  10
345889.520
  20
4625994.055
  0
VERTEX
  8
Unknown_Area_Type
  10
345915.709
  20
4627208.224
  0
SEQEND
  8
Unknown_Area_Type
  0
INSERT
  8
FeatureAttribs
  2
FEATURE
  41
1
  42
1
  43
1
  50
0
  10
346632.152
  20
4625226.214
 66
1
  0
ATTRIB
  8
FeatureAttribs
 70
0
  1
PNOA-H_AMS_1956-57_33k_ES_PAN_2
  2
NAME
  10
346632.152
  20
4625226.214
 40
33.92981
  0
SEQEND
  0
POLYLINE
  8
Unknown_Area_Type
  70
1
  66
1
  0
VERTEX
  8
Unknown_Area_Type
  10
345915.709
  20
4627208.224
  0
VERTEX
  8
Unknown_Area_Type
  10
345889.520
  20
4625994.055
  0
VERTEX
  8
Unknown_Area_Type
  10
345839.647
  20
4623680.912
  0
VERTEX
  8
Unknown_Area_Type
  10
345822.589
  20
4622889.443
  0
VERTEX
  8
Unknown_Area_Type
  10
347235.500
  20
4623316.000
  0
VERTEX
  8
Unknown_Area_Type
  10
347611.500
  20
4626931.000
  0
VERTEX
  8
Unknown_Area_Type
  10
346817.500
  20
4627322.000
  0
VERTEX
  8
Unknown_Area_Type
  10
346791.000
  20
4627335.000
  0
VERTEX
  8
Unknown_Area_Type
  10
346788.000
  20
4627335.000
  0
VERTEX
  8
Unknown_Area_Type
  10
346784.500
  20
4627334.500
  0
VERTEX
  8
Unknown_Area_Type
  10
345915.709
  20
4627208.224
  0
SEQEND
  8
Unknown_Area_Type
  0
INSERT
  8
FeatureAttribs
  2
FEATURE
  41
1
  42
1
  43
1
  50
0
  10
351493.174
  20
4624768.819
 66
1
  0
ATTRIB
  8
FeatureAttribs
 70
0
  1
PNOA-H_AMS_1956-57_33k_ES_PAN_2
  2
NAME
  10
351493.174
  20
4624768.819
 40
33.92981
  0
SEQEND
  0
POLYLINE
  8
Unknown_Area_Type
  70
1
  66
1
  0
VERTEX
  8
Unknown_Area_Type
  10
352379.000
  20
4626957.000
  0
VERTEX
  8
Unknown_Area_Type
  10
352384.500
  20
4626957.000
  0
VERTEX
  8
Unknown_Area_Type
  10
353030.500
  20
4626633.500
  0
VERTEX
  8
Unknown_Area_Type
  10
352709.500
  20
4622954.000
  0
VERTEX
  8
Unknown_Area_Type
  10
351298.000
  20
4622425.000
  0
VERTEX
  8
Unknown_Area_Type
  10
349900.000
  20
4623111.500
  0
VERTEX
  8
Unknown_Area_Type
  10
350331.500
  20
4626765.500
  0
VERTEX
  8
Unknown_Area_Type
  10
352373.500
  20
4626956.500
  0
VERTEX
  8
Unknown_Area_Type
  10
352379.000
  20
4626957.000
  0
SEQEND
  8
Unknown_Area_Type
  0
INSERT
  8
FeatureAttribs
  2
FEATURE
  41
1
  42
1
  43
1
  50
0
  10
351493.174
  20
4624768.819
 66
1
  0
ATTRIB
  8
FeatureAttribs
 70
0
  1
PNOA-H_AMS_1956-57_33k_ES_PAN_2
  2
NAME
  10
351493.174
  20
4624768.819
 40
33.92981
  0
SEQEND
  0
POLYLINE
  8
Unknown_Area_Type
  70
1
  66
1
  0
VERTEX
  8
Unknown_Area_Type
  10
352379.000
  20
4626957.000
  0
VERTEX
  8
Unknown_Area_Type
  10
352373.500
  20
4626956.500
  0
VERTEX
  8
Unknown_Area_Type
  10
350331.500
  20
4626765.500
  0
VERTEX
  8
Unknown_Area_Type
  10
349900.000
  20
4623111.500
  0
VERTEX
  8
Unknown_Area_Type
  10
351298.000
  20
4622425.000
  0
VERTEX
  8
Unknown_Area_Type
  10
352709.500
  20
4622954.000
  0
VERTEX
  8
Unknown_Area_Type
  10
353030.500
  20
4626633.500
  0
VERTEX
  8
Unknown_Area_Type
  10
352384.500
  20
4626957.000
  0
VERTEX
  8
Unknown_Area_Type
  10
352379.000
  20
4626957.000
  0
SEQEND
  8
Unknown_Area_Type
  0
INSERT
  8
FeatureAttribs
  2
FEATURE
  41
1
  42
1
  43
1
  50
0
  10
354278.713
  20
4624608.407
 66
1
  0
ATTRIB
  8
FeatureAttribs
 70
0
  1
PNOA-H_AMS_1956-57_33k_ES_PAN_2
  2
NAME
  10
354278.713
  20
4624608.407
 40
33.92981
  0
SEQEND
  0
POLYLINE
  8
Unknown_Area_Type
  70
1
  66
1
  0
VERTEX
  8
Unknown_Area_Type
  10
355291.500
  20
4626775.500
  0
VERTEX
  8
Unknown_Area_Type
  10
355791.500
  20
4626514.000
  0
VERTEX
  8
Unknown_Area_Type
  10
355590.500
  20
4622794.500
  0
VERTEX
  8
Unknown_Area_Type
  10
353967.500
  20
4622260.500
  0
VERTEX
  8
Unknown_Area_Type
  10
353948.500
  20
4622270.000
  0
VERTEX
  8
Unknown_Area_Type
  10
352709.500
  20
4622953.500
  0
VERTEX
  8
Unknown_Area_Type
  10
353030.000
  20
4626633.000
  0
VERTEX
  8
Unknown_Area_Type
  10
353031.500
  20
4626634.000
  0
VERTEX
  8
Unknown_Area_Type
  10
355283.500
  20
4626775.000
  0
VERTEX
  8
Unknown_Area_Type
  10
355291.500
  20
4626775.500
  0
SEQEND
  8
Unknown_Area_Type
  0
INSERT
  8
FeatureAttribs
  2
FEATURE
  41
1
  42
1
  43
1
  50
0
  10
354278.713
  20
4624608.407
 66
1
  0
ATTRIB
  8
FeatureAttribs
 70
0
  1
PNOA-H_AMS_1956-57_33k_ES_PAN_2
  2
NAME
  10
354278.713
  20
4624608.407
 40
33.92981
  0
SEQEND
  0
POLYLINE
  8
Unknown_Area_Type
  70
1
  66
1
  0
VERTEX
  8
Unknown_Area_Type
  10
355291.500
  20
4626775.500
  0
VERTEX
  8
Unknown_Area_Type
  10
355283.500
  20
4626775.000
  0
VERTEX
  8
Unknown_Area_Type
  10
353031.500
  20
4626634.000
  0
VERTEX
  8
Unknown_Area_Type
  10
353030.000
  20
4626633.000
  0
VERTEX
  8
Unknown_Area_Type
  10
352709.500
  20
4622953.500
  0
VERTEX
  8
Unknown_Area_Type
  10
353948.500
  20
4622270.000
  0
VERTEX
  8
Unknown_Area_Type
  10
353967.500
  20
4622260.500
  0
VERTEX
  8
Unknown_Area_Type
  10
355590.500
  20
4622794.500
  0
VERTEX
  8
Unknown_Area_Type
  10
355791.500
  20
4626514.000
  0
VERTEX
  8
Unknown_Area_Type
  10
355291.500
  20
4626775.500
  0
SEQEND
  8
Unknown_Area_Type
  0
INSERT
  8
FeatureAttribs
  2
FEATURE
  41
1
  42
1
  43
1
  50
0
  10
360089.214
  20
4624370.216
 66
1
  0
ATTRIB
  8
FeatureAttribs
 70
0
  1
PNOA-H_AMS_1956-57_33k_ES_PAN_2
  2
NAME
  10
360089.214
  20
4624370.216
 40
33.92981
  0
SEQEND
  0
POLYLINE
  8
Unknown_Area_Type
  70
1
  66
1
  0
VERTEX
  8
Unknown_Area_Type
  10
361189.500
  20
4626446.000
  0
VERTEX
  8
Unknown_Area_Type
  10
361194.500
  20
4626444.500
  0
VERTEX
  8
Unknown_Area_Type
  10
361721.000
  20
4626166.500
  0
VERTEX
  8
Unknown_Area_Type
  10
361499.000
  20
4622550.000
  0
VERTEX
  8
Unknown_Area_Type
  10
359231.500
  20
4622123.000
  0
VERTEX
  8
Unknown_Area_Type
  10
359228.000
  20
4622123.000
  0
VERTEX
  8
Unknown_Area_Type
  10
359222.500
  20
4622127.000
  0
VERTEX
  8
Unknown_Area_Type
  10
358497.000
  20
4622688.500
  0
VERTEX
  8
Unknown_Area_Type
  10
358693.000
  20
4626355.000
  0
VERTEX
  8
Unknown_Area_Type
  10
361175.500
  20
4626445.500
  0
VERTEX
  8
Unknown_Area_Type
  10
361189.500
  20
4626446.000
  0
SEQEND
  8
Unknown_Area_Type
  0
INSERT
  8
FeatureAttribs
  2
FEATURE
  41
1
  42
1
  43
1
  50
0
  10
360089.214
  20
4624370.216
 66
1
  0
ATTRIB
  8
FeatureAttribs
 70
0
  1
PNOA-H_AMS_1956-57_33k_ES_PAN_2
  2
NAME
  10
360089.214
  20
4624370.216
 40
33.92981
  0
SEQEND
  0
POLYLINE
  8
Unknown_Area_Type
  70
1
  66
1
  0
VERTEX
  8
Unknown_Area_Type
  10
361189.500
  20
4626446.000
  0
VERTEX
  8
Unknown_Area_Type
  10
361175.500
  20
4626445.500
  0
VERTEX
  8
Unknown_Area_Type
  10
358693.000
  20
4626355.000
  0
VERTEX
  8
Unknown_Area_Type
  10
358497.000
  20
4622688.500
  0
VERTEX
  8
Unknown_Area_Type
  10
359222.500
  20
4622127.000
  0
VERTEX
  8
Unknown_Area_Type
  10
359228.000
  20
4622123.000
  0
VERTEX
  8
Unknown_Area_Type
  10
359231.500
  20
4622123.000
  0
VERTEX
  8
Unknown_Area_Type
  10
361499.000
  20
4622550.000
  0
VERTEX
  8
Unknown_Area_Type
  10
361721.000
  20
4626166.500
  0
VERTEX
  8
Unknown_Area_Type
  10
361194.500
  20
4626444.500
  0
VERTEX
  8
Unknown_Area_Type
  10
361189.500
  20
4626446.000
  0
SEQEND
  8
Unknown_Area_Type
  0
INSERT
  8
FeatureAttribs
  2
FEATURE
  41
1
  42
1
  43
1
  50
0
  10
368764.031
  20
4624149.085
 66
1
  0
ATTRIB
  8
FeatureAttribs
 70
0
  1
PNOA-H_AMS_1956-57_33k_ES_PAN_2
  2
NAME
  10
368764.031
  20
4624149.085
 40
33.92981
  0
SEQEND
  0
POLYLINE
  8
Unknown_Area_Type
  70
1
  66
1
  0
VERTEX
  8
Unknown_Area_Type
  10
368274.000
  20
4626214.500
  0
VERTEX
  8
Unknown_Area_Type
  10
370174.500
  20
4626201.500
  0
VERTEX
  8
Unknown_Area_Type
  10
370201.500
  20
4622348.500
  0
VERTEX
  8
Unknown_Area_Type
  10
367933.500
  20
4621857.500
  0
VERTEX
  8
Unknown_Area_Type
  10
367931.500
  20
4621857.500
  0
VERTEX
  8
Unknown_Area_Type
  10
367926.500
  20
4621861.500
  0
VERTEX
  8
Unknown_Area_Type
  10
367369.000
  20
4622347.000
  0
VERTEX
  8
Unknown_Area_Type
  10
367383.500
  20
4626221.000
  0
VERTEX
  8
Unknown_Area_Type
  10
368253.000
  20
4626214.500
  0
VERTEX
  8
Unknown_Area_Type
  10
368274.000
  20
4626214.500
  0
SEQEND
  8
Unknown_Area_Type
  0
INSERT
  8
FeatureAttribs
  2
FEATURE
  41
1
  42
1
  43
1
  50
0
  10
368764.031
  20
4624149.085
 66
1
  0
ATTRIB
  8
FeatureAttribs
 70
0
  1
PNOA-H_AMS_1956-57_33k_ES_PAN_2
  2
NAME
  10
368764.031
  20
4624149.085
 40
33.92981
  0
SEQEND
  0
POLYLINE
  8
Unknown_Area_Type
  70
1
  66
1
  0
VERTEX
  8
Unknown_Area_Type
  10
368274.000
  20
4626214.500
  0
VERTEX
  8
Unknown_Area_Type
  10
368253.000
  20
4626214.500
  0
VERTEX
  8
Unknown_Area_Type
  10
367383.500
  20
4626221.000
  0
VERTEX
  8
Unknown_Area_Type
  10
367369.000
  20
4622347.000
  0
VERTEX
  8
Unknown_Area_Type
  10
367926.500
  20
4621861.500
  0
VERTEX
  8
Unknown_Area_Type
  10
367931.500
  20
4621857.500
  0
VERTEX
  8
Unknown_Area_Type
  10
367933.500
  20
4621857.500
  0
VERTEX
  8
Unknown_Area_Type
  10
370201.500
  20
4622348.500
  0
VERTEX
  8
Unknown_Area_Type
  10
370174.500
  20
4626201.500
  0
VERTEX
  8
Unknown_Area_Type
  10
368274.000
  20
4626214.500
  0
SEQEND
  8
Unknown_Area_Type
  0
INSERT
  8
FeatureAttribs
  2
FEATURE
  41
1
  42
1
  43
1
  50
0
  10
348773.861
  20
4624974.794
 66
1
  0
ATTRIB
  8
FeatureAttribs
 70
0
  1
PNOA-H_AMS_1956-57_33k_ES_PAN_2
  2
NAME
  10
348773.861
  20
4624974.794
 40
33.92981
  0
SEQEND
  0
POLYLINE
  8
Unknown_Area_Type
  70
1
  66
1
  0
VERTEX
  8
Unknown_Area_Type
  10
347789.500
  20
4626948.500
  0
VERTEX
  8
Unknown_Area_Type
  10
349560.000
  20
4627119.000
  0
VERTEX
  8
Unknown_Area_Type
  10
350331.500
  20
4626765.500
  0
VERTEX
  8
Unknown_Area_Type
  10
349900.000
  20
4623111.500
  0
VERTEX
  8
Unknown_Area_Type
  10
348559.000
  20
4622663.000
  0
VERTEX
  8
Unknown_Area_Type
  10
347235.500
  20
4623316.000
  0
VERTEX
  8
Unknown_Area_Type
  10
347611.000
  20
4626929.500
  0
VERTEX
  8
Unknown_Area_Type
  10
347611.500
  20
4626931.000
  0
VERTEX
  8
Unknown_Area_Type
  10
347613.500
  20
4626931.500
  0
VERTEX
  8
Unknown_Area_Type
  10
347784.500
  20
4626948.000
  0
VERTEX
  8
Unknown_Area_Type
  10
347789.500
  20
4626948.500
  0
SEQEND
  8
Unknown_Area_Type
  0
INSERT
  8
FeatureAttribs
  2
FEATURE
  41
1
  42
1
  43
1
  50
0
  10
348773.861
  20
4624974.794
 66
1
  0
ATTRIB
  8
FeatureAttribs
 70
0
  1
PNOA-H_AMS_1956-57_33k_ES_PAN_2
  2
NAME
  10
348773.861
  20
4624974.794
 40
33.92981
  0
SEQEND
  0
POLYLINE
  8
Unknown_Area_Type
  70
1
  66
1
  0
VERTEX
  8
Unknown_Area_Type
  10
347789.500
  20
4626948.500
  0
VERTEX
  8
Unknown_Area_Type
  10
347784.500
  20
4626948.000
  0
VERTEX
  8
Unknown_Area_Type
  10
347613.500
  20
4626931.500
  0
VERTEX
  8
Unknown_Area_Type
  10
347611.500
  20
4626931.000
  0
VERTEX
  8
Unknown_Area_Type
  10
347611.000
  20
4626929.500
  0
VERTEX
  8
Unknown_Area_Type
  10
347235.500
  20
4623316.000
  0
VERTEX
  8
Unknown_Area_Type
  10
348559.000
  20
4622663.000
  0
VERTEX
  8
Unknown_Area_Type
  10
349900.000
  20
4623111.500
  0
VERTEX
  8
Unknown_Area_Type
  10
350331.500
  20
4626765.500
  0
VERTEX
  8
Unknown_Area_Type
  10
349560.000
  20
4627119.000
  0
VERTEX
  8
Unknown_Area_Type
  10
347789.500
  20
4626948.500
  0
SEQEND
  8
Unknown_Area_Type
  0
INSERT
  8
FeatureAttribs
  2
FEATURE
  41
1
  42
1
  43
1
  50
0
  10
363071.609
  20
4624226.355
 66
1
  0
ATTRIB
  8
FeatureAttribs
 70
0
  1
PNOA-H_AMS_1956-57_33k_ES_PAN_2
  2
NAME
  10
363071.609
  20
4624226.355
 40
33.92981
  0
SEQEND
  0
POLYLINE
  8
Unknown_Area_Type
  70
1
  66
1
  0
VERTEX
  8
Unknown_Area_Type
  10
362123.000
  20
4626189.000
  0
VERTEX
  8
Unknown_Area_Type
  10
364268.000
  20
4626309.500
  0
VERTEX
  8
Unknown_Area_Type
  10
364597.000
  20
4626139.500
  0
VERTEX
  8
Unknown_Area_Type
  10
364509.000
  20
4622433.500
  0
VERTEX
  8
Unknown_Area_Type
  10
364508.500
  20
4622421.500
  0
VERTEX
  8
Unknown_Area_Type
  10
364506.500
  20
4622421.000
  0
VERTEX
  8
Unknown_Area_Type
  10
362016.500
  20
4622061.500
  0
VERTEX
  8
Unknown_Area_Type
  10
362013.500
  20
4622062.000
  0
VERTEX
  8
Unknown_Area_Type
  10
361505.000
  20
4622544.000
  0
VERTEX
  8
Unknown_Area_Type
  10
361499.000
  20
4622550.000
  0
VERTEX
  8
Unknown_Area_Type
  10
361499.000
  20
4622555.500
  0
VERTEX
  8
Unknown_Area_Type
  10
361721.000
  20
4626166.000
  0
VERTEX
  8
Unknown_Area_Type
  10
362114.000
  20
4626188.500
  0
VERTEX
  8
Unknown_Area_Type
  10
362123.000
  20
4626189.000
  0
SEQEND
  8
Unknown_Area_Type
  0
INSERT
  8
FeatureAttribs
  2
FEATURE
  41
1
  42
1
  43
1
  50
0
  10
363071.609
  20
4624226.355
 66
1
  0
ATTRIB
  8
FeatureAttribs
 70
0
  1
PNOA-H_AMS_1956-57_33k_ES_PAN_2
  2
NAME
  10
363071.609
  20
4624226.355
 40
33.92981
  0
SEQEND
  0
POLYLINE
  8
Unknown_Area_Type
  70
1
  66
1
  0
VERTEX
  8
Unknown_Area_Type
  10
362123.000
  20
4626189.000
  0
VERTEX
  8
Unknown_Area_Type
  10
362114.000
  20
4626188.500
  0
VERTEX
  8
Unknown_Area_Type
  10
361721.000
  20
4626166.000
  0
VERTEX
  8
Unknown_Area_Type
  10
361499.000
  20
4622555.500
  0
VERTEX
  8
Unknown_Area_Type
  10
361499.000
  20
4622550.000
  0
VERTEX
  8
Unknown_Area_Type
  10
361505.000
  20
4622544.000
  0
VERTEX
  8
Unknown_Area_Type
  10
362013.500
  20
4622062.000
  0
VERTEX
  8
Unknown_Area_Type
  10
362016.500
  20
4622061.500
  0
VERTEX
  8
Unknown_Area_Type
  10
364506.500
  20
4622421.000
  0
VERTEX
  8
Unknown_Area_Type
  10
364508.500
  20
4622421.500
  0
VERTEX
  8
Unknown_Area_Type
  10
364509.000
  20
4622433.500
  0
VERTEX
  8
Unknown_Area_Type
  10
364597.000
  20
4626139.500
  0
VERTEX
  8
Unknown_Area_Type
  10
364268.000
  20
4626309.500
  0
VERTEX
  8
Unknown_Area_Type
  10
362123.000
  20
4626189.000
  0
SEQEND
  8
Unknown_Area_Type
  0
INSERT
  8
FeatureAttribs
  2
FEATURE
  41
1
  42
1
  43
1
  50
0
  10
365953.407
  20
4624153.837
 66
1
  0
ATTRIB
  8
FeatureAttribs
 70
0
  1
PNOA-H_AMS_1956-57_33k_ES_PAN_2
  2
NAME
  10
365953.407
  20
4624153.837
 40
33.92981
  0
SEQEND
  0
POLYLINE
  8
Unknown_Area_Type
  70
1
  66
1
  0
VERTEX
  8
Unknown_Area_Type
  10
367368.500
  20
4626220.500
  0
VERTEX
  8
Unknown_Area_Type
  10
367383.500
  20
4626220.500
  0
VERTEX
  8
Unknown_Area_Type
  10
367369.000
  20
4622347.500
  0
VERTEX
  8
Unknown_Area_Type
  10
364997.500
  20
4621940.500
  0
VERTEX
  8
Unknown_Area_Type
  10
364994.500
  20
4621940.500
  0
VERTEX
  8
Unknown_Area_Type
  10
364972.000
  20
4621962.500
  0
VERTEX
  8
Unknown_Area_Type
  10
364508.500
  20
4622421.000
  0
VERTEX
  8
Unknown_Area_Type
  10
364597.000
  20
4626139.500
  0
VERTEX
  8
Unknown_Area_Type
  10
367351.000
  20
4626220.000
  0
VERTEX
  8
Unknown_Area_Type
  10
367368.500
  20
4626220.500
  0
SEQEND
  8
Unknown_Area_Type
  0
INSERT
  8
FeatureAttribs
  2
FEATURE
  41
1
  42
1
  43
1
  50
0
  10
365953.407
  20
4624153.837
 66
1
  0
ATTRIB
  8
FeatureAttribs
 70
0
  1
PNOA-H_AMS_1956-57_33k_ES_PAN_2
  2
NAME
  10
365953.407
  20
4624153.837
 40
33.92981
  0
SEQEND
  0
POLYLINE
  8
Unknown_Area_Type
  70
1
  66
1
  0
VERTEX
  8
Unknown_Area_Type
  10
367368.500
  20
4626220.500
  0
VERTEX
  8
Unknown_Area_Type
  10
367351.000
  20
4626220.000
  0
VERTEX
  8
Unknown_Area_Type
  10
364597.000
  20
4626139.500
  0
VERTEX
  8
Unknown_Area_Type
  10
364508.500
  20
4622421.000
  0
VERTEX
  8
Unknown_Area_Type
  10
364972.000
  20
4621962.500
  0
VERTEX
  8
Unknown_Area_Type
  10
364994.500
  20
4621940.500
  0
VERTEX
  8
Unknown_Area_Type
  10
364997.500
  20
4621940.500
  0
VERTEX
  8
Unknown_Area_Type
  10
367369.000
  20
4622347.500
  0
VERTEX
  8
Unknown_Area_Type
  10
367383.500
  20
4626220.500
  0
VERTEX
  8
Unknown_Area_Type
  10
367368.500
  20
4626220.500
  0
SEQEND
  8
Unknown_Area_Type
  0
INSERT
  8
FeatureAttribs
  2
FEATURE
  41
1
  42
1
  43
1
  50
0
  10
371585.630
  20
4624173.263
 66
1
  0
ATTRIB
  8
FeatureAttribs
 70
0
  1
PNOA-H_AMS_1956-57_33k_ES_PAN_2
  2
NAME
  10
371585.630
  20
4624173.263
 40
33.92981
  0
SEQEND
  0
POLYLINE
  8
Unknown_Area_Type
  70
1
  66
1
  0
VERTEX
  8
Unknown_Area_Type
  10
370320.500
  20
4626277.500
  0
VERTEX
  8
Unknown_Area_Type
  10
370321.500
  20
4626278.000
  0
VERTEX
  8
Unknown_Area_Type
  10
370383.500
  20
4626310.000
  0
VERTEX
  8
Unknown_Area_Type
  10
370391.500
  20
4626310.000
  0
VERTEX
  8
Unknown_Area_Type
  10
372989.000
  20
4626248.000
  0
VERTEX
  8
Unknown_Area_Type
  10
373028.000
  20
4622270.000
  0
VERTEX
  8
Unknown_Area_Type
  10
370789.500
  20
4621865.000
  0
VERTEX
  8
Unknown_Area_Type
  10
370201.500
  20
4622348.000
  0
VERTEX
  8
Unknown_Area_Type
  10
370174.500
  20
4626201.500
  0
VERTEX
  8
Unknown_Area_Type
  10
370320.500
  20
4626277.500
  0
SEQEND
  8
Unknown_Area_Type
  0
INSERT
  8
FeatureAttribs
  2
FEATURE
  41
1
  42
1
  43
1
  50
0
  10
371585.630
  20
4624173.263
 66
1
  0
ATTRIB
  8
FeatureAttribs
 70
0
  1
PNOA-H_AMS_1956-57_33k_ES_PAN_2
  2
NAME
  10
371585.630
  20
4624173.263
 40
33.92981
  0
SEQEND
  0
POLYLINE
  8
Unknown_Area_Type
  70
1
  66
1
  0
VERTEX
  8
Unknown_Area_Type
  10
370320.500
  20
4626277.500
  0
VERTEX
  8
Unknown_Area_Type
  10
370174.500
  20
4626201.500
  0
VERTEX
  8
Unknown_Area_Type
  10
370201.500
  20
4622348.000
  0
VERTEX
  8
Unknown_Area_Type
  10
370789.500
  20
4621865.000
  0
VERTEX
  8
Unknown_Area_Type
  10
373028.000
  20
4622270.000
  0
VERTEX
  8
Unknown_Area_Type
  10
372989.000
  20
4626248.000
  0
VERTEX
  8
Unknown_Area_Type
  10
370391.500
  20
4626310.000
  0
VERTEX
  8
Unknown_Area_Type
  10
370383.500
  20
4626310.000
  0
VERTEX
  8
Unknown_Area_Type
  10
370321.500
  20
4626278.000
  0
VERTEX
  8
Unknown_Area_Type
  10
370320.500
  20
4626277.500
  0
SEQEND
  8
Unknown_Area_Type
  0
INSERT
  8
FeatureAttribs
  2
FEATURE
  41
1
  42
1
  43
1
  50
0
  10
357132.691
  20
4624488.940
 66
1
  0
ATTRIB
  8
FeatureAttribs
 70
0
  1
PNOA-H_AMS_1956-57_33k_ES_PAN_2
  2
NAME
  10
357132.691
  20
4624488.940
 40
33.92981
  0
SEQEND
  0
POLYLINE
  8
Unknown_Area_Type
  70
1
  66
1
  0
VERTEX
  8
Unknown_Area_Type
  10
355974.500
  20
4626519.000
  0
VERTEX
  8
Unknown_Area_Type
  10
358282.500
  20
4626577.500
  0
VERTEX
  8
Unknown_Area_Type
  10
358693.000
  20
4626355.500
  0
VERTEX
  8
Unknown_Area_Type
  10
358497.000
  20
4622689.000
  0
VERTEX
  8
Unknown_Area_Type
  10
356590.500
  20
4622174.000
  0
VERTEX
  8
Unknown_Area_Type
  10
356588.500
  20
4622174.000
  0
VERTEX
  8
Unknown_Area_Type
  10
356579.500
  20
4622179.500
  0
VERTEX
  8
Unknown_Area_Type
  10
355590.500
  20
4622794.500
  0
VERTEX
  8
Unknown_Area_Type
  10
355791.000
  20
4626510.500
  0
VERTEX
  8
Unknown_Area_Type
  10
355791.500
  20
4626514.000
  0
VERTEX
  8
Unknown_Area_Type
  10
355798.000
  20
4626514.500
  0
VERTEX
  8
Unknown_Area_Type
  10
355955.000
  20
4626518.500
  0
VERTEX
  8
Unknown_Area_Type
  10
355974.500
  20
4626519.000
  0
SEQEND
  8
Unknown_Area_Type
  0
INSERT
  8
FeatureAttribs
  2
FEATURE
  41
1
  42
1
  43
1
  50
0
  10
357132.691
  20
4624488.940
 66
1
  0
ATTRIB
  8
FeatureAttribs
 70
0
  1
PNOA-H_AMS_1956-57_33k_ES_PAN_2
  2
NAME
  10
357132.691
  20
4624488.940
 40
33.92981
  0
SEQEND
  0
POLYLINE
  8
Unknown_Area_Type
  70
1
  66
1
  0
VERTEX
  8
Unknown_Area_Type
  10
355974.500
  20
4626519.000
  0
VERTEX
  8
Unknown_Area_Type
  10
355955.000
  20
4626518.500
  0
VERTEX
  8
Unknown_Area_Type
  10
355798.000
  20
4626514.500
  0
VERTEX
  8
Unknown_Area_Type
  10
355791.500
  20
4626514.000
  0
VERTEX
  8
Unknown_Area_Type
  10
355791.000
  20
4626510.500
  0
VERTEX
  8
Unknown_Area_Type
  10
355590.500
  20
4622794.500
  0
VERTEX
  8
Unknown_Area_Type
  10
356579.500
  20
4622179.500
  0
VERTEX
  8
Unknown_Area_Type
  10
356588.500
  20
4622174.000
  0
VERTEX
  8
Unknown_Area_Type
  10
356590.500
  20
4622174.000
  0
VERTEX
  8
Unknown_Area_Type
  10
358497.000
  20
4622689.000
  0
VERTEX
  8
Unknown_Area_Type
  10
358693.000
  20
4626355.500
  0
VERTEX
  8
Unknown_Area_Type
  10
358282.500
  20
4626577.500
  0
VERTEX
  8
Unknown_Area_Type
  10
355974.500
  20
4626519.000
  0
SEQEND
  8
Unknown_Area_Type
  0
INSERT
  8
FeatureAttribs
  2
FEATURE
  41
1
  42
1
  43
1
  50
0
  10
373644.986
  20
4624089.470
 66
1
  0
ATTRIB
  8
FeatureAttribs
 70
0
  1
PNOA-H_AMS_1956-57_33k_ES_PAN_2
  2
NAME
  10
373644.986
  20
4624089.470
 40
33.92981
  0
SEQEND
  0
POLYLINE
  8
Unknown_Area_Type
  70
1
  66
1
  0
VERTEX
  8
Unknown_Area_Type
  10
373718.434
  20
4621807.156
  0
VERTEX
  8
Unknown_Area_Type
  10
373641.500
  20
4621793.000
  0
VERTEX
  8
Unknown_Area_Type
  10
373637.500
  20
4621793.000
  0
VERTEX
  8
Unknown_Area_Type
  10
373633.000
  20
4621796.500
  0
VERTEX
  8
Unknown_Area_Type
  10
373532.393
  20
4621875.247
  0
VERTEX
  8
Unknown_Area_Type
  10
373554.699
  20
4623137.209
  0
VERTEX
  8
Unknown_Area_Type
  10
373595.600
  20
4625450.307
  0
VERTEX
  8
Unknown_Area_Type
  10
373612.152
  20
4626385.940
  0
VERTEX
  8
Unknown_Area_Type
  10
373718.434
  20
4626380.457
  0
VERTEX
  8
Unknown_Area_Type
  10
373718.434
  20
4621807.156
  0
SEQEND
  8
Unknown_Area_Type
  0
INSERT
  8
FeatureAttribs
  2
FEATURE
  41
1
  42
1
  43
1
  50
0
  10
373297.000
  20
4624288.257
 66
1
  0
ATTRIB
  8
FeatureAttribs
 70
0
  1
PNOA-H_AMS_1956-57_33k_ES_PAN_2
  2
NAME
  10
373297.000
  20
4624288.257
 40
33.92981
  0
SEQEND
  0
POLYLINE
  8
Unknown_Area_Type
  70
1
  66
1
  0
VERTEX
  8
Unknown_Area_Type
  10
373612.152
  20
4626385.940
  0
VERTEX
  8
Unknown_Area_Type
  10
373595.600
  20
4625450.307
  0
VERTEX
  8
Unknown_Area_Type
  10
373554.699
  20
4623137.209
  0
VERTEX
  8
Unknown_Area_Type
  10
373532.393
  20
4621875.247
  0
VERTEX
  8
Unknown_Area_Type
  10
373037.000
  20
4622263.000
  0
VERTEX
  8
Unknown_Area_Type
  10
373030.000
  20
4622268.500
  0
VERTEX
  8
Unknown_Area_Type
  10
373028.000
  20
4622271.500
  0
VERTEX
  8
Unknown_Area_Type
  10
372989.000
  20
4626248.000
  0
VERTEX
  8
Unknown_Area_Type
  10
373310.500
  20
4626401.500
  0
VERTEX
  8
Unknown_Area_Type
  10
373612.152
  20
4626385.940
  0
SEQEND
  8
Unknown_Area_Type
  0
INSERT
  8
FeatureAttribs
  2
FEATURE
  41
1
  42
1
  43
1
  50
0
  10
373297.000
  20
4624288.257
 66
1
  0
ATTRIB
  8
FeatureAttribs
 70
0
  1
PNOA-H_AMS_1956-57_33k_ES_PAN_2
  2
NAME
  10
373297.000
  20
4624288.257
 40
33.92981
  0
SEQEND
  0
POLYLINE
  8
Unknown_Area_Type
  70
1
  66
1
  0
VERTEX
  8
Unknown_Area_Type
  10
373612.152
  20
4626385.940
  0
VERTEX
  8
Unknown_Area_Type
  10
373310.500
  20
4626401.500
  0
VERTEX
  8
Unknown_Area_Type
  10
372989.000
  20
4626248.000
  0
VERTEX
  8
Unknown_Area_Type
  10
373028.000
  20
4622271.500
  0
VERTEX
  8
Unknown_Area_Type
  10
373030.000
  20
4622268.500
  0
VERTEX
  8
Unknown_Area_Type
  10
373037.000
  20
4622263.000
  0
VERTEX
  8
Unknown_Area_Type
  10
373532.393
  20
4621875.247
  0
VERTEX
  8
Unknown_Area_Type
  10
373554.699
  20
4623137.209
  0
VERTEX
  8
Unknown_Area_Type
  10
373595.600
  20
4625450.307
  0
VERTEX
  8
Unknown_Area_Type
  10
373612.152
  20
4626385.940
  0
SEQEND
  8
Unknown_Area_Type
  0
INSERT
  8
FeatureAttribs
  2
FEATURE
  41
1
  42
1
  43
1
  50
0
  10
346039.044
  20
4632933.539
 66
1
  0
ATTRIB
  8
FeatureAttribs
 70
0
  1
PNOA-H_AMS_1956-57_33k_ES_PAN_2
  2
NAME
  10
346039.044
  20
4632933.539
 40
33.92981
  0
SEQEND
  0
POLYLINE
  8
Unknown_Area_Type
  70
1
  66
1
  0
VERTEX
  8
Unknown_Area_Type
  10
346039.263
  20
4632933.549
  0
VERTEX
  8
Unknown_Area_Type
  10
346039.262
  20
4632933.530
  0
VERTEX
  8
Unknown_Area_Type
  10
346038.390
  20
4632933.549
  0
VERTEX
  8
Unknown_Area_Type
  10
346039.263
  20
4632933.549
  0
SEQEND
  8
Unknown_Area_Type
  0
INSERT
  8
FeatureAttribs
  2
FEATURE
  41
1
  42
1
  43
1
  50
0
  10
346538.621
  20
4632926.430
 66
1
  0
ATTRIB
  8
FeatureAttribs
 70
0
  1
PNOA-H_AMS_1956-57_33k_ES_PAN_2
  2
NAME
  10
346538.621
  20
4632926.430
 40
33.92981
  0
SEQEND
  0
POLYLINE
  8
Unknown_Area_Type
  70
1
  66
1
  0
VERTEX
  8
Unknown_Area_Type
  10
346705.564
  20
4632933.549
  0
VERTEX
  8
Unknown_Area_Type
  10
346705.275
  20
4632919.311
  0
VERTEX
  8
Unknown_Area_Type
  10
346039.262
  20
4632933.530
  0
VERTEX
  8
Unknown_Area_Type
  10
346039.263
  20
4632933.549
  0
VERTEX
  8
Unknown_Area_Type
  10
346705.564
  20
4632933.549
  0
SEQEND
  8
Unknown_Area_Type
  0
INSERT
  8
FeatureAttribs
  2
FEATURE
  41
1
  42
1
  43
1
  50
0
  10
345833.739
  20
4632372.263
 66
1
  0
ATTRIB
  8
FeatureAttribs
 70
0
  1
PNOA-H_AMS_1956-57_33k_ES_PAN_2
  2
NAME
  10
345833.739
  20
4632372.263
 40
33.92981
  0
SEQEND
  0
POLYLINE
  8
Unknown_Area_Type
  70
1
  66
1
  0
VERTEX
  8
Unknown_Area_Type
  10
346015.030
  20
4631810.976
  0
VERTEX
  8
Unknown_Area_Type
  10
345640.331
  20
4631817.699
  0
VERTEX
  8
Unknown_Area_Type
  10
345640.331
  20
4632933.549
  0
VERTEX
  8
Unknown_Area_Type
  10
346038.390
  20
4632933.549
  0
VERTEX
  8
Unknown_Area_Type
  10
346039.262
  20
4632933.530
  0
VERTEX
  8
Unknown_Area_Type
  10
346015.030
  20
4631810.976
  0
SEQEND
  8
Unknown_Area_Type
  0
INSERT
  8
FeatureAttribs
  2
FEATURE
  41
1
  42
1
  43
1
  50
0
  10
346360.400
  20
4632365.509
 66
1
  0
ATTRIB
  8
FeatureAttribs
 70
0
  1
PNOA-H_AMS_1956-57_33k_ES_PAN_2
  2
NAME
  10
346360.400
  20
4632365.509
 40
33.92981
  0
SEQEND
  0
POLYLINE
  8
Unknown_Area_Type
  70
1
  66
1
  0
VERTEX
  8
Unknown_Area_Type
  10
346705.275
  20
4632919.311
  0
VERTEX
  8
Unknown_Area_Type
  10
346682.500
  20
4631799.000
  0
VERTEX
  8
Unknown_Area_Type
  10
346015.030
  20
4631810.976
  0
VERTEX
  8
Unknown_Area_Type
  10
346039.262
  20
4632933.530
  0
VERTEX
  8
Unknown_Area_Type
  10
346705.275
  20
4632919.311
  0
SEQEND
  8
Unknown_Area_Type
  0
INSERT
  8
FeatureAttribs
  2
FEATURE
  41
1
  42
1
  43
1
  50
0
  10
346360.400
  20
4632365.509
 66
1
  0
ATTRIB
  8
FeatureAttribs
 70
0
  1
PNOA-H_AMS_1956-57_33k_ES_PAN_2
  2
NAME
  10
346360.400
  20
4632365.509
 40
33.92981
  0
SEQEND
  0
POLYLINE
  8
Unknown_Area_Type
  70
1
  66
1
  0
VERTEX
  8
Unknown_Area_Type
  10
346705.275
  20
4632919.311
  0
VERTEX
  8
Unknown_Area_Type
  10
346039.262
  20
4632933.530
  0
VERTEX
  8
Unknown_Area_Type
  10
346015.030
  20
4631810.976
  0
VERTEX
  8
Unknown_Area_Type
  10
346682.500
  20
4631799.000
  0
VERTEX
  8
Unknown_Area_Type
  10
346705.275
  20
4632919.311
  0
SEQEND
  8
Unknown_Area_Type
  0
INSERT
  8
FeatureAttribs
  2
FEATURE
  41
1
  42
1
  43
1
  50
0
  10
371675.151
  20
4632668.270
 66
1
  0
ATTRIB
  8
FeatureAttribs
 70
0
  1
PNOA-H_AMS_1956-57_33k_ES_PAN_2
  2
NAME
  10
371675.151
  20
4632668.270
 40
33.92981
  0
SEQEND
  0
POLYLINE
  8
Unknown_Area_Type
  70
1
  66
1
  0
VERTEX
  8
Unknown_Area_Type
  10
373001.402
  20
4632933.549
  0
VERTEX
  8
Unknown_Area_Type
  10
372975.053
  20
4632402.991
  0
VERTEX
  8
Unknown_Area_Type
  10
370355.650
  20
4632450.010
  0
VERTEX
  8
Unknown_Area_Type
  10
370369.884
  20
4632933.549
  0
VERTEX
  8
Unknown_Area_Type
  10
373001.402
  20
4632933.549
  0
SEQEND
  8
Unknown_Area_Type
  0
INSERT
  8
FeatureAttribs
  2
FEATURE
  41
1
  42
1
  43
1
  50
0
  10
371631.458
  20
4631862.752
 66
1
  0
ATTRIB
  8
FeatureAttribs
 70
0
  1
PNOA-H_AMS_1956-57_33k_ES_PAN_2
  2
NAME
  10
371631.458
  20
4631862.752
 40
33.92981
  0
SEQEND
  0
POLYLINE
  8
Unknown_Area_Type
  70
1
  66
1
  0
VERTEX
  8
Unknown_Area_Type
  10
372975.053
  20
4632402.991
  0
VERTEX
  8
Unknown_Area_Type
  10
372946.000
  20
4631818.000
  0
VERTEX
  8
Unknown_Area_Type
  10
372946.000
  20
4631816.000
  0
VERTEX
  8
Unknown_Area_Type
  10
372921.000
  20
4631304.500
  0
VERTEX
  8
Unknown_Area_Type
  10
370321.500
  20
4631290.000
  0
VERTEX
  8
Unknown_Area_Type
  10
370355.650
  20
4632450.010
  0
VERTEX
  8
Unknown_Area_Type
  10
372975.053
  20
4632402.991
  0
SEQEND
  8
Unknown_Area_Type
  0
INSERT
  8
FeatureAttribs
  2
FEATURE
  41
1
  42
1
  43
1
  50
0
  10
371631.458
  20
4631862.752
 66
1
  0
ATTRIB
  8
FeatureAttribs
 70
0
  1
PNOA-H_AMS_1956-57_33k_ES_PAN_2
  2
NAME
  10
371631.458
  20
4631862.752
 40
33.92981
  0
SEQEND
  0
POLYLINE
  8
Unknown_Area_Type
  70
1
  66
1
  0
VERTEX
  8
Unknown_Area_Type
  10
372975.053
  20
4632402.991
  0
VERTEX
  8
Unknown_Area_Type
  10
370355.650
  20
4632450.010
  0
VERTEX
  8
Unknown_Area_Type
  10
370321.500
  20
4631290.000
  0
VERTEX
  8
Unknown_Area_Type
  10
372921.000
  20
4631304.500
  0
VERTEX
  8
Unknown_Area_Type
  10
372946.000
  20
4631816.000
  0
VERTEX
  8
Unknown_Area_Type
  10
372946.000
  20
4631818.000
  0
VERTEX
  8
Unknown_Area_Type
  10
372975.053
  20
4632402.991
  0
SEQEND
  8
Unknown_Area_Type
  0
INSERT
  8
FeatureAttribs
  2
FEATURE
  41
1
  42
1
  43
1
  50
0
  10
363669.707
  20
4632741.628
 66
1
  0
ATTRIB
  8
FeatureAttribs
 70
0
  1
PNOA-H_AMS_1956-57_33k_ES_PAN_2
  2
NAME
  10
363669.707
  20
4632741.628
 40
33.92981
  0
SEQEND
  0
POLYLINE
  8
Unknown_Area_Type
  70
1
  66
1
  0
VERTEX
  8
Unknown_Area_Type
  10
365003.317
  20
4632933.549
  0
VERTEX
  8
Unknown_Area_Type
  10
364992.874
  20
4632549.708
  0
VERTEX
  8
Unknown_Area_Type
  10
363338.789
  20
4632581.005
  0
VERTEX
  8
Unknown_Area_Type
  10
362337.033
  20
4632600.446
  0
VERTEX
  8
Unknown_Area_Type
  10
362347.142
  20
4632933.549
  0
VERTEX
  8
Unknown_Area_Type
  10
365003.317
  20
4632933.549
  0
SEQEND
  8
Unknown_Area_Type
  0
INSERT
  8
FeatureAttribs
  2
FEATURE
  41
1
  42
1
  43
1
  50
0
  10
363685.861
  20
4631935.390
 66
1
  0
ATTRIB
  8
FeatureAttribs
 70
0
  1
PNOA-H_AMS_1956-57_33k_ES_PAN_2
  2
NAME
  10
363685.861
  20
4631935.390
 40
33.92981
  0
SEQEND
  0
POLYLINE
  8
Unknown_Area_Type
  70
1
  66
1
  0
VERTEX
  8
Unknown_Area_Type
  10
364992.874
  20
4632549.708
  0
VERTEX
  8
Unknown_Area_Type
  10
364961.500
  20
4631396.500
  0
VERTEX
  8
Unknown_Area_Type
  10
364338.000
  20
4631125.000
  0
VERTEX
  8
Unknown_Area_Type
  10
362304.000
  20
4631512.000
  0
VERTEX
  8
Unknown_Area_Type
  10
362337.033
  20
4632600.446
  0
VERTEX
  8
Unknown_Area_Type
  10
363338.789
  20
4632581.005
  0
VERTEX
  8
Unknown_Area_Type
  10
364992.874
  20
4632549.708
  0
SEQEND
  8
Unknown_Area_Type
  0
INSERT
  8
FeatureAttribs
  2
FEATURE
  41
1
  42
1
  43
1
  50
0
  10
363685.861
  20
4631935.390
 66
1
  0
ATTRIB
  8
FeatureAttribs
 70
0
  1
PNOA-H_AMS_1956-57_33k_ES_PAN_2
  2
NAME
  10
363685.861
  20
4631935.390
 40
33.92981
  0
SEQEND
  0
POLYLINE
  8
Unknown_Area_Type
  70
1
  66
1
  0
VERTEX
  8
Unknown_Area_Type
  10
364992.874
  20
4632549.708
  0
VERTEX
  8
Unknown_Area_Type
  10
363338.789
  20
4632581.005
  0
VERTEX
  8
Unknown_Area_Type
  10
362337.033
  20
4632600.446
  0
VERTEX
  8
Unknown_Area_Type
  10
362304.000
  20
4631512.000
  0
VERTEX
  8
Unknown_Area_Type
  10
364338.000
  20
4631125.000
  0
VERTEX
  8
Unknown_Area_Type
  10
364961.500
  20
4631396.500
  0
VERTEX
  8
Unknown_Area_Type
  10
364992.874
  20
4632549.708
  0
SEQEND
  8
Unknown_Area_Type
  0
INSERT
  8
FeatureAttribs
  2
FEATURE
  41
1
  42
1
  43
1
  50
0
  10
366334.652
  20
4632716.544
 66
1
  0
ATTRIB
  8
FeatureAttribs
 70
0
  1
PNOA-H_AMS_1956-57_33k_ES_PAN_2
  2
NAME
  10
366334.652
  20
4632716.544
 40
33.92981
  0
SEQEND
  0
POLYLINE
  8
Unknown_Area_Type
  70
1
  66
1
  0
VERTEX
  8
Unknown_Area_Type
  10
367677.480
  20
4632933.549
  0
VERTEX
  8
Unknown_Area_Type
  10
367666.540
  20
4632499.539
  0
VERTEX
  8
Unknown_Area_Type
  10
366798.669
  20
4632515.539
  0
VERTEX
  8
Unknown_Area_Type
  10
364992.771
  20
4632549.709
  0
VERTEX
  8
Unknown_Area_Type
  10
365003.180
  20
4632933.549
  0
VERTEX
  8
Unknown_Area_Type
  10
367677.480
  20
4632933.549
  0
SEQEND
  8
Unknown_Area_Type
  0
INSERT
  8
FeatureAttribs
  2
FEATURE
  41
1
  42
1
  43
1
  50
0
  10
366339.135
  20
4631895.056
 66
1
  0
ATTRIB
  8
FeatureAttribs
 70
0
  1
PNOA-H_AMS_1956-57_33k_ES_PAN_2
  2
NAME
  10
366339.135
  20
4631895.056
 40
33.92981
  0
SEQEND
  0
POLYLINE
  8
Unknown_Area_Type
  70
1
  66
1
  0
VERTEX
  8
Unknown_Area_Type
  10
367666.540
  20
4632499.539
  0
VERTEX
  8
Unknown_Area_Type
  10
367637.500
  20
4631347.500
  0
VERTEX
  8
Unknown_Area_Type
  10
367255.500
  20
4631149.500
  0
VERTEX
  8
Unknown_Area_Type
  10
364961.500
  20
4631396.500
  0
VERTEX
  8
Unknown_Area_Type
  10
364992.771
  20
4632549.709
  0
VERTEX
  8
Unknown_Area_Type
  10
366798.669
  20
4632515.539
  0
VERTEX
  8
Unknown_Area_Type
  10
367666.540
  20
4632499.539
  0
SEQEND
  8
Unknown_Area_Type
  0
INSERT
  8
FeatureAttribs
  2
FEATURE
  41
1
  42
1
  43
1
  50
0
  10
366339.135
  20
4631895.056
 66
1
  0
ATTRIB
  8
FeatureAttribs
 70
0
  1
PNOA-H_AMS_1956-57_33k_ES_PAN_2
  2
NAME
  10
366339.135
  20
4631895.056
 40
33.92981
  0
SEQEND
  0
POLYLINE
  8
Unknown_Area_Type
  70
1
  66
1
  0
VERTEX
  8
Unknown_Area_Type
  10
367666.540
  20
4632499.539
  0
VERTEX
  8
Unknown_Area_Type
  10
366798.669
  20
4632515.539
  0
VERTEX
  8
Unknown_Area_Type
  10
364992.771
  20
4632549.709
  0
VERTEX
  8
Unknown_Area_Type
  10
364961.500
  20
4631396.500
  0
VERTEX
  8
Unknown_Area_Type
  10
367255.500
  20
4631149.500
  0
VERTEX
  8
Unknown_Area_Type
  10
367637.500
  20
4631347.500
  0
VERTEX
  8
Unknown_Area_Type
  10
367666.540
  20
4632499.539
  0
SEQEND
  8
Unknown_Area_Type
  0
INSERT
  8
FeatureAttribs
  2
FEATURE
  41
1
  42
1
  43
1
  50
0
  10
358427.784
  20
4632792.252
 66
1
  0
ATTRIB
  8
FeatureAttribs
 70
0
  1
PNOA-H_AMS_1956-57_33k_ES_PAN_2
  2
NAME
  10
358427.784
  20
4632792.252
 40
33.92981
  0
SEQEND
  0
POLYLINE
  8
Unknown_Area_Type
  70
1
  66
1
  0
VERTEX
  8
Unknown_Area_Type
  10
359739.959
  20
4632933.549
  0
VERTEX
  8
Unknown_Area_Type
  10
359737.914
  20
4632650.955
  0
VERTEX
  8
Unknown_Area_Type
  10
357114.426
  20
4632703.142
  0
VERTEX
  8
Unknown_Area_Type
  10
357120.127
  20
4632933.549
  0
VERTEX
  8
Unknown_Area_Type
  10
359739.959
  20
4632933.549
  0
SEQEND
  8
Unknown_Area_Type
  0
INSERT
  8
FeatureAttribs
  2
FEATURE
  41
1
  42
1
  43
1
  50
0
  10
358427.884
  20
4632065.474
 66
1
  0
ATTRIB
  8
FeatureAttribs
 70
0
  1
PNOA-H_AMS_1956-57_33k_ES_PAN_2
  2
NAME
  10
358427.884
  20
4632065.474
 40
33.92981
  0
SEQEND
  0
POLYLINE
  8
Unknown_Area_Type
  70
1
  66
1
  0
VERTEX
  8
Unknown_Area_Type
  10
359737.914
  20
4632650.955
  0
VERTEX
  8
Unknown_Area_Type
  10
359730.500
  20
4631626.500
  0
VERTEX
  8
Unknown_Area_Type
  10
358487.500
  20
4631261.000
  0
VERTEX
  8
Unknown_Area_Type
  10
357090.000
  20
4631716.000
  0
VERTEX
  8
Unknown_Area_Type
  10
357114.426
  20
4632703.142
  0
VERTEX
  8
Unknown_Area_Type
  10
359737.914
  20
4632650.955
  0
SEQEND
  8
Unknown_Area_Type
  0
INSERT
  8
FeatureAttribs
  2
FEATURE
  41
1
  42
1
  43
1
  50
0
  10
358427.884
  20
4632065.474
 66
1
  0
ATTRIB
  8
FeatureAttribs
 70
0
  1
PNOA-H_AMS_1956-57_33k_ES_PAN_2
  2
NAME
  10
358427.884
  20
4632065.474
 40
33.92981
  0
SEQEND
  0
POLYLINE
  8
Unknown_Area_Type
  70
1
  66
1
  0
VERTEX
  8
Unknown_Area_Type
  10
359737.914
  20
4632650.955
  0
VERTEX
  8
Unknown_Area_Type
  10
357114.426
  20
4632703.142
  0
VERTEX
  8
Unknown_Area_Type
  10
357090.000
  20
4631716.000
  0
VERTEX
  8
Unknown_Area_Type
  10
358487.500
  20
4631261.000
  0
VERTEX
  8
Unknown_Area_Type
  10
359730.500
  20
4631626.500
  0
VERTEX
  8
Unknown_Area_Type
  10
359737.914
  20
4632650.955
  0
SEQEND
  8
Unknown_Area_Type
  0
INSERT
  8
FeatureAttribs
  2
FEATURE
  41
1
  42
1
  43
1
  50
0
  10
355802.106
  20
4632818.345
 66
1
  0
ATTRIB
  8
FeatureAttribs
 70
0
  1
PNOA-H_AMS_1956-57_33k_ES_PAN_2
  2
NAME
  10
355802.106
  20
4632818.345
 40
33.92981
  0
SEQEND
  0
POLYLINE
  8
Unknown_Area_Type
  70
1
  66
1
  0
VERTEX
  8
Unknown_Area_Type
  10
357120.127
  20
4632933.549
  0
VERTEX
  8
Unknown_Area_Type
  10
357114.426
  20
4632703.142
  0
VERTEX
  8
Unknown_Area_Type
  10
356419.004
  20
4632716.975
  0
VERTEX
  8
Unknown_Area_Type
  10
354483.786
  20
4632756.411
  0
VERTEX
  8
Unknown_Area_Type
  10
354492.792
  20
4632933.549
  0
VERTEX
  8
Unknown_Area_Type
  10
357120.127
  20
4632933.549
  0
SEQEND
  8
Unknown_Area_Type
  0
INSERT
  8
FeatureAttribs
  2
FEATURE
  41
1
  42
1
  43
1
  50
0
  10
355772.565
  20
4632136.150
 66
1
  0
ATTRIB
  8
FeatureAttribs
 70
0
  1
PNOA-H_AMS_1956-57_33k_ES_PAN_2
  2
NAME
  10
355772.565
  20
4632136.150
 40
33.92981
  0
SEQEND
  0
POLYLINE
  8
Unknown_Area_Type
  70
1
  66
1
  0
VERTEX
  8
Unknown_Area_Type
  10
357114.426
  20
4632703.142
  0
VERTEX
  8
Unknown_Area_Type
  10
357090.000
  20
4631716.000
  0
VERTEX
  8
Unknown_Area_Type
  10
355530.000
  20
4631355.500
  0
VERTEX
  8
Unknown_Area_Type
  10
354436.000
  20
4631816.500
  0
VERTEX
  8
Unknown_Area_Type
  10
354483.786
  20
4632756.411
  0
VERTEX
  8
Unknown_Area_Type
  10
356419.004
  20
4632716.975
  0
VERTEX
  8
Unknown_Area_Type
  10
357114.426
  20
4632703.142
  0
SEQEND
  8
Unknown_Area_Type
  0
INSERT
  8
FeatureAttribs
  2
FEATURE
  41
1
  42
1
  43
1
  50
0
  10
355772.565
  20
4632136.150
 66
1
  0
ATTRIB
  8
FeatureAttribs
 70
0
  1
PNOA-H_AMS_1956-57_33k_ES_PAN_2
  2
NAME
  10
355772.565
  20
4632136.150
 40
33.92981
  0
SEQEND
  0
POLYLINE
  8
Unknown_Area_Type
  70
1
  66
1
  0
VERTEX
  8
Unknown_Area_Type
  10
357114.426
  20
4632703.142
  0
VERTEX
  8
Unknown_Area_Type
  10
356419.004
  20
4632716.975
  0
VERTEX
  8
Unknown_Area_Type
  10
354483.786
  20
4632756.411
  0
VERTEX
  8
Unknown_Area_Type
  10
354436.000
  20
4631816.500
  0
VERTEX
  8
Unknown_Area_Type
  10
355530.000
  20
4631355.500
  0
VERTEX
  8
Unknown_Area_Type
  10
357090.000
  20
4631716.000
  0
VERTEX
  8
Unknown_Area_Type
  10
357114.426
  20
4632703.142
  0
SEQEND
  8
Unknown_Area_Type
  0
INSERT
  8
FeatureAttribs
  2
FEATURE
  41
1
  42
1
  43
1
  50
0
  10
353204.340
  20
4632844.980
 66
1
  0
ATTRIB
  8
FeatureAttribs
 70
0
  1
PNOA-H_AMS_1956-57_33k_ES_PAN_2
  2
NAME
  10
353204.340
  20
4632844.980
 40
33.92981
  0
SEQEND
  0
POLYLINE
  8
Unknown_Area_Type
  70
1
  66
1
  0
VERTEX
  8
Unknown_Area_Type
  10
354492.786
  20
4632933.549
  0
VERTEX
  8
Unknown_Area_Type
  10
354483.781
  20
4632756.411
  0
VERTEX
  8
Unknown_Area_Type
  10
352959.099
  20
4632787.480
  0
VERTEX
  8
Unknown_Area_Type
  10
351919.902
  20
4632809.161
  0
VERTEX
  8
Unknown_Area_Type
  10
351921.623
  20
4632933.549
  0
VERTEX
  8
Unknown_Area_Type
  10
354492.786
  20
4632933.549
  0
SEQEND
  8
Unknown_Area_Type
  0
INSERT
  8
FeatureAttribs
  2
FEATURE
  41
1
  42
1
  43
1
  50
0
  10
353142.689
  20
4632227.704
 66
1
  0
ATTRIB
  8
FeatureAttribs
 70
0
  1
PNOA-H_AMS_1956-57_33k_ES_PAN_2
  2
NAME
  10
353142.689
  20
4632227.704
 40
33.92981
  0
SEQEND
  0
POLYLINE
  8
Unknown_Area_Type
  70
1
  66
1
  0
VERTEX
  8
Unknown_Area_Type
  10
354483.781
  20
4632756.411
  0
VERTEX
  8
Unknown_Area_Type
  10
354436.000
  20
4631816.500
  0
VERTEX
  8
Unknown_Area_Type
  10
352440.000
  20
4631537.000
  0
VERTEX
  8
Unknown_Area_Type
  10
351906.000
  20
4631804.500
  0
VERTEX
  8
Unknown_Area_Type
  10
351919.902
  20
4632809.161
  0
VERTEX
  8
Unknown_Area_Type
  10
352959.099
  20
4632787.480
  0
VERTEX
  8
Unknown_Area_Type
  10
354483.781
  20
4632756.411
  0
SEQEND
  8
Unknown_Area_Type
  0
INSERT
  8
FeatureAttribs
  2
FEATURE
  41
1
  42
1
  43
1
  50
0
  10
353142.689
  20
4632227.704
 66
1
  0
ATTRIB
  8
FeatureAttribs
 70
0
  1
PNOA-H_AMS_1956-57_33k_ES_PAN_2
  2
NAME
  10
353142.689
  20
4632227.704
 40
33.92981
  0
SEQEND
  0
POLYLINE
  8
Unknown_Area_Type
  70
1
  66
1
  0
VERTEX
  8
Unknown_Area_Type
  10
354483.781
  20
4632756.411
  0
VERTEX
  8
Unknown_Area_Type
  10
352959.099
  20
4632787.480
  0
VERTEX
  8
Unknown_Area_Type
  10
351919.902
  20
4632809.161
  0
VERTEX
  8
Unknown_Area_Type
  10
351906.000
  20
4631804.500
  0
VERTEX
  8
Unknown_Area_Type
  10
352440.000
  20
4631537.000
  0
VERTEX
  8
Unknown_Area_Type
  10
354436.000
  20
4631816.500
  0
VERTEX
  8
Unknown_Area_Type
  10
354483.781
  20
4632756.411
  0
SEQEND
  8
Unknown_Area_Type
  0
INSERT
  8
FeatureAttribs
  2
FEATURE
  41
1
  42
1
  43
1
  50
0
  10
348475.305
  20
4632898.870
 66
1
  0
ATTRIB
  8
FeatureAttribs
 70
0
  1
PNOA-H_AMS_1956-57_33k_ES_PAN_2
  2
NAME
  10
348475.305
  20
4632898.870
 40
33.92981
  0
SEQEND
  0
POLYLINE
  8
Unknown_Area_Type
  70
1
  66
1
  0
VERTEX
  8
Unknown_Area_Type
  10
349288.416
  20
4632933.549
  0
VERTEX
  8
Unknown_Area_Type
  10
349287.217
  20
4632864.190
  0
VERTEX
  8
Unknown_Area_Type
  10
346705.282
  20
4632919.311
  0
VERTEX
  8
Unknown_Area_Type
  10
346705.572
  20
4632933.549
  0
VERTEX
  8
Unknown_Area_Type
  10
349288.416
  20
4632933.549
  0
SEQEND
  8
Unknown_Area_Type
  0
INSERT
  8
FeatureAttribs
  2
FEATURE
  41
1
  42
1
  43
1
  50
0
  10
347950.637
  20
4632329.425
 66
1
  0
ATTRIB
  8
FeatureAttribs
 70
0
  1
PNOA-H_AMS_1956-57_33k_ES_PAN_2
  2
NAME
  10
347950.637
  20
4632329.425
 40
33.92981
  0
SEQEND
  0
POLYLINE
  8
Unknown_Area_Type
  70
1
  66
1
  0
VERTEX
  8
Unknown_Area_Type
  10
349287.217
  20
4632864.190
  0
VERTEX
  8
Unknown_Area_Type
  10
349269.500
  20
4631839.000
  0
VERTEX
  8
Unknown_Area_Type
  10
346860.500
  20
4631701.000
  0
VERTEX
  8
Unknown_Area_Type
  10
346854.500
  20
4631702.000
  0
VERTEX
  8
Unknown_Area_Type
  10
346682.500
  20
4631798.500
  0
VERTEX
  8
Unknown_Area_Type
  10
346705.282
  20
4632919.311
  0
VERTEX
  8
Unknown_Area_Type
  10
349287.217
  20
4632864.190
  0
SEQEND
  8
Unknown_Area_Type
  0
INSERT
  8
FeatureAttribs
  2
FEATURE
  41
1
  42
1
  43
1
  50
0
  10
347950.637
  20
4632329.425
 66
1
  0
ATTRIB
  8
FeatureAttribs
 70
0
  1
PNOA-H_AMS_1956-57_33k_ES_PAN_2
  2
NAME
  10
347950.637
  20
4632329.425
 40
33.92981
  0
SEQEND
  0
POLYLINE
  8
Unknown_Area_Type
  70
1
  66
1
  0
VERTEX
  8
Unknown_Area_Type
  10
349287.217
  20
4632864.190
  0
VERTEX
  8
Unknown_Area_Type
  10
346705.282
  20
4632919.311
  0
VERTEX
  8
Unknown_Area_Type
  10
346682.500
  20
4631798.500
  0
VERTEX
  8
Unknown_Area_Type
  10
346854.500
  20
4631702.000
  0
VERTEX
  8
Unknown_Area_Type
  10
346860.500
  20
4631701.000
  0
VERTEX
  8
Unknown_Area_Type
  10
349269.500
  20
4631839.000
  0
VERTEX
  8
Unknown_Area_Type
  10
349287.217
  20
4632864.190
  0
SEQEND
  8
Unknown_Area_Type
  0
INSERT
  8
FeatureAttribs
  2
FEATURE
  41
1
  42
1
  43
1
  50
0
  10
369017.001
  20
4632691.780
 66
1
  0
ATTRIB
  8
FeatureAttribs
 70
0
  1
PNOA-H_AMS_1956-57_33k_ES_PAN_2
  2
NAME
  10
369017.001
  20
4632691.780
 40
33.92981
  0
SEQEND
  0
POLYLINE
  8
Unknown_Area_Type
  70
1
  66
1
  0
VERTEX
  8
Unknown_Area_Type
  10
370369.884
  20
4632933.549
  0
VERTEX
  8
Unknown_Area_Type
  10
370355.650
  20
4632450.010
  0
VERTEX
  8
Unknown_Area_Type
  10
370258.542
  20
4632451.754
  0
VERTEX
  8
Unknown_Area_Type
  10
367666.410
  20
4632499.542
  0
VERTEX
  8
Unknown_Area_Type
  10
367677.302
  20
4632933.549
  0
VERTEX
  8
Unknown_Area_Type
  10
370369.884
  20
4632933.549
  0
SEQEND
  8
Unknown_Area_Type
  0
INSERT
  8
FeatureAttribs
  2
FEATURE
  41
1
  42
1
  43
1
  50
0
  10
369009.715
  20
4631876.477
 66
1
  0
ATTRIB
  8
FeatureAttribs
 70
0
  1
PNOA-H_AMS_1956-57_33k_ES_PAN_2
  2
NAME
  10
369009.715
  20
4631876.477
 40
33.92981
  0
SEQEND
  0
POLYLINE
  8
Unknown_Area_Type
  70
1
  66
1
  0
VERTEX
  8
Unknown_Area_Type
  10
370355.650
  20
4632450.010
  0
VERTEX
  8
Unknown_Area_Type
  10
370321.500
  20
4631290.000
  0
VERTEX
  8
Unknown_Area_Type
  10
370193.000
  20
4631213.000
  0
VERTEX
  8
Unknown_Area_Type
  10
367637.500
  20
4631347.500
  0
VERTEX
  8
Unknown_Area_Type
  10
367666.410
  20
4632499.542
  0
VERTEX
  8
Unknown_Area_Type
  10
370258.542
  20
4632451.754
  0
VERTEX
  8
Unknown_Area_Type
  10
370355.650
  20
4632450.010
  0
SEQEND
  8
Unknown_Area_Type
  0
INSERT
  8
FeatureAttribs
  2
FEATURE
  41
1
  42
1
  43
1
  50
0
  10
369009.715
  20
4631876.477
 66
1
  0
ATTRIB
  8
FeatureAttribs
 70
0
  1
PNOA-H_AMS_1956-57_33k_ES_PAN_2
  2
NAME
  10
369009.715
  20
4631876.477
 40
33.92981
  0
SEQEND
  0
POLYLINE
  8
Unknown_Area_Type
  70
1
  66
1
  0
VERTEX
  8
Unknown_Area_Type
  10
370355.650
  20
4632450.010
  0
VERTEX
  8
Unknown_Area_Type
  10
370258.542
  20
4632451.754
  0
VERTEX
  8
Unknown_Area_Type
  10
367666.410
  20
4632499.542
  0
VERTEX
  8
Unknown_Area_Type
  10
367637.500
  20
4631347.500
  0
VERTEX
  8
Unknown_Area_Type
  10
370193.000
  20
4631213.000
  0
VERTEX
  8
Unknown_Area_Type
  10
370321.500
  20
4631290.000
  0
VERTEX
  8
Unknown_Area_Type
  10
370355.650
  20
4632450.010
  0
SEQEND
  8
Unknown_Area_Type
  0
INSERT
  8
FeatureAttribs
  2
FEATURE
  41
1
  42
1
  43
1
  50
0
  10
361040.239
  20
4632766.997
 66
1
  0
ATTRIB
  8
FeatureAttribs
 70
0
  1
PNOA-H_AMS_1956-57_33k_ES_PAN_2
  2
NAME
  10
361040.239
  20
4632766.997
 40
33.92981
  0
SEQEND
  0
POLYLINE
  8
Unknown_Area_Type
  70
1
  66
1
  0
VERTEX
  8
Unknown_Area_Type
  10
362347.142
  20
4632933.549
  0
VERTEX
  8
Unknown_Area_Type
  10
362337.033
  20
4632600.446
  0
VERTEX
  8
Unknown_Area_Type
  10
359878.901
  20
4632648.150
  0
VERTEX
  8
Unknown_Area_Type
  10
359737.537
  20
4632650.962
  0
VERTEX
  8
Unknown_Area_Type
  10
359739.615
  20
4632933.549
  0
VERTEX
  8
Unknown_Area_Type
  10
362347.142
  20
4632933.549
  0
SEQEND
  8
Unknown_Area_Type
  0
INSERT
  8
FeatureAttribs
  2
FEATURE
  41
1
  42
1
  43
1
  50
0
  10
361056.380
  20
4632006.422
 66
1
  0
ATTRIB
  8
FeatureAttribs
 70
0
  1
PNOA-H_AMS_1956-57_33k_ES_PAN_2
  2
NAME
  10
361056.380
  20
4632006.422
 40
33.92981
  0
SEQEND
  0
POLYLINE
  8
Unknown_Area_Type
  70
1
  66
1
  0
VERTEX
  8
Unknown_Area_Type
  10
362337.033
  20
4632600.446
  0
VERTEX
  8
Unknown_Area_Type
  10
362304.000
  20
4631512.000
  0
VERTEX
  8
Unknown_Area_Type
  10
361429.000
  20
4631203.500
  0
VERTEX
  8
Unknown_Area_Type
  10
359731.500
  20
4631626.000
  0
VERTEX
  8
Unknown_Area_Type
  10
359730.500
  20
4631626.500
  0
VERTEX
  8
Unknown_Area_Type
  10
359730.500
  20
4631694.000
  0
VERTEX
  8
Unknown_Area_Type
  10
359737.537
  20
4632650.962
  0
VERTEX
  8
Unknown_Area_Type
  10
359878.901
  20
4632648.150
  0
VERTEX
  8
Unknown_Area_Type
  10
362337.033
  20
4632600.446
  0
SEQEND
  8
Unknown_Area_Type
  0
INSERT
  8
FeatureAttribs
  2
FEATURE
  41
1
  42
1
  43
1
  50
0
  10
361056.380
  20
4632006.422
 66
1
  0
ATTRIB
  8
FeatureAttribs
 70
0
  1
PNOA-H_AMS_1956-57_33k_ES_PAN_2
  2
NAME
  10
361056.380
  20
4632006.422
 40
33.92981
  0
SEQEND
  0
POLYLINE
  8
Unknown_Area_Type
  70
1
  66
1
  0
VERTEX
  8
Unknown_Area_Type
  10
362337.033
  20
4632600.446
  0
VERTEX
  8
Unknown_Area_Type
  10
359878.901
  20
4632648.150
  0
VERTEX
  8
Unknown_Area_Type
  10
359737.537
  20
4632650.962
  0
VERTEX
  8
Unknown_Area_Type
  10
359730.500
  20
4631694.000
  0
VERTEX
  8
Unknown_Area_Type
  10
359730.500
  20
4631626.500
  0
VERTEX
  8
Unknown_Area_Type
  10
359731.500
  20
4631626.000
  0
VERTEX
  8
Unknown_Area_Type
  10
361429.000
  20
4631203.500
  0
VERTEX
  8
Unknown_Area_Type
  10
362304.000
  20
4631512.000
  0
VERTEX
  8
Unknown_Area_Type
  10
362337.033
  20
4632600.446
  0
SEQEND
  8
Unknown_Area_Type
  0
INSERT
  8
FeatureAttribs
  2
FEATURE
  41
1
  42
1
  43
1
  50
0
  10
350604.052
  20
4632871.355
 66
1
  0
ATTRIB
  8
FeatureAttribs
 70
0
  1
PNOA-H_AMS_1956-57_33k_ES_PAN_2
  2
NAME
  10
350604.052
  20
4632871.355
 40
33.92981
  0
SEQEND
  0
POLYLINE
  8
Unknown_Area_Type
  70
1
  66
1
  0
VERTEX
  8
Unknown_Area_Type
  10
351921.623
  20
4632933.549
  0
VERTEX
  8
Unknown_Area_Type
  10
351919.902
  20
4632809.161
  0
VERTEX
  8
Unknown_Area_Type
  10
349499.185
  20
4632859.665
  0
VERTEX
  8
Unknown_Area_Type
  10
349287.217
  20
4632864.190
  0
VERTEX
  8
Unknown_Area_Type
  10
349288.416
  20
4632933.549
  0
VERTEX
  8
Unknown_Area_Type
  10
351921.623
  20
4632933.549
  0
SEQEND
  8
Unknown_Area_Type
  0
INSERT
  8
FeatureAttribs
  2
FEATURE
  41
1
  42
1
  43
1
  50
0
  10
350565.664
  20
4632285.237
 66
1
  0
ATTRIB
  8
FeatureAttribs
 70
0
  1
PNOA-H_AMS_1956-57_33k_ES_PAN_2
  2
NAME
  10
350565.664
  20
4632285.237
 40
33.92981
  0
SEQEND
  0
POLYLINE
  8
Unknown_Area_Type
  70
1
  66
1
  0
VERTEX
  8
Unknown_Area_Type
  10
351919.902
  20
4632809.161
  0
VERTEX
  8
Unknown_Area_Type
  10
351906.000
  20
4631804.500
  0
VERTEX
  8
Unknown_Area_Type
  10
349619.500
  20
4631662.000
  0
VERTEX
  8
Unknown_Area_Type
  10
349269.500
  20
4631839.000
  0
VERTEX
  8
Unknown_Area_Type
  10
349287.217
  20
4632864.190
  0
VERTEX
  8
Unknown_Area_Type
  10
349499.185
  20
4632859.665
  0
VERTEX
  8
Unknown_Area_Type
  10
351919.902
  20
4632809.161
  0
SEQEND
  8
Unknown_Area_Type
  0
INSERT
  8
FeatureAttribs
  2
FEATURE
  41
1
  42
1
  43
1
  50
0
  10
350565.664
  20
4632285.237
 66
1
  0
ATTRIB
  8
FeatureAttribs
 70
0
  1
PNOA-H_AMS_1956-57_33k_ES_PAN_2
  2
NAME
  10
350565.664
  20
4632285.237
 40
33.92981
  0
SEQEND
  0
POLYLINE
  8
Unknown_Area_Type
  70
1
  66
1
  0
VERTEX
  8
Unknown_Area_Type
  10
351919.902
  20
4632809.161
  0
VERTEX
  8
Unknown_Area_Type
  10
349499.185
  20
4632859.665
  0
VERTEX
  8
Unknown_Area_Type
  10
349287.217
  20
4632864.190
  0
VERTEX
  8
Unknown_Area_Type
  10
349269.500
  20
4631839.000
  0
VERTEX
  8
Unknown_Area_Type
  10
349619.500
  20
4631662.000
  0
VERTEX
  8
Unknown_Area_Type
  10
351906.000
  20
4631804.500
  0
VERTEX
  8
Unknown_Area_Type
  10
351919.902
  20
4632809.161
  0
SEQEND
  8
Unknown_Area_Type
  0
INSERT
  8
FeatureAttribs
  2
FEATURE
  41
1
  42
1
  43
1
  50
0
  10
373353.336
  20
4632661.598
 66
1
  0
ATTRIB
  8
FeatureAttribs
 70
0
  1
PNOA-H_AMS_1956-57_33k_ES_PAN_2
  2
NAME
  10
373353.336
  20
4632661.598
 40
33.92981
  0
SEQEND
  0
POLYLINE
  8
Unknown_Area_Type
  70
1
  66
1
  0
VERTEX
  8
Unknown_Area_Type
  10
373001.711
  20
4632933.549
  0
VERTEX
  8
Unknown_Area_Type
  10
373718.434
  20
4632933.549
  0
VERTEX
  8
Unknown_Area_Type
  10
373718.434
  20
4632391.232
  0
VERTEX
  8
Unknown_Area_Type
  10
373718.406
  20
4632389.647
  0
VERTEX
  8
Unknown_Area_Type
  10
372975.424
  20
4632402.984
  0
VERTEX
  8
Unknown_Area_Type
  10
373001.711
  20
4632933.549
  0
SEQEND
  8
Unknown_Area_Type
  0
INSERT
  8
FeatureAttribs
  2
FEATURE
  41
1
  42
1
  43
1
  50
0
  10
373718.420
  20
4632390.043
 66
1
  0
ATTRIB
  8
FeatureAttribs
 70
0
  1
PNOA-H_AMS_1956-57_33k_ES_PAN_2
  2
NAME
  10
373718.420
  20
4632390.043
 40
33.92981
  0
SEQEND
  0
POLYLINE
  8
Unknown_Area_Type
  70
1
  66
1
  0
VERTEX
  8
Unknown_Area_Type
  10
373718.434
  20
4632391.232
  0
VERTEX
  8
Unknown_Area_Type
  10
373718.434
  20
4632389.647
  0
VERTEX
  8
Unknown_Area_Type
  10
373718.406
  20
4632389.647
  0
VERTEX
  8
Unknown_Area_Type
  10
373718.434
  20
4632391.232
  0
SEQEND
  8
Unknown_Area_Type
  0
INSERT
  8
FeatureAttribs
  2
FEATURE
  41
1
  42
1
  43
1
  50
0
  10
373713.191
  20
4631798.909
 66
1
  0
ATTRIB
  8
FeatureAttribs
 70
0
  1
PNOA-H_AMS_1956-57_33k_ES_PAN_2
  2
NAME
  10
373713.191
  20
4631798.909
 40
33.92981
  0
SEQEND
  0
POLYLINE
  8
Unknown_Area_Type
  70
1
  66
1
  0
VERTEX
  8
Unknown_Area_Type
  10
373718.434
  20
4631210.005
  0
VERTEX
  8
Unknown_Area_Type
  10
373697.489
  20
4631208.171
  0
VERTEX
  8
Unknown_Area_Type
  10
373718.406
  20
4632389.647
  0
VERTEX
  8
Unknown_Area_Type
  10
373718.434
  20
4632389.647
  0
VERTEX
  8
Unknown_Area_Type
  10
373718.434
  20
4631210.005
  0
SEQEND
  8
Unknown_Area_Type
  0
INSERT
  8
FeatureAttribs
  2
FEATURE
  41
1
  42
1
  43
1
  50
0
  10
373328.931
  20
4631792.743
 66
1
  0
ATTRIB
  8
FeatureAttribs
 70
0
  1
PNOA-H_AMS_1956-57_33k_ES_PAN_2
  2
NAME
  10
373328.931
  20
4631792.743
 40
33.92981
  0
SEQEND
  0
POLYLINE
  8
Unknown_Area_Type
  70
1
  66
1
  0
VERTEX
  8
Unknown_Area_Type
  10
373697.489
  20
4631208.171
  0
VERTEX
  8
Unknown_Area_Type
  10
373164.500
  20
4631161.500
  0
VERTEX
  8
Unknown_Area_Type
  10
373161.000
  20
4631162.500
  0
VERTEX
  8
Unknown_Area_Type
  10
372921.000
  20
4631304.500
  0
VERTEX
  8
Unknown_Area_Type
  10
372975.424
  20
4632402.984
  0
VERTEX
  8
Unknown_Area_Type
  10
373718.406
  20
4632389.647
  0
VERTEX
  8
Unknown_Area_Type
  10
373697.489
  20
4631208.171
  0
SEQEND
  8
Unknown_Area_Type
  0
INSERT
  8
FeatureAttribs
  2
FEATURE
  41
1
  42
1
  43
1
  50
0
  10
373328.931
  20
4631792.743
 66
1
  0
ATTRIB
  8
FeatureAttribs
 70
0
  1
PNOA-H_AMS_1956-57_33k_ES_PAN_2
  2
NAME
  10
373328.931
  20
4631792.743
 40
33.92981
  0
SEQEND
  0
POLYLINE
  8
Unknown_Area_Type
  70
1
  66
1
  0
VERTEX
  8
Unknown_Area_Type
  10
373697.489
  20
4631208.171
  0
VERTEX
  8
Unknown_Area_Type
  10
373718.406
  20
4632389.647
  0
VERTEX
  8
Unknown_Area_Type
  10
372975.424
  20
4632402.984
  0
VERTEX
  8
Unknown_Area_Type
  10
372921.000
  20
4631304.500
  0
VERTEX
  8
Unknown_Area_Type
  10
373161.000
  20
4631162.500
  0
VERTEX
  8
Unknown_Area_Type
  10
373164.500
  20
4631161.500
  0
VERTEX
  8
Unknown_Area_Type
  10
373697.489
  20
4631208.171
  0
SEQEND
  8
Unknown_Area_Type
  0
INSERT
  8
FeatureAttribs
  2
FEATURE
  41
1
  42
1
  43
1
  50
0
  10
345664.737
  20
4616694.754
 66
1
  0
ATTRIB
  8
FeatureAttribs
 70
0
  1
PNOA-H_AMS_1956-57_33k_ES_PAN_2
  2
NAME
  10
345664.737
  20
4616694.754
 40
33.92981
  0
SEQEND
  0
POLYLINE
  8
Unknown_Area_Type
  70
1
  66
1
  0
VERTEX
  8
Unknown_Area_Type
  10
345737.621
  20
4618945.917
  0
VERTEX
  8
Unknown_Area_Type
  10
345690.151
  20
4616741.528
  0
VERTEX
  8
Unknown_Area_Type
  10
345640.359
  20
4614428.414
  0
VERTEX
  8
Unknown_Area_Type
  10
345640.331
  20
4614428.415
  0
VERTEX
  8
Unknown_Area_Type
  10
345640.331
  20
4618961.094
  0
VERTEX
  8
Unknown_Area_Type
  10
345737.621
  20
4618945.917
  0
SEQEND
  8
Unknown_Area_Type
  0
INSERT
  8
FeatureAttribs
  2
FEATURE
  41
1
  42
1
  43
1
  50
0
  10
345640.345
  20
4614428.088
 66
1
  0
ATTRIB
  8
FeatureAttribs
 70
0
  1
PNOA-H_AMS_1956-57_33k_ES_PAN_2
  2
NAME
  10
345640.345
  20
4614428.088
 40
33.92981
  0
SEQEND
  0
POLYLINE
  8
Unknown_Area_Type
  70
1
  66
1
  0
VERTEX
  8
Unknown_Area_Type
  10
345640.331
  20
4614428.415
  0
VERTEX
  8
Unknown_Area_Type
  10
345640.359
  20
4614428.414
  0
VERTEX
  8
Unknown_Area_Type
  10
345640.331
  20
4614427.110
  0
VERTEX
  8
Unknown_Area_Type
  10
345640.331
  20
4614428.415
  0
SEQEND
  8
Unknown_Area_Type
  0
INSERT
  8
FeatureAttribs
  2
FEATURE
  41
1
  42
1
  43
1
  50
0
  10
346673.379
  20
4614304.207
 66
1
  0
ATTRIB
  8
FeatureAttribs
 70
0
  1
PNOA-H_AMS_1956-57_33k_ES_PAN_2
  2
NAME
  10
346673.379
  20
4614304.207
 40
33.92981
  0
SEQEND
  0
POLYLINE
  8
Unknown_Area_Type
  70
1
  66
1
  0
VERTEX
  8
Unknown_Area_Type
  10
347706.623
  20
4614384.446
  0
VERTEX
  8
Unknown_Area_Type
  10
347706.124
  20
4614180.000
  0
VERTEX
  8
Unknown_Area_Type
  10
345640.331
  20
4614180.000
  0
VERTEX
  8
Unknown_Area_Type
  10
345640.331
  20
4614427.110
  0
VERTEX
  8
Unknown_Area_Type
  10
345640.359
  20
4614428.414
  0
VERTEX
  8
Unknown_Area_Type
  10
347706.623
  20
4614384.446
  0
SEQEND
  8
Unknown_Area_Type
  0
INSERT
  8
FeatureAttribs
  2
FEATURE
  41
1
  42
1
  43
1
  50
0
  10
346689.857
  20
4616585.580
 66
1
  0
ATTRIB
  8
FeatureAttribs
 70
0
  1
PNOA-H_AMS_1956-57_33k_ES_PAN_2
  2
NAME
  10
346689.857
  20
4616585.580
 40
33.92981
  0
SEQEND
  0
POLYLINE
  8
Unknown_Area_Type
  70
1
  66
1
  0
VERTEX
  8
Unknown_Area_Type
  10
347706.623
  20
4614384.446
  0
VERTEX
  8
Unknown_Area_Type
  10
345640.359
  20
4614428.414
  0
VERTEX
  8
Unknown_Area_Type
  10
345690.151
  20
4616741.528
  0
VERTEX
  8
Unknown_Area_Type
  10
345737.621
  20
4618945.917
  0
VERTEX
  8
Unknown_Area_Type
  10
345743.500
  20
4618945.000
  0
VERTEX
  8
Unknown_Area_Type
  10
345746.000
  20
4618945.000
  0
VERTEX
  8
Unknown_Area_Type
  10
347717.000
  20
4618640.000
  0
VERTEX
  8
Unknown_Area_Type
  10
347706.623
  20
4614384.446
  0
SEQEND
  8
Unknown_Area_Type
  0
INSERT
  8
FeatureAttribs
  2
FEATURE
  41
1
  42
1
  43
1
  50
0
  10
346689.857
  20
4616585.580
 66
1
  0
ATTRIB
  8
FeatureAttribs
 70
0
  1
PNOA-H_AMS_1956-57_33k_ES_PAN_2
  2
NAME
  10
346689.857
  20
4616585.580
 40
33.92981
  0
SEQEND
  0
POLYLINE
  8
Unknown_Area_Type
  70
1
  66
1
  0
VERTEX
  8
Unknown_Area_Type
  10
347706.623
  20
4614384.446
  0
VERTEX
  8
Unknown_Area_Type
  10
347717.000
  20
4618640.000
  0
VERTEX
  8
Unknown_Area_Type
  10
345746.000
  20
4618945.000
  0
VERTEX
  8
Unknown_Area_Type
  10
345743.500
  20
4618945.000
  0
VERTEX
  8
Unknown_Area_Type
  10
345737.621
  20
4618945.917
  0
VERTEX
  8
Unknown_Area_Type
  10
345690.151
  20
4616741.528
  0
VERTEX
  8
Unknown_Area_Type
  10
345640.359
  20
4614428.414
  0
VERTEX
  8
Unknown_Area_Type
  10
347706.623
  20
4614384.446
  0
SEQEND
  8
Unknown_Area_Type
  0
INSERT
  8
FeatureAttribs
  2
FEATURE
  41
1
  42
1
  43
1
  50
0
  10
351877.610
  20
4614183.059
 66
1
  0
ATTRIB
  8
FeatureAttribs
 70
0
  1
PNOA-H_AMS_1956-57_33k_ES_PAN_2
  2
NAME
  10
351877.610
  20
4614183.059
 40
33.92981
  0
SEQEND
  0
POLYLINE
  8
Unknown_Area_Type
  70
1
  66
1
  0
VERTEX
  8
Unknown_Area_Type
  10
353282.891
  20
4614268.148
  0
VERTEX
  8
Unknown_Area_Type
  10
353274.167
  20
4614040.000
  0
VERTEX
  8
Unknown_Area_Type
  10
352470.000
  20
4614040.000
  0
VERTEX
  8
Unknown_Area_Type
  10
352470.000
  20
4614180.000
  0
VERTEX
  8
Unknown_Area_Type
  10
350475.513
  20
4614180.000
  0
VERTEX
  8
Unknown_Area_Type
  10
350478.819
  20
4614326.118
  0
VERTEX
  8
Unknown_Area_Type
  10
352578.138
  20
4614282.462
  0
VERTEX
  8
Unknown_Area_Type
  10
353282.891
  20
4614268.148
  0
SEQEND
  8
Unknown_Area_Type
  0
INSERT
  8
FeatureAttribs
  2
FEATURE
  41
1
  42
1
  43
1
  50
0
  10
351937.179
  20
4616473.475
 66
1
  0
ATTRIB
  8
FeatureAttribs
 70
0
  1
PNOA-H_AMS_1956-57_33k_ES_PAN_2
  2
NAME
  10
351937.179
  20
4616473.475
 40
33.92981
  0
SEQEND
  0
POLYLINE
  8
Unknown_Area_Type
  70
1
  66
1
  0
VERTEX
  8
Unknown_Area_Type
  10
353282.891
  20
4614268.148
  0
VERTEX
  8
Unknown_Area_Type
  10
352578.138
  20
4614282.462
  0
VERTEX
  8
Unknown_Area_Type
  10
350478.819
  20
4614326.118
  0
VERTEX
  8
Unknown_Area_Type
  10
350574.500
  20
4618554.500
  0
VERTEX
  8
Unknown_Area_Type
  10
351115.500
  20
4618778.000
  0
VERTEX
  8
Unknown_Area_Type
  10
351888.500
  20
4618675.000
  0
VERTEX
  8
Unknown_Area_Type
  10
351890.000
  20
4618675.000
  0
VERTEX
  8
Unknown_Area_Type
  10
353443.500
  20
4618468.000
  0
VERTEX
  8
Unknown_Area_Type
  10
353282.891
  20
4614268.148
  0
SEQEND
  8
Unknown_Area_Type
  0
INSERT
  8
FeatureAttribs
  2
FEATURE
  41
1
  42
1
  43
1
  50
0
  10
351937.179
  20
4616473.475
 66
1
  0
ATTRIB
  8
FeatureAttribs
 70
0
  1
PNOA-H_AMS_1956-57_33k_ES_PAN_2
  2
NAME
  10
351937.179
  20
4616473.475
 40
33.92981
  0
SEQEND
  0
POLYLINE
  8
Unknown_Area_Type
  70
1
  66
1
  0
VERTEX
  8
Unknown_Area_Type
  10
353282.891
  20
4614268.148
  0
VERTEX
  8
Unknown_Area_Type
  10
353443.500
  20
4618468.000
  0
VERTEX
  8
Unknown_Area_Type
  10
351890.000
  20
4618675.000
  0
VERTEX
  8
Unknown_Area_Type
  10
351888.500
  20
4618675.000
  0
VERTEX
  8
Unknown_Area_Type
  10
351115.500
  20
4618778.000
  0
VERTEX
  8
Unknown_Area_Type
  10
350574.500
  20
4618554.500
  0
VERTEX
  8
Unknown_Area_Type
  10
350478.819
  20
4614326.118
  0
VERTEX
  8
Unknown_Area_Type
  10
352578.138
  20
4614282.462
  0
VERTEX
  8
Unknown_Area_Type
  10
353282.891
  20
4614268.148
  0
SEQEND
  8
Unknown_Area_Type
  0
INSERT
  8
FeatureAttribs
  2
FEATURE
  41
1
  42
1
  43
1
  50
0
  10
357578.302
  20
4614124.736
 66
1
  0
ATTRIB
  8
FeatureAttribs
 70
0
  1
PNOA-H_AMS_1956-57_33k_ES_PAN_2
  2
NAME
  10
357578.302
  20
4614124.736
 40
33.92981
  0
SEQEND
  0
POLYLINE
  8
Unknown_Area_Type
  70
1
  66
1
  0
VERTEX
  8
Unknown_Area_Type
  10
358985.777
  20
4614153.736
  0
VERTEX
  8
Unknown_Area_Type
  10
358979.762
  20
4614040.000
  0
VERTEX
  8
Unknown_Area_Type
  10
356169.959
  20
4614040.000
  0
VERTEX
  8
Unknown_Area_Type
  10
356174.764
  20
4614209.472
  0
VERTEX
  8
Unknown_Area_Type
  10
358985.777
  20
4614153.736
  0
SEQEND
  8
Unknown_Area_Type
  0
INSERT
  8
FeatureAttribs
  2
FEATURE
  41
1
  42
1
  43
1
  50
0
  10
357666.110
  20
4616329.542
 66
1
  0
ATTRIB
  8
FeatureAttribs
 70
0
  1
PNOA-H_AMS_1956-57_33k_ES_PAN_2
  2
NAME
  10
357666.110
  20
4616329.542
 40
33.92981
  0
SEQEND
  0
POLYLINE
  8
Unknown_Area_Type
  70
1
  66
1
  0
VERTEX
  8
Unknown_Area_Type
  10
358985.777
  20
4614153.736
  0
VERTEX
  8
Unknown_Area_Type
  10
356174.764
  20
4614209.472
  0
VERTEX
  8
Unknown_Area_Type
  10
356293.500
  20
4618397.500
  0
VERTEX
  8
Unknown_Area_Type
  10
356503.000
  20
4618500.000
  0
VERTEX
  8
Unknown_Area_Type
  10
358021.500
  20
4618445.500
  0
VERTEX
  8
Unknown_Area_Type
  10
358034.000
  20
4618445.500
  0
VERTEX
  8
Unknown_Area_Type
  10
359210.500
  20
4618403.000
  0
VERTEX
  8
Unknown_Area_Type
  10
358985.777
  20
4614153.736
  0
SEQEND
  8
Unknown_Area_Type
  0
INSERT
  8
FeatureAttribs
  2
FEATURE
  41
1
  42
1
  43
1
  50
0
  10
357666.110
  20
4616329.542
 66
1
  0
ATTRIB
  8
FeatureAttribs
 70
0
  1
PNOA-H_AMS_1956-57_33k_ES_PAN_2
  2
NAME
  10
357666.110
  20
4616329.542
 40
33.92981
  0
SEQEND
  0
POLYLINE
  8
Unknown_Area_Type
  70
1
  66
1
  0
VERTEX
  8
Unknown_Area_Type
  10
358985.777
  20
4614153.736
  0
VERTEX
  8
Unknown_Area_Type
  10
359210.500
  20
4618403.000
  0
VERTEX
  8
Unknown_Area_Type
  10
358034.000
  20
4618445.500
  0
VERTEX
  8
Unknown_Area_Type
  10
358021.500
  20
4618445.500
  0
VERTEX
  8
Unknown_Area_Type
  10
356503.000
  20
4618500.000
  0
VERTEX
  8
Unknown_Area_Type
  10
356293.500
  20
4618397.500
  0
VERTEX
  8
Unknown_Area_Type
  10
356174.764
  20
4614209.472
  0
VERTEX
  8
Unknown_Area_Type
  10
358985.777
  20
4614153.736
  0
SEQEND
  8
Unknown_Area_Type
  0
INSERT
  8
FeatureAttribs
  2
FEATURE
  41
1
  42
1
  43
1
  50
0
  10
360601.156
  20
4614031.872
 66
1
  0
ATTRIB
  8
FeatureAttribs
 70
0
  1
PNOA-H_AMS_1956-57_33k_ES_PAN_2
  2
NAME
  10
360601.156
  20
4614031.872
 40
33.92981
  0
SEQEND
  0
POLYLINE
  8
Unknown_Area_Type
  70
1
  66
1
  0
VERTEX
  8
Unknown_Area_Type
  10
361796.485
  20
4614099.111
  0
VERTEX
  8
Unknown_Area_Type
  10
361784.751
  20
4613910.000
  0
VERTEX
  8
Unknown_Area_Type
  10
359410.000
  20
4613910.000
  0
VERTEX
  8
Unknown_Area_Type
  10
359410.000
  20
4614040.000
  0
VERTEX
  8
Unknown_Area_Type
  10
358979.394
  20
4614040.000
  0
VERTEX
  8
Unknown_Area_Type
  10
358985.419
  20
4614153.744
  0
VERTEX
  8
Unknown_Area_Type
  10
359515.880
  20
4614143.226
  0
VERTEX
  8
Unknown_Area_Type
  10
361796.485
  20
4614099.111
  0
SEQEND
  8
Unknown_Area_Type
  0
INSERT
  8
FeatureAttribs
  2
FEATURE
  41
1
  42
1
  43
1
  50
0
  10
360512.823
  20
4616255.388
 66
1
  0
ATTRIB
  8
FeatureAttribs
 70
0
  1
PNOA-H_AMS_1956-57_33k_ES_PAN_2
  2
NAME
  10
360512.823
  20
4616255.388
 40
33.92981
  0
SEQEND
  0
POLYLINE
  8
Unknown_Area_Type
  70
1
  66
1
  0
VERTEX
  8
Unknown_Area_Type
  10
361796.485
  20
4614099.111
  0
VERTEX
  8
Unknown_Area_Type
  10
359515.880
  20
4614143.226
  0
VERTEX
  8
Unknown_Area_Type
  10
358985.419
  20
4614153.744
  0
VERTEX
  8
Unknown_Area_Type
  10
359210.500
  20
4618403.000
  0
VERTEX
  8
Unknown_Area_Type
  10
359218.000
  20
4618407.000
  0
VERTEX
  8
Unknown_Area_Type
  10
359235.500
  20
4618407.000
  0
VERTEX
  8
Unknown_Area_Type
  10
360066.000
  20
4618387.500
  0
VERTEX
  8
Unknown_Area_Type
  10
360082.000
  20
4618387.500
  0
VERTEX
  8
Unknown_Area_Type
  10
362032.000
  20
4618343.000
  0
VERTEX
  8
Unknown_Area_Type
  10
362038.000
  20
4618342.500
  0
VERTEX
  8
Unknown_Area_Type
  10
362059.000
  20
4618330.000
  0
VERTEX
  8
Unknown_Area_Type
  10
361796.485
  20
4614099.111
  0
SEQEND
  8
Unknown_Area_Type
  0
INSERT
  8
FeatureAttribs
  2
FEATURE
  41
1
  42
1
  43
1
  50
0
  10
360512.823
  20
4616255.388
 66
1
  0
ATTRIB
  8
FeatureAttribs
 70
0
  1
PNOA-H_AMS_1956-57_33k_ES_PAN_2
  2
NAME
  10
360512.823
  20
4616255.388
 40
33.92981
  0
SEQEND
  0
POLYLINE
  8
Unknown_Area_Type
  70
1
  66
1
  0
VERTEX
  8
Unknown_Area_Type
  10
361796.485
  20
4614099.111
  0
VERTEX
  8
Unknown_Area_Type
  10
362059.000
  20
4618330.000
  0
VERTEX
  8
Unknown_Area_Type
  10
362038.000
  20
4618342.500
  0
VERTEX
  8
Unknown_Area_Type
  10
362032.000
  20
4618343.000
  0
VERTEX
  8
Unknown_Area_Type
  10
360082.000
  20
4618387.500
  0
VERTEX
  8
Unknown_Area_Type
  10
360066.000
  20
4618387.500
  0
VERTEX
  8
Unknown_Area_Type
  10
359235.500
  20
4618407.000
  0
VERTEX
  8
Unknown_Area_Type
  10
359218.000
  20
4618407.000
  0
VERTEX
  8
Unknown_Area_Type
  10
359210.500
  20
4618403.000
  0
VERTEX
  8
Unknown_Area_Type
  10
358985.419
  20
4614153.744
  0
VERTEX
  8
Unknown_Area_Type
  10
359515.880
  20
4614143.226
  0
VERTEX
  8
Unknown_Area_Type
  10
361796.485
  20
4614099.111
  0
SEQEND
  8
Unknown_Area_Type
  0
INSERT
  8
FeatureAttribs
  2
FEATURE
  41
1
  42
1
  43
1
  50
0
  10
366139.259
  20
4613964.398
 66
1
  0
ATTRIB
  8
FeatureAttribs
 70
0
  1
PNOA-H_AMS_1956-57_33k_ES_PAN_2
  2
NAME
  10
366139.259
  20
4613964.398
 40
33.92981
  0
SEQEND
  0
POLYLINE
  8
Unknown_Area_Type
  70
1
  66
1
  0
VERTEX
  8
Unknown_Area_Type
  10
367588.955
  20
4613884.877
  0
VERTEX
  8
Unknown_Area_Type
  10
366350.000
  20
4613884.877
  0
VERTEX
  8
Unknown_Area_Type
  10
366350.000
  20
4613910.000
  0
VERTEX
  8
Unknown_Area_Type
  10
364685.231
  20
4613910.000
  0
VERTEX
  8
Unknown_Area_Type
  10
364692.412
  20
4614043.919
  0
VERTEX
  8
Unknown_Area_Type
  10
366453.587
  20
4614010.704
  0
VERTEX
  8
Unknown_Area_Type
  10
367590.822
  20
4613989.806
  0
VERTEX
  8
Unknown_Area_Type
  10
367588.955
  20
4613884.877
  0
SEQEND
  8
Unknown_Area_Type
  0
INSERT
  8
FeatureAttribs
  2
FEATURE
  41
1
  42
1
  43
1
  50
0
  10
366211.407
  20
4616071.675
 66
1
  0
ATTRIB
  8
FeatureAttribs
 70
0
  1
PNOA-H_AMS_1956-57_33k_ES_PAN_2
  2
NAME
  10
366211.407
  20
4616071.675
 40
33.92981
  0
SEQEND
  0
POLYLINE
  8
Unknown_Area_Type
  70
1
  66
1
  0
VERTEX
  8
Unknown_Area_Type
  10
367590.822
  20
4613989.806
  0
VERTEX
  8
Unknown_Area_Type
  10
366453.587
  20
4614010.704
  0
VERTEX
  8
Unknown_Area_Type
  10
364692.412
  20
4614043.919
  0
VERTEX
  8
Unknown_Area_Type
  10
364916.000
  20
4618214.000
  0
VERTEX
  8
Unknown_Area_Type
  10
364916.000
  20
4618221.500
  0
VERTEX
  8
Unknown_Area_Type
  10
367664.000
  20
4618104.000
  0
VERTEX
  8
Unknown_Area_Type
  10
367590.822
  20
4613989.806
  0
SEQEND
  8
Unknown_Area_Type
  0
INSERT
  8
FeatureAttribs
  2
FEATURE
  41
1
  42
1
  43
1
  50
0
  10
366211.407
  20
4616071.675
 66
1
  0
ATTRIB
  8
FeatureAttribs
 70
0
  1
PNOA-H_AMS_1956-57_33k_ES_PAN_2
  2
NAME
  10
366211.407
  20
4616071.675
 40
33.92981
  0
SEQEND
  0
POLYLINE
  8
Unknown_Area_Type
  70
1
  66
1
  0
VERTEX
  8
Unknown_Area_Type
  10
367590.822
  20
4613989.806
  0
VERTEX
  8
Unknown_Area_Type
  10
367664.000
  20
4618104.000
  0
VERTEX
  8
Unknown_Area_Type
  10
364916.000
  20
4618221.500
  0
VERTEX
  8
Unknown_Area_Type
  10
364916.000
  20
4618214.000
  0
VERTEX
  8
Unknown_Area_Type
  10
364692.412
  20
4614043.919
  0
VERTEX
  8
Unknown_Area_Type
  10
366453.587
  20
4614010.704
  0
VERTEX
  8
Unknown_Area_Type
  10
367590.822
  20
4613989.806
  0
SEQEND
  8
Unknown_Area_Type
  0
INSERT
  8
FeatureAttribs
  2
FEATURE
  41
1
  42
1
  43
1
  50
0
  10
371153.700
  20
4613911.576
 66
1
  0
ATTRIB
  8
FeatureAttribs
 70
0
  1
PNOA-H_AMS_1956-57_33k_ES_PAN_2
  2
NAME
  10
371153.700
  20
4613911.576
 40
33.92981
  0
SEQEND
  0
POLYLINE
  8
Unknown_Area_Type
  70
1
  66
1
  0
VERTEX
  8
Unknown_Area_Type
  10
373234.516
  20
4613887.700
  0
VERTEX
  8
Unknown_Area_Type
  10
373234.428
  20
4613884.877
  0
VERTEX
  8
Unknown_Area_Type
  10
370406.669
  20
4613884.877
  0
VERTEX
  8
Unknown_Area_Type
  10
370407.903
  20
4613938.275
  0
VERTEX
  8
Unknown_Area_Type
  10
373234.516
  20
4613887.700
  0
SEQEND
  8
Unknown_Area_Type
  0
INSERT
  8
FeatureAttribs
  2
FEATURE
  41
1
  42
1
  43
1
  50
0
  10
371872.062
  20
4615967.656
 66
1
  0
ATTRIB
  8
FeatureAttribs
 70
0
  1
PNOA-H_AMS_1956-57_33k_ES_PAN_2
  2
NAME
  10
371872.062
  20
4615967.656
 40
33.92981
  0
SEQEND
  0
POLYLINE
  8
Unknown_Area_Type
  70
1
  66
1
  0
VERTEX
  8
Unknown_Area_Type
  10
373234.516
  20
4613887.700
  0
VERTEX
  8
Unknown_Area_Type
  10
370407.903
  20
4613938.275
  0
VERTEX
  8
Unknown_Area_Type
  10
370502.000
  20
4618008.500
  0
VERTEX
  8
Unknown_Area_Type
  10
370659.500
  20
4618083.000
  0
VERTEX
  8
Unknown_Area_Type
  10
370661.000
  20
4618083.500
  0
VERTEX
  8
Unknown_Area_Type
  10
373361.500
  20
4617940.500
  0
VERTEX
  8
Unknown_Area_Type
  10
373234.516
  20
4613887.700
  0
SEQEND
  8
Unknown_Area_Type
  0
INSERT
  8
FeatureAttribs
  2
FEATURE
  41
1
  42
1
  43
1
  50
0
  10
371872.062
  20
4615967.656
 66
1
  0
ATTRIB
  8
FeatureAttribs
 70
0
  1
PNOA-H_AMS_1956-57_33k_ES_PAN_2
  2
NAME
  10
371872.062
  20
4615967.656
 40
33.92981
  0
SEQEND
  0
POLYLINE
  8
Unknown_Area_Type
  70
1
  66
1
  0
VERTEX
  8
Unknown_Area_Type
  10
373234.516
  20
4613887.700
  0
VERTEX
  8
Unknown_Area_Type
  10
373361.500
  20
4617940.500
  0
VERTEX
  8
Unknown_Area_Type
  10
370661.000
  20
4618083.500
  0
VERTEX
  8
Unknown_Area_Type
  10
370659.500
  20
4618083.000
  0
VERTEX
  8
Unknown_Area_Type
  10
370502.000
  20
4618008.500
  0
VERTEX
  8
Unknown_Area_Type
  10
370407.903
  20
4613938.275
  0
VERTEX
  8
Unknown_Area_Type
  10
373234.516
  20
4613887.700
  0
SEQEND
  8
Unknown_Area_Type
  0
INSERT
  8
FeatureAttribs
  2
FEATURE
  41
1
  42
1
  43
1
  50
0
  10
349092.095
  20
4614282.223
 66
1
  0
ATTRIB
  8
FeatureAttribs
 70
0
  1
PNOA-H_AMS_1956-57_33k_ES_PAN_2
  2
NAME
  10
349092.095
  20
4614282.223
 40
33.92981
  0
SEQEND
  0
POLYLINE
  8
Unknown_Area_Type
  70
1
  66
1
  0
VERTEX
  8
Unknown_Area_Type
  10
350478.809
  20
4614326.119
  0
VERTEX
  8
Unknown_Area_Type
  10
350475.503
  20
4614180.000
  0
VERTEX
  8
Unknown_Area_Type
  10
347706.124
  20
4614180.000
  0
VERTEX
  8
Unknown_Area_Type
  10
347706.623
  20
4614384.446
  0
VERTEX
  8
Unknown_Area_Type
  10
349109.253
  20
4614354.599
  0
VERTEX
  8
Unknown_Area_Type
  10
350478.809
  20
4614326.119
  0
SEQEND
  8
Unknown_Area_Type
  0
INSERT
  8
FeatureAttribs
  2
FEATURE
  41
1
  42
1
  43
1
  50
0
  10
349110.668
  20
4616557.678
 66
1
  0
ATTRIB
  8
FeatureAttribs
 70
0
  1
PNOA-H_AMS_1956-57_33k_ES_PAN_2
  2
NAME
  10
349110.668
  20
4616557.678
 40
33.92981
  0
SEQEND
  0
POLYLINE
  8
Unknown_Area_Type
  70
1
  66
1
  0
VERTEX
  8
Unknown_Area_Type
  10
350478.809
  20
4614326.119
  0
VERTEX
  8
Unknown_Area_Type
  10
349109.253
  20
4614354.599
  0
VERTEX
  8
Unknown_Area_Type
  10
347706.623
  20
4614384.446
  0
VERTEX
  8
Unknown_Area_Type
  10
347717.000
  20
4618640.000
  0
VERTEX
  8
Unknown_Area_Type
  10
347792.000
  20
4618669.500
  0
VERTEX
  8
Unknown_Area_Type
  10
347793.500
  20
4618670.000
  0
VERTEX
  8
Unknown_Area_Type
  10
348377.000
  20
4618896.500
  0
VERTEX
  8
Unknown_Area_Type
  10
350574.500
  20
4618554.500
  0
VERTEX
  8
Unknown_Area_Type
  10
350478.809
  20
4614326.119
  0
SEQEND
  8
Unknown_Area_Type
  0
INSERT
  8
FeatureAttribs
  2
FEATURE
  41
1
  42
1
  43
1
  50
0
  10
349110.668
  20
4616557.678
 66
1
  0
ATTRIB
  8
FeatureAttribs
 70
0
  1
PNOA-H_AMS_1956-57_33k_ES_PAN_2
  2
NAME
  10
349110.668
  20
4616557.678
 40
33.92981
  0
SEQEND
  0
POLYLINE
  8
Unknown_Area_Type
  70
1
  66
1
  0
VERTEX
  8
Unknown_Area_Type
  10
350478.809
  20
4614326.119
  0
VERTEX
  8
Unknown_Area_Type
  10
350574.500
  20
4618554.500
  0
VERTEX
  8
Unknown_Area_Type
  10
348377.000
  20
4618896.500
  0
VERTEX
  8
Unknown_Area_Type
  10
347793.500
  20
4618670.000
  0
VERTEX
  8
Unknown_Area_Type
  10
347792.000
  20
4618669.500
  0
VERTEX
  8
Unknown_Area_Type
  10
347717.000
  20
4618640.000
  0
VERTEX
  8
Unknown_Area_Type
  10
347706.623
  20
4614384.446
  0
VERTEX
  8
Unknown_Area_Type
  10
349109.253
  20
4614354.599
  0
VERTEX
  8
Unknown_Area_Type
  10
350478.809
  20
4614326.119
  0
SEQEND
  8
Unknown_Area_Type
  0
INSERT
  8
FeatureAttribs
  2
FEATURE
  41
1
  42
1
  43
1
  50
0
  10
373362.569
  20
4615919.698
 66
1
  0
ATTRIB
  8
FeatureAttribs
 70
0
  1
PNOA-H_AMS_1956-57_33k_ES_PAN_2
  2
NAME
  10
373362.569
  20
4615919.698
 40
33.92981
  0
SEQEND
  0
POLYLINE
  8
Unknown_Area_Type
  70
1
  66
1
  0
VERTEX
  8
Unknown_Area_Type
  10
373463.047
  20
4617950.561
  0
VERTEX
  8
Unknown_Area_Type
  10
373432.094
  20
4616197.962
  0
VERTEX
  8
Unknown_Area_Type
  10
373391.260
  20
4613884.896
  0
VERTEX
  8
Unknown_Area_Type
  10
373234.342
  20
4613887.704
  0
VERTEX
  8
Unknown_Area_Type
  10
373361.000
  20
4617933.500
  0
VERTEX
  8
Unknown_Area_Type
  10
373361.500
  20
4617941.000
  0
VERTEX
  8
Unknown_Area_Type
  10
373389.000
  20
4617954.000
  0
VERTEX
  8
Unknown_Area_Type
  10
373390.000
  20
4617954.500
  0
VERTEX
  8
Unknown_Area_Type
  10
373463.047
  20
4617950.561
  0
SEQEND
  8
Unknown_Area_Type
  0
INSERT
  8
FeatureAttribs
  2
FEATURE
  41
1
  42
1
  43
1
  50
0
  10
373362.569
  20
4615919.698
 66
1
  0
ATTRIB
  8
FeatureAttribs
 70
0
  1
PNOA-H_AMS_1956-57_33k_ES_PAN_2
  2
NAME
  10
373362.569
  20
4615919.698
 40
33.92981
  0
SEQEND
  0
POLYLINE
  8
Unknown_Area_Type
  70
1
  66
1
  0
VERTEX
  8
Unknown_Area_Type
  10
373463.047
  20
4617950.561
  0
VERTEX
  8
Unknown_Area_Type
  10
373432.094
  20
4616197.962
  0
VERTEX
  8
Unknown_Area_Type
  10
373391.260
  20
4613884.896
  0
VERTEX
  8
Unknown_Area_Type
  10
373234.342
  20
4613887.704
  0
VERTEX
  8
Unknown_Area_Type
  10
373361.000
  20
4617933.500
  0
VERTEX
  8
Unknown_Area_Type
  10
373361.500
  20
4617941.000
  0
VERTEX
  8
Unknown_Area_Type
  10
373389.000
  20
4617954.000
  0
VERTEX
  8
Unknown_Area_Type
  10
373390.000
  20
4617954.500
  0
VERTEX
  8
Unknown_Area_Type
  10
373463.047
  20
4617950.561
  0
SEQEND
  8
Unknown_Area_Type
  0
INSERT
  8
FeatureAttribs
  2
FEATURE
  41
1
  42
1
  43
1
  50
0
  10
373273.816
  20
4613886.290
 66
1
  0
ATTRIB
  8
FeatureAttribs
 70
0
  1
PNOA-H_AMS_1956-57_33k_ES_PAN_2
  2
NAME
  10
373273.816
  20
4613886.290
 40
33.92981
  0
SEQEND
  0
POLYLINE
  8
Unknown_Area_Type
  70
1
  66
1
  0
VERTEX
  8
Unknown_Area_Type
  10
373234.342
  20
4613887.704
  0
VERTEX
  8
Unknown_Area_Type
  10
373391.260
  20
4613884.896
  0
VERTEX
  8
Unknown_Area_Type
  10
373391.260
  20
4613884.877
  0
VERTEX
  8
Unknown_Area_Type
  10
373234.254
  20
4613884.877
  0
VERTEX
  8
Unknown_Area_Type
  10
373234.342
  20
4613887.704
  0
SEQEND
  8
Unknown_Area_Type
  0
INSERT
  8
FeatureAttribs
  2
FEATURE
  41
1
  42
1
  43
1
  50
0
  10
373391.534
  20
4613884.886
 66
1
  0
ATTRIB
  8
FeatureAttribs
 70
0
  1
PNOA-H_AMS_1956-57_33k_ES_PAN_2
  2
NAME
  10
373391.534
  20
4613884.886
 40
33.92981
  0
SEQEND
  0
POLYLINE
  8
Unknown_Area_Type
  70
1
  66
1
  0
VERTEX
  8
Unknown_Area_Type
  10
373391.260
  20
4613884.896
  0
VERTEX
  8
Unknown_Area_Type
  10
373392.354
  20
4613884.877
  0
VERTEX
  8
Unknown_Area_Type
  10
373391.260
  20
4613884.877
  0
VERTEX
  8
Unknown_Area_Type
  10
373391.260
  20
4613884.896
  0
SEQEND
  8
Unknown_Area_Type
  0
INSERT
  8
FeatureAttribs
  2
FEATURE
  41
1
  42
1
  43
1
  50
0
  10
373572.791
  20
4615917.719
 66
1
  0
ATTRIB
  8
FeatureAttribs
 70
0
  1
PNOA-H_AMS_1956-57_33k_ES_PAN_2
  2
NAME
  10
373572.791
  20
4615917.719
 40
33.92981
  0
SEQEND
  0
POLYLINE
  8
Unknown_Area_Type
  70
1
  66
1
  0
VERTEX
  8
Unknown_Area_Type
  10
373718.434
  20
4617936.790
  0
VERTEX
  8
Unknown_Area_Type
  10
373718.434
  20
4613884.877
  0
VERTEX
  8
Unknown_Area_Type
  10
373392.354
  20
4613884.877
  0
VERTEX
  8
Unknown_Area_Type
  10
373391.260
  20
4613884.896
  0
VERTEX
  8
Unknown_Area_Type
  10
373432.094
  20
4616197.962
  0
VERTEX
  8
Unknown_Area_Type
  10
373463.047
  20
4617950.561
  0
VERTEX
  8
Unknown_Area_Type
  10
373718.434
  20
4617936.790
  0
SEQEND
  8
Unknown_Area_Type
  0
INSERT
  8
FeatureAttribs
  2
FEATURE
  41
1
  42
1
  43
1
  50
0
  10
354725.854
  20
4614154.078
 66
1
  0
ATTRIB
  8
FeatureAttribs
 70
0
  1
PNOA-H_AMS_1956-57_33k_ES_PAN_2
  2
NAME
  10
354725.854
  20
4614154.078
 40
33.92981
  0
SEQEND
  0
POLYLINE
  8
Unknown_Area_Type
  70
1
  66
1
  0
VERTEX
  8
Unknown_Area_Type
  10
356175.148
  20
4614209.464
  0
VERTEX
  8
Unknown_Area_Type
  10
356170.359
  20
4614040.000
  0
VERTEX
  8
Unknown_Area_Type
  10
353273.751
  20
4614040.000
  0
VERTEX
  8
Unknown_Area_Type
  10
353282.498
  20
4614268.156
  0
VERTEX
  8
Unknown_Area_Type
  10
356047.013
  20
4614212.005
  0
VERTEX
  8
Unknown_Area_Type
  10
356175.148
  20
4614209.464
  0
SEQEND
  8
Unknown_Area_Type
  0
INSERT
  8
FeatureAttribs
  2
FEATURE
  41
1
  42
1
  43
1
  50
0
  10
354792.004
  20
4616377.005
 66
1
  0
ATTRIB
  8
FeatureAttribs
 70
0
  1
PNOA-H_AMS_1956-57_33k_ES_PAN_2
  2
NAME
  10
354792.004
  20
4616377.005
 40
33.92981
  0
SEQEND
  0
POLYLINE
  8
Unknown_Area_Type
  70
1
  66
1
  0
VERTEX
  8
Unknown_Area_Type
  10
356175.148
  20
4614209.464
  0
VERTEX
  8
Unknown_Area_Type
  10
356047.013
  20
4614212.005
  0
VERTEX
  8
Unknown_Area_Type
  10
353282.498
  20
4614268.156
  0
VERTEX
  8
Unknown_Area_Type
  10
353443.500
  20
4618468.000
  0
VERTEX
  8
Unknown_Area_Type
  10
353845.500
  20
4618642.000
  0
VERTEX
  8
Unknown_Area_Type
  10
353846.500
  20
4618642.500
  0
VERTEX
  8
Unknown_Area_Type
  10
356293.500
  20
4618397.500
  0
VERTEX
  8
Unknown_Area_Type
  10
356175.148
  20
4614209.464
  0
SEQEND
  8
Unknown_Area_Type
  0
INSERT
  8
FeatureAttribs
  2
FEATURE
  41
1
  42
1
  43
1
  50
0
  10
354792.004
  20
4616377.005
 66
1
  0
ATTRIB
  8
FeatureAttribs
 70
0
  1
PNOA-H_AMS_1956-57_33k_ES_PAN_2
  2
NAME
  10
354792.004
  20
4616377.005
 40
33.92981
  0
SEQEND
  0
POLYLINE
  8
Unknown_Area_Type
  70
1
  66
1
  0
VERTEX
  8
Unknown_Area_Type
  10
356175.148
  20
4614209.464
  0
VERTEX
  8
Unknown_Area_Type
  10
356293.500
  20
4618397.500
  0
VERTEX
  8
Unknown_Area_Type
  10
353846.500
  20
4618642.500
  0
VERTEX
  8
Unknown_Area_Type
  10
353845.500
  20
4618642.000
  0
VERTEX
  8
Unknown_Area_Type
  10
353443.500
  20
4618468.000
  0
VERTEX
  8
Unknown_Area_Type
  10
353282.498
  20
4614268.156
  0
VERTEX
  8
Unknown_Area_Type
  10
356047.013
  20
4614212.005
  0
VERTEX
  8
Unknown_Area_Type
  10
356175.148
  20
4614209.464
  0
SEQEND
  8
Unknown_Area_Type
  0
INSERT
  8
FeatureAttribs
  2
FEATURE
  41
1
  42
1
  43
1
  50
0
  10
368998.885
  20
4613937.342
 66
1
  0
ATTRIB
  8
FeatureAttribs
 70
0
  1
PNOA-H_AMS_1956-57_33k_ES_PAN_2
  2
NAME
  10
368998.885
  20
4613937.342
 40
33.92981
  0
SEQEND
  0
POLYLINE
  8
Unknown_Area_Type
  70
1
  66
1
  0
VERTEX
  8
Unknown_Area_Type
  10
370407.903
  20
4613938.275
  0
VERTEX
  8
Unknown_Area_Type
  10
370406.669
  20
4613884.877
  0
VERTEX
  8
Unknown_Area_Type
  10
367588.955
  20
4613884.877
  0
VERTEX
  8
Unknown_Area_Type
  10
367590.821
  20
4613989.806
  0
VERTEX
  8
Unknown_Area_Type
  10
369922.427
  20
4613946.961
  0
VERTEX
  8
Unknown_Area_Type
  10
370407.903
  20
4613938.275
  0
SEQEND
  8
Unknown_Area_Type
  0
INSERT
  8
FeatureAttribs
  2
FEATURE
  41
1
  42
1
  43
1
  50
0
  10
369034.993
  20
4616033.376
 66
1
  0
ATTRIB
  8
FeatureAttribs
 70
0
  1
PNOA-H_AMS_1956-57_33k_ES_PAN_2
  2
NAME
  10
369034.993
  20
4616033.376
 40
33.92981
  0
SEQEND
  0
POLYLINE
  8
Unknown_Area_Type
  70
1
  66
1
  0
VERTEX
  8
Unknown_Area_Type
  10
370407.903
  20
4613938.275
  0
VERTEX
  8
Unknown_Area_Type
  10
369922.427
  20
4613946.961
  0
VERTEX
  8
Unknown_Area_Type
  10
367590.821
  20
4613989.806
  0
VERTEX
  8
Unknown_Area_Type
  10
367664.000
  20
4618104.500
  0
VERTEX
  8
Unknown_Area_Type
  10
367821.000
  20
4618180.000
  0
VERTEX
  8
Unknown_Area_Type
  10
367826.500
  20
4618180.000
  0
VERTEX
  8
Unknown_Area_Type
  10
370317.500
  20
4618020.000
  0
VERTEX
  8
Unknown_Area_Type
  10
370322.000
  20
4618020.000
  0
VERTEX
  8
Unknown_Area_Type
  10
370502.000
  20
4618008.500
  0
VERTEX
  8
Unknown_Area_Type
  10
370407.903
  20
4613938.275
  0
SEQEND
  8
Unknown_Area_Type
  0
INSERT
  8
FeatureAttribs
  2
FEATURE
  41
1
  42
1
  43
1
  50
0
  10
369034.993
  20
4616033.376
 66
1
  0
ATTRIB
  8
FeatureAttribs
 70
0
  1
PNOA-H_AMS_1956-57_33k_ES_PAN_2
  2
NAME
  10
369034.993
  20
4616033.376
 40
33.92981
  0
SEQEND
  0
POLYLINE
  8
Unknown_Area_Type
  70
1
  66
1
  0
VERTEX
  8
Unknown_Area_Type
  10
370407.903
  20
4613938.275
  0
VERTEX
  8
Unknown_Area_Type
  10
370502.000
  20
4618008.500
  0
VERTEX
  8
Unknown_Area_Type
  10
370322.000
  20
4618020.000
  0
VERTEX
  8
Unknown_Area_Type
  10
370317.500
  20
4618020.000
  0
VERTEX
  8
Unknown_Area_Type
  10
367826.500
  20
4618180.000
  0
VERTEX
  8
Unknown_Area_Type
  10
367821.000
  20
4618180.000
  0
VERTEX
  8
Unknown_Area_Type
  10
367664.000
  20
4618104.500
  0
VERTEX
  8
Unknown_Area_Type
  10
367590.821
  20
4613989.806
  0
VERTEX
  8
Unknown_Area_Type
  10
369922.427
  20
4613946.961
  0
VERTEX
  8
Unknown_Area_Type
  10
370407.903
  20
4613938.275
  0
SEQEND
  8
Unknown_Area_Type
  0
INSERT
  8
FeatureAttribs
  2
FEATURE
  41
1
  42
1
  43
1
  50
0
  10
363240.641
  20
4614004.555
 66
1
  0
ATTRIB
  8
FeatureAttribs
 70
0
  1
PNOA-H_AMS_1956-57_33k_ES_PAN_2
  2
NAME
  10
363240.641
  20
4614004.555
 40
33.92981
  0
SEQEND
  0
POLYLINE
  8
Unknown_Area_Type
  70
1
  66
1
  0
VERTEX
  8
Unknown_Area_Type
  10
364692.767
  20
4614043.913
  0
VERTEX
  8
Unknown_Area_Type
  10
364685.611
  20
4613910.000
  0
VERTEX
  8
Unknown_Area_Type
  10
361784.751
  20
4613910.000
  0
VERTEX
  8
Unknown_Area_Type
  10
361796.485
  20
4614099.111
  0
VERTEX
  8
Unknown_Area_Type
  10
362984.737
  20
4614076.126
  0
VERTEX
  8
Unknown_Area_Type
  10
364692.767
  20
4614043.913
  0
SEQEND
  8
Unknown_Area_Type
  0
INSERT
  8
FeatureAttribs
  2
FEATURE
  41
1
  42
1
  43
1
  50
0
  10
363365.274
  20
4616178.572
 66
1
  0
ATTRIB
  8
FeatureAttribs
 70
0
  1
PNOA-H_AMS_1956-57_33k_ES_PAN_2
  2
NAME
  10
363365.274
  20
4616178.572
 40
33.92981
  0
SEQEND
  0
POLYLINE
  8
Unknown_Area_Type
  70
1
  66
1
  0
VERTEX
  8
Unknown_Area_Type
  10
364692.767
  20
4614043.913
  0
VERTEX
  8
Unknown_Area_Type
  10
362984.737
  20
4614076.126
  0
VERTEX
  8
Unknown_Area_Type
  10
361796.485
  20
4614099.111
  0
VERTEX
  8
Unknown_Area_Type
  10
362059.000
  20
4618330.000
  0
VERTEX
  8
Unknown_Area_Type
  10
364844.500
  20
4618262.000
  0
VERTEX
  8
Unknown_Area_Type
  10
364851.000
  20
4618261.000
  0
VERTEX
  8
Unknown_Area_Type
  10
364916.000
  20
4618221.500
  0
VERTEX
  8
Unknown_Area_Type
  10
364692.767
  20
4614043.913
  0
SEQEND
  8
Unknown_Area_Type
  0
INSERT
  8
FeatureAttribs
  2
FEATURE
  41
1
  42
1
  43
1
  50
0
  10
363365.274
  20
4616178.572
 66
1
  0
ATTRIB
  8
FeatureAttribs
 70
0
  1
PNOA-H_AMS_1956-57_33k_ES_PAN_2
  2
NAME
  10
363365.274
  20
4616178.572
 40
33.92981
  0
SEQEND
  0
POLYLINE
  8
Unknown_Area_Type
  70
1
  66
1
  0
VERTEX
  8
Unknown_Area_Type
  10
364692.767
  20
4614043.913
  0
VERTEX
  8
Unknown_Area_Type
  10
364916.000
  20
4618221.500
  0
VERTEX
  8
Unknown_Area_Type
  10
364851.000
  20
4618261.000
  0
VERTEX
  8
Unknown_Area_Type
  10
364844.500
  20
4618262.000
  0
VERTEX
  8
Unknown_Area_Type
  10
362059.000
  20
4618330.000
  0
VERTEX
  8
Unknown_Area_Type
  10
361796.485
  20
4614099.111
  0
VERTEX
  8
Unknown_Area_Type
  10
362984.737
  20
4614076.126
  0
VERTEX
  8
Unknown_Area_Type
  10
364692.767
  20
4614043.913
  0
SEQEND
  8
Unknown_Area_Type
  0
ENDSEC
  0
EOF
