  0
SECTION
  2
HEADER
  9
$ACADVER
  1
AC1009
  9
$LUNITS
  70
2
  9
$LIMMIN
  10
317888.816
  20
4614428.395
  9
$LIMMAX
  10
346039.291
  20
4633584.961
  9
$EXTMIN
  10
317888.816
  20
4614428.395
  9
$EXTMAX
  10
346039.291
  20
4633584.961
  999
Created by Global Mapper
  999
Projection: UTM
  999
Datum: ETRS89
  999
Ground Units: meters
  999
ZONE: 30
  0
ENDSEC
  0
SECTION
  2
TABLES
  0
ENDSEC
  0
SECTION
  2
BLOCKS
  0
BLOCK
  8
FeatureAttribs
  70
0
  2
FEATURE
  3
FEATURE
  10
0.00000000
  20
0.00000000
  0
ATTDEF
  8
FeatureAttribs
  70
0
  1
 
  2
NAME
  3
NAME
  10
0.00000000
  20
0.00000000
  40
1.00000000
  0
ENDBLK
  0
ENDSEC
  0
SECTION
  2
ENTITIES
  0
INSERT
  8
FeatureAttribs
  2
FEATURE
  41
1
  42
1
  43
1
  50
0
  10
346002.327
  20
4629509.772
 66
1
  0
ATTRIB
  8
FeatureAttribs
 70
0
  1
PNOA-H_AMS_1956-57_33k_ES_PAN_2
  2
NAME
  10
346002.327
  20
4629509.772
 40
34.05031
  0
SEQEND
  0
POLYLINE
  8
Unknown_Area_Type
  70
1
  66
1
  0
VERTEX
  8
Unknown_Area_Type
  10
346039.291
  20
4627226.441
  0
VERTEX
  8
Unknown_Area_Type
  10
345915.717
  20
4627208.571
  0
VERTEX
  8
Unknown_Area_Type
  10
345939.414
  20
4628307.206
  0
VERTEX
  8
Unknown_Area_Type
  10
345989.328
  20
4630620.364
  0
VERTEX
  8
Unknown_Area_Type
  10
346015.030
  20
4631810.974
  0
VERTEX
  8
Unknown_Area_Type
  10
346039.291
  20
4631810.539
  0
VERTEX
  8
Unknown_Area_Type
  10
346039.291
  20
4627226.441
  0
SEQEND
  8
Unknown_Area_Type
  0
INSERT
  8
FeatureAttribs
  2
FEATURE
  41
1
  42
1
  43
1
  50
0
  10
344970.962
  20
4629637.859
 66
1
  0
ATTRIB
  8
FeatureAttribs
 70
0
  1
PNOA-H_AMS_1956-57_33k_ES_PAN_2
  2
NAME
  10
344970.962
  20
4629637.859
 40
34.05031
  0
SEQEND
  0
POLYLINE
  8
Unknown_Area_Type
  70
1
  66
1
  0
VERTEX
  8
Unknown_Area_Type
  10
345915.717
  20
4627208.571
  0
VERTEX
  8
Unknown_Area_Type
  10
345607.500
  20
4627164.000
  0
VERTEX
  8
Unknown_Area_Type
  10
343855.000
  20
4627896.500
  0
VERTEX
  8
Unknown_Area_Type
  10
343977.500
  20
4631737.500
  0
VERTEX
  8
Unknown_Area_Type
  10
344174.000
  20
4631844.000
  0
VERTEX
  8
Unknown_Area_Type
  10
346015.030
  20
4631810.974
  0
VERTEX
  8
Unknown_Area_Type
  10
345989.328
  20
4630620.364
  0
VERTEX
  8
Unknown_Area_Type
  10
345939.414
  20
4628307.206
  0
VERTEX
  8
Unknown_Area_Type
  10
345915.717
  20
4627208.571
  0
SEQEND
  8
Unknown_Area_Type
  0
INSERT
  8
FeatureAttribs
  2
FEATURE
  41
1
  42
1
  43
1
  50
0
  10
344970.962
  20
4629637.859
 66
1
  0
ATTRIB
  8
FeatureAttribs
 70
0
  1
PNOA-H_AMS_1956-57_33k_ES_PAN_2
  2
NAME
  10
344970.962
  20
4629637.859
 40
34.05031
  0
SEQEND
  0
POLYLINE
  8
Unknown_Area_Type
  70
1
  66
1
  0
VERTEX
  8
Unknown_Area_Type
  10
345915.717
  20
4627208.571
  0
VERTEX
  8
Unknown_Area_Type
  10
345939.414
  20
4628307.206
  0
VERTEX
  8
Unknown_Area_Type
  10
345989.328
  20
4630620.364
  0
VERTEX
  8
Unknown_Area_Type
  10
346015.030
  20
4631810.974
  0
VERTEX
  8
Unknown_Area_Type
  10
344174.000
  20
4631844.000
  0
VERTEX
  8
Unknown_Area_Type
  10
343977.500
  20
4631737.500
  0
VERTEX
  8
Unknown_Area_Type
  10
343855.000
  20
4627896.500
  0
VERTEX
  8
Unknown_Area_Type
  10
345607.500
  20
4627164.000
  0
VERTEX
  8
Unknown_Area_Type
  10
345915.717
  20
4627208.571
  0
SEQEND
  8
Unknown_Area_Type
  0
INSERT
  8
FeatureAttribs
  2
FEATURE
  41
1
  42
1
  43
1
  50
0
  10
339448.536
  20
4629780.007
 66
1
  0
ATTRIB
  8
FeatureAttribs
 70
0
  1
PNOA-H_AMS_1956-57_33k_ES_PAN_2
  2
NAME
  10
339448.536
  20
4629780.007
 40
34.05031
  0
SEQEND
  0
POLYLINE
  8
Unknown_Area_Type
  70
1
  66
1
  0
VERTEX
  8
Unknown_Area_Type
  10
338976.000
  20
4632008.500
  0
VERTEX
  8
Unknown_Area_Type
  10
341007.500
  20
4631625.500
  0
VERTEX
  8
Unknown_Area_Type
  10
340877.500
  20
4627969.500
  0
VERTEX
  8
Unknown_Area_Type
  10
339821.000
  20
4627509.500
  0
VERTEX
  8
Unknown_Area_Type
  10
337941.500
  20
4627922.000
  0
VERTEX
  8
Unknown_Area_Type
  10
337978.000
  20
4631599.500
  0
VERTEX
  8
Unknown_Area_Type
  10
338974.500
  20
4632008.000
  0
VERTEX
  8
Unknown_Area_Type
  10
338976.000
  20
4632008.500
  0
SEQEND
  8
Unknown_Area_Type
  0
INSERT
  8
FeatureAttribs
  2
FEATURE
  41
1
  42
1
  43
1
  50
0
  10
339448.536
  20
4629780.007
 66
1
  0
ATTRIB
  8
FeatureAttribs
 70
0
  1
PNOA-H_AMS_1956-57_33k_ES_PAN_2
  2
NAME
  10
339448.536
  20
4629780.007
 40
34.05031
  0
SEQEND
  0
POLYLINE
  8
Unknown_Area_Type
  70
1
  66
1
  0
VERTEX
  8
Unknown_Area_Type
  10
338976.000
  20
4632008.500
  0
VERTEX
  8
Unknown_Area_Type
  10
338974.500
  20
4632008.000
  0
VERTEX
  8
Unknown_Area_Type
  10
337978.000
  20
4631599.500
  0
VERTEX
  8
Unknown_Area_Type
  10
337941.500
  20
4627922.000
  0
VERTEX
  8
Unknown_Area_Type
  10
339821.000
  20
4627509.500
  0
VERTEX
  8
Unknown_Area_Type
  10
340877.500
  20
4627969.500
  0
VERTEX
  8
Unknown_Area_Type
  10
341007.500
  20
4631625.500
  0
VERTEX
  8
Unknown_Area_Type
  10
338976.000
  20
4632008.500
  0
SEQEND
  8
Unknown_Area_Type
  0
INSERT
  8
FeatureAttribs
  2
FEATURE
  41
1
  42
1
  43
1
  50
0
  10
341293.651
  20
4621326.017
 66
1
  0
ATTRIB
  8
FeatureAttribs
 70
0
  1
PNOA-H_AMS_1956-57_33k_ES_PAN_2
  2
NAME
  10
341293.651
  20
4621326.017
 40
34.05031
  0
SEQEND
  0
POLYLINE
  8
Unknown_Area_Type
  70
1
  66
1
  0
VERTEX
  8
Unknown_Area_Type
  10
341640.500
  20
4623698.000
  0
VERTEX
  8
Unknown_Area_Type
  10
342436.500
  20
4623735.500
  0
VERTEX
  8
Unknown_Area_Type
  10
342916.500
  20
4623446.500
  0
VERTEX
  8
Unknown_Area_Type
  10
342687.000
  20
4619022.500
  0
VERTEX
  8
Unknown_Area_Type
  10
342259.000
  20
4618832.500
  0
VERTEX
  8
Unknown_Area_Type
  10
339662.500
  20
4619141.500
  0
VERTEX
  8
Unknown_Area_Type
  10
339841.500
  20
4623581.000
  0
VERTEX
  8
Unknown_Area_Type
  10
339891.500
  20
4623614.500
  0
VERTEX
  8
Unknown_Area_Type
  10
341630.000
  20
4623697.500
  0
VERTEX
  8
Unknown_Area_Type
  10
341640.500
  20
4623698.000
  0
SEQEND
  8
Unknown_Area_Type
  0
INSERT
  8
FeatureAttribs
  2
FEATURE
  41
1
  42
1
  43
1
  50
0
  10
341293.651
  20
4621326.017
 66
1
  0
ATTRIB
  8
FeatureAttribs
 70
0
  1
PNOA-H_AMS_1956-57_33k_ES_PAN_2
  2
NAME
  10
341293.651
  20
4621326.017
 40
34.05031
  0
SEQEND
  0
POLYLINE
  8
Unknown_Area_Type
  70
1
  66
1
  0
VERTEX
  8
Unknown_Area_Type
  10
341640.500
  20
4623698.000
  0
VERTEX
  8
Unknown_Area_Type
  10
341630.000
  20
4623697.500
  0
VERTEX
  8
Unknown_Area_Type
  10
339891.500
  20
4623614.500
  0
VERTEX
  8
Unknown_Area_Type
  10
339841.500
  20
4623581.000
  0
VERTEX
  8
Unknown_Area_Type
  10
339662.500
  20
4619141.500
  0
VERTEX
  8
Unknown_Area_Type
  10
342259.000
  20
4618832.500
  0
VERTEX
  8
Unknown_Area_Type
  10
342687.000
  20
4619022.500
  0
VERTEX
  8
Unknown_Area_Type
  10
342916.500
  20
4623446.500
  0
VERTEX
  8
Unknown_Area_Type
  10
342436.500
  20
4623735.500
  0
VERTEX
  8
Unknown_Area_Type
  10
341640.500
  20
4623698.000
  0
SEQEND
  8
Unknown_Area_Type
  0
INSERT
  8
FeatureAttribs
  2
FEATURE
  41
1
  42
1
  43
1
  50
0
  10
325717.187
  20
4622467.633
 66
1
  0
ATTRIB
  8
FeatureAttribs
 70
0
  1
PNOA-H_AMS_1956-57_33k_ES_PAN_2
  2
NAME
  10
325717.187
  20
4622467.633
 40
34.05031
  0
SEQEND
  0
POLYLINE
  8
Unknown_Area_Type
  70
1
  66
1
  0
VERTEX
  8
Unknown_Area_Type
  10
326400.000
  20
4623904.000
  0
VERTEX
  8
Unknown_Area_Type
  10
326403.000
  20
4623904.500
  0
VERTEX
  8
Unknown_Area_Type
  10
326405.500
  20
4623904.500
  0
VERTEX
  8
Unknown_Area_Type
  10
327173.500
  20
4623531.500
  0
VERTEX
  8
Unknown_Area_Type
  10
327212.000
  20
4622205.500
  0
VERTEX
  8
Unknown_Area_Type
  10
325406.500
  20
4620366.000
  0
VERTEX
  8
Unknown_Area_Type
  10
325401.500
  20
4620373.500
  0
VERTEX
  8
Unknown_Area_Type
  10
324237.500
  20
4622528.000
  0
VERTEX
  8
Unknown_Area_Type
  10
324187.000
  20
4623535.500
  0
VERTEX
  8
Unknown_Area_Type
  10
326400.000
  20
4623904.000
  0
SEQEND
  8
Unknown_Area_Type
  0
INSERT
  8
FeatureAttribs
  2
FEATURE
  41
1
  42
1
  43
1
  50
0
  10
325717.187
  20
4622467.633
 66
1
  0
ATTRIB
  8
FeatureAttribs
 70
0
  1
PNOA-H_AMS_1956-57_33k_ES_PAN_2
  2
NAME
  10
325717.187
  20
4622467.633
 40
34.05031
  0
SEQEND
  0
POLYLINE
  8
Unknown_Area_Type
  70
1
  66
1
  0
VERTEX
  8
Unknown_Area_Type
  10
326400.000
  20
4623904.000
  0
VERTEX
  8
Unknown_Area_Type
  10
324187.000
  20
4623535.500
  0
VERTEX
  8
Unknown_Area_Type
  10
324237.500
  20
4622528.000
  0
VERTEX
  8
Unknown_Area_Type
  10
325401.500
  20
4620373.500
  0
VERTEX
  8
Unknown_Area_Type
  10
325406.500
  20
4620366.000
  0
VERTEX
  8
Unknown_Area_Type
  10
327212.000
  20
4622205.500
  0
VERTEX
  8
Unknown_Area_Type
  10
327173.500
  20
4623531.500
  0
VERTEX
  8
Unknown_Area_Type
  10
326405.500
  20
4623904.500
  0
VERTEX
  8
Unknown_Area_Type
  10
326403.000
  20
4623904.500
  0
VERTEX
  8
Unknown_Area_Type
  10
326400.000
  20
4623904.000
  0
SEQEND
  8
Unknown_Area_Type
  0
INSERT
  8
FeatureAttribs
  2
FEATURE
  41
1
  42
1
  43
1
  50
0
  10
342431.825
  20
4629746.546
 66
1
  0
ATTRIB
  8
FeatureAttribs
 70
0
  1
PNOA-H_AMS_1956-57_33k_ES_PAN_2
  2
NAME
  10
342431.825
  20
4629746.546
 40
34.05031
  0
SEQEND
  0
POLYLINE
  8
Unknown_Area_Type
  70
1
  66
1
  0
VERTEX
  8
Unknown_Area_Type
  10
341649.500
  20
4631938.000
  0
VERTEX
  8
Unknown_Area_Type
  10
341653.500
  20
4631940.000
  0
VERTEX
  8
Unknown_Area_Type
  10
341659.500
  20
4631940.000
  0
VERTEX
  8
Unknown_Area_Type
  10
343977.500
  20
4631737.000
  0
VERTEX
  8
Unknown_Area_Type
  10
343856.000
  20
4627916.500
  0
VERTEX
  8
Unknown_Area_Type
  10
343854.500
  20
4627896.000
  0
VERTEX
  8
Unknown_Area_Type
  10
342506.000
  20
4627412.500
  0
VERTEX
  8
Unknown_Area_Type
  10
342503.000
  20
4627412.500
  0
VERTEX
  8
Unknown_Area_Type
  10
340877.500
  20
4627969.500
  0
VERTEX
  8
Unknown_Area_Type
  10
341007.500
  20
4631625.500
  0
VERTEX
  8
Unknown_Area_Type
  10
341648.500
  20
4631937.500
  0
VERTEX
  8
Unknown_Area_Type
  10
341649.500
  20
4631938.000
  0
SEQEND
  8
Unknown_Area_Type
  0
INSERT
  8
FeatureAttribs
  2
FEATURE
  41
1
  42
1
  43
1
  50
0
  10
342431.825
  20
4629746.546
 66
1
  0
ATTRIB
  8
FeatureAttribs
 70
0
  1
PNOA-H_AMS_1956-57_33k_ES_PAN_2
  2
NAME
  10
342431.825
  20
4629746.546
 40
34.05031
  0
SEQEND
  0
POLYLINE
  8
Unknown_Area_Type
  70
1
  66
1
  0
VERTEX
  8
Unknown_Area_Type
  10
341649.500
  20
4631938.000
  0
VERTEX
  8
Unknown_Area_Type
  10
341648.500
  20
4631937.500
  0
VERTEX
  8
Unknown_Area_Type
  10
341007.500
  20
4631625.500
  0
VERTEX
  8
Unknown_Area_Type
  10
340877.500
  20
4627969.500
  0
VERTEX
  8
Unknown_Area_Type
  10
342503.000
  20
4627412.500
  0
VERTEX
  8
Unknown_Area_Type
  10
342506.000
  20
4627412.500
  0
VERTEX
  8
Unknown_Area_Type
  10
343854.500
  20
4627896.000
  0
VERTEX
  8
Unknown_Area_Type
  10
343856.000
  20
4627916.500
  0
VERTEX
  8
Unknown_Area_Type
  10
343977.500
  20
4631737.000
  0
VERTEX
  8
Unknown_Area_Type
  10
341659.500
  20
4631940.000
  0
VERTEX
  8
Unknown_Area_Type
  10
341653.500
  20
4631940.000
  0
VERTEX
  8
Unknown_Area_Type
  10
341649.500
  20
4631938.000
  0
SEQEND
  8
Unknown_Area_Type
  0
INSERT
  8
FeatureAttribs
  2
FEATURE
  41
1
  42
1
  43
1
  50
0
  10
331920.318
  20
4621614.087
 66
1
  0
ATTRIB
  8
FeatureAttribs
 70
0
  1
PNOA-H_AMS_1956-57_33k_ES_PAN_2
  2
NAME
  10
331920.318
  20
4621614.087
 40
34.05031
  0
SEQEND
  0
POLYLINE
  8
Unknown_Area_Type
  70
1
  66
1
  0
VERTEX
  8
Unknown_Area_Type
  10
331408.500
  20
4623834.500
  0
VERTEX
  8
Unknown_Area_Type
  10
331838.500
  20
4623976.500
  0
VERTEX
  8
Unknown_Area_Type
  10
333317.000
  20
4623456.500
  0
VERTEX
  8
Unknown_Area_Type
  10
333270.000
  20
4619231.000
  0
VERTEX
  8
Unknown_Area_Type
  10
331532.000
  20
4619024.000
  0
VERTEX
  8
Unknown_Area_Type
  10
330258.500
  20
4621748.000
  0
VERTEX
  8
Unknown_Area_Type
  10
330279.500
  20
4623460.500
  0
VERTEX
  8
Unknown_Area_Type
  10
331407.000
  20
4623834.000
  0
VERTEX
  8
Unknown_Area_Type
  10
331408.500
  20
4623834.500
  0
SEQEND
  8
Unknown_Area_Type
  0
INSERT
  8
FeatureAttribs
  2
FEATURE
  41
1
  42
1
  43
1
  50
0
  10
331920.318
  20
4621614.087
 66
1
  0
ATTRIB
  8
FeatureAttribs
 70
0
  1
PNOA-H_AMS_1956-57_33k_ES_PAN_2
  2
NAME
  10
331920.318
  20
4621614.087
 40
34.05031
  0
SEQEND
  0
POLYLINE
  8
Unknown_Area_Type
  70
1
  66
1
  0
VERTEX
  8
Unknown_Area_Type
  10
331408.500
  20
4623834.500
  0
VERTEX
  8
Unknown_Area_Type
  10
331407.000
  20
4623834.000
  0
VERTEX
  8
Unknown_Area_Type
  10
330279.500
  20
4623460.500
  0
VERTEX
  8
Unknown_Area_Type
  10
330258.500
  20
4621748.000
  0
VERTEX
  8
Unknown_Area_Type
  10
331532.000
  20
4619024.000
  0
VERTEX
  8
Unknown_Area_Type
  10
333270.000
  20
4619231.000
  0
VERTEX
  8
Unknown_Area_Type
  10
333317.000
  20
4623456.500
  0
VERTEX
  8
Unknown_Area_Type
  10
331838.500
  20
4623976.500
  0
VERTEX
  8
Unknown_Area_Type
  10
331408.500
  20
4623834.500
  0
SEQEND
  8
Unknown_Area_Type
  0
INSERT
  8
FeatureAttribs
  2
FEATURE
  41
1
  42
1
  43
1
  50
0
  10
336233.563
  20
4629840.064
 66
1
  0
ATTRIB
  8
FeatureAttribs
 70
0
  1
PNOA-H_AMS_1956-57_33k_ES_PAN_2
  2
NAME
  10
336233.563
  20
4629840.064
 40
34.05031
  0
SEQEND
  0
POLYLINE
  8
Unknown_Area_Type
  70
1
  66
1
  0
VERTEX
  8
Unknown_Area_Type
  10
335505.500
  20
4631757.000
  0
VERTEX
  8
Unknown_Area_Type
  10
336395.500
  20
4632029.500
  0
VERTEX
  8
Unknown_Area_Type
  10
336402.000
  20
4632030.500
  0
VERTEX
  8
Unknown_Area_Type
  10
337978.000
  20
4631599.500
  0
VERTEX
  8
Unknown_Area_Type
  10
337941.500
  20
4627922.000
  0
VERTEX
  8
Unknown_Area_Type
  10
337261.500
  20
4627564.500
  0
VERTEX
  8
Unknown_Area_Type
  10
335012.500
  20
4627857.500
  0
VERTEX
  8
Unknown_Area_Type
  10
333957.000
  20
4631282.500
  0
VERTEX
  8
Unknown_Area_Type
  10
335504.000
  20
4631756.500
  0
VERTEX
  8
Unknown_Area_Type
  10
335505.500
  20
4631757.000
  0
SEQEND
  8
Unknown_Area_Type
  0
INSERT
  8
FeatureAttribs
  2
FEATURE
  41
1
  42
1
  43
1
  50
0
  10
336233.563
  20
4629840.064
 66
1
  0
ATTRIB
  8
FeatureAttribs
 70
0
  1
PNOA-H_AMS_1956-57_33k_ES_PAN_2
  2
NAME
  10
336233.563
  20
4629840.064
 40
34.05031
  0
SEQEND
  0
POLYLINE
  8
Unknown_Area_Type
  70
1
  66
1
  0
VERTEX
  8
Unknown_Area_Type
  10
335505.500
  20
4631757.000
  0
VERTEX
  8
Unknown_Area_Type
  10
335504.000
  20
4631756.500
  0
VERTEX
  8
Unknown_Area_Type
  10
333957.000
  20
4631282.500
  0
VERTEX
  8
Unknown_Area_Type
  10
335012.500
  20
4627857.500
  0
VERTEX
  8
Unknown_Area_Type
  10
337261.500
  20
4627564.500
  0
VERTEX
  8
Unknown_Area_Type
  10
337941.500
  20
4627922.000
  0
VERTEX
  8
Unknown_Area_Type
  10
337978.000
  20
4631599.500
  0
VERTEX
  8
Unknown_Area_Type
  10
336402.000
  20
4632030.500
  0
VERTEX
  8
Unknown_Area_Type
  10
336395.500
  20
4632029.500
  0
VERTEX
  8
Unknown_Area_Type
  10
335505.500
  20
4631757.000
  0
SEQEND
  8
Unknown_Area_Type
  0
INSERT
  8
FeatureAttribs
  2
FEATURE
  41
1
  42
1
  43
1
  50
0
  10
328714.947
  20
4622493.555
 66
1
  0
ATTRIB
  8
FeatureAttribs
 70
0
  1
PNOA-H_AMS_1956-57_33k_ES_PAN_2
  2
NAME
  10
328714.947
  20
4622493.555
 40
34.05031
  0
SEQEND
  0
POLYLINE
  8
Unknown_Area_Type
  70
1
  66
1
  0
VERTEX
  8
Unknown_Area_Type
  10
329891.500
  20
4621576.000
  0
VERTEX
  8
Unknown_Area_Type
  10
328001.500
  20
4620683.000
  0
VERTEX
  8
Unknown_Area_Type
  10
327212.000
  20
4622206.000
  0
VERTEX
  8
Unknown_Area_Type
  10
327173.500
  20
4623518.000
  0
VERTEX
  8
Unknown_Area_Type
  10
327174.000
  20
4623532.000
  0
VERTEX
  8
Unknown_Area_Type
  10
329070.500
  20
4623988.000
  0
VERTEX
  8
Unknown_Area_Type
  10
330279.500
  20
4623460.500
  0
VERTEX
  8
Unknown_Area_Type
  10
330258.500
  20
4621749.000
  0
VERTEX
  8
Unknown_Area_Type
  10
329892.500
  20
4621576.000
  0
VERTEX
  8
Unknown_Area_Type
  10
329891.500
  20
4621576.000
  0
SEQEND
  8
Unknown_Area_Type
  0
INSERT
  8
FeatureAttribs
  2
FEATURE
  41
1
  42
1
  43
1
  50
0
  10
328714.947
  20
4622493.555
 66
1
  0
ATTRIB
  8
FeatureAttribs
 70
0
  1
PNOA-H_AMS_1956-57_33k_ES_PAN_2
  2
NAME
  10
328714.947
  20
4622493.555
 40
34.05031
  0
SEQEND
  0
POLYLINE
  8
Unknown_Area_Type
  70
1
  66
1
  0
VERTEX
  8
Unknown_Area_Type
  10
329891.500
  20
4621576.000
  0
VERTEX
  8
Unknown_Area_Type
  10
329892.500
  20
4621576.000
  0
VERTEX
  8
Unknown_Area_Type
  10
330258.500
  20
4621749.000
  0
VERTEX
  8
Unknown_Area_Type
  10
330279.500
  20
4623460.500
  0
VERTEX
  8
Unknown_Area_Type
  10
329070.500
  20
4623988.000
  0
VERTEX
  8
Unknown_Area_Type
  10
327174.000
  20
4623532.000
  0
VERTEX
  8
Unknown_Area_Type
  10
327173.500
  20
4623518.000
  0
VERTEX
  8
Unknown_Area_Type
  10
327212.000
  20
4622206.000
  0
VERTEX
  8
Unknown_Area_Type
  10
328001.500
  20
4620683.000
  0
VERTEX
  8
Unknown_Area_Type
  10
329891.500
  20
4621576.000
  0
SEQEND
  8
Unknown_Area_Type
  0
INSERT
  8
FeatureAttribs
  2
FEATURE
  41
1
  42
1
  43
1
  50
0
  10
322808.841
  20
4622403.106
 66
1
  0
ATTRIB
  8
FeatureAttribs
 70
0
  1
PNOA-H_AMS_1956-57_33k_ES_PAN_2
  2
NAME
  10
322808.841
  20
4622403.106
 40
34.05031
  0
SEQEND
  0
POLYLINE
  8
Unknown_Area_Type
  70
1
  66
1
  0
VERTEX
  8
Unknown_Area_Type
  10
321026.500
  20
4623540.500
  0
VERTEX
  8
Unknown_Area_Type
  10
321030.500
  20
4623541.500
  0
VERTEX
  8
Unknown_Area_Type
  10
323688.500
  20
4623792.000
  0
VERTEX
  8
Unknown_Area_Type
  10
323694.500
  20
4623792.000
  0
VERTEX
  8
Unknown_Area_Type
  10
323698.500
  20
4623790.000
  0
VERTEX
  8
Unknown_Area_Type
  10
324187.000
  20
4623536.000
  0
VERTEX
  8
Unknown_Area_Type
  10
324237.500
  20
4622528.000
  0
VERTEX
  8
Unknown_Area_Type
  10
323708.000
  20
4621577.000
  0
VERTEX
  8
Unknown_Area_Type
  10
323707.500
  20
4621576.000
  0
VERTEX
  8
Unknown_Area_Type
  10
322878.000
  20
4620083.500
  0
VERTEX
  8
Unknown_Area_Type
  10
322846.000
  20
4620026.000
  0
VERTEX
  8
Unknown_Area_Type
  10
322843.500
  20
4620023.500
  0
VERTEX
  8
Unknown_Area_Type
  10
320989.500
  20
4623514.500
  0
VERTEX
  8
Unknown_Area_Type
  10
321026.500
  20
4623540.500
  0
SEQEND
  8
Unknown_Area_Type
  0
INSERT
  8
FeatureAttribs
  2
FEATURE
  41
1
  42
1
  43
1
  50
0
  10
322808.841
  20
4622403.106
 66
1
  0
ATTRIB
  8
FeatureAttribs
 70
0
  1
PNOA-H_AMS_1956-57_33k_ES_PAN_2
  2
NAME
  10
322808.841
  20
4622403.106
 40
34.05031
  0
SEQEND
  0
POLYLINE
  8
Unknown_Area_Type
  70
1
  66
1
  0
VERTEX
  8
Unknown_Area_Type
  10
321026.500
  20
4623540.500
  0
VERTEX
  8
Unknown_Area_Type
  10
320989.500
  20
4623514.500
  0
VERTEX
  8
Unknown_Area_Type
  10
322843.500
  20
4620023.500
  0
VERTEX
  8
Unknown_Area_Type
  10
322846.000
  20
4620026.000
  0
VERTEX
  8
Unknown_Area_Type
  10
322878.000
  20
4620083.500
  0
VERTEX
  8
Unknown_Area_Type
  10
323707.500
  20
4621576.000
  0
VERTEX
  8
Unknown_Area_Type
  10
323708.000
  20
4621577.000
  0
VERTEX
  8
Unknown_Area_Type
  10
324237.500
  20
4622528.000
  0
VERTEX
  8
Unknown_Area_Type
  10
324187.000
  20
4623536.000
  0
VERTEX
  8
Unknown_Area_Type
  10
323698.500
  20
4623790.000
  0
VERTEX
  8
Unknown_Area_Type
  10
323694.500
  20
4623792.000
  0
VERTEX
  8
Unknown_Area_Type
  10
323688.500
  20
4623792.000
  0
VERTEX
  8
Unknown_Area_Type
  10
321030.500
  20
4623541.500
  0
VERTEX
  8
Unknown_Area_Type
  10
321026.500
  20
4623540.500
  0
SEQEND
  8
Unknown_Area_Type
  0
INSERT
  8
FeatureAttribs
  2
FEATURE
  41
1
  42
1
  43
1
  50
0
  10
344226.380
  20
4621121.006
 66
1
  0
ATTRIB
  8
FeatureAttribs
 70
0
  1
PNOA-H_AMS_1956-57_33k_ES_PAN_2
  2
NAME
  10
344226.380
  20
4621121.006
 40
34.05031
  0
SEQEND
  0
POLYLINE
  8
Unknown_Area_Type
  70
1
  66
1
  0
VERTEX
  8
Unknown_Area_Type
  10
342687.500
  20
4619036.500
  0
VERTEX
  8
Unknown_Area_Type
  10
342916.500
  20
4623446.500
  0
VERTEX
  8
Unknown_Area_Type
  10
344304.500
  20
4623604.500
  0
VERTEX
  8
Unknown_Area_Type
  10
345744.500
  20
4622878.000
  0
VERTEX
  8
Unknown_Area_Type
  10
345746.000
  20
4622877.500
  0
VERTEX
  8
Unknown_Area_Type
  10
345759.500
  20
4622871.000
  0
VERTEX
  8
Unknown_Area_Type
  10
345759.500
  20
4622861.500
  0
VERTEX
  8
Unknown_Area_Type
  10
345619.000
  20
4618964.500
  0
VERTEX
  8
Unknown_Area_Type
  10
345043.500
  20
4618740.000
  0
VERTEX
  8
Unknown_Area_Type
  10
342688.500
  20
4619022.000
  0
VERTEX
  8
Unknown_Area_Type
  10
342687.000
  20
4619022.500
  0
VERTEX
  8
Unknown_Area_Type
  10
342687.500
  20
4619036.500
  0
SEQEND
  8
Unknown_Area_Type
  0
INSERT
  8
FeatureAttribs
  2
FEATURE
  41
1
  42
1
  43
1
  50
0
  10
344226.380
  20
4621121.006
 66
1
  0
ATTRIB
  8
FeatureAttribs
 70
0
  1
PNOA-H_AMS_1956-57_33k_ES_PAN_2
  2
NAME
  10
344226.380
  20
4621121.006
 40
34.05031
  0
SEQEND
  0
POLYLINE
  8
Unknown_Area_Type
  70
1
  66
1
  0
VERTEX
  8
Unknown_Area_Type
  10
342687.500
  20
4619036.500
  0
VERTEX
  8
Unknown_Area_Type
  10
342687.000
  20
4619022.500
  0
VERTEX
  8
Unknown_Area_Type
  10
342688.500
  20
4619022.000
  0
VERTEX
  8
Unknown_Area_Type
  10
345043.500
  20
4618740.000
  0
VERTEX
  8
Unknown_Area_Type
  10
345619.000
  20
4618964.500
  0
VERTEX
  8
Unknown_Area_Type
  10
345759.500
  20
4622861.500
  0
VERTEX
  8
Unknown_Area_Type
  10
345759.500
  20
4622871.000
  0
VERTEX
  8
Unknown_Area_Type
  10
345746.000
  20
4622877.500
  0
VERTEX
  8
Unknown_Area_Type
  10
345744.500
  20
4622878.000
  0
VERTEX
  8
Unknown_Area_Type
  10
344304.500
  20
4623604.500
  0
VERTEX
  8
Unknown_Area_Type
  10
342916.500
  20
4623446.500
  0
VERTEX
  8
Unknown_Area_Type
  10
342687.500
  20
4619036.500
  0
SEQEND
  8
Unknown_Area_Type
  0
INSERT
  8
FeatureAttribs
  2
FEATURE
  41
1
  42
1
  43
1
  50
0
  10
338132.240
  20
4621404.499
 66
1
  0
ATTRIB
  8
FeatureAttribs
 70
0
  1
PNOA-H_AMS_1956-57_33k_ES_PAN_2
  2
NAME
  10
338132.240
  20
4621404.499
 40
34.05031
  0
SEQEND
  0
POLYLINE
  8
Unknown_Area_Type
  70
1
  66
1
  0
VERTEX
  8
Unknown_Area_Type
  10
337554.000
  20
4623796.000
  0
VERTEX
  8
Unknown_Area_Type
  10
339841.500
  20
4623581.000
  0
VERTEX
  8
Unknown_Area_Type
  10
339663.000
  20
4619142.000
  0
VERTEX
  8
Unknown_Area_Type
  10
339657.500
  20
4619138.500
  0
VERTEX
  8
Unknown_Area_Type
  10
339362.500
  20
4619000.000
  0
VERTEX
  8
Unknown_Area_Type
  10
336518.000
  20
4619153.000
  0
VERTEX
  8
Unknown_Area_Type
  10
336479.500
  20
4623379.500
  0
VERTEX
  8
Unknown_Area_Type
  10
337270.500
  20
4623822.500
  0
VERTEX
  8
Unknown_Area_Type
  10
337552.000
  20
4623796.000
  0
VERTEX
  8
Unknown_Area_Type
  10
337554.000
  20
4623796.000
  0
SEQEND
  8
Unknown_Area_Type
  0
INSERT
  8
FeatureAttribs
  2
FEATURE
  41
1
  42
1
  43
1
  50
0
  10
338132.240
  20
4621404.499
 66
1
  0
ATTRIB
  8
FeatureAttribs
 70
0
  1
PNOA-H_AMS_1956-57_33k_ES_PAN_2
  2
NAME
  10
338132.240
  20
4621404.499
 40
34.05031
  0
SEQEND
  0
POLYLINE
  8
Unknown_Area_Type
  70
1
  66
1
  0
VERTEX
  8
Unknown_Area_Type
  10
337554.000
  20
4623796.000
  0
VERTEX
  8
Unknown_Area_Type
  10
337552.000
  20
4623796.000
  0
VERTEX
  8
Unknown_Area_Type
  10
337270.500
  20
4623822.500
  0
VERTEX
  8
Unknown_Area_Type
  10
336479.500
  20
4623379.500
  0
VERTEX
  8
Unknown_Area_Type
  10
336518.000
  20
4619153.000
  0
VERTEX
  8
Unknown_Area_Type
  10
339362.500
  20
4619000.000
  0
VERTEX
  8
Unknown_Area_Type
  10
339657.500
  20
4619138.500
  0
VERTEX
  8
Unknown_Area_Type
  10
339663.000
  20
4619142.000
  0
VERTEX
  8
Unknown_Area_Type
  10
339841.500
  20
4623581.000
  0
VERTEX
  8
Unknown_Area_Type
  10
337554.000
  20
4623796.000
  0
SEQEND
  8
Unknown_Area_Type
  0
INSERT
  8
FeatureAttribs
  2
FEATURE
  41
1
  42
1
  43
1
  50
0
  10
334880.707
  20
4621364.016
 66
1
  0
ATTRIB
  8
FeatureAttribs
 70
0
  1
PNOA-H_AMS_1956-57_33k_ES_PAN_2
  2
NAME
  10
334880.707
  20
4621364.016
 40
34.05031
  0
SEQEND
  0
POLYLINE
  8
Unknown_Area_Type
  70
1
  66
1
  0
VERTEX
  8
Unknown_Area_Type
  10
335506.000
  20
4623662.000
  0
VERTEX
  8
Unknown_Area_Type
  10
336479.500
  20
4623379.500
  0
VERTEX
  8
Unknown_Area_Type
  10
336518.000
  20
4619153.000
  0
VERTEX
  8
Unknown_Area_Type
  10
336514.500
  20
4619150.500
  0
VERTEX
  8
Unknown_Area_Type
  10
336494.000
  20
4619149.000
  0
VERTEX
  8
Unknown_Area_Type
  10
333824.000
  20
4618980.000
  0
VERTEX
  8
Unknown_Area_Type
  10
333270.000
  20
4619231.000
  0
VERTEX
  8
Unknown_Area_Type
  10
333317.000
  20
4623456.500
  0
VERTEX
  8
Unknown_Area_Type
  10
334557.500
  20
4623937.500
  0
VERTEX
  8
Unknown_Area_Type
  10
335504.000
  20
4623662.500
  0
VERTEX
  8
Unknown_Area_Type
  10
335506.000
  20
4623662.000
  0
SEQEND
  8
Unknown_Area_Type
  0
INSERT
  8
FeatureAttribs
  2
FEATURE
  41
1
  42
1
  43
1
  50
0
  10
334880.707
  20
4621364.016
 66
1
  0
ATTRIB
  8
FeatureAttribs
 70
0
  1
PNOA-H_AMS_1956-57_33k_ES_PAN_2
  2
NAME
  10
334880.707
  20
4621364.016
 40
34.05031
  0
SEQEND
  0
POLYLINE
  8
Unknown_Area_Type
  70
1
  66
1
  0
VERTEX
  8
Unknown_Area_Type
  10
335506.000
  20
4623662.000
  0
VERTEX
  8
Unknown_Area_Type
  10
335504.000
  20
4623662.500
  0
VERTEX
  8
Unknown_Area_Type
  10
334557.500
  20
4623937.500
  0
VERTEX
  8
Unknown_Area_Type
  10
333317.000
  20
4623456.500
  0
VERTEX
  8
Unknown_Area_Type
  10
333270.000
  20
4619231.000
  0
VERTEX
  8
Unknown_Area_Type
  10
333824.000
  20
4618980.000
  0
VERTEX
  8
Unknown_Area_Type
  10
336494.000
  20
4619149.000
  0
VERTEX
  8
Unknown_Area_Type
  10
336514.500
  20
4619150.500
  0
VERTEX
  8
Unknown_Area_Type
  10
336518.000
  20
4619153.000
  0
VERTEX
  8
Unknown_Area_Type
  10
336479.500
  20
4623379.500
  0
VERTEX
  8
Unknown_Area_Type
  10
335506.000
  20
4623662.000
  0
SEQEND
  8
Unknown_Area_Type
  0
INSERT
  8
FeatureAttribs
  2
FEATURE
  41
1
  42
1
  43
1
  50
0
  10
345734.777
  20
4620918.097
 66
1
  0
ATTRIB
  8
FeatureAttribs
 70
0
  1
PNOA-H_AMS_1956-57_33k_ES_PAN_2
  2
NAME
  10
345734.777
  20
4620918.097
 40
34.05031
  0
SEQEND
  0
POLYLINE
  8
Unknown_Area_Type
  70
1
  66
1
  0
VERTEX
  8
Unknown_Area_Type
  10
345737.626
  20
4618946.156
  0
VERTEX
  8
Unknown_Area_Type
  10
345619.000
  20
4618964.500
  0
VERTEX
  8
Unknown_Area_Type
  10
345745.500
  20
4622472.500
  0
VERTEX
  8
Unknown_Area_Type
  10
345745.500
  20
4622486.500
  0
VERTEX
  8
Unknown_Area_Type
  10
345759.500
  20
4622871.000
  0
VERTEX
  8
Unknown_Area_Type
  10
345822.602
  20
4622890.038
  0
VERTEX
  8
Unknown_Area_Type
  10
345789.794
  20
4621367.776
  0
VERTEX
  8
Unknown_Area_Type
  10
345739.962
  20
4619054.648
  0
VERTEX
  8
Unknown_Area_Type
  10
345737.626
  20
4618946.156
  0
SEQEND
  8
Unknown_Area_Type
  0
INSERT
  8
FeatureAttribs
  2
FEATURE
  41
1
  42
1
  43
1
  50
0
  10
345734.777
  20
4620918.097
 66
1
  0
ATTRIB
  8
FeatureAttribs
 70
0
  1
PNOA-H_AMS_1956-57_33k_ES_PAN_2
  2
NAME
  10
345734.777
  20
4620918.097
 40
34.05031
  0
SEQEND
  0
POLYLINE
  8
Unknown_Area_Type
  70
1
  66
1
  0
VERTEX
  8
Unknown_Area_Type
  10
345737.626
  20
4618946.156
  0
VERTEX
  8
Unknown_Area_Type
  10
345619.000
  20
4618964.500
  0
VERTEX
  8
Unknown_Area_Type
  10
345745.500
  20
4622472.500
  0
VERTEX
  8
Unknown_Area_Type
  10
345745.500
  20
4622486.500
  0
VERTEX
  8
Unknown_Area_Type
  10
345759.500
  20
4622871.000
  0
VERTEX
  8
Unknown_Area_Type
  10
345822.602
  20
4622890.038
  0
VERTEX
  8
Unknown_Area_Type
  10
345789.794
  20
4621367.776
  0
VERTEX
  8
Unknown_Area_Type
  10
345739.962
  20
4619054.648
  0
VERTEX
  8
Unknown_Area_Type
  10
345737.626
  20
4618946.156
  0
SEQEND
  8
Unknown_Area_Type
  0
INSERT
  8
FeatureAttribs
  2
FEATURE
  41
1
  42
1
  43
1
  50
0
  10
345909.800
  20
4620927.460
 66
1
  0
ATTRIB
  8
FeatureAttribs
 70
0
  1
PNOA-H_AMS_1956-57_33k_ES_PAN_2
  2
NAME
  10
345909.800
  20
4620927.460
 40
34.05031
  0
SEQEND
  0
POLYLINE
  8
Unknown_Area_Type
  70
1
  66
1
  0
VERTEX
  8
Unknown_Area_Type
  10
346039.291
  20
4618899.509
  0
VERTEX
  8
Unknown_Area_Type
  10
345737.626
  20
4618946.156
  0
VERTEX
  8
Unknown_Area_Type
  10
345739.962
  20
4619054.648
  0
VERTEX
  8
Unknown_Area_Type
  10
345789.794
  20
4621367.776
  0
VERTEX
  8
Unknown_Area_Type
  10
345822.602
  20
4622890.038
  0
VERTEX
  8
Unknown_Area_Type
  10
346039.291
  20
4622955.411
  0
VERTEX
  8
Unknown_Area_Type
  10
346039.291
  20
4618899.509
  0
SEQEND
  8
Unknown_Area_Type
  0
INSERT
  8
FeatureAttribs
  2
FEATURE
  41
1
  42
1
  43
1
  50
0
  10
345954.312
  20
4625057.815
 66
1
  0
ATTRIB
  8
FeatureAttribs
 70
0
  1
PNOA-H_AMS_1956-57_33k_ES_PAN_2
  2
NAME
  10
345954.312
  20
4625057.815
 40
34.05031
  0
SEQEND
  0
POLYLINE
  8
Unknown_Area_Type
  70
1
  66
1
  0
VERTEX
  8
Unknown_Area_Type
  10
346039.291
  20
4622954.865
  0
VERTEX
  8
Unknown_Area_Type
  10
345822.589
  20
4622889.443
  0
VERTEX
  8
Unknown_Area_Type
  10
345839.647
  20
4623680.912
  0
VERTEX
  8
Unknown_Area_Type
  10
345889.520
  20
4625994.055
  0
VERTEX
  8
Unknown_Area_Type
  10
345915.709
  20
4627208.224
  0
VERTEX
  8
Unknown_Area_Type
  10
346039.291
  20
4627226.187
  0
VERTEX
  8
Unknown_Area_Type
  10
346039.291
  20
4622954.865
  0
SEQEND
  8
Unknown_Area_Type
  0
INSERT
  8
FeatureAttribs
  2
FEATURE
  41
1
  42
1
  43
1
  50
0
  10
345337.010
  20
4624744.398
 66
1
  0
ATTRIB
  8
FeatureAttribs
 70
0
  1
PNOA-H_AMS_1956-57_33k_ES_PAN_2
  2
NAME
  10
345337.010
  20
4624744.398
 40
34.05031
  0
SEQEND
  0
POLYLINE
  8
Unknown_Area_Type
  70
1
  66
1
  0
VERTEX
  8
Unknown_Area_Type
  10
345822.589
  20
4622889.443
  0
VERTEX
  8
Unknown_Area_Type
  10
345761.500
  20
4622871.000
  0
VERTEX
  8
Unknown_Area_Type
  10
345758.500
  20
4622871.000
  0
VERTEX
  8
Unknown_Area_Type
  10
345729.500
  20
4622885.500
  0
VERTEX
  8
Unknown_Area_Type
  10
344378.500
  20
4623566.500
  0
VERTEX
  8
Unknown_Area_Type
  10
344303.500
  20
4623604.500
  0
VERTEX
  8
Unknown_Area_Type
  10
344303.500
  20
4623606.000
  0
VERTEX
  8
Unknown_Area_Type
  10
345608.000
  20
4627163.500
  0
VERTEX
  8
Unknown_Area_Type
  10
345915.709
  20
4627208.224
  0
VERTEX
  8
Unknown_Area_Type
  10
345889.520
  20
4625994.055
  0
VERTEX
  8
Unknown_Area_Type
  10
345839.647
  20
4623680.912
  0
VERTEX
  8
Unknown_Area_Type
  10
345822.589
  20
4622889.443
  0
SEQEND
  8
Unknown_Area_Type
  0
INSERT
  8
FeatureAttribs
  2
FEATURE
  41
1
  42
1
  43
1
  50
0
  10
345337.010
  20
4624744.398
 66
1
  0
ATTRIB
  8
FeatureAttribs
 70
0
  1
PNOA-H_AMS_1956-57_33k_ES_PAN_2
  2
NAME
  10
345337.010
  20
4624744.398
 40
34.05031
  0
SEQEND
  0
POLYLINE
  8
Unknown_Area_Type
  70
1
  66
1
  0
VERTEX
  8
Unknown_Area_Type
  10
345822.589
  20
4622889.443
  0
VERTEX
  8
Unknown_Area_Type
  10
345839.647
  20
4623680.912
  0
VERTEX
  8
Unknown_Area_Type
  10
345889.520
  20
4625994.055
  0
VERTEX
  8
Unknown_Area_Type
  10
345915.709
  20
4627208.224
  0
VERTEX
  8
Unknown_Area_Type
  10
345608.000
  20
4627163.500
  0
VERTEX
  8
Unknown_Area_Type
  10
344303.500
  20
4623606.000
  0
VERTEX
  8
Unknown_Area_Type
  10
344303.500
  20
4623604.500
  0
VERTEX
  8
Unknown_Area_Type
  10
344378.500
  20
4623566.500
  0
VERTEX
  8
Unknown_Area_Type
  10
345729.500
  20
4622885.500
  0
VERTEX
  8
Unknown_Area_Type
  10
345758.500
  20
4622871.000
  0
VERTEX
  8
Unknown_Area_Type
  10
345761.500
  20
4622871.000
  0
VERTEX
  8
Unknown_Area_Type
  10
345822.589
  20
4622889.443
  0
SEQEND
  8
Unknown_Area_Type
  0
INSERT
  8
FeatureAttribs
  2
FEATURE
  41
1
  42
1
  43
1
  50
0
  10
345099.416
  20
4633259.246
 66
1
  0
ATTRIB
  8
FeatureAttribs
 70
0
  1
PNOA-H_AMS_1956-57_33k_ES_PAN_2
  2
NAME
  10
345099.416
  20
4633259.246
 40
34.05031
  0
SEQEND
  0
POLYLINE
  8
Unknown_Area_Type
  70
1
  66
1
  0
VERTEX
  8
Unknown_Area_Type
  10
344162.551
  20
4632974.507
  0
VERTEX
  8
Unknown_Area_Type
  10
344156.098
  20
4633584.961
  0
VERTEX
  8
Unknown_Area_Type
  10
346039.291
  20
4633584.961
  0
VERTEX
  8
Unknown_Area_Type
  10
346039.291
  20
4632934.833
  0
VERTEX
  8
Unknown_Area_Type
  10
346039.262
  20
4632933.530
  0
VERTEX
  8
Unknown_Area_Type
  10
344162.551
  20
4632974.507
  0
SEQEND
  8
Unknown_Area_Type
  0
INSERT
  8
FeatureAttribs
  2
FEATURE
  41
1
  42
1
  43
1
  50
0
  10
346039.277
  20
4632933.856
 66
1
  0
ATTRIB
  8
FeatureAttribs
 70
0
  1
PNOA-H_AMS_1956-57_33k_ES_PAN_2
  2
NAME
  10
346039.277
  20
4632933.856
 40
34.05031
  0
SEQEND
  0
POLYLINE
  8
Unknown_Area_Type
  70
1
  66
1
  0
VERTEX
  8
Unknown_Area_Type
  10
346039.291
  20
4632934.833
  0
VERTEX
  8
Unknown_Area_Type
  10
346039.291
  20
4632933.529
  0
VERTEX
  8
Unknown_Area_Type
  10
346039.262
  20
4632933.530
  0
VERTEX
  8
Unknown_Area_Type
  10
346039.291
  20
4632934.833
  0
SEQEND
  8
Unknown_Area_Type
  0
INSERT
  8
FeatureAttribs
  2
FEATURE
  41
1
  42
1
  43
1
  50
0
  10
346033.216
  20
4632372.035
 66
1
  0
ATTRIB
  8
FeatureAttribs
 70
0
  1
PNOA-H_AMS_1956-57_33k_ES_PAN_2
  2
NAME
  10
346033.216
  20
4632372.035
 40
34.05031
  0
SEQEND
  0
POLYLINE
  8
Unknown_Area_Type
  70
1
  66
1
  0
VERTEX
  8
Unknown_Area_Type
  10
346039.291
  20
4631810.541
  0
VERTEX
  8
Unknown_Area_Type
  10
346015.030
  20
4631810.976
  0
VERTEX
  8
Unknown_Area_Type
  10
346039.262
  20
4632933.530
  0
VERTEX
  8
Unknown_Area_Type
  10
346039.291
  20
4632933.529
  0
VERTEX
  8
Unknown_Area_Type
  10
346039.291
  20
4631810.541
  0
SEQEND
  8
Unknown_Area_Type
  0
INSERT
  8
FeatureAttribs
  2
FEATURE
  41
1
  42
1
  43
1
  50
0
  10
345096.851
  20
4632392.602
 66
1
  0
ATTRIB
  8
FeatureAttribs
 70
0
  1
PNOA-H_AMS_1956-57_33k_ES_PAN_2
  2
NAME
  10
345096.851
  20
4632392.602
 40
34.05031
  0
SEQEND
  0
POLYLINE
  8
Unknown_Area_Type
  70
1
  66
1
  0
VERTEX
  8
Unknown_Area_Type
  10
346015.030
  20
4631810.976
  0
VERTEX
  8
Unknown_Area_Type
  10
344174.500
  20
4631844.000
  0
VERTEX
  8
Unknown_Area_Type
  10
344162.551
  20
4632974.507
  0
VERTEX
  8
Unknown_Area_Type
  10
346039.262
  20
4632933.530
  0
VERTEX
  8
Unknown_Area_Type
  10
346015.030
  20
4631810.976
  0
SEQEND
  8
Unknown_Area_Type
  0
INSERT
  8
FeatureAttribs
  2
FEATURE
  41
1
  42
1
  43
1
  50
0
  10
345096.851
  20
4632392.602
 66
1
  0
ATTRIB
  8
FeatureAttribs
 70
0
  1
PNOA-H_AMS_1956-57_33k_ES_PAN_2
  2
NAME
  10
345096.851
  20
4632392.602
 40
34.05031
  0
SEQEND
  0
POLYLINE
  8
Unknown_Area_Type
  70
1
  66
1
  0
VERTEX
  8
Unknown_Area_Type
  10
346015.030
  20
4631810.976
  0
VERTEX
  8
Unknown_Area_Type
  10
346039.262
  20
4632933.530
  0
VERTEX
  8
Unknown_Area_Type
  10
344162.551
  20
4632974.507
  0
VERTEX
  8
Unknown_Area_Type
  10
344174.500
  20
4631844.000
  0
VERTEX
  8
Unknown_Area_Type
  10
346015.030
  20
4631810.976
  0
SEQEND
  8
Unknown_Area_Type
  0
INSERT
  8
FeatureAttribs
  2
FEATURE
  41
1
  42
1
  43
1
  50
0
  10
337685.465
  20
4633337.363
 66
1
  0
ATTRIB
  8
FeatureAttribs
 70
0
  1
PNOA-H_AMS_1956-57_33k_ES_PAN_2
  2
NAME
  10
337685.465
  20
4633337.363
 40
34.05031
  0
SEQEND
  0
POLYLINE
  8
Unknown_Area_Type
  70
1
  66
1
  0
VERTEX
  8
Unknown_Area_Type
  10
338963.356
  20
4633584.961
  0
VERTEX
  8
Unknown_Area_Type
  10
338967.485
  20
4633089.764
  0
VERTEX
  8
Unknown_Area_Type
  10
336404.785
  20
4633148.208
  0
VERTEX
  8
Unknown_Area_Type
  10
336406.459
  20
4633584.961
  0
VERTEX
  8
Unknown_Area_Type
  10
338963.356
  20
4633584.961
  0
SEQEND
  8
Unknown_Area_Type
  0
INSERT
  8
FeatureAttribs
  2
FEATURE
  41
1
  42
1
  43
1
  50
0
  10
337696.950
  20
4632458.525
 66
1
  0
ATTRIB
  8
FeatureAttribs
 70
0
  1
PNOA-H_AMS_1956-57_33k_ES_PAN_2
  2
NAME
  10
337696.950
  20
4632458.525
 40
34.05031
  0
SEQEND
  0
POLYLINE
  8
Unknown_Area_Type
  70
1
  66
1
  0
VERTEX
  8
Unknown_Area_Type
  10
338967.485
  20
4633089.764
  0
VERTEX
  8
Unknown_Area_Type
  10
338976.500
  20
4632008.500
  0
VERTEX
  8
Unknown_Area_Type
  10
337980.000
  20
4631600.000
  0
VERTEX
  8
Unknown_Area_Type
  10
337976.500
  20
4631599.500
  0
VERTEX
  8
Unknown_Area_Type
  10
336400.500
  20
4632030.500
  0
VERTEX
  8
Unknown_Area_Type
  10
336404.785
  20
4633148.208
  0
VERTEX
  8
Unknown_Area_Type
  10
338967.485
  20
4633089.764
  0
SEQEND
  8
Unknown_Area_Type
  0
INSERT
  8
FeatureAttribs
  2
FEATURE
  41
1
  42
1
  43
1
  50
0
  10
337696.950
  20
4632458.525
 66
1
  0
ATTRIB
  8
FeatureAttribs
 70
0
  1
PNOA-H_AMS_1956-57_33k_ES_PAN_2
  2
NAME
  10
337696.950
  20
4632458.525
 40
34.05031
  0
SEQEND
  0
POLYLINE
  8
Unknown_Area_Type
  70
1
  66
1
  0
VERTEX
  8
Unknown_Area_Type
  10
338967.485
  20
4633089.764
  0
VERTEX
  8
Unknown_Area_Type
  10
336404.785
  20
4633148.208
  0
VERTEX
  8
Unknown_Area_Type
  10
336400.500
  20
4632030.500
  0
VERTEX
  8
Unknown_Area_Type
  10
337976.500
  20
4631599.500
  0
VERTEX
  8
Unknown_Area_Type
  10
337980.000
  20
4631600.000
  0
VERTEX
  8
Unknown_Area_Type
  10
338976.500
  20
4632008.500
  0
VERTEX
  8
Unknown_Area_Type
  10
338967.485
  20
4633089.764
  0
SEQEND
  8
Unknown_Area_Type
  0
INSERT
  8
FeatureAttribs
  2
FEATURE
  41
1
  42
1
  43
1
  50
0
  10
335113.850
  20
4633366.585
 66
1
  0
ATTRIB
  8
FeatureAttribs
 70
0
  1
PNOA-H_AMS_1956-57_33k_ES_PAN_2
  2
NAME
  10
335113.850
  20
4633366.585
 40
34.05031
  0
SEQEND
  0
POLYLINE
  8
Unknown_Area_Type
  70
1
  66
1
  0
VERTEX
  8
Unknown_Area_Type
  10
336406.459
  20
4633584.961
  0
VERTEX
  8
Unknown_Area_Type
  10
336404.785
  20
4633148.208
  0
VERTEX
  8
Unknown_Area_Type
  10
335659.439
  20
4633165.206
  0
VERTEX
  8
Unknown_Area_Type
  10
333822.193
  20
4633207.997
  0
VERTEX
  8
Unknown_Area_Type
  10
333821.920
  20
4633584.961
  0
VERTEX
  8
Unknown_Area_Type
  10
336406.459
  20
4633584.961
  0
SEQEND
  8
Unknown_Area_Type
  0
INSERT
  8
FeatureAttribs
  2
FEATURE
  41
1
  42
1
  43
1
  50
0
  10
334997.323
  20
4632393.476
 66
1
  0
ATTRIB
  8
FeatureAttribs
 70
0
  1
PNOA-H_AMS_1956-57_33k_ES_PAN_2
  2
NAME
  10
334997.323
  20
4632393.476
 40
34.05031
  0
SEQEND
  0
POLYLINE
  8
Unknown_Area_Type
  70
1
  66
1
  0
VERTEX
  8
Unknown_Area_Type
  10
336404.785
  20
4633148.208
  0
VERTEX
  8
Unknown_Area_Type
  10
336400.500
  20
4632030.500
  0
VERTEX
  8
Unknown_Area_Type
  10
333957.500
  20
4631282.500
  0
VERTEX
  8
Unknown_Area_Type
  10
333953.000
  20
4631284.000
  0
VERTEX
  8
Unknown_Area_Type
  10
333950.000
  20
4631286.500
  0
VERTEX
  8
Unknown_Area_Type
  10
333823.500
  20
4631403.500
  0
VERTEX
  8
Unknown_Area_Type
  10
333822.193
  20
4633207.997
  0
VERTEX
  8
Unknown_Area_Type
  10
335659.439
  20
4633165.206
  0
VERTEX
  8
Unknown_Area_Type
  10
336404.785
  20
4633148.208
  0
SEQEND
  8
Unknown_Area_Type
  0
INSERT
  8
FeatureAttribs
  2
FEATURE
  41
1
  42
1
  43
1
  50
0
  10
334997.323
  20
4632393.476
 66
1
  0
ATTRIB
  8
FeatureAttribs
 70
0
  1
PNOA-H_AMS_1956-57_33k_ES_PAN_2
  2
NAME
  10
334997.323
  20
4632393.476
 40
34.05031
  0
SEQEND
  0
POLYLINE
  8
Unknown_Area_Type
  70
1
  66
1
  0
VERTEX
  8
Unknown_Area_Type
  10
336404.785
  20
4633148.208
  0
VERTEX
  8
Unknown_Area_Type
  10
335659.439
  20
4633165.206
  0
VERTEX
  8
Unknown_Area_Type
  10
333822.193
  20
4633207.997
  0
VERTEX
  8
Unknown_Area_Type
  10
333823.500
  20
4631403.500
  0
VERTEX
  8
Unknown_Area_Type
  10
333950.000
  20
4631286.500
  0
VERTEX
  8
Unknown_Area_Type
  10
333953.000
  20
4631284.000
  0
VERTEX
  8
Unknown_Area_Type
  10
333957.500
  20
4631282.500
  0
VERTEX
  8
Unknown_Area_Type
  10
336400.500
  20
4632030.500
  0
VERTEX
  8
Unknown_Area_Type
  10
336404.785
  20
4633148.208
  0
SEQEND
  8
Unknown_Area_Type
  0
INSERT
  8
FeatureAttribs
  2
FEATURE
  41
1
  42
1
  43
1
  50
0
  10
340276.250
  20
4633307.940
 66
1
  0
ATTRIB
  8
FeatureAttribs
 70
0
  1
PNOA-H_AMS_1956-57_33k_ES_PAN_2
  2
NAME
  10
340276.250
  20
4633307.940
 40
34.05031
  0
SEQEND
  0
POLYLINE
  8
Unknown_Area_Type
  70
1
  66
1
  0
VERTEX
  8
Unknown_Area_Type
  10
341573.192
  20
4633584.961
  0
VERTEX
  8
Unknown_Area_Type
  10
341600.656
  20
4633030.919
  0
VERTEX
  8
Unknown_Area_Type
  10
339119.389
  20
4633086.300
  0
VERTEX
  8
Unknown_Area_Type
  10
338967.410
  20
4633089.766
  0
VERTEX
  8
Unknown_Area_Type
  10
338963.248
  20
4633584.961
  0
VERTEX
  8
Unknown_Area_Type
  10
341573.192
  20
4633584.961
  0
SEQEND
  8
Unknown_Area_Type
  0
INSERT
  8
FeatureAttribs
  2
FEATURE
  41
1
  42
1
  43
1
  50
0
  10
340334.235
  20
4632428.049
 66
1
  0
ATTRIB
  8
FeatureAttribs
 70
0
  1
PNOA-H_AMS_1956-57_33k_ES_PAN_2
  2
NAME
  10
340334.235
  20
4632428.049
 40
34.05031
  0
SEQEND
  0
POLYLINE
  8
Unknown_Area_Type
  70
1
  66
1
  0
VERTEX
  8
Unknown_Area_Type
  10
341600.656
  20
4633030.919
  0
VERTEX
  8
Unknown_Area_Type
  10
341650.000
  20
4632035.500
  0
VERTEX
  8
Unknown_Area_Type
  10
341650.000
  20
4632025.500
  0
VERTEX
  8
Unknown_Area_Type
  10
341654.500
  20
4631940.000
  0
VERTEX
  8
Unknown_Area_Type
  10
341008.000
  20
4631625.500
  0
VERTEX
  8
Unknown_Area_Type
  10
338976.500
  20
4632008.500
  0
VERTEX
  8
Unknown_Area_Type
  10
338967.410
  20
4633089.766
  0
VERTEX
  8
Unknown_Area_Type
  10
339119.389
  20
4633086.300
  0
VERTEX
  8
Unknown_Area_Type
  10
341600.656
  20
4633030.919
  0
SEQEND
  8
Unknown_Area_Type
  0
INSERT
  8
FeatureAttribs
  2
FEATURE
  41
1
  42
1
  43
1
  50
0
  10
340334.235
  20
4632428.049
 66
1
  0
ATTRIB
  8
FeatureAttribs
 70
0
  1
PNOA-H_AMS_1956-57_33k_ES_PAN_2
  2
NAME
  10
340334.235
  20
4632428.049
 40
34.05031
  0
SEQEND
  0
POLYLINE
  8
Unknown_Area_Type
  70
1
  66
1
  0
VERTEX
  8
Unknown_Area_Type
  10
341600.656
  20
4633030.919
  0
VERTEX
  8
Unknown_Area_Type
  10
339119.389
  20
4633086.300
  0
VERTEX
  8
Unknown_Area_Type
  10
338967.410
  20
4633089.766
  0
VERTEX
  8
Unknown_Area_Type
  10
338976.500
  20
4632008.500
  0
VERTEX
  8
Unknown_Area_Type
  10
341008.000
  20
4631625.500
  0
VERTEX
  8
Unknown_Area_Type
  10
341654.500
  20
4631940.000
  0
VERTEX
  8
Unknown_Area_Type
  10
341650.000
  20
4632025.500
  0
VERTEX
  8
Unknown_Area_Type
  10
341650.000
  20
4632035.500
  0
VERTEX
  8
Unknown_Area_Type
  10
341600.656
  20
4633030.919
  0
SEQEND
  8
Unknown_Area_Type
  0
INSERT
  8
FeatureAttribs
  2
FEATURE
  41
1
  42
1
  43
1
  50
0
  10
329816.179
  20
4633427.827
 66
1
  0
ATTRIB
  8
FeatureAttribs
 70
0
  1
PNOA-H_AMS_1956-57_33k_ES_PAN_2
  2
NAME
  10
329816.179
  20
4633427.827
 40
34.05031
  0
SEQEND
  0
POLYLINE
  8
Unknown_Area_Type
  70
1
  66
1
  0
VERTEX
  8
Unknown_Area_Type
  10
331159.133
  20
4633584.961
  0
VERTEX
  8
Unknown_Area_Type
  10
331152.171
  20
4633270.693
  0
VERTEX
  8
Unknown_Area_Type
  10
328739.508
  20
4633328.058
  0
VERTEX
  8
Unknown_Area_Type
  10
328473.022
  20
4633334.524
  0
VERTEX
  8
Unknown_Area_Type
  10
328482.911
  20
4633584.961
  0
VERTEX
  8
Unknown_Area_Type
  10
331159.133
  20
4633584.961
  0
SEQEND
  8
Unknown_Area_Type
  0
INSERT
  8
FeatureAttribs
  2
FEATURE
  41
1
  42
1
  43
1
  50
0
  10
329794.315
  20
4632616.649
 66
1
  0
ATTRIB
  8
FeatureAttribs
 70
0
  1
PNOA-H_AMS_1956-57_33k_ES_PAN_2
  2
NAME
  10
329794.315
  20
4632616.649
 40
34.05031
  0
SEQEND
  0
POLYLINE
  8
Unknown_Area_Type
  70
1
  66
1
  0
VERTEX
  8
Unknown_Area_Type
  10
331152.171
  20
4633270.693
  0
VERTEX
  8
Unknown_Area_Type
  10
331127.500
  20
4632157.000
  0
VERTEX
  8
Unknown_Area_Type
  10
330158.000
  20
4631816.000
  0
VERTEX
  8
Unknown_Area_Type
  10
330156.500
  20
4631816.000
  0
VERTEX
  8
Unknown_Area_Type
  10
329860.500
  20
4631711.500
  0
VERTEX
  8
Unknown_Area_Type
  10
329852.000
  20
4631709.500
  0
VERTEX
  8
Unknown_Area_Type
  10
328428.500
  20
4632207.000
  0
VERTEX
  8
Unknown_Area_Type
  10
328473.022
  20
4633334.524
  0
VERTEX
  8
Unknown_Area_Type
  10
328739.508
  20
4633328.058
  0
VERTEX
  8
Unknown_Area_Type
  10
331152.171
  20
4633270.693
  0
SEQEND
  8
Unknown_Area_Type
  0
INSERT
  8
FeatureAttribs
  2
FEATURE
  41
1
  42
1
  43
1
  50
0
  10
329794.315
  20
4632616.649
 66
1
  0
ATTRIB
  8
FeatureAttribs
 70
0
  1
PNOA-H_AMS_1956-57_33k_ES_PAN_2
  2
NAME
  10
329794.315
  20
4632616.649
 40
34.05031
  0
SEQEND
  0
POLYLINE
  8
Unknown_Area_Type
  70
1
  66
1
  0
VERTEX
  8
Unknown_Area_Type
  10
331152.171
  20
4633270.693
  0
VERTEX
  8
Unknown_Area_Type
  10
328739.508
  20
4633328.058
  0
VERTEX
  8
Unknown_Area_Type
  10
328473.022
  20
4633334.524
  0
VERTEX
  8
Unknown_Area_Type
  10
328428.500
  20
4632207.000
  0
VERTEX
  8
Unknown_Area_Type
  10
329852.000
  20
4631709.500
  0
VERTEX
  8
Unknown_Area_Type
  10
329860.500
  20
4631711.500
  0
VERTEX
  8
Unknown_Area_Type
  10
330156.500
  20
4631816.000
  0
VERTEX
  8
Unknown_Area_Type
  10
330158.000
  20
4631816.000
  0
VERTEX
  8
Unknown_Area_Type
  10
331127.500
  20
4632157.000
  0
VERTEX
  8
Unknown_Area_Type
  10
331152.171
  20
4633270.693
  0
SEQEND
  8
Unknown_Area_Type
  0
INSERT
  8
FeatureAttribs
  2
FEATURE
  41
1
  42
1
  43
1
  50
0
  10
342873.740
  20
4633279.734
 66
1
  0
ATTRIB
  8
FeatureAttribs
 70
0
  1
PNOA-H_AMS_1956-57_33k_ES_PAN_2
  2
NAME
  10
342873.740
  20
4633279.734
 40
34.05031
  0
SEQEND
  0
POLYLINE
  8
Unknown_Area_Type
  70
1
  66
1
  0
VERTEX
  8
Unknown_Area_Type
  10
344156.098
  20
4633584.961
  0
VERTEX
  8
Unknown_Area_Type
  10
344162.551
  20
4632974.507
  0
VERTEX
  8
Unknown_Area_Type
  10
342579.331
  20
4633009.075
  0
VERTEX
  8
Unknown_Area_Type
  10
341600.476
  20
4633030.923
  0
VERTEX
  8
Unknown_Area_Type
  10
341573.039
  20
4633584.961
  0
VERTEX
  8
Unknown_Area_Type
  10
344156.098
  20
4633584.961
  0
SEQEND
  8
Unknown_Area_Type
  0
INSERT
  8
FeatureAttribs
  2
FEATURE
  41
1
  42
1
  43
1
  50
0
  10
342923.428
  20
4632419.016
 66
1
  0
ATTRIB
  8
FeatureAttribs
 70
0
  1
PNOA-H_AMS_1956-57_33k_ES_PAN_2
  2
NAME
  10
342923.428
  20
4632419.016
 40
34.05031
  0
SEQEND
  0
POLYLINE
  8
Unknown_Area_Type
  70
1
  66
1
  0
VERTEX
  8
Unknown_Area_Type
  10
344162.551
  20
4632974.507
  0
VERTEX
  8
Unknown_Area_Type
  10
344174.500
  20
4631844.000
  0
VERTEX
  8
Unknown_Area_Type
  10
344123.000
  20
4631816.000
  0
VERTEX
  8
Unknown_Area_Type
  10
344122.000
  20
4631816.000
  0
VERTEX
  8
Unknown_Area_Type
  10
343977.000
  20
4631737.000
  0
VERTEX
  8
Unknown_Area_Type
  10
341654.500
  20
4631940.000
  0
VERTEX
  8
Unknown_Area_Type
  10
341600.476
  20
4633030.923
  0
VERTEX
  8
Unknown_Area_Type
  10
342579.331
  20
4633009.075
  0
VERTEX
  8
Unknown_Area_Type
  10
344162.551
  20
4632974.507
  0
SEQEND
  8
Unknown_Area_Type
  0
INSERT
  8
FeatureAttribs
  2
FEATURE
  41
1
  42
1
  43
1
  50
0
  10
342923.428
  20
4632419.016
 66
1
  0
ATTRIB
  8
FeatureAttribs
 70
0
  1
PNOA-H_AMS_1956-57_33k_ES_PAN_2
  2
NAME
  10
342923.428
  20
4632419.016
 40
34.05031
  0
SEQEND
  0
POLYLINE
  8
Unknown_Area_Type
  70
1
  66
1
  0
VERTEX
  8
Unknown_Area_Type
  10
344162.551
  20
4632974.507
  0
VERTEX
  8
Unknown_Area_Type
  10
342579.331
  20
4633009.075
  0
VERTEX
  8
Unknown_Area_Type
  10
341600.476
  20
4633030.923
  0
VERTEX
  8
Unknown_Area_Type
  10
341654.500
  20
4631940.000
  0
VERTEX
  8
Unknown_Area_Type
  10
343977.000
  20
4631737.000
  0
VERTEX
  8
Unknown_Area_Type
  10
344122.000
  20
4631816.000
  0
VERTEX
  8
Unknown_Area_Type
  10
344123.000
  20
4631816.000
  0
VERTEX
  8
Unknown_Area_Type
  10
344174.500
  20
4631844.000
  0
VERTEX
  8
Unknown_Area_Type
  10
344162.551
  20
4632974.507
  0
SEQEND
  8
Unknown_Area_Type
  0
INSERT
  8
FeatureAttribs
  2
FEATURE
  41
1
  42
1
  43
1
  50
0
  10
327122.940
  20
4633459.740
 66
1
  0
ATTRIB
  8
FeatureAttribs
 70
0
  1
PNOA-H_AMS_1956-57_33k_ES_PAN_2
  2
NAME
  10
327122.940
  20
4633459.740
 40
34.05031
  0
SEQEND
  0
POLYLINE
  8
Unknown_Area_Type
  70
1
  66
1
  0
VERTEX
  8
Unknown_Area_Type
  10
328483.100
  20
4633584.961
  0
VERTEX
  8
Unknown_Area_Type
  10
328473.228
  20
4633334.519
  0
VERTEX
  8
Unknown_Area_Type
  10
325764.655
  20
4633400.235
  0
VERTEX
  8
Unknown_Area_Type
  10
325774.157
  20
4633584.961
  0
VERTEX
  8
Unknown_Area_Type
  10
328483.100
  20
4633584.961
  0
SEQEND
  8
Unknown_Area_Type
  0
INSERT
  8
FeatureAttribs
  2
FEATURE
  41
1
  42
1
  43
1
  50
0
  10
327086.993
  20
4632691.078
 66
1
  0
ATTRIB
  8
FeatureAttribs
 70
0
  1
PNOA-H_AMS_1956-57_33k_ES_PAN_2
  2
NAME
  10
327086.993
  20
4632691.078
 40
34.05031
  0
SEQEND
  0
POLYLINE
  8
Unknown_Area_Type
  70
1
  66
1
  0
VERTEX
  8
Unknown_Area_Type
  10
328473.228
  20
4633334.519
  0
VERTEX
  8
Unknown_Area_Type
  10
328429.000
  20
4632212.500
  0
VERTEX
  8
Unknown_Area_Type
  10
328428.000
  20
4632206.500
  0
VERTEX
  8
Unknown_Area_Type
  10
327067.000
  20
4631819.500
  0
VERTEX
  8
Unknown_Area_Type
  10
325706.000
  20
4632260.000
  0
VERTEX
  8
Unknown_Area_Type
  10
325764.655
  20
4633400.235
  0
VERTEX
  8
Unknown_Area_Type
  10
328473.228
  20
4633334.519
  0
SEQEND
  8
Unknown_Area_Type
  0
INSERT
  8
FeatureAttribs
  2
FEATURE
  41
1
  42
1
  43
1
  50
0
  10
327086.993
  20
4632691.078
 66
1
  0
ATTRIB
  8
FeatureAttribs
 70
0
  1
PNOA-H_AMS_1956-57_33k_ES_PAN_2
  2
NAME
  10
327086.993
  20
4632691.078
 40
34.05031
  0
SEQEND
  0
POLYLINE
  8
Unknown_Area_Type
  70
1
  66
1
  0
VERTEX
  8
Unknown_Area_Type
  10
328473.228
  20
4633334.519
  0
VERTEX
  8
Unknown_Area_Type
  10
325764.655
  20
4633400.235
  0
VERTEX
  8
Unknown_Area_Type
  10
325706.000
  20
4632260.000
  0
VERTEX
  8
Unknown_Area_Type
  10
327067.000
  20
4631819.500
  0
VERTEX
  8
Unknown_Area_Type
  10
328428.000
  20
4632206.500
  0
VERTEX
  8
Unknown_Area_Type
  10
328429.000
  20
4632212.500
  0
VERTEX
  8
Unknown_Area_Type
  10
328473.228
  20
4633334.519
  0
SEQEND
  8
Unknown_Area_Type
  0
INSERT
  8
FeatureAttribs
  2
FEATURE
  41
1
  42
1
  43
1
  50
0
  10
321882.864
  20
4633525.906
 66
1
  0
ATTRIB
  8
FeatureAttribs
 70
0
  1
PNOA-H_AMS_1956-57_33k_ES_PAN_2
  2
NAME
  10
321882.864
  20
4633525.906
 40
34.05031
  0
SEQEND
  0
POLYLINE
  8
Unknown_Area_Type
  70
1
  66
1
  0
VERTEX
  8
Unknown_Area_Type
  10
323069.856
  20
4633584.961
  0
VERTEX
  8
Unknown_Area_Type
  10
323063.383
  20
4633466.851
  0
VERTEX
  8
Unknown_Area_Type
  10
321819.537
  20
4633497.634
  0
VERTEX
  8
Unknown_Area_Type
  10
320330.766
  20
4633535.201
  0
VERTEX
  8
Unknown_Area_Type
  10
320333.443
  20
4633584.961
  0
VERTEX
  8
Unknown_Area_Type
  10
323069.856
  20
4633584.961
  0
SEQEND
  8
Unknown_Area_Type
  0
INSERT
  8
FeatureAttribs
  2
FEATURE
  41
1
  42
1
  43
1
  50
0
  10
321664.604
  20
4632842.530
 66
1
  0
ATTRIB
  8
FeatureAttribs
 70
0
  1
PNOA-H_AMS_1956-57_33k_ES_PAN_2
  2
NAME
  10
321664.604
  20
4632842.530
 40
34.05031
  0
SEQEND
  0
POLYLINE
  8
Unknown_Area_Type
  70
1
  66
1
  0
VERTEX
  8
Unknown_Area_Type
  10
323063.383
  20
4633466.851
  0
VERTEX
  8
Unknown_Area_Type
  10
323002.500
  20
4632356.000
  0
VERTEX
  8
Unknown_Area_Type
  10
321449.500
  20
4631976.500
  0
VERTEX
  8
Unknown_Area_Type
  10
320275.000
  20
4632498.500
  0
VERTEX
  8
Unknown_Area_Type
  10
320330.766
  20
4633535.201
  0
VERTEX
  8
Unknown_Area_Type
  10
321819.537
  20
4633497.634
  0
VERTEX
  8
Unknown_Area_Type
  10
323063.383
  20
4633466.851
  0
SEQEND
  8
Unknown_Area_Type
  0
INSERT
  8
FeatureAttribs
  2
FEATURE
  41
1
  42
1
  43
1
  50
0
  10
321664.604
  20
4632842.530
 66
1
  0
ATTRIB
  8
FeatureAttribs
 70
0
  1
PNOA-H_AMS_1956-57_33k_ES_PAN_2
  2
NAME
  10
321664.604
  20
4632842.530
 40
34.05031
  0
SEQEND
  0
POLYLINE
  8
Unknown_Area_Type
  70
1
  66
1
  0
VERTEX
  8
Unknown_Area_Type
  10
323063.383
  20
4633466.851
  0
VERTEX
  8
Unknown_Area_Type
  10
321819.537
  20
4633497.634
  0
VERTEX
  8
Unknown_Area_Type
  10
320330.766
  20
4633535.201
  0
VERTEX
  8
Unknown_Area_Type
  10
320275.000
  20
4632498.500
  0
VERTEX
  8
Unknown_Area_Type
  10
321449.500
  20
4631976.500
  0
VERTEX
  8
Unknown_Area_Type
  10
323002.500
  20
4632356.000
  0
VERTEX
  8
Unknown_Area_Type
  10
323063.383
  20
4633466.851
  0
SEQEND
  8
Unknown_Area_Type
  0
INSERT
  8
FeatureAttribs
  2
FEATURE
  41
1
  42
1
  43
1
  50
0
  10
324417.146
  20
4633492.597
 66
1
  0
ATTRIB
  8
FeatureAttribs
 70
0
  1
PNOA-H_AMS_1956-57_33k_ES_PAN_2
  2
NAME
  10
324417.146
  20
4633492.597
 40
34.05031
  0
SEQEND
  0
POLYLINE
  8
Unknown_Area_Type
  70
1
  66
1
  0
VERTEX
  8
Unknown_Area_Type
  10
325774.250
  20
4633584.961
  0
VERTEX
  8
Unknown_Area_Type
  10
325764.734
  20
4633400.233
  0
VERTEX
  8
Unknown_Area_Type
  10
325279.528
  20
4633412.006
  0
VERTEX
  8
Unknown_Area_Type
  10
323063.388
  20
4633466.851
  0
VERTEX
  8
Unknown_Area_Type
  10
323069.862
  20
4633584.961
  0
VERTEX
  8
Unknown_Area_Type
  10
325774.250
  20
4633584.961
  0
SEQEND
  8
Unknown_Area_Type
  0
INSERT
  8
FeatureAttribs
  2
FEATURE
  41
1
  42
1
  43
1
  50
0
  10
324384.480
  20
4632754.500
 66
1
  0
ATTRIB
  8
FeatureAttribs
 70
0
  1
PNOA-H_AMS_1956-57_33k_ES_PAN_2
  2
NAME
  10
324384.480
  20
4632754.500
 40
34.05031
  0
SEQEND
  0
POLYLINE
  8
Unknown_Area_Type
  70
1
  66
1
  0
VERTEX
  8
Unknown_Area_Type
  10
325764.734
  20
4633400.233
  0
VERTEX
  8
Unknown_Area_Type
  10
325706.000
  20
4632260.000
  0
VERTEX
  8
Unknown_Area_Type
  10
324360.500
  20
4631867.500
  0
VERTEX
  8
Unknown_Area_Type
  10
323002.500
  20
4632356.000
  0
VERTEX
  8
Unknown_Area_Type
  10
323063.388
  20
4633466.851
  0
VERTEX
  8
Unknown_Area_Type
  10
325279.528
  20
4633412.006
  0
VERTEX
  8
Unknown_Area_Type
  10
325764.734
  20
4633400.233
  0
SEQEND
  8
Unknown_Area_Type
  0
INSERT
  8
FeatureAttribs
  2
FEATURE
  41
1
  42
1
  43
1
  50
0
  10
324384.480
  20
4632754.500
 66
1
  0
ATTRIB
  8
FeatureAttribs
 70
0
  1
PNOA-H_AMS_1956-57_33k_ES_PAN_2
  2
NAME
  10
324384.480
  20
4632754.500
 40
34.05031
  0
SEQEND
  0
POLYLINE
  8
Unknown_Area_Type
  70
1
  66
1
  0
VERTEX
  8
Unknown_Area_Type
  10
325764.734
  20
4633400.233
  0
VERTEX
  8
Unknown_Area_Type
  10
325279.528
  20
4633412.006
  0
VERTEX
  8
Unknown_Area_Type
  10
323063.388
  20
4633466.851
  0
VERTEX
  8
Unknown_Area_Type
  10
323002.500
  20
4632356.000
  0
VERTEX
  8
Unknown_Area_Type
  10
324360.500
  20
4631867.500
  0
VERTEX
  8
Unknown_Area_Type
  10
325706.000
  20
4632260.000
  0
VERTEX
  8
Unknown_Area_Type
  10
325764.734
  20
4633400.233
  0
SEQEND
  8
Unknown_Area_Type
  0
INSERT
  8
FeatureAttribs
  2
FEATURE
  41
1
  42
1
  43
1
  50
0
  10
318359.350
  20
4633584.952
 66
1
  0
ATTRIB
  8
FeatureAttribs
 70
0
  1
PNOA-H_AMS_1956-57_33k_ES_PAN_2
  2
NAME
  10
318359.350
  20
4633584.952
 40
34.05031
  0
SEQEND
  0
POLYLINE
  8
Unknown_Area_Type
  70
1
  66
1
  0
VERTEX
  8
Unknown_Area_Type
  10
318359.536
  20
4633584.961
  0
VERTEX
  8
Unknown_Area_Type
  10
318359.536
  20
4633584.942
  0
VERTEX
  8
Unknown_Area_Type
  10
318358.791
  20
4633584.961
  0
VERTEX
  8
Unknown_Area_Type
  10
318359.536
  20
4633584.961
  0
SEQEND
  8
Unknown_Area_Type
  0
INSERT
  8
FeatureAttribs
  2
FEATURE
  41
1
  42
1
  43
1
  50
0
  10
319838.443
  20
4633560.081
 66
1
  0
ATTRIB
  8
FeatureAttribs
 70
0
  1
PNOA-H_AMS_1956-57_33k_ES_PAN_2
  2
NAME
  10
319838.443
  20
4633560.081
 40
34.05031
  0
SEQEND
  0
POLYLINE
  8
Unknown_Area_Type
  70
1
  66
1
  0
VERTEX
  8
Unknown_Area_Type
  10
320333.450
  20
4633584.961
  0
VERTEX
  8
Unknown_Area_Type
  10
320330.773
  20
4633535.201
  0
VERTEX
  8
Unknown_Area_Type
  10
318359.536
  20
4633584.942
  0
VERTEX
  8
Unknown_Area_Type
  10
318359.536
  20
4633584.961
  0
VERTEX
  8
Unknown_Area_Type
  10
320333.450
  20
4633584.961
  0
SEQEND
  8
Unknown_Area_Type
  0
INSERT
  8
FeatureAttribs
  2
FEATURE
  41
1
  42
1
  43
1
  50
0
  10
318114.531
  20
4632827.681
 66
1
  0
ATTRIB
  8
FeatureAttribs
 70
0
  1
PNOA-H_AMS_1956-57_33k_ES_PAN_2
  2
NAME
  10
318114.531
  20
4632827.681
 40
34.05031
  0
SEQEND
  0
POLYLINE
  8
Unknown_Area_Type
  70
1
  66
1
  0
VERTEX
  8
Unknown_Area_Type
  10
318322.942
  20
4632148.287
  0
VERTEX
  8
Unknown_Area_Type
  10
317888.816
  20
4632070.401
  0
VERTEX
  8
Unknown_Area_Type
  10
317888.816
  20
4633584.961
  0
VERTEX
  8
Unknown_Area_Type
  10
318358.791
  20
4633584.961
  0
VERTEX
  8
Unknown_Area_Type
  10
318359.536
  20
4633584.942
  0
VERTEX
  8
Unknown_Area_Type
  10
318322.942
  20
4632148.287
  0
SEQEND
  8
Unknown_Area_Type
  0
INSERT
  8
FeatureAttribs
  2
FEATURE
  41
1
  42
1
  43
1
  50
0
  10
319268.915
  20
4632939.454
 66
1
  0
ATTRIB
  8
FeatureAttribs
 70
0
  1
PNOA-H_AMS_1956-57_33k_ES_PAN_2
  2
NAME
  10
319268.915
  20
4632939.454
 40
34.05031
  0
SEQEND
  0
POLYLINE
  8
Unknown_Area_Type
  70
1
  66
1
  0
VERTEX
  8
Unknown_Area_Type
  10
320330.773
  20
4633535.201
  0
VERTEX
  8
Unknown_Area_Type
  10
320275.000
  20
4632498.500
  0
VERTEX
  8
Unknown_Area_Type
  10
318322.942
  20
4632148.287
  0
VERTEX
  8
Unknown_Area_Type
  10
318359.536
  20
4633584.942
  0
VERTEX
  8
Unknown_Area_Type
  10
320330.773
  20
4633535.201
  0
SEQEND
  8
Unknown_Area_Type
  0
INSERT
  8
FeatureAttribs
  2
FEATURE
  41
1
  42
1
  43
1
  50
0
  10
319268.915
  20
4632939.454
 66
1
  0
ATTRIB
  8
FeatureAttribs
 70
0
  1
PNOA-H_AMS_1956-57_33k_ES_PAN_2
  2
NAME
  10
319268.915
  20
4632939.454
 40
34.05031
  0
SEQEND
  0
POLYLINE
  8
Unknown_Area_Type
  70
1
  66
1
  0
VERTEX
  8
Unknown_Area_Type
  10
320330.773
  20
4633535.201
  0
VERTEX
  8
Unknown_Area_Type
  10
318359.536
  20
4633584.942
  0
VERTEX
  8
Unknown_Area_Type
  10
318322.942
  20
4632148.287
  0
VERTEX
  8
Unknown_Area_Type
  10
320275.000
  20
4632498.500
  0
VERTEX
  8
Unknown_Area_Type
  10
320330.773
  20
4633535.201
  0
SEQEND
  8
Unknown_Area_Type
  0
INSERT
  8
FeatureAttribs
  2
FEATURE
  41
1
  42
1
  43
1
  50
0
  10
332488.648
  20
4633396.476
 66
1
  0
ATTRIB
  8
FeatureAttribs
 70
0
  1
PNOA-H_AMS_1956-57_33k_ES_PAN_2
  2
NAME
  10
332488.648
  20
4633396.476
 40
34.05031
  0
SEQEND
  0
POLYLINE
  8
Unknown_Area_Type
  70
1
  66
1
  0
VERTEX
  8
Unknown_Area_Type
  10
333822.183
  20
4633584.961
  0
VERTEX
  8
Unknown_Area_Type
  10
333822.493
  20
4633207.990
  0
VERTEX
  8
Unknown_Area_Type
  10
332199.478
  20
4633245.792
  0
VERTEX
  8
Unknown_Area_Type
  10
331152.171
  20
4633270.693
  0
VERTEX
  8
Unknown_Area_Type
  10
331159.133
  20
4633584.961
  0
VERTEX
  8
Unknown_Area_Type
  10
333822.183
  20
4633584.961
  0
SEQEND
  8
Unknown_Area_Type
  0
INSERT
  8
FeatureAttribs
  2
FEATURE
  41
1
  42
1
  43
1
  50
0
  10
332586.633
  20
4632492.274
 66
1
  0
ATTRIB
  8
FeatureAttribs
 70
0
  1
PNOA-H_AMS_1956-57_33k_ES_PAN_2
  2
NAME
  10
332586.633
  20
4632492.274
 40
34.05031
  0
SEQEND
  0
POLYLINE
  8
Unknown_Area_Type
  70
1
  66
1
  0
VERTEX
  8
Unknown_Area_Type
  10
333822.493
  20
4633207.990
  0
VERTEX
  8
Unknown_Area_Type
  10
333823.500
  20
4631985.000
  0
VERTEX
  8
Unknown_Area_Type
  10
333823.500
  20
4631816.000
  0
VERTEX
  8
Unknown_Area_Type
  10
333823.000
  20
4631403.500
  0
VERTEX
  8
Unknown_Area_Type
  10
331127.500
  20
4632157.000
  0
VERTEX
  8
Unknown_Area_Type
  10
331152.171
  20
4633270.693
  0
VERTEX
  8
Unknown_Area_Type
  10
332199.478
  20
4633245.792
  0
VERTEX
  8
Unknown_Area_Type
  10
333822.493
  20
4633207.990
  0
SEQEND
  8
Unknown_Area_Type
  0
INSERT
  8
FeatureAttribs
  2
FEATURE
  41
1
  42
1
  43
1
  50
0
  10
332586.633
  20
4632492.274
 66
1
  0
ATTRIB
  8
FeatureAttribs
 70
0
  1
PNOA-H_AMS_1956-57_33k_ES_PAN_2
  2
NAME
  10
332586.633
  20
4632492.274
 40
34.05031
  0
SEQEND
  0
POLYLINE
  8
Unknown_Area_Type
  70
1
  66
1
  0
VERTEX
  8
Unknown_Area_Type
  10
333822.493
  20
4633207.990
  0
VERTEX
  8
Unknown_Area_Type
  10
332199.478
  20
4633245.792
  0
VERTEX
  8
Unknown_Area_Type
  10
331152.171
  20
4633270.693
  0
VERTEX
  8
Unknown_Area_Type
  10
331127.500
  20
4632157.000
  0
VERTEX
  8
Unknown_Area_Type
  10
333823.000
  20
4631403.500
  0
VERTEX
  8
Unknown_Area_Type
  10
333823.500
  20
4631816.000
  0
VERTEX
  8
Unknown_Area_Type
  10
333823.500
  20
4631985.000
  0
VERTEX
  8
Unknown_Area_Type
  10
333822.493
  20
4633207.990
  0
SEQEND
  8
Unknown_Area_Type
  0
INSERT
  8
FeatureAttribs
  2
FEATURE
  41
1
  42
1
  43
1
  50
0
  10
318286.399
  20
4625474.611
 66
1
  0
ATTRIB
  8
FeatureAttribs
 70
0
  1
PNOA-H_AMS_1956-57_33k_ES_PAN_2
  2
NAME
  10
318286.399
  20
4625474.611
 40
34.05031
  0
SEQEND
  0
POLYLINE
  8
Unknown_Area_Type
  70
1
  66
1
  0
VERTEX
  8
Unknown_Area_Type
  10
318204.720
  20
4627504.813
  0
VERTEX
  8
Unknown_Area_Type
  10
318414.000
  20
4627371.500
  0
VERTEX
  8
Unknown_Area_Type
  10
318425.500
  20
4623568.000
  0
VERTEX
  8
Unknown_Area_Type
  10
318101.422
  20
4623444.409
  0
VERTEX
  8
Unknown_Area_Type
  10
318123.996
  20
4624332.109
  0
VERTEX
  8
Unknown_Area_Type
  10
318182.845
  20
4626645.307
  0
VERTEX
  8
Unknown_Area_Type
  10
318204.720
  20
4627504.813
  0
SEQEND
  8
Unknown_Area_Type
  0
INSERT
  8
FeatureAttribs
  2
FEATURE
  41
1
  42
1
  43
1
  50
0
  10
318286.399
  20
4625474.611
 66
1
  0
ATTRIB
  8
FeatureAttribs
 70
0
  1
PNOA-H_AMS_1956-57_33k_ES_PAN_2
  2
NAME
  10
318286.399
  20
4625474.611
 40
34.05031
  0
SEQEND
  0
POLYLINE
  8
Unknown_Area_Type
  70
1
  66
1
  0
VERTEX
  8
Unknown_Area_Type
  10
318204.720
  20
4627504.813
  0
VERTEX
  8
Unknown_Area_Type
  10
318414.000
  20
4627371.500
  0
VERTEX
  8
Unknown_Area_Type
  10
318425.500
  20
4623568.000
  0
VERTEX
  8
Unknown_Area_Type
  10
318101.422
  20
4623444.409
  0
VERTEX
  8
Unknown_Area_Type
  10
318123.996
  20
4624332.109
  0
VERTEX
  8
Unknown_Area_Type
  10
318182.845
  20
4626645.307
  0
VERTEX
  8
Unknown_Area_Type
  10
318204.720
  20
4627504.813
  0
SEQEND
  8
Unknown_Area_Type
  0
INSERT
  8
FeatureAttribs
  2
FEATURE
  41
1
  42
1
  43
1
  50
0
  10
318021.703
  20
4625534.687
 66
1
  0
ATTRIB
  8
FeatureAttribs
 70
0
  1
PNOA-H_AMS_1956-57_33k_ES_PAN_2
  2
NAME
  10
318021.703
  20
4625534.687
 40
34.05031
  0
SEQEND
  0
POLYLINE
  8
Unknown_Area_Type
  70
1
  66
1
  0
VERTEX
  8
Unknown_Area_Type
  10
318101.422
  20
4623444.409
  0
VERTEX
  8
Unknown_Area_Type
  10
317888.816
  20
4623363.329
  0
VERTEX
  8
Unknown_Area_Type
  10
317888.816
  20
4627706.045
  0
VERTEX
  8
Unknown_Area_Type
  10
318204.720
  20
4627504.813
  0
VERTEX
  8
Unknown_Area_Type
  10
318182.845
  20
4626645.307
  0
VERTEX
  8
Unknown_Area_Type
  10
318123.996
  20
4624332.109
  0
VERTEX
  8
Unknown_Area_Type
  10
318101.422
  20
4623444.409
  0
SEQEND
  8
Unknown_Area_Type
  0
INSERT
  8
FeatureAttribs
  2
FEATURE
  41
1
  42
1
  43
1
  50
0
  10
329554.656
  20
4619821.970
 66
1
  0
ATTRIB
  8
FeatureAttribs
 70
0
  1
PNOA-H_AMS_1956-57_33k_ES_PAN_2
  2
NAME
  10
329554.656
  20
4619821.970
 40
34.05031
  0
SEQEND
  0
POLYLINE
  8
Unknown_Area_Type
  70
1
  66
1
  0
VERTEX
  8
Unknown_Area_Type
  10
331296.500
  20
4619528.000
  0
VERTEX
  8
Unknown_Area_Type
  10
331532.500
  20
4619023.500
  0
VERTEX
  8
Unknown_Area_Type
  10
331055.000
  20
4618657.000
  0
VERTEX
  8
Unknown_Area_Type
  10
328274.500
  20
4618396.000
  0
VERTEX
  8
Unknown_Area_Type
  10
328271.000
  20
4618396.000
  0
VERTEX
  8
Unknown_Area_Type
  10
328262.500
  20
4618401.000
  0
VERTEX
  8
Unknown_Area_Type
  10
327866.000
  20
4618638.000
  0
VERTEX
  8
Unknown_Area_Type
  10
328002.000
  20
4620683.000
  0
VERTEX
  8
Unknown_Area_Type
  10
330257.500
  20
4621749.000
  0
VERTEX
  8
Unknown_Area_Type
  10
330258.500
  20
4621749.000
  0
VERTEX
  8
Unknown_Area_Type
  10
330265.000
  20
4621735.500
  0
VERTEX
  8
Unknown_Area_Type
  10
331296.500
  20
4619529.000
  0
VERTEX
  8
Unknown_Area_Type
  10
331296.500
  20
4619528.000
  0
SEQEND
  8
Unknown_Area_Type
  0
INSERT
  8
FeatureAttribs
  2
FEATURE
  41
1
  42
1
  43
1
  50
0
  10
329554.656
  20
4619821.970
 66
1
  0
ATTRIB
  8
FeatureAttribs
 70
0
  1
PNOA-H_AMS_1956-57_33k_ES_PAN_2
  2
NAME
  10
329554.656
  20
4619821.970
 40
34.05031
  0
SEQEND
  0
POLYLINE
  8
Unknown_Area_Type
  70
1
  66
1
  0
VERTEX
  8
Unknown_Area_Type
  10
331296.500
  20
4619528.000
  0
VERTEX
  8
Unknown_Area_Type
  10
331296.500
  20
4619529.000
  0
VERTEX
  8
Unknown_Area_Type
  10
330265.000
  20
4621735.500
  0
VERTEX
  8
Unknown_Area_Type
  10
330258.500
  20
4621749.000
  0
VERTEX
  8
Unknown_Area_Type
  10
330257.500
  20
4621749.000
  0
VERTEX
  8
Unknown_Area_Type
  10
328002.000
  20
4620683.000
  0
VERTEX
  8
Unknown_Area_Type
  10
327866.000
  20
4618638.000
  0
VERTEX
  8
Unknown_Area_Type
  10
328262.500
  20
4618401.000
  0
VERTEX
  8
Unknown_Area_Type
  10
328271.000
  20
4618396.000
  0
VERTEX
  8
Unknown_Area_Type
  10
328274.500
  20
4618396.000
  0
VERTEX
  8
Unknown_Area_Type
  10
331055.000
  20
4618657.000
  0
VERTEX
  8
Unknown_Area_Type
  10
331532.500
  20
4619023.500
  0
VERTEX
  8
Unknown_Area_Type
  10
331296.500
  20
4619528.000
  0
SEQEND
  8
Unknown_Area_Type
  0
INSERT
  8
FeatureAttribs
  2
FEATURE
  41
1
  42
1
  43
1
  50
0
  10
326739.463
  20
4620021.699
 66
1
  0
ATTRIB
  8
FeatureAttribs
 70
0
  1
PNOA-H_AMS_1956-57_33k_ES_PAN_2
  2
NAME
  10
326739.463
  20
4620021.699
 40
34.05031
  0
SEQEND
  0
POLYLINE
  8
Unknown_Area_Type
  70
1
  66
1
  0
VERTEX
  8
Unknown_Area_Type
  10
325406.000
  20
4620366.000
  0
VERTEX
  8
Unknown_Area_Type
  10
327212.000
  20
4622206.000
  0
VERTEX
  8
Unknown_Area_Type
  10
327314.000
  20
4622010.000
  0
VERTEX
  8
Unknown_Area_Type
  10
327314.000
  20
4622009.000
  0
VERTEX
  8
Unknown_Area_Type
  10
328002.000
  20
4620683.000
  0
VERTEX
  8
Unknown_Area_Type
  10
327866.500
  20
4618638.500
  0
VERTEX
  8
Unknown_Area_Type
  10
327845.500
  20
4618637.000
  0
VERTEX
  8
Unknown_Area_Type
  10
325520.500
  20
4618555.000
  0
VERTEX
  8
Unknown_Area_Type
  10
325349.000
  20
4618653.500
  0
VERTEX
  8
Unknown_Area_Type
  10
325406.000
  20
4620366.000
  0
SEQEND
  8
Unknown_Area_Type
  0
INSERT
  8
FeatureAttribs
  2
FEATURE
  41
1
  42
1
  43
1
  50
0
  10
326739.463
  20
4620021.699
 66
1
  0
ATTRIB
  8
FeatureAttribs
 70
0
  1
PNOA-H_AMS_1956-57_33k_ES_PAN_2
  2
NAME
  10
326739.463
  20
4620021.699
 40
34.05031
  0
SEQEND
  0
POLYLINE
  8
Unknown_Area_Type
  70
1
  66
1
  0
VERTEX
  8
Unknown_Area_Type
  10
325406.000
  20
4620366.000
  0
VERTEX
  8
Unknown_Area_Type
  10
325349.000
  20
4618653.500
  0
VERTEX
  8
Unknown_Area_Type
  10
325520.500
  20
4618555.000
  0
VERTEX
  8
Unknown_Area_Type
  10
327845.500
  20
4618637.000
  0
VERTEX
  8
Unknown_Area_Type
  10
327866.500
  20
4618638.500
  0
VERTEX
  8
Unknown_Area_Type
  10
328002.000
  20
4620683.000
  0
VERTEX
  8
Unknown_Area_Type
  10
327314.000
  20
4622009.000
  0
VERTEX
  8
Unknown_Area_Type
  10
327314.000
  20
4622010.000
  0
VERTEX
  8
Unknown_Area_Type
  10
327212.000
  20
4622206.000
  0
VERTEX
  8
Unknown_Area_Type
  10
325406.000
  20
4620366.000
  0
SEQEND
  8
Unknown_Area_Type
  0
INSERT
  8
FeatureAttribs
  2
FEATURE
  41
1
  42
1
  43
1
  50
0
  10
324148.559
  20
4620075.032
 66
1
  0
ATTRIB
  8
FeatureAttribs
 70
0
  1
PNOA-H_AMS_1956-57_33k_ES_PAN_2
  2
NAME
  10
324148.559
  20
4620075.032
 40
34.05031
  0
SEQEND
  0
POLYLINE
  8
Unknown_Area_Type
  70
1
  66
1
  0
VERTEX
  8
Unknown_Area_Type
  10
322844.000
  20
4620023.500
  0
VERTEX
  8
Unknown_Area_Type
  10
324237.000
  20
4622528.000
  0
VERTEX
  8
Unknown_Area_Type
  10
324238.000
  20
4622528.000
  0
VERTEX
  8
Unknown_Area_Type
  10
324242.500
  20
4622520.000
  0
VERTEX
  8
Unknown_Area_Type
  10
325266.000
  20
4620625.500
  0
VERTEX
  8
Unknown_Area_Type
  10
325266.000
  20
4620624.500
  0
VERTEX
  8
Unknown_Area_Type
  10
325406.000
  20
4620366.500
  0
VERTEX
  8
Unknown_Area_Type
  10
325349.000
  20
4618653.500
  0
VERTEX
  8
Unknown_Area_Type
  10
322907.500
  20
4618585.500
  0
VERTEX
  8
Unknown_Area_Type
  10
322898.500
  20
4618586.000
  0
VERTEX
  8
Unknown_Area_Type
  10
322805.500
  20
4618639.500
  0
VERTEX
  8
Unknown_Area_Type
  10
322844.000
  20
4620023.500
  0
SEQEND
  8
Unknown_Area_Type
  0
INSERT
  8
FeatureAttribs
  2
FEATURE
  41
1
  42
1
  43
1
  50
0
  10
324148.559
  20
4620075.032
 66
1
  0
ATTRIB
  8
FeatureAttribs
 70
0
  1
PNOA-H_AMS_1956-57_33k_ES_PAN_2
  2
NAME
  10
324148.559
  20
4620075.032
 40
34.05031
  0
SEQEND
  0
POLYLINE
  8
Unknown_Area_Type
  70
1
  66
1
  0
VERTEX
  8
Unknown_Area_Type
  10
322844.000
  20
4620023.500
  0
VERTEX
  8
Unknown_Area_Type
  10
322805.500
  20
4618639.500
  0
VERTEX
  8
Unknown_Area_Type
  10
322898.500
  20
4618586.000
  0
VERTEX
  8
Unknown_Area_Type
  10
322907.500
  20
4618585.500
  0
VERTEX
  8
Unknown_Area_Type
  10
325349.000
  20
4618653.500
  0
VERTEX
  8
Unknown_Area_Type
  10
325406.000
  20
4620366.500
  0
VERTEX
  8
Unknown_Area_Type
  10
325266.000
  20
4620624.500
  0
VERTEX
  8
Unknown_Area_Type
  10
325266.000
  20
4620625.500
  0
VERTEX
  8
Unknown_Area_Type
  10
324242.500
  20
4622520.000
  0
VERTEX
  8
Unknown_Area_Type
  10
324238.000
  20
4622528.000
  0
VERTEX
  8
Unknown_Area_Type
  10
324237.000
  20
4622528.000
  0
VERTEX
  8
Unknown_Area_Type
  10
322844.000
  20
4620023.500
  0
SEQEND
  8
Unknown_Area_Type
  0
INSERT
  8
FeatureAttribs
  2
FEATURE
  41
1
  42
1
  43
1
  50
0
  10
321342.361
  20
4620585.321
 66
1
  0
ATTRIB
  8
FeatureAttribs
 70
0
  1
PNOA-H_AMS_1956-57_33k_ES_PAN_2
  2
NAME
  10
321342.361
  20
4620585.321
 40
34.05031
  0
SEQEND
  0
POLYLINE
  8
Unknown_Area_Type
  70
1
  66
1
  0
VERTEX
  8
Unknown_Area_Type
  10
320345.000
  20
4623276.500
  0
VERTEX
  8
Unknown_Area_Type
  10
320989.500
  20
4623514.000
  0
VERTEX
  8
Unknown_Area_Type
  10
321170.000
  20
4623174.500
  0
VERTEX
  8
Unknown_Area_Type
  10
321170.000
  20
4623173.500
  0
VERTEX
  8
Unknown_Area_Type
  10
322844.000
  20
4620023.500
  0
VERTEX
  8
Unknown_Area_Type
  10
322805.500
  20
4618639.500
  0
VERTEX
  8
Unknown_Area_Type
  10
320248.000
  20
4618638.000
  0
VERTEX
  8
Unknown_Area_Type
  10
320345.000
  20
4623276.500
  0
SEQEND
  8
Unknown_Area_Type
  0
INSERT
  8
FeatureAttribs
  2
FEATURE
  41
1
  42
1
  43
1
  50
0
  10
321342.361
  20
4620585.321
 66
1
  0
ATTRIB
  8
FeatureAttribs
 70
0
  1
PNOA-H_AMS_1956-57_33k_ES_PAN_2
  2
NAME
  10
321342.361
  20
4620585.321
 40
34.05031
  0
SEQEND
  0
POLYLINE
  8
Unknown_Area_Type
  70
1
  66
1
  0
VERTEX
  8
Unknown_Area_Type
  10
320345.000
  20
4623276.500
  0
VERTEX
  8
Unknown_Area_Type
  10
320248.000
  20
4618638.000
  0
VERTEX
  8
Unknown_Area_Type
  10
322805.500
  20
4618639.500
  0
VERTEX
  8
Unknown_Area_Type
  10
322844.000
  20
4620023.500
  0
VERTEX
  8
Unknown_Area_Type
  10
321170.000
  20
4623173.500
  0
VERTEX
  8
Unknown_Area_Type
  10
321170.000
  20
4623174.500
  0
VERTEX
  8
Unknown_Area_Type
  10
320989.500
  20
4623514.000
  0
VERTEX
  8
Unknown_Area_Type
  10
320345.000
  20
4623276.500
  0
SEQEND
  8
Unknown_Area_Type
  0
INSERT
  8
FeatureAttribs
  2
FEATURE
  41
1
  42
1
  43
1
  50
0
  10
333248.448
  20
4625454.336
 66
1
  0
ATTRIB
  8
FeatureAttribs
 70
0
  1
PNOA-H_AMS_1956-57_33k_ES_PAN_2
  2
NAME
  10
333248.448
  20
4625454.336
 40
34.05031
  0
SEQEND
  0
POLYLINE
  8
Unknown_Area_Type
  70
1
  66
1
  0
VERTEX
  8
Unknown_Area_Type
  10
334618.000
  20
4627415.000
  0
VERTEX
  8
Unknown_Area_Type
  10
334620.500
  20
4627415.000
  0
VERTEX
  8
Unknown_Area_Type
  10
334620.500
  20
4627413.000
  0
VERTEX
  8
Unknown_Area_Type
  10
334558.500
  20
4623937.500
  0
VERTEX
  8
Unknown_Area_Type
  10
333318.000
  20
4623456.500
  0
VERTEX
  8
Unknown_Area_Type
  10
333308.500
  20
4623459.000
  0
VERTEX
  8
Unknown_Area_Type
  10
331838.000
  20
4623976.500
  0
VERTEX
  8
Unknown_Area_Type
  10
331842.500
  20
4626966.000
  0
VERTEX
  8
Unknown_Area_Type
  10
334615.000
  20
4627414.500
  0
VERTEX
  8
Unknown_Area_Type
  10
334618.000
  20
4627415.000
  0
SEQEND
  8
Unknown_Area_Type
  0
INSERT
  8
FeatureAttribs
  2
FEATURE
  41
1
  42
1
  43
1
  50
0
  10
333248.448
  20
4625454.336
 66
1
  0
ATTRIB
  8
FeatureAttribs
 70
0
  1
PNOA-H_AMS_1956-57_33k_ES_PAN_2
  2
NAME
  10
333248.448
  20
4625454.336
 40
34.05031
  0
SEQEND
  0
POLYLINE
  8
Unknown_Area_Type
  70
1
  66
1
  0
VERTEX
  8
Unknown_Area_Type
  10
334618.000
  20
4627415.000
  0
VERTEX
  8
Unknown_Area_Type
  10
334615.000
  20
4627414.500
  0
VERTEX
  8
Unknown_Area_Type
  10
331842.500
  20
4626966.000
  0
VERTEX
  8
Unknown_Area_Type
  10
331838.000
  20
4623976.500
  0
VERTEX
  8
Unknown_Area_Type
  10
333308.500
  20
4623459.000
  0
VERTEX
  8
Unknown_Area_Type
  10
333318.000
  20
4623456.500
  0
VERTEX
  8
Unknown_Area_Type
  10
334558.500
  20
4623937.500
  0
VERTEX
  8
Unknown_Area_Type
  10
334620.500
  20
4627413.000
  0
VERTEX
  8
Unknown_Area_Type
  10
334620.500
  20
4627415.000
  0
VERTEX
  8
Unknown_Area_Type
  10
334618.000
  20
4627415.000
  0
SEQEND
  8
Unknown_Area_Type
  0
INSERT
  8
FeatureAttribs
  2
FEATURE
  41
1
  42
1
  43
1
  50
0
  10
325056.172
  20
4625510.523
 66
1
  0
ATTRIB
  8
FeatureAttribs
 70
0
  1
PNOA-H_AMS_1956-57_33k_ES_PAN_2
  2
NAME
  10
325056.172
  20
4625510.523
 40
34.05031
  0
SEQEND
  0
POLYLINE
  8
Unknown_Area_Type
  70
1
  66
1
  0
VERTEX
  8
Unknown_Area_Type
  10
324717.000
  20
4623624.000
  0
VERTEX
  8
Unknown_Area_Type
  10
324187.000
  20
4623535.500
  0
VERTEX
  8
Unknown_Area_Type
  10
323693.500
  20
4623792.000
  0
VERTEX
  8
Unknown_Area_Type
  10
323766.500
  20
4627183.000
  0
VERTEX
  8
Unknown_Area_Type
  10
325914.500
  20
4627493.000
  0
VERTEX
  8
Unknown_Area_Type
  10
325919.500
  20
4627492.000
  0
VERTEX
  8
Unknown_Area_Type
  10
326391.500
  20
4627123.500
  0
VERTEX
  8
Unknown_Area_Type
  10
326405.000
  20
4623904.500
  0
VERTEX
  8
Unknown_Area_Type
  10
324720.000
  20
4623624.000
  0
VERTEX
  8
Unknown_Area_Type
  10
324717.000
  20
4623624.000
  0
SEQEND
  8
Unknown_Area_Type
  0
INSERT
  8
FeatureAttribs
  2
FEATURE
  41
1
  42
1
  43
1
  50
0
  10
325056.172
  20
4625510.523
 66
1
  0
ATTRIB
  8
FeatureAttribs
 70
0
  1
PNOA-H_AMS_1956-57_33k_ES_PAN_2
  2
NAME
  10
325056.172
  20
4625510.523
 40
34.05031
  0
SEQEND
  0
POLYLINE
  8
Unknown_Area_Type
  70
1
  66
1
  0
VERTEX
  8
Unknown_Area_Type
  10
324717.000
  20
4623624.000
  0
VERTEX
  8
Unknown_Area_Type
  10
324720.000
  20
4623624.000
  0
VERTEX
  8
Unknown_Area_Type
  10
326405.000
  20
4623904.500
  0
VERTEX
  8
Unknown_Area_Type
  10
326391.500
  20
4627123.500
  0
VERTEX
  8
Unknown_Area_Type
  10
325919.500
  20
4627492.000
  0
VERTEX
  8
Unknown_Area_Type
  10
325914.500
  20
4627493.000
  0
VERTEX
  8
Unknown_Area_Type
  10
323766.500
  20
4627183.000
  0
VERTEX
  8
Unknown_Area_Type
  10
323693.500
  20
4623792.000
  0
VERTEX
  8
Unknown_Area_Type
  10
324187.000
  20
4623535.500
  0
VERTEX
  8
Unknown_Area_Type
  10
324717.000
  20
4623624.000
  0
SEQEND
  8
Unknown_Area_Type
  0
INSERT
  8
FeatureAttribs
  2
FEATURE
  41
1
  42
1
  43
1
  50
0
  10
327743.087
  20
4625515.372
 66
1
  0
ATTRIB
  8
FeatureAttribs
 70
0
  1
PNOA-H_AMS_1956-57_33k_ES_PAN_2
  2
NAME
  10
327743.087
  20
4625515.372
 40
34.05031
  0
SEQEND
  0
POLYLINE
  8
Unknown_Area_Type
  70
1
  66
1
  0
VERTEX
  8
Unknown_Area_Type
  10
328655.000
  20
4627426.500
  0
VERTEX
  8
Unknown_Area_Type
  10
328659.000
  20
4627426.500
  0
VERTEX
  8
Unknown_Area_Type
  10
328663.500
  20
4627423.000
  0
VERTEX
  8
Unknown_Area_Type
  10
329125.000
  20
4627046.500
  0
VERTEX
  8
Unknown_Area_Type
  10
329071.000
  20
4623988.000
  0
VERTEX
  8
Unknown_Area_Type
  10
327174.000
  20
4623531.500
  0
VERTEX
  8
Unknown_Area_Type
  10
326420.500
  20
4623896.500
  0
VERTEX
  8
Unknown_Area_Type
  10
326405.500
  20
4623904.000
  0
VERTEX
  8
Unknown_Area_Type
  10
326404.500
  20
4623906.000
  0
VERTEX
  8
Unknown_Area_Type
  10
326391.500
  20
4627124.000
  0
VERTEX
  8
Unknown_Area_Type
  10
328651.500
  20
4627426.000
  0
VERTEX
  8
Unknown_Area_Type
  10
328655.000
  20
4627426.500
  0
SEQEND
  8
Unknown_Area_Type
  0
INSERT
  8
FeatureAttribs
  2
FEATURE
  41
1
  42
1
  43
1
  50
0
  10
327743.087
  20
4625515.372
 66
1
  0
ATTRIB
  8
FeatureAttribs
 70
0
  1
PNOA-H_AMS_1956-57_33k_ES_PAN_2
  2
NAME
  10
327743.087
  20
4625515.372
 40
34.05031
  0
SEQEND
  0
POLYLINE
  8
Unknown_Area_Type
  70
1
  66
1
  0
VERTEX
  8
Unknown_Area_Type
  10
328655.000
  20
4627426.500
  0
VERTEX
  8
Unknown_Area_Type
  10
328651.500
  20
4627426.000
  0
VERTEX
  8
Unknown_Area_Type
  10
326391.500
  20
4627124.000
  0
VERTEX
  8
Unknown_Area_Type
  10
326404.500
  20
4623906.000
  0
VERTEX
  8
Unknown_Area_Type
  10
326405.500
  20
4623904.000
  0
VERTEX
  8
Unknown_Area_Type
  10
326420.500
  20
4623896.500
  0
VERTEX
  8
Unknown_Area_Type
  10
327174.000
  20
4623531.500
  0
VERTEX
  8
Unknown_Area_Type
  10
329071.000
  20
4623988.000
  0
VERTEX
  8
Unknown_Area_Type
  10
329125.000
  20
4627046.500
  0
VERTEX
  8
Unknown_Area_Type
  10
328663.500
  20
4627423.000
  0
VERTEX
  8
Unknown_Area_Type
  10
328659.000
  20
4627426.500
  0
VERTEX
  8
Unknown_Area_Type
  10
328655.000
  20
4627426.500
  0
SEQEND
  8
Unknown_Area_Type
  0
INSERT
  8
FeatureAttribs
  2
FEATURE
  41
1
  42
1
  43
1
  50
0
  10
335937.690
  20
4625658.573
 66
1
  0
ATTRIB
  8
FeatureAttribs
 70
0
  1
PNOA-H_AMS_1956-57_33k_ES_PAN_2
  2
NAME
  10
335937.690
  20
4625658.573
 40
34.05031
  0
SEQEND
  0
POLYLINE
  8
Unknown_Area_Type
  70
1
  66
1
  0
VERTEX
  8
Unknown_Area_Type
  10
336916.000
  20
4623624.000
  0
VERTEX
  8
Unknown_Area_Type
  10
336485.000
  20
4623382.000
  0
VERTEX
  8
Unknown_Area_Type
  10
336480.500
  20
4623379.500
  0
VERTEX
  8
Unknown_Area_Type
  10
336478.000
  20
4623379.500
  0
VERTEX
  8
Unknown_Area_Type
  10
334558.500
  20
4623937.500
  0
VERTEX
  8
Unknown_Area_Type
  10
334620.000
  20
4627413.000
  0
VERTEX
  8
Unknown_Area_Type
  10
334621.500
  20
4627417.000
  0
VERTEX
  8
Unknown_Area_Type
  10
335012.500
  20
4627857.000
  0
VERTEX
  8
Unknown_Area_Type
  10
337261.500
  20
4627564.500
  0
VERTEX
  8
Unknown_Area_Type
  10
337271.500
  20
4623822.500
  0
VERTEX
  8
Unknown_Area_Type
  10
336917.000
  20
4623624.000
  0
VERTEX
  8
Unknown_Area_Type
  10
336916.000
  20
4623624.000
  0
SEQEND
  8
Unknown_Area_Type
  0
INSERT
  8
FeatureAttribs
  2
FEATURE
  41
1
  42
1
  43
1
  50
0
  10
335937.690
  20
4625658.573
 66
1
  0
ATTRIB
  8
FeatureAttribs
 70
0
  1
PNOA-H_AMS_1956-57_33k_ES_PAN_2
  2
NAME
  10
335937.690
  20
4625658.573
 40
34.05031
  0
SEQEND
  0
POLYLINE
  8
Unknown_Area_Type
  70
1
  66
1
  0
VERTEX
  8
Unknown_Area_Type
  10
336916.000
  20
4623624.000
  0
VERTEX
  8
Unknown_Area_Type
  10
336917.000
  20
4623624.000
  0
VERTEX
  8
Unknown_Area_Type
  10
337271.500
  20
4623822.500
  0
VERTEX
  8
Unknown_Area_Type
  10
337261.500
  20
4627564.500
  0
VERTEX
  8
Unknown_Area_Type
  10
335012.500
  20
4627857.000
  0
VERTEX
  8
Unknown_Area_Type
  10
334621.500
  20
4627417.000
  0
VERTEX
  8
Unknown_Area_Type
  10
334620.000
  20
4627413.000
  0
VERTEX
  8
Unknown_Area_Type
  10
334558.500
  20
4623937.500
  0
VERTEX
  8
Unknown_Area_Type
  10
336478.000
  20
4623379.500
  0
VERTEX
  8
Unknown_Area_Type
  10
336480.500
  20
4623379.500
  0
VERTEX
  8
Unknown_Area_Type
  10
336485.000
  20
4623382.000
  0
VERTEX
  8
Unknown_Area_Type
  10
336916.000
  20
4623624.000
  0
SEQEND
  8
Unknown_Area_Type
  0
INSERT
  8
FeatureAttribs
  2
FEATURE
  41
1
  42
1
  43
1
  50
0
  10
317965.091
  20
4621082.412
 66
1
  0
ATTRIB
  8
FeatureAttribs
 70
0
  1
PNOA-H_AMS_1956-57_33k_ES_PAN_2
  2
NAME
  10
317965.091
  20
4621082.412
 40
34.05031
  0
SEQEND
  0
POLYLINE
  8
Unknown_Area_Type
  70
1
  66
1
  0
VERTEX
  8
Unknown_Area_Type
  10
317981.326
  20
4618720.064
  0
VERTEX
  8
Unknown_Area_Type
  10
317888.816
  20
4618725.972
  0
VERTEX
  8
Unknown_Area_Type
  10
317888.816
  20
4623363.779
  0
VERTEX
  8
Unknown_Area_Type
  10
318101.431
  20
4623444.760
  0
VERTEX
  8
Unknown_Area_Type
  10
318065.172
  20
4622018.919
  0
VERTEX
  8
Unknown_Area_Type
  10
318006.372
  20
4619705.736
  0
VERTEX
  8
Unknown_Area_Type
  10
317981.326
  20
4618720.064
  0
SEQEND
  8
Unknown_Area_Type
  0
INSERT
  8
FeatureAttribs
  2
FEATURE
  41
1
  42
1
  43
1
  50
0
  10
319164.089
  20
4621038.307
 66
1
  0
ATTRIB
  8
FeatureAttribs
 70
0
  1
PNOA-H_AMS_1956-57_33k_ES_PAN_2
  2
NAME
  10
319164.089
  20
4621038.307
 40
34.05031
  0
SEQEND
  0
POLYLINE
  8
Unknown_Area_Type
  70
1
  66
1
  0
VERTEX
  8
Unknown_Area_Type
  10
318101.431
  20
4623444.760
  0
VERTEX
  8
Unknown_Area_Type
  10
318425.000
  20
4623568.000
  0
VERTEX
  8
Unknown_Area_Type
  10
319121.000
  20
4623462.000
  0
VERTEX
  8
Unknown_Area_Type
  10
319122.000
  20
4623462.000
  0
VERTEX
  8
Unknown_Area_Type
  10
320345.000
  20
4623276.500
  0
VERTEX
  8
Unknown_Area_Type
  10
320248.500
  20
4618646.500
  0
VERTEX
  8
Unknown_Area_Type
  10
320248.000
  20
4618637.500
  0
VERTEX
  8
Unknown_Area_Type
  10
320151.000
  20
4618581.500
  0
VERTEX
  8
Unknown_Area_Type
  10
317981.326
  20
4618720.064
  0
VERTEX
  8
Unknown_Area_Type
  10
318006.372
  20
4619705.736
  0
VERTEX
  8
Unknown_Area_Type
  10
318065.172
  20
4622018.919
  0
VERTEX
  8
Unknown_Area_Type
  10
318101.431
  20
4623444.760
  0
SEQEND
  8
Unknown_Area_Type
  0
INSERT
  8
FeatureAttribs
  2
FEATURE
  41
1
  42
1
  43
1
  50
0
  10
319164.089
  20
4621038.307
 66
1
  0
ATTRIB
  8
FeatureAttribs
 70
0
  1
PNOA-H_AMS_1956-57_33k_ES_PAN_2
  2
NAME
  10
319164.089
  20
4621038.307
 40
34.05031
  0
SEQEND
  0
POLYLINE
  8
Unknown_Area_Type
  70
1
  66
1
  0
VERTEX
  8
Unknown_Area_Type
  10
318101.431
  20
4623444.760
  0
VERTEX
  8
Unknown_Area_Type
  10
318065.172
  20
4622018.919
  0
VERTEX
  8
Unknown_Area_Type
  10
318006.372
  20
4619705.736
  0
VERTEX
  8
Unknown_Area_Type
  10
317981.326
  20
4618720.064
  0
VERTEX
  8
Unknown_Area_Type
  10
320151.000
  20
4618581.500
  0
VERTEX
  8
Unknown_Area_Type
  10
320248.000
  20
4618637.500
  0
VERTEX
  8
Unknown_Area_Type
  10
320248.500
  20
4618646.500
  0
VERTEX
  8
Unknown_Area_Type
  10
320345.000
  20
4623276.500
  0
VERTEX
  8
Unknown_Area_Type
  10
319122.000
  20
4623462.000
  0
VERTEX
  8
Unknown_Area_Type
  10
319121.000
  20
4623462.000
  0
VERTEX
  8
Unknown_Area_Type
  10
318425.000
  20
4623568.000
  0
VERTEX
  8
Unknown_Area_Type
  10
318101.431
  20
4623444.760
  0
SEQEND
  8
Unknown_Area_Type
  0
INSERT
  8
FeatureAttribs
  2
FEATURE
  41
1
  42
1
  43
1
  50
0
  10
338561.293
  20
4625704.303
 66
1
  0
ATTRIB
  8
FeatureAttribs
 70
0
  1
PNOA-H_AMS_1956-57_33k_ES_PAN_2
  2
NAME
  10
338561.293
  20
4625704.303
 40
34.05031
  0
SEQEND
  0
POLYLINE
  8
Unknown_Area_Type
  70
1
  66
1
  0
VERTEX
  8
Unknown_Area_Type
  10
337553.500
  20
4627718.500
  0
VERTEX
  8
Unknown_Area_Type
  10
337940.500
  20
4627922.000
  0
VERTEX
  8
Unknown_Area_Type
  10
337943.000
  20
4627922.000
  0
VERTEX
  8
Unknown_Area_Type
  10
339820.000
  20
4627509.500
  0
VERTEX
  8
Unknown_Area_Type
  10
339891.500
  20
4623623.500
  0
VERTEX
  8
Unknown_Area_Type
  10
339891.500
  20
4623614.000
  0
VERTEX
  8
Unknown_Area_Type
  10
339843.000
  20
4623581.500
  0
VERTEX
  8
Unknown_Area_Type
  10
339836.000
  20
4623581.000
  0
VERTEX
  8
Unknown_Area_Type
  10
337271.500
  20
4623822.500
  0
VERTEX
  8
Unknown_Area_Type
  10
337261.500
  20
4627565.000
  0
VERTEX
  8
Unknown_Area_Type
  10
337552.500
  20
4627718.000
  0
VERTEX
  8
Unknown_Area_Type
  10
337553.500
  20
4627718.500
  0
SEQEND
  8
Unknown_Area_Type
  0
INSERT
  8
FeatureAttribs
  2
FEATURE
  41
1
  42
1
  43
1
  50
0
  10
338561.293
  20
4625704.303
 66
1
  0
ATTRIB
  8
FeatureAttribs
 70
0
  1
PNOA-H_AMS_1956-57_33k_ES_PAN_2
  2
NAME
  10
338561.293
  20
4625704.303
 40
34.05031
  0
SEQEND
  0
POLYLINE
  8
Unknown_Area_Type
  70
1
  66
1
  0
VERTEX
  8
Unknown_Area_Type
  10
337553.500
  20
4627718.500
  0
VERTEX
  8
Unknown_Area_Type
  10
337552.500
  20
4627718.000
  0
VERTEX
  8
Unknown_Area_Type
  10
337261.500
  20
4627565.000
  0
VERTEX
  8
Unknown_Area_Type
  10
337271.500
  20
4623822.500
  0
VERTEX
  8
Unknown_Area_Type
  10
339836.000
  20
4623581.000
  0
VERTEX
  8
Unknown_Area_Type
  10
339843.000
  20
4623581.500
  0
VERTEX
  8
Unknown_Area_Type
  10
339891.500
  20
4623614.000
  0
VERTEX
  8
Unknown_Area_Type
  10
339891.500
  20
4623623.500
  0
VERTEX
  8
Unknown_Area_Type
  10
339820.000
  20
4627509.500
  0
VERTEX
  8
Unknown_Area_Type
  10
337943.000
  20
4627922.000
  0
VERTEX
  8
Unknown_Area_Type
  10
337940.500
  20
4627922.000
  0
VERTEX
  8
Unknown_Area_Type
  10
337553.500
  20
4627718.500
  0
SEQEND
  8
Unknown_Area_Type
  0
INSERT
  8
FeatureAttribs
  2
FEATURE
  41
1
  42
1
  43
1
  50
0
  10
322396.083
  20
4625540.494
 66
1
  0
ATTRIB
  8
FeatureAttribs
 70
0
  1
PNOA-H_AMS_1956-57_33k_ES_PAN_2
  2
NAME
  10
322396.083
  20
4625540.494
 40
34.05031
  0
SEQEND
  0
POLYLINE
  8
Unknown_Area_Type
  70
1
  66
1
  0
VERTEX
  8
Unknown_Area_Type
  10
321169.000
  20
4627280.000
  0
VERTEX
  8
Unknown_Area_Type
  10
323221.000
  20
4627577.500
  0
VERTEX
  8
Unknown_Area_Type
  10
323766.500
  20
4627183.000
  0
VERTEX
  8
Unknown_Area_Type
  10
323693.500
  20
4623792.000
  0
VERTEX
  8
Unknown_Area_Type
  10
321027.500
  20
4623541.000
  0
VERTEX
  8
Unknown_Area_Type
  10
321117.000
  20
4627264.500
  0
VERTEX
  8
Unknown_Area_Type
  10
321117.500
  20
4627272.500
  0
VERTEX
  8
Unknown_Area_Type
  10
321165.500
  20
4627279.500
  0
VERTEX
  8
Unknown_Area_Type
  10
321169.000
  20
4627280.000
  0
SEQEND
  8
Unknown_Area_Type
  0
INSERT
  8
FeatureAttribs
  2
FEATURE
  41
1
  42
1
  43
1
  50
0
  10
322396.083
  20
4625540.494
 66
1
  0
ATTRIB
  8
FeatureAttribs
 70
0
  1
PNOA-H_AMS_1956-57_33k_ES_PAN_2
  2
NAME
  10
322396.083
  20
4625540.494
 40
34.05031
  0
SEQEND
  0
POLYLINE
  8
Unknown_Area_Type
  70
1
  66
1
  0
VERTEX
  8
Unknown_Area_Type
  10
321169.000
  20
4627280.000
  0
VERTEX
  8
Unknown_Area_Type
  10
321165.500
  20
4627279.500
  0
VERTEX
  8
Unknown_Area_Type
  10
321117.500
  20
4627272.500
  0
VERTEX
  8
Unknown_Area_Type
  10
321117.000
  20
4627264.500
  0
VERTEX
  8
Unknown_Area_Type
  10
321027.500
  20
4623541.000
  0
VERTEX
  8
Unknown_Area_Type
  10
323693.500
  20
4623792.000
  0
VERTEX
  8
Unknown_Area_Type
  10
323766.500
  20
4627183.000
  0
VERTEX
  8
Unknown_Area_Type
  10
323221.000
  20
4627577.500
  0
VERTEX
  8
Unknown_Area_Type
  10
321169.000
  20
4627280.000
  0
SEQEND
  8
Unknown_Area_Type
  0
INSERT
  8
FeatureAttribs
  2
FEATURE
  41
1
  42
1
  43
1
  50
0
  10
330475.680
  20
4625450.754
 66
1
  0
ATTRIB
  8
FeatureAttribs
 70
0
  1
PNOA-H_AMS_1956-57_33k_ES_PAN_2
  2
NAME
  10
330475.680
  20
4625450.754
 40
34.05031
  0
SEQEND
  0
POLYLINE
  8
Unknown_Area_Type
  70
1
  66
1
  0
VERTEX
  8
Unknown_Area_Type
  10
331410.000
  20
4627323.500
  0
VERTEX
  8
Unknown_Area_Type
  10
331842.500
  20
4626966.000
  0
VERTEX
  8
Unknown_Area_Type
  10
331838.000
  20
4623976.500
  0
VERTEX
  8
Unknown_Area_Type
  10
330347.500
  20
4623482.500
  0
VERTEX
  8
Unknown_Area_Type
  10
330281.000
  20
4623460.500
  0
VERTEX
  8
Unknown_Area_Type
  10
330278.500
  20
4623460.500
  0
VERTEX
  8
Unknown_Area_Type
  10
329071.000
  20
4623988.000
  0
VERTEX
  8
Unknown_Area_Type
  10
329125.000
  20
4627046.500
  0
VERTEX
  8
Unknown_Area_Type
  10
331364.500
  20
4627360.000
  0
VERTEX
  8
Unknown_Area_Type
  10
331368.000
  20
4627359.000
  0
VERTEX
  8
Unknown_Area_Type
  10
331409.500
  20
4627324.500
  0
VERTEX
  8
Unknown_Area_Type
  10
331410.000
  20
4627323.500
  0
SEQEND
  8
Unknown_Area_Type
  0
INSERT
  8
FeatureAttribs
  2
FEATURE
  41
1
  42
1
  43
1
  50
0
  10
330475.680
  20
4625450.754
 66
1
  0
ATTRIB
  8
FeatureAttribs
 70
0
  1
PNOA-H_AMS_1956-57_33k_ES_PAN_2
  2
NAME
  10
330475.680
  20
4625450.754
 40
34.05031
  0
SEQEND
  0
POLYLINE
  8
Unknown_Area_Type
  70
1
  66
1
  0
VERTEX
  8
Unknown_Area_Type
  10
331410.000
  20
4627323.500
  0
VERTEX
  8
Unknown_Area_Type
  10
331409.500
  20
4627324.500
  0
VERTEX
  8
Unknown_Area_Type
  10
331368.000
  20
4627359.000
  0
VERTEX
  8
Unknown_Area_Type
  10
331364.500
  20
4627360.000
  0
VERTEX
  8
Unknown_Area_Type
  10
329125.000
  20
4627046.500
  0
VERTEX
  8
Unknown_Area_Type
  10
329071.000
  20
4623988.000
  0
VERTEX
  8
Unknown_Area_Type
  10
330278.500
  20
4623460.500
  0
VERTEX
  8
Unknown_Area_Type
  10
330281.000
  20
4623460.500
  0
VERTEX
  8
Unknown_Area_Type
  10
330347.500
  20
4623482.500
  0
VERTEX
  8
Unknown_Area_Type
  10
331838.000
  20
4623976.500
  0
VERTEX
  8
Unknown_Area_Type
  10
331842.500
  20
4626966.000
  0
VERTEX
  8
Unknown_Area_Type
  10
331410.000
  20
4627323.500
  0
SEQEND
  8
Unknown_Area_Type
  0
INSERT
  8
FeatureAttribs
  2
FEATURE
  41
1
  42
1
  43
1
  50
0
  10
319762.915
  20
4625493.219
 66
1
  0
ATTRIB
  8
FeatureAttribs
 70
0
  1
PNOA-H_AMS_1956-57_33k_ES_PAN_2
  2
NAME
  10
319762.915
  20
4625493.219
 40
34.05031
  0
SEQEND
  0
POLYLINE
  8
Unknown_Area_Type
  70
1
  66
1
  0
VERTEX
  8
Unknown_Area_Type
  10
320478.500
  20
4627730.000
  0
VERTEX
  8
Unknown_Area_Type
  10
320481.500
  20
4627730.500
  0
VERTEX
  8
Unknown_Area_Type
  10
321117.500
  20
4627272.500
  0
VERTEX
  8
Unknown_Area_Type
  10
321028.000
  20
4623542.500
  0
VERTEX
  8
Unknown_Area_Type
  10
321027.500
  20
4623540.500
  0
VERTEX
  8
Unknown_Area_Type
  10
320987.500
  20
4623513.000
  0
VERTEX
  8
Unknown_Area_Type
  10
320345.500
  20
4623276.500
  0
VERTEX
  8
Unknown_Area_Type
  10
318425.500
  20
4623568.000
  0
VERTEX
  8
Unknown_Area_Type
  10
318414.000
  20
4627371.500
  0
VERTEX
  8
Unknown_Area_Type
  10
320478.500
  20
4627730.000
  0
SEQEND
  8
Unknown_Area_Type
  0
INSERT
  8
FeatureAttribs
  2
FEATURE
  41
1
  42
1
  43
1
  50
0
  10
319762.915
  20
4625493.219
 66
1
  0
ATTRIB
  8
FeatureAttribs
 70
0
  1
PNOA-H_AMS_1956-57_33k_ES_PAN_2
  2
NAME
  10
319762.915
  20
4625493.219
 40
34.05031
  0
SEQEND
  0
POLYLINE
  8
Unknown_Area_Type
  70
1
  66
1
  0
VERTEX
  8
Unknown_Area_Type
  10
320478.500
  20
4627730.000
  0
VERTEX
  8
Unknown_Area_Type
  10
318414.000
  20
4627371.500
  0
VERTEX
  8
Unknown_Area_Type
  10
318425.500
  20
4623568.000
  0
VERTEX
  8
Unknown_Area_Type
  10
320345.500
  20
4623276.500
  0
VERTEX
  8
Unknown_Area_Type
  10
320987.500
  20
4623513.000
  0
VERTEX
  8
Unknown_Area_Type
  10
321027.500
  20
4623540.500
  0
VERTEX
  8
Unknown_Area_Type
  10
321028.000
  20
4623542.500
  0
VERTEX
  8
Unknown_Area_Type
  10
321117.500
  20
4627272.500
  0
VERTEX
  8
Unknown_Area_Type
  10
320481.500
  20
4627730.500
  0
VERTEX
  8
Unknown_Area_Type
  10
320478.500
  20
4627730.000
  0
SEQEND
  8
Unknown_Area_Type
  0
INSERT
  8
FeatureAttribs
  2
FEATURE
  41
1
  42
1
  43
1
  50
0
  10
321551.015
  20
4614911.219
 66
1
  0
ATTRIB
  8
FeatureAttribs
 70
0
  1
PNOA-H_AMS_1956-57_33k_ES_PAN_2
  2
NAME
  10
321551.015
  20
4614911.219
 40
34.05031
  0
SEQEND
  0
POLYLINE
  8
Unknown_Area_Type
  70
1
  66
1
  0
VERTEX
  8
Unknown_Area_Type
  10
322948.124
  20
4614952.912
  0
VERTEX
  8
Unknown_Area_Type
  10
322950.150
  20
4614800.000
  0
VERTEX
  8
Unknown_Area_Type
  10
320153.440
  20
4614800.000
  0
VERTEX
  8
Unknown_Area_Type
  10
320153.267
  20
4615022.437
  0
VERTEX
  8
Unknown_Area_Type
  10
321357.820
  20
4614992.141
  0
VERTEX
  8
Unknown_Area_Type
  10
322948.124
  20
4614952.912
  0
SEQEND
  8
Unknown_Area_Type
  0
INSERT
  8
FeatureAttribs
  2
FEATURE
  41
1
  42
1
  43
1
  50
0
  10
321542.328
  20
4616807.210
 66
1
  0
ATTRIB
  8
FeatureAttribs
 70
0
  1
PNOA-H_AMS_1956-57_33k_ES_PAN_2
  2
NAME
  10
321542.328
  20
4616807.210
 40
34.05031
  0
SEQEND
  0
POLYLINE
  8
Unknown_Area_Type
  70
1
  66
1
  0
VERTEX
  8
Unknown_Area_Type
  10
322948.124
  20
4614952.912
  0
VERTEX
  8
Unknown_Area_Type
  10
321357.820
  20
4614992.141
  0
VERTEX
  8
Unknown_Area_Type
  10
320153.267
  20
4615022.437
  0
VERTEX
  8
Unknown_Area_Type
  10
320150.500
  20
4618581.500
  0
VERTEX
  8
Unknown_Area_Type
  10
320248.000
  20
4618638.000
  0
VERTEX
  8
Unknown_Area_Type
  10
321534.000
  20
4618639.000
  0
VERTEX
  8
Unknown_Area_Type
  10
322317.500
  20
4618639.500
  0
VERTEX
  8
Unknown_Area_Type
  10
322806.000
  20
4618639.500
  0
VERTEX
  8
Unknown_Area_Type
  10
322900.000
  20
4618585.500
  0
VERTEX
  8
Unknown_Area_Type
  10
322948.124
  20
4614952.912
  0
SEQEND
  8
Unknown_Area_Type
  0
INSERT
  8
FeatureAttribs
  2
FEATURE
  41
1
  42
1
  43
1
  50
0
  10
321542.328
  20
4616807.210
 66
1
  0
ATTRIB
  8
FeatureAttribs
 70
0
  1
PNOA-H_AMS_1956-57_33k_ES_PAN_2
  2
NAME
  10
321542.328
  20
4616807.210
 40
34.05031
  0
SEQEND
  0
POLYLINE
  8
Unknown_Area_Type
  70
1
  66
1
  0
VERTEX
  8
Unknown_Area_Type
  10
322948.124
  20
4614952.912
  0
VERTEX
  8
Unknown_Area_Type
  10
322900.000
  20
4618585.500
  0
VERTEX
  8
Unknown_Area_Type
  10
322806.000
  20
4618639.500
  0
VERTEX
  8
Unknown_Area_Type
  10
322317.500
  20
4618639.500
  0
VERTEX
  8
Unknown_Area_Type
  10
321534.000
  20
4618639.000
  0
VERTEX
  8
Unknown_Area_Type
  10
320248.000
  20
4618638.000
  0
VERTEX
  8
Unknown_Area_Type
  10
320150.500
  20
4618581.500
  0
VERTEX
  8
Unknown_Area_Type
  10
320153.267
  20
4615022.437
  0
VERTEX
  8
Unknown_Area_Type
  10
321357.820
  20
4614992.141
  0
VERTEX
  8
Unknown_Area_Type
  10
322948.124
  20
4614952.912
  0
SEQEND
  8
Unknown_Area_Type
  0
INSERT
  8
FeatureAttribs
  2
FEATURE
  41
1
  42
1
  43
1
  50
0
  10
317911.984
  20
4616902.652
 66
1
  0
ATTRIB
  8
FeatureAttribs
 70
0
  1
PNOA-H_AMS_1956-57_33k_ES_PAN_2
  2
NAME
  10
317911.984
  20
4616902.652
 40
34.05031
  0
SEQEND
  0
POLYLINE
  8
Unknown_Area_Type
  70
1
  66
1
  0
VERTEX
  8
Unknown_Area_Type
  10
317981.325
  20
4618719.995
  0
VERTEX
  8
Unknown_Area_Type
  10
317947.596
  20
4617392.560
  0
VERTEX
  8
Unknown_Area_Type
  10
317888.844
  20
4615079.391
  0
VERTEX
  8
Unknown_Area_Type
  10
317888.816
  20
4615079.392
  0
VERTEX
  8
Unknown_Area_Type
  10
317888.816
  20
4618725.914
  0
VERTEX
  8
Unknown_Area_Type
  10
317981.325
  20
4618719.995
  0
SEQEND
  8
Unknown_Area_Type
  0
INSERT
  8
FeatureAttribs
  2
FEATURE
  41
1
  42
1
  43
1
  50
0
  10
317888.830
  20
4615079.114
 66
1
  0
ATTRIB
  8
FeatureAttribs
 70
0
  1
PNOA-H_AMS_1956-57_33k_ES_PAN_2
  2
NAME
  10
317888.830
  20
4615079.114
 40
34.05031
  0
SEQEND
  0
POLYLINE
  8
Unknown_Area_Type
  70
1
  66
1
  0
VERTEX
  8
Unknown_Area_Type
  10
317888.816
  20
4615079.392
  0
VERTEX
  8
Unknown_Area_Type
  10
317888.844
  20
4615079.391
  0
VERTEX
  8
Unknown_Area_Type
  10
317888.816
  20
4615078.283
  0
VERTEX
  8
Unknown_Area_Type
  10
317888.816
  20
4615079.392
  0
SEQEND
  8
Unknown_Area_Type
  0
INSERT
  8
FeatureAttribs
  2
FEATURE
  41
1
  42
1
  43
1
  50
0
  10
319021.073
  20
4614939.696
 66
1
  0
ATTRIB
  8
FeatureAttribs
 70
0
  1
PNOA-H_AMS_1956-57_33k_ES_PAN_2
  2
NAME
  10
319021.073
  20
4614939.696
 40
34.05031
  0
SEQEND
  0
POLYLINE
  8
Unknown_Area_Type
  70
1
  66
1
  0
VERTEX
  8
Unknown_Area_Type
  10
320153.267
  20
4615022.437
  0
VERTEX
  8
Unknown_Area_Type
  10
320153.440
  20
4614800.000
  0
VERTEX
  8
Unknown_Area_Type
  10
317888.816
  20
4614800.000
  0
VERTEX
  8
Unknown_Area_Type
  10
317888.816
  20
4615078.283
  0
VERTEX
  8
Unknown_Area_Type
  10
317888.844
  20
4615079.391
  0
VERTEX
  8
Unknown_Area_Type
  10
320153.267
  20
4615022.437
  0
SEQEND
  8
Unknown_Area_Type
  0
INSERT
  8
FeatureAttribs
  2
FEATURE
  41
1
  42
1
  43
1
  50
0
  10
319038.938
  20
4616838.300
 66
1
  0
ATTRIB
  8
FeatureAttribs
 70
0
  1
PNOA-H_AMS_1956-57_33k_ES_PAN_2
  2
NAME
  10
319038.938
  20
4616838.300
 40
34.05031
  0
SEQEND
  0
POLYLINE
  8
Unknown_Area_Type
  70
1
  66
1
  0
VERTEX
  8
Unknown_Area_Type
  10
320153.267
  20
4615022.437
  0
VERTEX
  8
Unknown_Area_Type
  10
317888.844
  20
4615079.391
  0
VERTEX
  8
Unknown_Area_Type
  10
317947.596
  20
4617392.560
  0
VERTEX
  8
Unknown_Area_Type
  10
317981.325
  20
4618719.995
  0
VERTEX
  8
Unknown_Area_Type
  10
319114.500
  20
4618647.500
  0
VERTEX
  8
Unknown_Area_Type
  10
319122.000
  20
4618647.500
  0
VERTEX
  8
Unknown_Area_Type
  10
320150.500
  20
4618581.500
  0
VERTEX
  8
Unknown_Area_Type
  10
320153.267
  20
4615022.437
  0
SEQEND
  8
Unknown_Area_Type
  0
INSERT
  8
FeatureAttribs
  2
FEATURE
  41
1
  42
1
  43
1
  50
0
  10
319038.938
  20
4616838.300
 66
1
  0
ATTRIB
  8
FeatureAttribs
 70
0
  1
PNOA-H_AMS_1956-57_33k_ES_PAN_2
  2
NAME
  10
319038.938
  20
4616838.300
 40
34.05031
  0
SEQEND
  0
POLYLINE
  8
Unknown_Area_Type
  70
1
  66
1
  0
VERTEX
  8
Unknown_Area_Type
  10
320153.267
  20
4615022.437
  0
VERTEX
  8
Unknown_Area_Type
  10
320150.500
  20
4618581.500
  0
VERTEX
  8
Unknown_Area_Type
  10
319122.000
  20
4618647.500
  0
VERTEX
  8
Unknown_Area_Type
  10
319114.500
  20
4618647.500
  0
VERTEX
  8
Unknown_Area_Type
  10
317981.325
  20
4618719.995
  0
VERTEX
  8
Unknown_Area_Type
  10
317947.596
  20
4617392.560
  0
VERTEX
  8
Unknown_Area_Type
  10
317888.844
  20
4615079.391
  0
VERTEX
  8
Unknown_Area_Type
  10
320153.267
  20
4615022.437
  0
SEQEND
  8
Unknown_Area_Type
  0
INSERT
  8
FeatureAttribs
  2
FEATURE
  41
1
  42
1
  43
1
  50
0
  10
317915.548
  20
4630515.673
 66
1
  0
ATTRIB
  8
FeatureAttribs
 70
0
  1
PNOA-H_AMS_1956-57_33k_ES_PAN_2
  2
NAME
  10
317915.548
  20
4630515.673
 40
34.05031
  0
SEQEND
  0
POLYLINE
  8
Unknown_Area_Type
  70
1
  66
1
  0
VERTEX
  8
Unknown_Area_Type
  10
317888.816
  20
4631111.671
  0
VERTEX
  8
Unknown_Area_Type
  10
317962.000
  20
4630735.500
  0
VERTEX
  8
Unknown_Area_Type
  10
317888.816
  20
4629919.675
  0
VERTEX
  8
Unknown_Area_Type
  10
317888.816
  20
4631111.671
  0
SEQEND
  8
Unknown_Area_Type
  0
INSERT
  8
FeatureAttribs
  2
FEATURE
  41
1
  42
1
  43
1
  50
0
  10
324527.033
  20
4628460.042
 66
1
  0
ATTRIB
  8
FeatureAttribs
 70
0
  1
PNOA-H_AMS_1956-57_33k_ES_PAN_2
  2
NAME
  10
324527.033
  20
4628460.042
 40
34.05031
  0
SEQEND
  0
POLYLINE
  8
Unknown_Area_Type
  70
1
  66
1
  0
VERTEX
  8
Unknown_Area_Type
  10
325928.000
  20
4627720.000
  0
VERTEX
  8
Unknown_Area_Type
  10
325917.500
  20
4627493.000
  0
VERTEX
  8
Unknown_Area_Type
  10
323767.500
  20
4627183.000
  0
VERTEX
  8
Unknown_Area_Type
  10
323764.500
  20
4627184.000
  0
VERTEX
  8
Unknown_Area_Type
  10
323220.500
  20
4627577.500
  0
VERTEX
  8
Unknown_Area_Type
  10
323271.000
  20
4628615.000
  0
VERTEX
  8
Unknown_Area_Type
  10
324328.000
  20
4630367.500
  0
VERTEX
  8
Unknown_Area_Type
  10
324335.000
  20
4630360.500
  0
VERTEX
  8
Unknown_Area_Type
  10
325961.500
  20
4628454.500
  0
VERTEX
  8
Unknown_Area_Type
  10
325961.500
  20
4628433.000
  0
VERTEX
  8
Unknown_Area_Type
  10
325928.000
  20
4627724.000
  0
VERTEX
  8
Unknown_Area_Type
  10
325928.000
  20
4627720.000
  0
SEQEND
  8
Unknown_Area_Type
  0
INSERT
  8
FeatureAttribs
  2
FEATURE
  41
1
  42
1
  43
1
  50
0
  10
324527.033
  20
4628460.042
 66
1
  0
ATTRIB
  8
FeatureAttribs
 70
0
  1
PNOA-H_AMS_1956-57_33k_ES_PAN_2
  2
NAME
  10
324527.033
  20
4628460.042
 40
34.05031
  0
SEQEND
  0
POLYLINE
  8
Unknown_Area_Type
  70
1
  66
1
  0
VERTEX
  8
Unknown_Area_Type
  10
325928.000
  20
4627720.000
  0
VERTEX
  8
Unknown_Area_Type
  10
325928.000
  20
4627724.000
  0
VERTEX
  8
Unknown_Area_Type
  10
325961.500
  20
4628433.000
  0
VERTEX
  8
Unknown_Area_Type
  10
325961.500
  20
4628454.500
  0
VERTEX
  8
Unknown_Area_Type
  10
324335.000
  20
4630360.500
  0
VERTEX
  8
Unknown_Area_Type
  10
324328.000
  20
4630367.500
  0
VERTEX
  8
Unknown_Area_Type
  10
323271.000
  20
4628615.000
  0
VERTEX
  8
Unknown_Area_Type
  10
323220.500
  20
4627577.500
  0
VERTEX
  8
Unknown_Area_Type
  10
323764.500
  20
4627184.000
  0
VERTEX
  8
Unknown_Area_Type
  10
323767.500
  20
4627183.000
  0
VERTEX
  8
Unknown_Area_Type
  10
325917.500
  20
4627493.000
  0
VERTEX
  8
Unknown_Area_Type
  10
325928.000
  20
4627720.000
  0
SEQEND
  8
Unknown_Area_Type
  0
INSERT
  8
FeatureAttribs
  2
FEATURE
  41
1
  42
1
  43
1
  50
0
  10
329652.650
  20
4614731.777
 66
1
  0
ATTRIB
  8
FeatureAttribs
 70
0
  1
PNOA-H_AMS_1956-57_33k_ES_PAN_2
  2
NAME
  10
329652.650
  20
4614731.777
 40
34.05031
  0
SEQEND
  0
POLYLINE
  8
Unknown_Area_Type
  70
1
  66
1
  0
VERTEX
  8
Unknown_Area_Type
  10
331046.144
  20
4614757.496
  0
VERTEX
  8
Unknown_Area_Type
  10
331045.871
  20
4614640.000
  0
VERTEX
  8
Unknown_Area_Type
  10
328258.907
  20
4614640.000
  0
VERTEX
  8
Unknown_Area_Type
  10
328259.523
  20
4614823.555
  0
VERTEX
  8
Unknown_Area_Type
  10
328295.741
  20
4614822.679
  0
VERTEX
  8
Unknown_Area_Type
  10
331046.144
  20
4614757.496
  0
SEQEND
  8
Unknown_Area_Type
  0
INSERT
  8
FeatureAttribs
  2
FEATURE
  41
1
  42
1
  43
1
  50
0
  10
329678.435
  20
4616658.881
 66
1
  0
ATTRIB
  8
FeatureAttribs
 70
0
  1
PNOA-H_AMS_1956-57_33k_ES_PAN_2
  2
NAME
  10
329678.435
  20
4616658.881
 40
34.05031
  0
SEQEND
  0
POLYLINE
  8
Unknown_Area_Type
  70
1
  66
1
  0
VERTEX
  8
Unknown_Area_Type
  10
331046.144
  20
4614757.496
  0
VERTEX
  8
Unknown_Area_Type
  10
328295.741
  20
4614822.679
  0
VERTEX
  8
Unknown_Area_Type
  10
328259.523
  20
4614823.555
  0
VERTEX
  8
Unknown_Area_Type
  10
328271.500
  20
4618396.000
  0
VERTEX
  8
Unknown_Area_Type
  10
331046.000
  20
4618656.500
  0
VERTEX
  8
Unknown_Area_Type
  10
331051.000
  20
4618657.000
  0
VERTEX
  8
Unknown_Area_Type
  10
331055.000
  20
4618657.000
  0
VERTEX
  8
Unknown_Area_Type
  10
331055.000
  20
4618574.500
  0
VERTEX
  8
Unknown_Area_Type
  10
331046.144
  20
4614757.496
  0
SEQEND
  8
Unknown_Area_Type
  0
INSERT
  8
FeatureAttribs
  2
FEATURE
  41
1
  42
1
  43
1
  50
0
  10
329678.435
  20
4616658.881
 66
1
  0
ATTRIB
  8
FeatureAttribs
 70
0
  1
PNOA-H_AMS_1956-57_33k_ES_PAN_2
  2
NAME
  10
329678.435
  20
4616658.881
 40
34.05031
  0
SEQEND
  0
POLYLINE
  8
Unknown_Area_Type
  70
1
  66
1
  0
VERTEX
  8
Unknown_Area_Type
  10
331046.144
  20
4614757.496
  0
VERTEX
  8
Unknown_Area_Type
  10
331055.000
  20
4618574.500
  0
VERTEX
  8
Unknown_Area_Type
  10
331055.000
  20
4618657.000
  0
VERTEX
  8
Unknown_Area_Type
  10
331051.000
  20
4618657.000
  0
VERTEX
  8
Unknown_Area_Type
  10
331046.000
  20
4618656.500
  0
VERTEX
  8
Unknown_Area_Type
  10
328271.500
  20
4618396.000
  0
VERTEX
  8
Unknown_Area_Type
  10
328259.523
  20
4614823.555
  0
VERTEX
  8
Unknown_Area_Type
  10
328295.741
  20
4614822.679
  0
VERTEX
  8
Unknown_Area_Type
  10
331046.144
  20
4614757.496
  0
SEQEND
  8
Unknown_Area_Type
  0
INSERT
  8
FeatureAttribs
  2
FEATURE
  41
1
  42
1
  43
1
  50
0
  10
318067.309
  20
4629118.973
 66
1
  0
ATTRIB
  8
FeatureAttribs
 70
0
  1
PNOA-H_AMS_1956-57_33k_ES_PAN_2
  2
NAME
  10
318067.309
  20
4629118.973
 40
34.05031
  0
SEQEND
  0
POLYLINE
  8
Unknown_Area_Type
  70
1
  66
1
  0
VERTEX
  8
Unknown_Area_Type
  10
318281.075
  20
4630504.311
  0
VERTEX
  8
Unknown_Area_Type
  10
318241.718
  20
4628958.511
  0
VERTEX
  8
Unknown_Area_Type
  10
318204.711
  20
4627504.446
  0
VERTEX
  8
Unknown_Area_Type
  10
317888.816
  20
4627705.591
  0
VERTEX
  8
Unknown_Area_Type
  10
317888.816
  20
4629919.655
  0
VERTEX
  8
Unknown_Area_Type
  10
317962.000
  20
4630733.500
  0
VERTEX
  8
Unknown_Area_Type
  10
318281.075
  20
4630504.311
  0
SEQEND
  8
Unknown_Area_Type
  0
INSERT
  8
FeatureAttribs
  2
FEATURE
  41
1
  42
1
  43
1
  50
0
  10
319206.421
  20
4628667.781
 66
1
  0
ATTRIB
  8
FeatureAttribs
 70
0
  1
PNOA-H_AMS_1956-57_33k_ES_PAN_2
  2
NAME
  10
319206.421
  20
4628667.781
 40
34.05031
  0
SEQEND
  0
POLYLINE
  8
Unknown_Area_Type
  70
1
  66
1
  0
VERTEX
  8
Unknown_Area_Type
  10
318281.075
  20
4630504.311
  0
VERTEX
  8
Unknown_Area_Type
  10
319121.000
  20
4629901.000
  0
VERTEX
  8
Unknown_Area_Type
  10
319122.000
  20
4629900.500
  0
VERTEX
  8
Unknown_Area_Type
  10
320557.000
  20
4628870.000
  0
VERTEX
  8
Unknown_Area_Type
  10
320482.000
  20
4627731.000
  0
VERTEX
  8
Unknown_Area_Type
  10
320481.500
  20
4627730.000
  0
VERTEX
  8
Unknown_Area_Type
  10
320435.500
  20
4627722.000
  0
VERTEX
  8
Unknown_Area_Type
  10
318413.500
  20
4627371.500
  0
VERTEX
  8
Unknown_Area_Type
  10
318204.711
  20
4627504.446
  0
VERTEX
  8
Unknown_Area_Type
  10
318241.718
  20
4628958.511
  0
VERTEX
  8
Unknown_Area_Type
  10
318281.075
  20
4630504.311
  0
SEQEND
  8
Unknown_Area_Type
  0
INSERT
  8
FeatureAttribs
  2
FEATURE
  41
1
  42
1
  43
1
  50
0
  10
319206.421
  20
4628667.781
 66
1
  0
ATTRIB
  8
FeatureAttribs
 70
0
  1
PNOA-H_AMS_1956-57_33k_ES_PAN_2
  2
NAME
  10
319206.421
  20
4628667.781
 40
34.05031
  0
SEQEND
  0
POLYLINE
  8
Unknown_Area_Type
  70
1
  66
1
  0
VERTEX
  8
Unknown_Area_Type
  10
318281.075
  20
4630504.311
  0
VERTEX
  8
Unknown_Area_Type
  10
318241.718
  20
4628958.511
  0
VERTEX
  8
Unknown_Area_Type
  10
318204.711
  20
4627504.446
  0
VERTEX
  8
Unknown_Area_Type
  10
318413.500
  20
4627371.500
  0
VERTEX
  8
Unknown_Area_Type
  10
320435.500
  20
4627722.000
  0
VERTEX
  8
Unknown_Area_Type
  10
320481.500
  20
4627730.000
  0
VERTEX
  8
Unknown_Area_Type
  10
320482.000
  20
4627731.000
  0
VERTEX
  8
Unknown_Area_Type
  10
320557.000
  20
4628870.000
  0
VERTEX
  8
Unknown_Area_Type
  10
319122.000
  20
4629900.500
  0
VERTEX
  8
Unknown_Area_Type
  10
319121.000
  20
4629901.000
  0
VERTEX
  8
Unknown_Area_Type
  10
318281.075
  20
4630504.311
  0
SEQEND
  8
Unknown_Area_Type
  0
INSERT
  8
FeatureAttribs
  2
FEATURE
  41
1
  42
1
  43
1
  50
0
  10
326920.778
  20
4614764.175
 66
1
  0
ATTRIB
  8
FeatureAttribs
 70
0
  1
PNOA-H_AMS_1956-57_33k_ES_PAN_2
  2
NAME
  10
326920.778
  20
4614764.175
 40
34.05031
  0
SEQEND
  0
POLYLINE
  8
Unknown_Area_Type
  70
1
  66
1
  0
VERTEX
  8
Unknown_Area_Type
  10
328259.523
  20
4614823.555
  0
VERTEX
  8
Unknown_Area_Type
  10
328258.907
  20
4614640.000
  0
VERTEX
  8
Unknown_Area_Type
  10
325584.255
  20
4614640.000
  0
VERTEX
  8
Unknown_Area_Type
  10
325580.211
  20
4614888.350
  0
VERTEX
  8
Unknown_Area_Type
  10
328259.523
  20
4614823.555
  0
SEQEND
  8
Unknown_Area_Type
  0
INSERT
  8
FeatureAttribs
  2
FEATURE
  41
1
  42
1
  43
1
  50
0
  10
326911.607
  20
4616729.026
 66
1
  0
ATTRIB
  8
FeatureAttribs
 70
0
  1
PNOA-H_AMS_1956-57_33k_ES_PAN_2
  2
NAME
  10
326911.607
  20
4616729.026
 40
34.05031
  0
SEQEND
  0
POLYLINE
  8
Unknown_Area_Type
  70
1
  66
1
  0
VERTEX
  8
Unknown_Area_Type
  10
328259.523
  20
4614823.555
  0
VERTEX
  8
Unknown_Area_Type
  10
325580.211
  20
4614888.350
  0
VERTEX
  8
Unknown_Area_Type
  10
325520.500
  20
4618555.000
  0
VERTEX
  8
Unknown_Area_Type
  10
327845.500
  20
4618637.500
  0
VERTEX
  8
Unknown_Area_Type
  10
327859.500
  20
4618638.000
  0
VERTEX
  8
Unknown_Area_Type
  10
327866.500
  20
4618638.000
  0
VERTEX
  8
Unknown_Area_Type
  10
327868.500
  20
4618637.000
  0
VERTEX
  8
Unknown_Area_Type
  10
328271.500
  20
4618396.000
  0
VERTEX
  8
Unknown_Area_Type
  10
328259.523
  20
4614823.555
  0
SEQEND
  8
Unknown_Area_Type
  0
INSERT
  8
FeatureAttribs
  2
FEATURE
  41
1
  42
1
  43
1
  50
0
  10
326911.607
  20
4616729.026
 66
1
  0
ATTRIB
  8
FeatureAttribs
 70
0
  1
PNOA-H_AMS_1956-57_33k_ES_PAN_2
  2
NAME
  10
326911.607
  20
4616729.026
 40
34.05031
  0
SEQEND
  0
POLYLINE
  8
Unknown_Area_Type
  70
1
  66
1
  0
VERTEX
  8
Unknown_Area_Type
  10
328259.523
  20
4614823.555
  0
VERTEX
  8
Unknown_Area_Type
  10
328271.500
  20
4618396.000
  0
VERTEX
  8
Unknown_Area_Type
  10
327868.500
  20
4618637.000
  0
VERTEX
  8
Unknown_Area_Type
  10
327866.500
  20
4618638.000
  0
VERTEX
  8
Unknown_Area_Type
  10
327859.500
  20
4618638.000
  0
VERTEX
  8
Unknown_Area_Type
  10
327845.500
  20
4618637.500
  0
VERTEX
  8
Unknown_Area_Type
  10
325520.500
  20
4618555.000
  0
VERTEX
  8
Unknown_Area_Type
  10
325580.211
  20
4614888.350
  0
VERTEX
  8
Unknown_Area_Type
  10
328259.523
  20
4614823.555
  0
SEQEND
  8
Unknown_Area_Type
  0
INSERT
  8
FeatureAttribs
  2
FEATURE
  41
1
  42
1
  43
1
  50
0
  10
325150.899
  20
4614796.456
 66
1
  0
ATTRIB
  8
FeatureAttribs
 70
0
  1
PNOA-H_AMS_1956-57_33k_ES_PAN_2
  2
NAME
  10
325150.899
  20
4614796.456
 40
34.05031
  0
SEQEND
  0
POLYLINE
  8
Unknown_Area_Type
  70
1
  66
1
  0
VERTEX
  8
Unknown_Area_Type
  10
325580.311
  20
4614888.347
  0
VERTEX
  8
Unknown_Area_Type
  10
325584.329
  20
4614640.000
  0
VERTEX
  8
Unknown_Area_Type
  10
324720.000
  20
4614640.000
  0
VERTEX
  8
Unknown_Area_Type
  10
324720.000
  20
4614800.000
  0
VERTEX
  8
Unknown_Area_Type
  10
322950.150
  20
4614800.000
  0
VERTEX
  8
Unknown_Area_Type
  10
322948.124
  20
4614952.912
  0
VERTEX
  8
Unknown_Area_Type
  10
324826.786
  20
4614906.570
  0
VERTEX
  8
Unknown_Area_Type
  10
325580.311
  20
4614888.347
  0
SEQEND
  8
Unknown_Area_Type
  0
INSERT
  8
FeatureAttribs
  2
FEATURE
  41
1
  42
1
  43
1
  50
0
  10
324243.962
  20
4616768.303
 66
1
  0
ATTRIB
  8
FeatureAttribs
 70
0
  1
PNOA-H_AMS_1956-57_33k_ES_PAN_2
  2
NAME
  10
324243.962
  20
4616768.303
 40
34.05031
  0
SEQEND
  0
POLYLINE
  8
Unknown_Area_Type
  70
1
  66
1
  0
VERTEX
  8
Unknown_Area_Type
  10
325580.311
  20
4614888.347
  0
VERTEX
  8
Unknown_Area_Type
  10
324826.786
  20
4614906.570
  0
VERTEX
  8
Unknown_Area_Type
  10
322948.124
  20
4614952.912
  0
VERTEX
  8
Unknown_Area_Type
  10
322900.000
  20
4618585.500
  0
VERTEX
  8
Unknown_Area_Type
  10
323196.000
  20
4618594.000
  0
VERTEX
  8
Unknown_Area_Type
  10
323214.000
  20
4618594.500
  0
VERTEX
  8
Unknown_Area_Type
  10
325349.500
  20
4618653.500
  0
VERTEX
  8
Unknown_Area_Type
  10
325521.000
  20
4618554.500
  0
VERTEX
  8
Unknown_Area_Type
  10
325580.311
  20
4614888.347
  0
SEQEND
  8
Unknown_Area_Type
  0
INSERT
  8
FeatureAttribs
  2
FEATURE
  41
1
  42
1
  43
1
  50
0
  10
324243.962
  20
4616768.303
 66
1
  0
ATTRIB
  8
FeatureAttribs
 70
0
  1
PNOA-H_AMS_1956-57_33k_ES_PAN_2
  2
NAME
  10
324243.962
  20
4616768.303
 40
34.05031
  0
SEQEND
  0
POLYLINE
  8
Unknown_Area_Type
  70
1
  66
1
  0
VERTEX
  8
Unknown_Area_Type
  10
325580.311
  20
4614888.347
  0
VERTEX
  8
Unknown_Area_Type
  10
325521.000
  20
4618554.500
  0
VERTEX
  8
Unknown_Area_Type
  10
325349.500
  20
4618653.500
  0
VERTEX
  8
Unknown_Area_Type
  10
323214.000
  20
4618594.500
  0
VERTEX
  8
Unknown_Area_Type
  10
323196.000
  20
4618594.000
  0
VERTEX
  8
Unknown_Area_Type
  10
322900.000
  20
4618585.500
  0
VERTEX
  8
Unknown_Area_Type
  10
322948.124
  20
4614952.912
  0
VERTEX
  8
Unknown_Area_Type
  10
324826.786
  20
4614906.570
  0
VERTEX
  8
Unknown_Area_Type
  10
325580.311
  20
4614888.347
  0
SEQEND
  8
Unknown_Area_Type
  0
INSERT
  8
FeatureAttribs
  2
FEATURE
  41
1
  42
1
  43
1
  50
0
  10
329993.014
  20
4628316.803
 66
1
  0
ATTRIB
  8
FeatureAttribs
 70
0
  1
PNOA-H_AMS_1956-57_33k_ES_PAN_2
  2
NAME
  10
329993.014
  20
4628316.803
 40
34.05031
  0
SEQEND
  0
POLYLINE
  8
Unknown_Area_Type
  70
1
  66
1
  0
VERTEX
  8
Unknown_Area_Type
  10
329855.000
  20
4630132.000
  0
VERTEX
  8
Unknown_Area_Type
  10
331409.500
  20
4628511.500
  0
VERTEX
  8
Unknown_Area_Type
  10
331366.500
  20
4627360.000
  0
VERTEX
  8
Unknown_Area_Type
  10
329124.500
  20
4627046.500
  0
VERTEX
  8
Unknown_Area_Type
  10
328658.500
  20
4627426.500
  0
VERTEX
  8
Unknown_Area_Type
  10
328698.500
  20
4628535.500
  0
VERTEX
  8
Unknown_Area_Type
  10
329855.000
  20
4630131.000
  0
VERTEX
  8
Unknown_Area_Type
  10
329855.000
  20
4630132.000
  0
SEQEND
  8
Unknown_Area_Type
  0
INSERT
  8
FeatureAttribs
  2
FEATURE
  41
1
  42
1
  43
1
  50
0
  10
329993.014
  20
4628316.803
 66
1
  0
ATTRIB
  8
FeatureAttribs
 70
0
  1
PNOA-H_AMS_1956-57_33k_ES_PAN_2
  2
NAME
  10
329993.014
  20
4628316.803
 40
34.05031
  0
SEQEND
  0
POLYLINE
  8
Unknown_Area_Type
  70
1
  66
1
  0
VERTEX
  8
Unknown_Area_Type
  10
329855.000
  20
4630132.000
  0
VERTEX
  8
Unknown_Area_Type
  10
329855.000
  20
4630131.000
  0
VERTEX
  8
Unknown_Area_Type
  10
328698.500
  20
4628535.500
  0
VERTEX
  8
Unknown_Area_Type
  10
328658.500
  20
4627426.500
  0
VERTEX
  8
Unknown_Area_Type
  10
329124.500
  20
4627046.500
  0
VERTEX
  8
Unknown_Area_Type
  10
331366.500
  20
4627360.000
  0
VERTEX
  8
Unknown_Area_Type
  10
331409.500
  20
4628511.500
  0
VERTEX
  8
Unknown_Area_Type
  10
329855.000
  20
4630132.000
  0
SEQEND
  8
Unknown_Area_Type
  0
INSERT
  8
FeatureAttribs
  2
FEATURE
  41
1
  42
1
  43
1
  50
0
  10
321785.588
  20
4628579.695
 66
1
  0
ATTRIB
  8
FeatureAttribs
 70
0
  1
PNOA-H_AMS_1956-57_33k_ES_PAN_2
  2
NAME
  10
321785.588
  20
4628579.695
 40
34.05031
  0
SEQEND
  0
POLYLINE
  8
Unknown_Area_Type
  70
1
  66
1
  0
VERTEX
  8
Unknown_Area_Type
  10
321169.500
  20
4630098.500
  0
VERTEX
  8
Unknown_Area_Type
  10
321373.000
  20
4630505.500
  0
VERTEX
  8
Unknown_Area_Type
  10
323271.000
  20
4628615.500
  0
VERTEX
  8
Unknown_Area_Type
  10
323220.500
  20
4627577.500
  0
VERTEX
  8
Unknown_Area_Type
  10
321138.000
  20
4627275.000
  0
VERTEX
  8
Unknown_Area_Type
  10
321120.500
  20
4627272.500
  0
VERTEX
  8
Unknown_Area_Type
  10
321117.000
  20
4627272.500
  0
VERTEX
  8
Unknown_Area_Type
  10
321114.500
  20
4627274.000
  0
VERTEX
  8
Unknown_Area_Type
  10
320488.500
  20
4627725.000
  0
VERTEX
  8
Unknown_Area_Type
  10
320481.500
  20
4627731.000
  0
VERTEX
  8
Unknown_Area_Type
  10
320557.000
  20
4628870.500
  0
VERTEX
  8
Unknown_Area_Type
  10
321169.500
  20
4630097.500
  0
VERTEX
  8
Unknown_Area_Type
  10
321169.500
  20
4630098.500
  0
SEQEND
  8
Unknown_Area_Type
  0
INSERT
  8
FeatureAttribs
  2
FEATURE
  41
1
  42
1
  43
1
  50
0
  10
321785.588
  20
4628579.695
 66
1
  0
ATTRIB
  8
FeatureAttribs
 70
0
  1
PNOA-H_AMS_1956-57_33k_ES_PAN_2
  2
NAME
  10
321785.588
  20
4628579.695
 40
34.05031
  0
SEQEND
  0
POLYLINE
  8
Unknown_Area_Type
  70
1
  66
1
  0
VERTEX
  8
Unknown_Area_Type
  10
321169.500
  20
4630098.500
  0
VERTEX
  8
Unknown_Area_Type
  10
321169.500
  20
4630097.500
  0
VERTEX
  8
Unknown_Area_Type
  10
320557.000
  20
4628870.500
  0
VERTEX
  8
Unknown_Area_Type
  10
320481.500
  20
4627731.000
  0
VERTEX
  8
Unknown_Area_Type
  10
320488.500
  20
4627725.000
  0
VERTEX
  8
Unknown_Area_Type
  10
321114.500
  20
4627274.000
  0
VERTEX
  8
Unknown_Area_Type
  10
321117.000
  20
4627272.500
  0
VERTEX
  8
Unknown_Area_Type
  10
321120.500
  20
4627272.500
  0
VERTEX
  8
Unknown_Area_Type
  10
321138.000
  20
4627275.000
  0
VERTEX
  8
Unknown_Area_Type
  10
323220.500
  20
4627577.500
  0
VERTEX
  8
Unknown_Area_Type
  10
323271.000
  20
4628615.500
  0
VERTEX
  8
Unknown_Area_Type
  10
321373.000
  20
4630505.500
  0
VERTEX
  8
Unknown_Area_Type
  10
321169.500
  20
4630098.500
  0
SEQEND
  8
Unknown_Area_Type
  0
INSERT
  8
FeatureAttribs
  2
FEATURE
  41
1
  42
1
  43
1
  50
0
  10
327271.777
  20
4628323.446
 66
1
  0
ATTRIB
  8
FeatureAttribs
 70
0
  1
PNOA-H_AMS_1956-57_33k_ES_PAN_2
  2
NAME
  10
327271.777
  20
4628323.446
 40
34.05031
  0
SEQEND
  0
POLYLINE
  8
Unknown_Area_Type
  70
1
  66
1
  0
VERTEX
  8
Unknown_Area_Type
  10
327314.000
  20
4629816.000
  0
VERTEX
  8
Unknown_Area_Type
  10
328698.500
  20
4628535.500
  0
VERTEX
  8
Unknown_Area_Type
  10
328658.500
  20
4627426.500
  0
VERTEX
  8
Unknown_Area_Type
  10
326391.000
  20
4627123.500
  0
VERTEX
  8
Unknown_Area_Type
  10
325917.500
  20
4627493.000
  0
VERTEX
  8
Unknown_Area_Type
  10
325962.000
  20
4628453.500
  0
VERTEX
  8
Unknown_Area_Type
  10
327069.500
  20
4630040.000
  0
VERTEX
  8
Unknown_Area_Type
  10
327070.500
  20
4630041.000
  0
VERTEX
  8
Unknown_Area_Type
  10
327072.000
  20
4630040.500
  0
VERTEX
  8
Unknown_Area_Type
  10
327313.500
  20
4629817.000
  0
VERTEX
  8
Unknown_Area_Type
  10
327314.000
  20
4629816.000
  0
SEQEND
  8
Unknown_Area_Type
  0
INSERT
  8
FeatureAttribs
  2
FEATURE
  41
1
  42
1
  43
1
  50
0
  10
327271.777
  20
4628323.446
 66
1
  0
ATTRIB
  8
FeatureAttribs
 70
0
  1
PNOA-H_AMS_1956-57_33k_ES_PAN_2
  2
NAME
  10
327271.777
  20
4628323.446
 40
34.05031
  0
SEQEND
  0
POLYLINE
  8
Unknown_Area_Type
  70
1
  66
1
  0
VERTEX
  8
Unknown_Area_Type
  10
327314.000
  20
4629816.000
  0
VERTEX
  8
Unknown_Area_Type
  10
327313.500
  20
4629817.000
  0
VERTEX
  8
Unknown_Area_Type
  10
327072.000
  20
4630040.500
  0
VERTEX
  8
Unknown_Area_Type
  10
327070.500
  20
4630041.000
  0
VERTEX
  8
Unknown_Area_Type
  10
327069.500
  20
4630040.000
  0
VERTEX
  8
Unknown_Area_Type
  10
325962.000
  20
4628453.500
  0
VERTEX
  8
Unknown_Area_Type
  10
325917.500
  20
4627493.000
  0
VERTEX
  8
Unknown_Area_Type
  10
326391.000
  20
4627123.500
  0
VERTEX
  8
Unknown_Area_Type
  10
328658.500
  20
4627426.500
  0
VERTEX
  8
Unknown_Area_Type
  10
328698.500
  20
4628535.500
  0
VERTEX
  8
Unknown_Area_Type
  10
327314.000
  20
4629816.000
  0
SEQEND
  8
Unknown_Area_Type
  0
INSERT
  8
FeatureAttribs
  2
FEATURE
  41
1
  42
1
  43
1
  50
0
  10
335134.164
  20
4614587.220
 66
1
  0
ATTRIB
  8
FeatureAttribs
 70
0
  1
PNOA-H_AMS_1956-57_33k_ES_PAN_2
  2
NAME
  10
335134.164
  20
4614587.220
 40
34.05031
  0
SEQEND
  0
POLYLINE
  8
Unknown_Area_Type
  70
1
  66
1
  0
VERTEX
  8
Unknown_Area_Type
  10
336522.876
  20
4614630.629
  0
VERTEX
  8
Unknown_Area_Type
  10
336523.164
  20
4614480.000
  0
VERTEX
  8
Unknown_Area_Type
  10
333743.426
  20
4614480.000
  0
VERTEX
  8
Unknown_Area_Type
  10
333747.314
  20
4614694.440
  0
VERTEX
  8
Unknown_Area_Type
  10
335233.619
  20
4614659.935
  0
VERTEX
  8
Unknown_Area_Type
  10
336522.876
  20
4614630.629
  0
SEQEND
  8
Unknown_Area_Type
  0
INSERT
  8
FeatureAttribs
  2
FEATURE
  41
1
  42
1
  43
1
  50
0
  10
335164.483
  20
4616852.280
 66
1
  0
ATTRIB
  8
FeatureAttribs
 70
0
  1
PNOA-H_AMS_1956-57_33k_ES_PAN_2
  2
NAME
  10
335164.483
  20
4616852.280
 40
34.05031
  0
SEQEND
  0
POLYLINE
  8
Unknown_Area_Type
  70
1
  66
1
  0
VERTEX
  8
Unknown_Area_Type
  10
336522.876
  20
4614630.629
  0
VERTEX
  8
Unknown_Area_Type
  10
335233.619
  20
4614659.935
  0
VERTEX
  8
Unknown_Area_Type
  10
333747.314
  20
4614694.440
  0
VERTEX
  8
Unknown_Area_Type
  10
333825.000
  20
4618980.000
  0
VERTEX
  8
Unknown_Area_Type
  10
336501.500
  20
4619150.000
  0
VERTEX
  8
Unknown_Area_Type
  10
336509.500
  20
4619150.500
  0
VERTEX
  8
Unknown_Area_Type
  10
336514.000
  20
4619150.500
  0
VERTEX
  8
Unknown_Area_Type
  10
336514.500
  20
4619010.000
  0
VERTEX
  8
Unknown_Area_Type
  10
336522.876
  20
4614630.629
  0
SEQEND
  8
Unknown_Area_Type
  0
INSERT
  8
FeatureAttribs
  2
FEATURE
  41
1
  42
1
  43
1
  50
0
  10
335164.483
  20
4616852.280
 66
1
  0
ATTRIB
  8
FeatureAttribs
 70
0
  1
PNOA-H_AMS_1956-57_33k_ES_PAN_2
  2
NAME
  10
335164.483
  20
4616852.280
 40
34.05031
  0
SEQEND
  0
POLYLINE
  8
Unknown_Area_Type
  70
1
  66
1
  0
VERTEX
  8
Unknown_Area_Type
  10
336522.876
  20
4614630.629
  0
VERTEX
  8
Unknown_Area_Type
  10
336514.500
  20
4619010.000
  0
VERTEX
  8
Unknown_Area_Type
  10
336514.000
  20
4619150.500
  0
VERTEX
  8
Unknown_Area_Type
  10
336509.500
  20
4619150.500
  0
VERTEX
  8
Unknown_Area_Type
  10
336501.500
  20
4619150.000
  0
VERTEX
  8
Unknown_Area_Type
  10
333825.000
  20
4618980.000
  0
VERTEX
  8
Unknown_Area_Type
  10
333747.314
  20
4614694.440
  0
VERTEX
  8
Unknown_Area_Type
  10
335233.619
  20
4614659.935
  0
VERTEX
  8
Unknown_Area_Type
  10
336522.876
  20
4614630.629
  0
SEQEND
  8
Unknown_Area_Type
  0
INSERT
  8
FeatureAttribs
  2
FEATURE
  41
1
  42
1
  43
1
  50
0
  10
337898.055
  20
4614529.513
 66
1
  0
ATTRIB
  8
FeatureAttribs
 70
0
  1
PNOA-H_AMS_1956-57_33k_ES_PAN_2
  2
NAME
  10
337898.055
  20
4614529.513
 40
34.05031
  0
SEQEND
  0
POLYLINE
  8
Unknown_Area_Type
  70
1
  66
1
  0
VERTEX
  8
Unknown_Area_Type
  10
339271.073
  20
4614428.395
  0
VERTEX
  8
Unknown_Area_Type
  10
338600.000
  20
4614428.395
  0
VERTEX
  8
Unknown_Area_Type
  10
338600.000
  20
4614480.000
  0
VERTEX
  8
Unknown_Area_Type
  10
336523.134
  20
4614480.000
  0
VERTEX
  8
Unknown_Area_Type
  10
336522.839
  20
4614630.630
  0
VERTEX
  8
Unknown_Area_Type
  10
338702.542
  20
4614581.083
  0
VERTEX
  8
Unknown_Area_Type
  10
339273.841
  20
4614568.373
  0
VERTEX
  8
Unknown_Area_Type
  10
339271.073
  20
4614428.395
  0
SEQEND
  8
Unknown_Area_Type
  0
INSERT
  8
FeatureAttribs
  2
FEATURE
  41
1
  42
1
  43
1
  50
0
  10
337913.623
  20
4616851.069
 66
1
  0
ATTRIB
  8
FeatureAttribs
 70
0
  1
PNOA-H_AMS_1956-57_33k_ES_PAN_2
  2
NAME
  10
337913.623
  20
4616851.069
 40
34.05031
  0
SEQEND
  0
POLYLINE
  8
Unknown_Area_Type
  70
1
  66
1
  0
VERTEX
  8
Unknown_Area_Type
  10
339273.841
  20
4614568.373
  0
VERTEX
  8
Unknown_Area_Type
  10
338702.542
  20
4614581.083
  0
VERTEX
  8
Unknown_Area_Type
  10
336522.839
  20
4614630.630
  0
VERTEX
  8
Unknown_Area_Type
  10
336514.000
  20
4619150.500
  0
VERTEX
  8
Unknown_Area_Type
  10
336517.500
  20
4619153.000
  0
VERTEX
  8
Unknown_Area_Type
  10
336520.000
  20
4619153.000
  0
VERTEX
  8
Unknown_Area_Type
  10
337551.000
  20
4619097.000
  0
VERTEX
  8
Unknown_Area_Type
  10
337554.000
  20
4619097.000
  0
VERTEX
  8
Unknown_Area_Type
  10
339361.500
  20
4619000.000
  0
VERTEX
  8
Unknown_Area_Type
  10
339273.841
  20
4614568.373
  0
SEQEND
  8
Unknown_Area_Type
  0
INSERT
  8
FeatureAttribs
  2
FEATURE
  41
1
  42
1
  43
1
  50
0
  10
337913.623
  20
4616851.069
 66
1
  0
ATTRIB
  8
FeatureAttribs
 70
0
  1
PNOA-H_AMS_1956-57_33k_ES_PAN_2
  2
NAME
  10
337913.623
  20
4616851.069
 40
34.05031
  0
SEQEND
  0
POLYLINE
  8
Unknown_Area_Type
  70
1
  66
1
  0
VERTEX
  8
Unknown_Area_Type
  10
339273.841
  20
4614568.373
  0
VERTEX
  8
Unknown_Area_Type
  10
339361.500
  20
4619000.000
  0
VERTEX
  8
Unknown_Area_Type
  10
337554.000
  20
4619097.000
  0
VERTEX
  8
Unknown_Area_Type
  10
337551.000
  20
4619097.000
  0
VERTEX
  8
Unknown_Area_Type
  10
336520.000
  20
4619153.000
  0
VERTEX
  8
Unknown_Area_Type
  10
336517.500
  20
4619153.000
  0
VERTEX
  8
Unknown_Area_Type
  10
336514.000
  20
4619150.500
  0
VERTEX
  8
Unknown_Area_Type
  10
336522.839
  20
4614630.630
  0
VERTEX
  8
Unknown_Area_Type
  10
338702.542
  20
4614581.083
  0
VERTEX
  8
Unknown_Area_Type
  10
339273.841
  20
4614568.373
  0
SEQEND
  8
Unknown_Area_Type
  0
INSERT
  8
FeatureAttribs
  2
FEATURE
  41
1
  42
1
  43
1
  50
0
  10
343023.815
  20
4614466.367
 66
1
  0
ATTRIB
  8
FeatureAttribs
 70
0
  1
PNOA-H_AMS_1956-57_33k_ES_PAN_2
  2
NAME
  10
343023.815
  20
4614466.367
 40
34.05031
  0
SEQEND
  0
POLYLINE
  8
Unknown_Area_Type
  70
1
  66
1
  0
VERTEX
  8
Unknown_Area_Type
  10
344974.706
  20
4614442.901
  0
VERTEX
  8
Unknown_Area_Type
  10
344974.472
  20
4614428.395
  0
VERTEX
  8
Unknown_Area_Type
  10
342150.245
  20
4614428.395
  0
VERTEX
  8
Unknown_Area_Type
  10
342152.103
  20
4614504.339
  0
VERTEX
  8
Unknown_Area_Type
  10
342171.456
  20
4614503.909
  0
VERTEX
  8
Unknown_Area_Type
  10
344974.706
  20
4614442.901
  0
SEQEND
  8
Unknown_Area_Type
  0
INSERT
  8
FeatureAttribs
  2
FEATURE
  41
1
  42
1
  43
1
  50
0
  10
343599.042
  20
4616676.828
 66
1
  0
ATTRIB
  8
FeatureAttribs
 70
0
  1
PNOA-H_AMS_1956-57_33k_ES_PAN_2
  2
NAME
  10
343599.042
  20
4616676.828
 40
34.05031
  0
SEQEND
  0
POLYLINE
  8
Unknown_Area_Type
  70
1
  66
1
  0
VERTEX
  8
Unknown_Area_Type
  10
344974.706
  20
4614442.901
  0
VERTEX
  8
Unknown_Area_Type
  10
342171.456
  20
4614503.909
  0
VERTEX
  8
Unknown_Area_Type
  10
342152.103
  20
4614504.339
  0
VERTEX
  8
Unknown_Area_Type
  10
342258.000
  20
4618832.500
  0
VERTEX
  8
Unknown_Area_Type
  10
342686.500
  20
4619022.500
  0
VERTEX
  8
Unknown_Area_Type
  10
343695.000
  20
4618901.500
  0
VERTEX
  8
Unknown_Area_Type
  10
343698.000
  20
4618901.500
  0
VERTEX
  8
Unknown_Area_Type
  10
345044.000
  20
4618740.000
  0
VERTEX
  8
Unknown_Area_Type
  10
344974.706
  20
4614442.901
  0
SEQEND
  8
Unknown_Area_Type
  0
INSERT
  8
FeatureAttribs
  2
FEATURE
  41
1
  42
1
  43
1
  50
0
  10
343599.042
  20
4616676.828
 66
1
  0
ATTRIB
  8
FeatureAttribs
 70
0
  1
PNOA-H_AMS_1956-57_33k_ES_PAN_2
  2
NAME
  10
343599.042
  20
4616676.828
 40
34.05031
  0
SEQEND
  0
POLYLINE
  8
Unknown_Area_Type
  70
1
  66
1
  0
VERTEX
  8
Unknown_Area_Type
  10
344974.706
  20
4614442.901
  0
VERTEX
  8
Unknown_Area_Type
  10
345044.000
  20
4618740.000
  0
VERTEX
  8
Unknown_Area_Type
  10
343698.000
  20
4618901.500
  0
VERTEX
  8
Unknown_Area_Type
  10
343695.000
  20
4618901.500
  0
VERTEX
  8
Unknown_Area_Type
  10
342686.500
  20
4619022.500
  0
VERTEX
  8
Unknown_Area_Type
  10
342258.000
  20
4618832.500
  0
VERTEX
  8
Unknown_Area_Type
  10
342152.103
  20
4614504.339
  0
VERTEX
  8
Unknown_Area_Type
  10
342171.456
  20
4614503.909
  0
VERTEX
  8
Unknown_Area_Type
  10
344974.706
  20
4614442.901
  0
SEQEND
  8
Unknown_Area_Type
  0
INSERT
  8
FeatureAttribs
  2
FEATURE
  41
1
  42
1
  43
1
  50
0
  10
332702.971
  20
4614618.749
 66
1
  0
ATTRIB
  8
FeatureAttribs
 70
0
  1
PNOA-H_AMS_1956-57_33k_ES_PAN_2
  2
NAME
  10
332702.971
  20
4614618.749
 40
34.05031
  0
SEQEND
  0
POLYLINE
  8
Unknown_Area_Type
  70
1
  66
1
  0
VERTEX
  8
Unknown_Area_Type
  10
333747.314
  20
4614694.440
  0
VERTEX
  8
Unknown_Area_Type
  10
333743.426
  20
4614480.000
  0
VERTEX
  8
Unknown_Area_Type
  10
331660.000
  20
4614480.000
  0
VERTEX
  8
Unknown_Area_Type
  10
331660.000
  20
4614640.000
  0
VERTEX
  8
Unknown_Area_Type
  10
331045.839
  20
4614640.000
  0
VERTEX
  8
Unknown_Area_Type
  10
331046.107
  20
4614757.497
  0
VERTEX
  8
Unknown_Area_Type
  10
331764.685
  20
4614740.468
  0
VERTEX
  8
Unknown_Area_Type
  10
333747.314
  20
4614694.440
  0
SEQEND
  8
Unknown_Area_Type
  0
INSERT
  8
FeatureAttribs
  2
FEATURE
  41
1
  42
1
  43
1
  50
0
  10
332438.914
  20
4616910.887
 66
1
  0
ATTRIB
  8
FeatureAttribs
 70
0
  1
PNOA-H_AMS_1956-57_33k_ES_PAN_2
  2
NAME
  10
332438.914
  20
4616910.887
 40
34.05031
  0
SEQEND
  0
POLYLINE
  8
Unknown_Area_Type
  70
1
  66
1
  0
VERTEX
  8
Unknown_Area_Type
  10
333747.314
  20
4614694.440
  0
VERTEX
  8
Unknown_Area_Type
  10
331764.685
  20
4614740.468
  0
VERTEX
  8
Unknown_Area_Type
  10
331046.107
  20
4614757.497
  0
VERTEX
  8
Unknown_Area_Type
  10
331055.000
  20
4618657.500
  0
VERTEX
  8
Unknown_Area_Type
  10
331408.500
  20
4618929.000
  0
VERTEX
  8
Unknown_Area_Type
  10
331409.500
  20
4618929.500
  0
VERTEX
  8
Unknown_Area_Type
  10
331532.500
  20
4619024.000
  0
VERTEX
  8
Unknown_Area_Type
  10
333266.500
  20
4619231.000
  0
VERTEX
  8
Unknown_Area_Type
  10
333271.000
  20
4619231.000
  0
VERTEX
  8
Unknown_Area_Type
  10
333280.000
  20
4619227.000
  0
VERTEX
  8
Unknown_Area_Type
  10
333825.000
  20
4618980.000
  0
VERTEX
  8
Unknown_Area_Type
  10
333747.314
  20
4614694.440
  0
SEQEND
  8
Unknown_Area_Type
  0
INSERT
  8
FeatureAttribs
  2
FEATURE
  41
1
  42
1
  43
1
  50
0
  10
332438.914
  20
4616910.887
 66
1
  0
ATTRIB
  8
FeatureAttribs
 70
0
  1
PNOA-H_AMS_1956-57_33k_ES_PAN_2
  2
NAME
  10
332438.914
  20
4616910.887
 40
34.05031
  0
SEQEND
  0
POLYLINE
  8
Unknown_Area_Type
  70
1
  66
1
  0
VERTEX
  8
Unknown_Area_Type
  10
333747.314
  20
4614694.440
  0
VERTEX
  8
Unknown_Area_Type
  10
333825.000
  20
4618980.000
  0
VERTEX
  8
Unknown_Area_Type
  10
333280.000
  20
4619227.000
  0
VERTEX
  8
Unknown_Area_Type
  10
333271.000
  20
4619231.000
  0
VERTEX
  8
Unknown_Area_Type
  10
333266.500
  20
4619231.000
  0
VERTEX
  8
Unknown_Area_Type
  10
331532.500
  20
4619024.000
  0
VERTEX
  8
Unknown_Area_Type
  10
331409.500
  20
4618929.500
  0
VERTEX
  8
Unknown_Area_Type
  10
331408.500
  20
4618929.000
  0
VERTEX
  8
Unknown_Area_Type
  10
331055.000
  20
4618657.500
  0
VERTEX
  8
Unknown_Area_Type
  10
331046.107
  20
4614757.497
  0
VERTEX
  8
Unknown_Area_Type
  10
331764.685
  20
4614740.468
  0
VERTEX
  8
Unknown_Area_Type
  10
333747.314
  20
4614694.440
  0
SEQEND
  8
Unknown_Area_Type
  0
INSERT
  8
FeatureAttribs
  2
FEATURE
  41
1
  42
1
  43
1
  50
0
  10
345864.135
  20
4616687.156
 66
1
  0
ATTRIB
  8
FeatureAttribs
 70
0
  1
PNOA-H_AMS_1956-57_33k_ES_PAN_2
  2
NAME
  10
345864.135
  20
4616687.156
 40
34.05031
  0
SEQEND
  0
POLYLINE
  8
Unknown_Area_Type
  70
1
  66
1
  0
VERTEX
  8
Unknown_Area_Type
  10
346039.291
  20
4618899.615
  0
VERTEX
  8
Unknown_Area_Type
  10
346039.291
  20
4614428.395
  0
VERTEX
  8
Unknown_Area_Type
  10
345641.260
  20
4614428.395
  0
VERTEX
  8
Unknown_Area_Type
  10
345640.359
  20
4614428.414
  0
VERTEX
  8
Unknown_Area_Type
  10
345690.151
  20
4616741.528
  0
VERTEX
  8
Unknown_Area_Type
  10
345737.621
  20
4618945.917
  0
VERTEX
  8
Unknown_Area_Type
  10
345743.500
  20
4618945.000
  0
VERTEX
  8
Unknown_Area_Type
  10
345746.000
  20
4618945.000
  0
VERTEX
  8
Unknown_Area_Type
  10
346039.291
  20
4618899.615
  0
SEQEND
  8
Unknown_Area_Type
  0
INSERT
  8
FeatureAttribs
  2
FEATURE
  41
1
  42
1
  43
1
  50
0
  10
345141.281
  20
4614435.648
 66
1
  0
ATTRIB
  8
FeatureAttribs
 70
0
  1
PNOA-H_AMS_1956-57_33k_ES_PAN_2
  2
NAME
  10
345141.281
  20
4614435.648
 40
34.05031
  0
SEQEND
  0
POLYLINE
  8
Unknown_Area_Type
  70
1
  66
1
  0
VERTEX
  8
Unknown_Area_Type
  10
344974.706
  20
4614442.901
  0
VERTEX
  8
Unknown_Area_Type
  10
345640.359
  20
4614428.414
  0
VERTEX
  8
Unknown_Area_Type
  10
345640.359
  20
4614428.395
  0
VERTEX
  8
Unknown_Area_Type
  10
344974.472
  20
4614428.395
  0
VERTEX
  8
Unknown_Area_Type
  10
344974.706
  20
4614442.901
  0
SEQEND
  8
Unknown_Area_Type
  0
INSERT
  8
FeatureAttribs
  2
FEATURE
  41
1
  42
1
  43
1
  50
0
  10
345640.584
  20
4614428.405
 66
1
  0
ATTRIB
  8
FeatureAttribs
 70
0
  1
PNOA-H_AMS_1956-57_33k_ES_PAN_2
  2
NAME
  10
345640.584
  20
4614428.405
 40
34.05031
  0
SEQEND
  0
POLYLINE
  8
Unknown_Area_Type
  70
1
  66
1
  0
VERTEX
  8
Unknown_Area_Type
  10
345640.359
  20
4614428.414
  0
VERTEX
  8
Unknown_Area_Type
  10
345641.260
  20
4614428.395
  0
VERTEX
  8
Unknown_Area_Type
  10
345640.359
  20
4614428.395
  0
VERTEX
  8
Unknown_Area_Type
  10
345640.359
  20
4614428.414
  0
SEQEND
  8
Unknown_Area_Type
  0
INSERT
  8
FeatureAttribs
  2
FEATURE
  41
1
  42
1
  43
1
  50
0
  10
345352.914
  20
4616666.482
 66
1
  0
ATTRIB
  8
FeatureAttribs
 70
0
  1
PNOA-H_AMS_1956-57_33k_ES_PAN_2
  2
NAME
  10
345352.914
  20
4616666.482
 40
34.05031
  0
SEQEND
  0
POLYLINE
  8
Unknown_Area_Type
  70
1
  66
1
  0
VERTEX
  8
Unknown_Area_Type
  10
345737.621
  20
4618945.917
  0
VERTEX
  8
Unknown_Area_Type
  10
345690.151
  20
4616741.528
  0
VERTEX
  8
Unknown_Area_Type
  10
345640.359
  20
4614428.414
  0
VERTEX
  8
Unknown_Area_Type
  10
344974.706
  20
4614442.901
  0
VERTEX
  8
Unknown_Area_Type
  10
345044.000
  20
4618740.000
  0
VERTEX
  8
Unknown_Area_Type
  10
345618.500
  20
4618964.500
  0
VERTEX
  8
Unknown_Area_Type
  10
345737.621
  20
4618945.917
  0
SEQEND
  8
Unknown_Area_Type
  0
INSERT
  8
FeatureAttribs
  2
FEATURE
  41
1
  42
1
  43
1
  50
0
  10
345352.914
  20
4616666.482
 66
1
  0
ATTRIB
  8
FeatureAttribs
 70
0
  1
PNOA-H_AMS_1956-57_33k_ES_PAN_2
  2
NAME
  10
345352.914
  20
4616666.482
 40
34.05031
  0
SEQEND
  0
POLYLINE
  8
Unknown_Area_Type
  70
1
  66
1
  0
VERTEX
  8
Unknown_Area_Type
  10
345737.621
  20
4618945.917
  0
VERTEX
  8
Unknown_Area_Type
  10
345618.500
  20
4618964.500
  0
VERTEX
  8
Unknown_Area_Type
  10
345044.000
  20
4618740.000
  0
VERTEX
  8
Unknown_Area_Type
  10
344974.706
  20
4614442.901
  0
VERTEX
  8
Unknown_Area_Type
  10
345640.359
  20
4614428.414
  0
VERTEX
  8
Unknown_Area_Type
  10
345690.151
  20
4616741.528
  0
VERTEX
  8
Unknown_Area_Type
  10
345737.621
  20
4618945.917
  0
SEQEND
  8
Unknown_Area_Type
  0
INSERT
  8
FeatureAttribs
  2
FEATURE
  41
1
  42
1
  43
1
  50
0
  10
340712.212
  20
4614498.384
 66
1
  0
ATTRIB
  8
FeatureAttribs
 70
0
  1
PNOA-H_AMS_1956-57_33k_ES_PAN_2
  2
NAME
  10
340712.212
  20
4614498.384
 40
34.05031
  0
SEQEND
  0
POLYLINE
  8
Unknown_Area_Type
  70
1
  66
1
  0
VERTEX
  8
Unknown_Area_Type
  10
342150.256
  20
4614428.395
  0
VERTEX
  8
Unknown_Area_Type
  10
339271.073
  20
4614428.395
  0
VERTEX
  8
Unknown_Area_Type
  10
339273.841
  20
4614568.373
  0
VERTEX
  8
Unknown_Area_Type
  10
342152.114
  20
4614504.339
  0
VERTEX
  8
Unknown_Area_Type
  10
342150.256
  20
4614428.395
  0
SEQEND
  8
Unknown_Area_Type
  0
INSERT
  8
FeatureAttribs
  2
FEATURE
  41
1
  42
1
  43
1
  50
0
  10
340749.918
  20
4616769.525
 66
1
  0
ATTRIB
  8
FeatureAttribs
 70
0
  1
PNOA-H_AMS_1956-57_33k_ES_PAN_2
  2
NAME
  10
340749.918
  20
4616769.525
 40
34.05031
  0
SEQEND
  0
POLYLINE
  8
Unknown_Area_Type
  70
1
  66
1
  0
VERTEX
  8
Unknown_Area_Type
  10
342152.114
  20
4614504.339
  0
VERTEX
  8
Unknown_Area_Type
  10
339273.841
  20
4614568.373
  0
VERTEX
  8
Unknown_Area_Type
  10
339361.500
  20
4619000.000
  0
VERTEX
  8
Unknown_Area_Type
  10
339600.000
  20
4619112.000
  0
VERTEX
  8
Unknown_Area_Type
  10
339601.000
  20
4619112.500
  0
VERTEX
  8
Unknown_Area_Type
  10
339663.000
  20
4619141.500
  0
VERTEX
  8
Unknown_Area_Type
  10
342258.000
  20
4618832.500
  0
VERTEX
  8
Unknown_Area_Type
  10
342152.114
  20
4614504.339
  0
SEQEND
  8
Unknown_Area_Type
  0
INSERT
  8
FeatureAttribs
  2
FEATURE
  41
1
  42
1
  43
1
  50
0
  10
340749.918
  20
4616769.525
 66
1
  0
ATTRIB
  8
FeatureAttribs
 70
0
  1
PNOA-H_AMS_1956-57_33k_ES_PAN_2
  2
NAME
  10
340749.918
  20
4616769.525
 40
34.05031
  0
SEQEND
  0
POLYLINE
  8
Unknown_Area_Type
  70
1
  66
1
  0
VERTEX
  8
Unknown_Area_Type
  10
342152.114
  20
4614504.339
  0
VERTEX
  8
Unknown_Area_Type
  10
342258.000
  20
4618832.500
  0
VERTEX
  8
Unknown_Area_Type
  10
339663.000
  20
4619141.500
  0
VERTEX
  8
Unknown_Area_Type
  10
339601.000
  20
4619112.500
  0
VERTEX
  8
Unknown_Area_Type
  10
339600.000
  20
4619112.000
  0
VERTEX
  8
Unknown_Area_Type
  10
339361.500
  20
4619000.000
  0
VERTEX
  8
Unknown_Area_Type
  10
339273.841
  20
4614568.373
  0
VERTEX
  8
Unknown_Area_Type
  10
342152.114
  20
4614504.339
  0
SEQEND
  8
Unknown_Area_Type
  0
INSERT
  8
FeatureAttribs
  2
FEATURE
  41
1
  42
1
  43
1
  50
0
  10
341145.041
  20
4625714.092
 66
1
  0
ATTRIB
  8
FeatureAttribs
 70
0
  1
PNOA-H_AMS_1956-57_33k_ES_PAN_2
  2
NAME
  10
341145.041
  20
4625714.092
 40
34.05031
  0
SEQEND
  0
POLYLINE
  8
Unknown_Area_Type
  70
1
  66
1
  0
VERTEX
  8
Unknown_Area_Type
  10
341650.000
  20
4627705.000
  0
VERTEX
  8
Unknown_Area_Type
  10
342504.500
  20
4627412.500
  0
VERTEX
  8
Unknown_Area_Type
  10
342436.000
  20
4623735.500
  0
VERTEX
  8
Unknown_Area_Type
  10
339901.500
  20
4623614.500
  0
VERTEX
  8
Unknown_Area_Type
  10
339891.500
  20
4623614.500
  0
VERTEX
  8
Unknown_Area_Type
  10
339891.000
  20
4623623.500
  0
VERTEX
  8
Unknown_Area_Type
  10
339820.000
  20
4627509.500
  0
VERTEX
  8
Unknown_Area_Type
  10
340877.000
  20
4627969.500
  0
VERTEX
  8
Unknown_Area_Type
  10
341649.000
  20
4627705.000
  0
VERTEX
  8
Unknown_Area_Type
  10
341650.000
  20
4627705.000
  0
SEQEND
  8
Unknown_Area_Type
  0
INSERT
  8
FeatureAttribs
  2
FEATURE
  41
1
  42
1
  43
1
  50
0
  10
341145.041
  20
4625714.092
 66
1
  0
ATTRIB
  8
FeatureAttribs
 70
0
  1
PNOA-H_AMS_1956-57_33k_ES_PAN_2
  2
NAME
  10
341145.041
  20
4625714.092
 40
34.05031
  0
SEQEND
  0
POLYLINE
  8
Unknown_Area_Type
  70
1
  66
1
  0
VERTEX
  8
Unknown_Area_Type
  10
341650.000
  20
4627705.000
  0
VERTEX
  8
Unknown_Area_Type
  10
341649.000
  20
4627705.000
  0
VERTEX
  8
Unknown_Area_Type
  10
340877.000
  20
4627969.500
  0
VERTEX
  8
Unknown_Area_Type
  10
339820.000
  20
4627509.500
  0
VERTEX
  8
Unknown_Area_Type
  10
339891.000
  20
4623623.500
  0
VERTEX
  8
Unknown_Area_Type
  10
339891.500
  20
4623614.500
  0
VERTEX
  8
Unknown_Area_Type
  10
339901.500
  20
4623614.500
  0
VERTEX
  8
Unknown_Area_Type
  10
342436.000
  20
4623735.500
  0
VERTEX
  8
Unknown_Area_Type
  10
342504.500
  20
4627412.500
  0
VERTEX
  8
Unknown_Area_Type
  10
341650.000
  20
4627705.000
  0
SEQEND
  8
Unknown_Area_Type
  0
INSERT
  8
FeatureAttribs
  2
FEATURE
  41
1
  42
1
  43
1
  50
0
  10
343750.552
  20
4625749.001
 66
1
  0
ATTRIB
  8
FeatureAttribs
 70
0
  1
PNOA-H_AMS_1956-57_33k_ES_PAN_2
  2
NAME
  10
343750.552
  20
4625749.001
 40
34.05031
  0
SEQEND
  0
POLYLINE
  8
Unknown_Area_Type
  70
1
  66
1
  0
VERTEX
  8
Unknown_Area_Type
  10
342504.500
  20
4627412.500
  0
VERTEX
  8
Unknown_Area_Type
  10
343695.500
  20
4627839.500
  0
VERTEX
  8
Unknown_Area_Type
  10
343697.000
  20
4627840.000
  0
VERTEX
  8
Unknown_Area_Type
  10
343853.000
  20
4627896.000
  0
VERTEX
  8
Unknown_Area_Type
  10
343857.000
  20
4627896.000
  0
VERTEX
  8
Unknown_Area_Type
  10
345608.500
  20
4627164.000
  0
VERTEX
  8
Unknown_Area_Type
  10
344303.500
  20
4623604.500
  0
VERTEX
  8
Unknown_Area_Type
  10
342916.000
  20
4623446.500
  0
VERTEX
  8
Unknown_Area_Type
  10
342436.000
  20
4623735.500
  0
VERTEX
  8
Unknown_Area_Type
  10
342504.500
  20
4627412.500
  0
SEQEND
  8
Unknown_Area_Type
  0
INSERT
  8
FeatureAttribs
  2
FEATURE
  41
1
  42
1
  43
1
  50
0
  10
343750.552
  20
4625749.001
 66
1
  0
ATTRIB
  8
FeatureAttribs
 70
0
  1
PNOA-H_AMS_1956-57_33k_ES_PAN_2
  2
NAME
  10
343750.552
  20
4625749.001
 40
34.05031
  0
SEQEND
  0
POLYLINE
  8
Unknown_Area_Type
  70
1
  66
1
  0
VERTEX
  8
Unknown_Area_Type
  10
342504.500
  20
4627412.500
  0
VERTEX
  8
Unknown_Area_Type
  10
342436.000
  20
4623735.500
  0
VERTEX
  8
Unknown_Area_Type
  10
342916.000
  20
4623446.500
  0
VERTEX
  8
Unknown_Area_Type
  10
344303.500
  20
4623604.500
  0
VERTEX
  8
Unknown_Area_Type
  10
345608.500
  20
4627164.000
  0
VERTEX
  8
Unknown_Area_Type
  10
343857.000
  20
4627896.000
  0
VERTEX
  8
Unknown_Area_Type
  10
343853.000
  20
4627896.000
  0
VERTEX
  8
Unknown_Area_Type
  10
343697.000
  20
4627840.000
  0
VERTEX
  8
Unknown_Area_Type
  10
343695.500
  20
4627839.500
  0
VERTEX
  8
Unknown_Area_Type
  10
342504.500
  20
4627412.500
  0
SEQEND
  8
Unknown_Area_Type
  0
INSERT
  8
FeatureAttribs
  2
FEATURE
  41
1
  42
1
  43
1
  50
0
  10
325755.660
  20
4630646.362
 66
1
  0
ATTRIB
  8
FeatureAttribs
 70
0
  1
PNOA-H_AMS_1956-57_33k_ES_PAN_2
  2
NAME
  10
325755.660
  20
4630646.362
 40
34.05031
  0
SEQEND
  0
POLYLINE
  8
Unknown_Area_Type
  70
1
  66
1
  0
VERTEX
  8
Unknown_Area_Type
  10
325705.500
  20
4632260.000
  0
VERTEX
  8
Unknown_Area_Type
  10
327067.000
  20
4631819.500
  0
VERTEX
  8
Unknown_Area_Type
  10
327070.500
  20
4630040.500
  0
VERTEX
  8
Unknown_Area_Type
  10
325962.500
  20
4628453.500
  0
VERTEX
  8
Unknown_Area_Type
  10
325961.500
  20
4628453.500
  0
VERTEX
  8
Unknown_Area_Type
  10
324328.500
  20
4630367.500
  0
VERTEX
  8
Unknown_Area_Type
  10
324360.000
  20
4631867.500
  0
VERTEX
  8
Unknown_Area_Type
  10
325704.000
  20
4632259.500
  0
VERTEX
  8
Unknown_Area_Type
  10
325705.500
  20
4632260.000
  0
SEQEND
  8
Unknown_Area_Type
  0
INSERT
  8
FeatureAttribs
  2
FEATURE
  41
1
  42
1
  43
1
  50
0
  10
325755.660
  20
4630646.362
 66
1
  0
ATTRIB
  8
FeatureAttribs
 70
0
  1
PNOA-H_AMS_1956-57_33k_ES_PAN_2
  2
NAME
  10
325755.660
  20
4630646.362
 40
34.05031
  0
SEQEND
  0
POLYLINE
  8
Unknown_Area_Type
  70
1
  66
1
  0
VERTEX
  8
Unknown_Area_Type
  10
325705.500
  20
4632260.000
  0
VERTEX
  8
Unknown_Area_Type
  10
325704.000
  20
4632259.500
  0
VERTEX
  8
Unknown_Area_Type
  10
324360.000
  20
4631867.500
  0
VERTEX
  8
Unknown_Area_Type
  10
324328.500
  20
4630367.500
  0
VERTEX
  8
Unknown_Area_Type
  10
325961.500
  20
4628453.500
  0
VERTEX
  8
Unknown_Area_Type
  10
325962.500
  20
4628453.500
  0
VERTEX
  8
Unknown_Area_Type
  10
327070.500
  20
4630040.500
  0
VERTEX
  8
Unknown_Area_Type
  10
327067.000
  20
4631819.500
  0
VERTEX
  8
Unknown_Area_Type
  10
325705.500
  20
4632260.000
  0
SEQEND
  8
Unknown_Area_Type
  0
INSERT
  8
FeatureAttribs
  2
FEATURE
  41
1
  42
1
  43
1
  50
0
  10
328466.427
  20
4630612.224
 66
1
  0
ATTRIB
  8
FeatureAttribs
 70
0
  1
PNOA-H_AMS_1956-57_33k_ES_PAN_2
  2
NAME
  10
328466.427
  20
4630612.224
 40
34.05031
  0
SEQEND
  0
POLYLINE
  8
Unknown_Area_Type
  70
1
  66
1
  0
VERTEX
  8
Unknown_Area_Type
  10
327313.000
  20
4631890.000
  0
VERTEX
  8
Unknown_Area_Type
  10
328429.000
  20
4632207.000
  0
VERTEX
  8
Unknown_Area_Type
  10
329853.500
  20
4631709.500
  0
VERTEX
  8
Unknown_Area_Type
  10
329855.500
  20
4630132.000
  0
VERTEX
  8
Unknown_Area_Type
  10
328699.000
  20
4628535.500
  0
VERTEX
  8
Unknown_Area_Type
  10
328681.500
  20
4628550.500
  0
VERTEX
  8
Unknown_Area_Type
  10
327070.500
  20
4630041.000
  0
VERTEX
  8
Unknown_Area_Type
  10
327067.000
  20
4631820.000
  0
VERTEX
  8
Unknown_Area_Type
  10
327311.500
  20
4631889.500
  0
VERTEX
  8
Unknown_Area_Type
  10
327313.000
  20
4631890.000
  0
SEQEND
  8
Unknown_Area_Type
  0
INSERT
  8
FeatureAttribs
  2
FEATURE
  41
1
  42
1
  43
1
  50
0
  10
328466.427
  20
4630612.224
 66
1
  0
ATTRIB
  8
FeatureAttribs
 70
0
  1
PNOA-H_AMS_1956-57_33k_ES_PAN_2
  2
NAME
  10
328466.427
  20
4630612.224
 40
34.05031
  0
SEQEND
  0
POLYLINE
  8
Unknown_Area_Type
  70
1
  66
1
  0
VERTEX
  8
Unknown_Area_Type
  10
327313.000
  20
4631890.000
  0
VERTEX
  8
Unknown_Area_Type
  10
327311.500
  20
4631889.500
  0
VERTEX
  8
Unknown_Area_Type
  10
327067.000
  20
4631820.000
  0
VERTEX
  8
Unknown_Area_Type
  10
327070.500
  20
4630041.000
  0
VERTEX
  8
Unknown_Area_Type
  10
328681.500
  20
4628550.500
  0
VERTEX
  8
Unknown_Area_Type
  10
328699.000
  20
4628535.500
  0
VERTEX
  8
Unknown_Area_Type
  10
329855.500
  20
4630132.000
  0
VERTEX
  8
Unknown_Area_Type
  10
329853.500
  20
4631709.500
  0
VERTEX
  8
Unknown_Area_Type
  10
328429.000
  20
4632207.000
  0
VERTEX
  8
Unknown_Area_Type
  10
327313.000
  20
4631890.000
  0
SEQEND
  8
Unknown_Area_Type
  0
INSERT
  8
FeatureAttribs
  2
FEATURE
  41
1
  42
1
  43
1
  50
0
  10
322924.180
  20
4630782.868
 66
1
  0
ATTRIB
  8
FeatureAttribs
 70
0
  1
PNOA-H_AMS_1956-57_33k_ES_PAN_2
  2
NAME
  10
322924.180
  20
4630782.868
 40
34.05031
  0
SEQEND
  0
POLYLINE
  8
Unknown_Area_Type
  70
1
  66
1
  0
VERTEX
  8
Unknown_Area_Type
  10
323218.000
  20
4632278.500
  0
VERTEX
  8
Unknown_Area_Type
  10
324360.000
  20
4631867.500
  0
VERTEX
  8
Unknown_Area_Type
  10
324328.500
  20
4630367.500
  0
VERTEX
  8
Unknown_Area_Type
  10
323271.000
  20
4628615.000
  0
VERTEX
  8
Unknown_Area_Type
  10
321372.500
  20
4630505.500
  0
VERTEX
  8
Unknown_Area_Type
  10
321448.500
  20
4631976.500
  0
VERTEX
  8
Unknown_Area_Type
  10
323001.000
  20
4632356.000
  0
VERTEX
  8
Unknown_Area_Type
  10
323011.000
  20
4632353.500
  0
VERTEX
  8
Unknown_Area_Type
  10
323216.500
  20
4632279.000
  0
VERTEX
  8
Unknown_Area_Type
  10
323218.000
  20
4632278.500
  0
SEQEND
  8
Unknown_Area_Type
  0
INSERT
  8
FeatureAttribs
  2
FEATURE
  41
1
  42
1
  43
1
  50
0
  10
322924.180
  20
4630782.868
 66
1
  0
ATTRIB
  8
FeatureAttribs
 70
0
  1
PNOA-H_AMS_1956-57_33k_ES_PAN_2
  2
NAME
  10
322924.180
  20
4630782.868
 40
34.05031
  0
SEQEND
  0
POLYLINE
  8
Unknown_Area_Type
  70
1
  66
1
  0
VERTEX
  8
Unknown_Area_Type
  10
323218.000
  20
4632278.500
  0
VERTEX
  8
Unknown_Area_Type
  10
323216.500
  20
4632279.000
  0
VERTEX
  8
Unknown_Area_Type
  10
323011.000
  20
4632353.500
  0
VERTEX
  8
Unknown_Area_Type
  10
323001.000
  20
4632356.000
  0
VERTEX
  8
Unknown_Area_Type
  10
321448.500
  20
4631976.500
  0
VERTEX
  8
Unknown_Area_Type
  10
321372.500
  20
4630505.500
  0
VERTEX
  8
Unknown_Area_Type
  10
323271.000
  20
4628615.000
  0
VERTEX
  8
Unknown_Area_Type
  10
324328.500
  20
4630367.500
  0
VERTEX
  8
Unknown_Area_Type
  10
324360.000
  20
4631867.500
  0
VERTEX
  8
Unknown_Area_Type
  10
323218.000
  20
4632278.500
  0
SEQEND
  8
Unknown_Area_Type
  0
INSERT
  8
FeatureAttribs
  2
FEATURE
  41
1
  42
1
  43
1
  50
0
  10
331550.666
  20
4630627.039
 66
1
  0
ATTRIB
  8
FeatureAttribs
 70
0
  1
PNOA-H_AMS_1956-57_33k_ES_PAN_2
  2
NAME
  10
331550.666
  20
4630627.039
 40
34.05031
  0
SEQEND
  0
POLYLINE
  8
Unknown_Area_Type
  70
1
  66
1
  0
VERTEX
  8
Unknown_Area_Type
  10
333458.000
  20
4631505.500
  0
VERTEX
  8
Unknown_Area_Type
  10
333823.000
  20
4631404.000
  0
VERTEX
  8
Unknown_Area_Type
  10
333951.000
  20
4631286.500
  0
VERTEX
  8
Unknown_Area_Type
  10
333953.000
  20
4631283.500
  0
VERTEX
  8
Unknown_Area_Type
  10
331409.500
  20
4628511.000
  0
VERTEX
  8
Unknown_Area_Type
  10
329855.500
  20
4630131.500
  0
VERTEX
  8
Unknown_Area_Type
  10
329853.500
  20
4631709.500
  0
VERTEX
  8
Unknown_Area_Type
  10
331128.000
  20
4632157.000
  0
VERTEX
  8
Unknown_Area_Type
  10
333456.000
  20
4631506.000
  0
VERTEX
  8
Unknown_Area_Type
  10
333458.000
  20
4631505.500
  0
SEQEND
  8
Unknown_Area_Type
  0
INSERT
  8
FeatureAttribs
  2
FEATURE
  41
1
  42
1
  43
1
  50
0
  10
331550.666
  20
4630627.039
 66
1
  0
ATTRIB
  8
FeatureAttribs
 70
0
  1
PNOA-H_AMS_1956-57_33k_ES_PAN_2
  2
NAME
  10
331550.666
  20
4630627.039
 40
34.05031
  0
SEQEND
  0
POLYLINE
  8
Unknown_Area_Type
  70
1
  66
1
  0
VERTEX
  8
Unknown_Area_Type
  10
333458.000
  20
4631505.500
  0
VERTEX
  8
Unknown_Area_Type
  10
333456.000
  20
4631506.000
  0
VERTEX
  8
Unknown_Area_Type
  10
331128.000
  20
4632157.000
  0
VERTEX
  8
Unknown_Area_Type
  10
329853.500
  20
4631709.500
  0
VERTEX
  8
Unknown_Area_Type
  10
329855.500
  20
4630131.500
  0
VERTEX
  8
Unknown_Area_Type
  10
331409.500
  20
4628511.000
  0
VERTEX
  8
Unknown_Area_Type
  10
333953.000
  20
4631283.500
  0
VERTEX
  8
Unknown_Area_Type
  10
333951.000
  20
4631286.500
  0
VERTEX
  8
Unknown_Area_Type
  10
333823.000
  20
4631404.000
  0
VERTEX
  8
Unknown_Area_Type
  10
333458.000
  20
4631505.500
  0
SEQEND
  8
Unknown_Area_Type
  0
INSERT
  8
FeatureAttribs
  2
FEATURE
  41
1
  42
1
  43
1
  50
0
  10
318095.413
  20
4631326.531
 66
1
  0
ATTRIB
  8
FeatureAttribs
 70
0
  1
PNOA-H_AMS_1956-57_33k_ES_PAN_2
  2
NAME
  10
318095.413
  20
4631326.531
 40
34.05031
  0
SEQEND
  0
POLYLINE
  8
Unknown_Area_Type
  70
1
  66
1
  0
VERTEX
  8
Unknown_Area_Type
  10
318281.076
  20
4630504.324
  0
VERTEX
  8
Unknown_Area_Type
  10
317962.000
  20
4630733.500
  0
VERTEX
  8
Unknown_Area_Type
  10
317888.816
  20
4631110.249
  0
VERTEX
  8
Unknown_Area_Type
  10
317888.816
  20
4632070.850
  0
VERTEX
  8
Unknown_Area_Type
  10
318322.953
  20
4632148.737
  0
VERTEX
  8
Unknown_Area_Type
  10
318300.615
  20
4631271.723
  0
VERTEX
  8
Unknown_Area_Type
  10
318281.076
  20
4630504.324
  0
SEQEND
  8
Unknown_Area_Type
  0
INSERT
  8
FeatureAttribs
  2
FEATURE
  41
1
  42
1
  43
1
  50
0
  10
319920.112
  20
4630953.280
 66
1
  0
ATTRIB
  8
FeatureAttribs
 70
0
  1
PNOA-H_AMS_1956-57_33k_ES_PAN_2
  2
NAME
  10
319920.112
  20
4630953.280
 40
34.05031
  0
SEQEND
  0
POLYLINE
  8
Unknown_Area_Type
  70
1
  66
1
  0
VERTEX
  8
Unknown_Area_Type
  10
318322.953
  20
4632148.737
  0
VERTEX
  8
Unknown_Area_Type
  10
320272.500
  20
4632498.500
  0
VERTEX
  8
Unknown_Area_Type
  10
320277.500
  20
4632498.000
  0
VERTEX
  8
Unknown_Area_Type
  10
321168.500
  20
4632101.000
  0
VERTEX
  8
Unknown_Area_Type
  10
321170.000
  20
4632100.500
  0
VERTEX
  8
Unknown_Area_Type
  10
321448.500
  20
4631976.500
  0
VERTEX
  8
Unknown_Area_Type
  10
321373.000
  20
4630507.000
  0
VERTEX
  8
Unknown_Area_Type
  10
320648.000
  20
4629051.500
  0
VERTEX
  8
Unknown_Area_Type
  10
320556.500
  20
4628870.000
  0
VERTEX
  8
Unknown_Area_Type
  10
318281.076
  20
4630504.324
  0
VERTEX
  8
Unknown_Area_Type
  10
318300.615
  20
4631271.723
  0
VERTEX
  8
Unknown_Area_Type
  10
318322.953
  20
4632148.737
  0
SEQEND
  8
Unknown_Area_Type
  0
INSERT
  8
FeatureAttribs
  2
FEATURE
  41
1
  42
1
  43
1
  50
0
  10
319920.112
  20
4630953.280
 66
1
  0
ATTRIB
  8
FeatureAttribs
 70
0
  1
PNOA-H_AMS_1956-57_33k_ES_PAN_2
  2
NAME
  10
319920.112
  20
4630953.280
 40
34.05031
  0
SEQEND
  0
POLYLINE
  8
Unknown_Area_Type
  70
1
  66
1
  0
VERTEX
  8
Unknown_Area_Type
  10
318322.953
  20
4632148.737
  0
VERTEX
  8
Unknown_Area_Type
  10
318300.615
  20
4631271.723
  0
VERTEX
  8
Unknown_Area_Type
  10
318281.076
  20
4630504.324
  0
VERTEX
  8
Unknown_Area_Type
  10
320556.500
  20
4628870.000
  0
VERTEX
  8
Unknown_Area_Type
  10
320648.000
  20
4629051.500
  0
VERTEX
  8
Unknown_Area_Type
  10
321373.000
  20
4630507.000
  0
VERTEX
  8
Unknown_Area_Type
  10
321448.500
  20
4631976.500
  0
VERTEX
  8
Unknown_Area_Type
  10
321170.000
  20
4632100.500
  0
VERTEX
  8
Unknown_Area_Type
  10
321168.500
  20
4632101.000
  0
VERTEX
  8
Unknown_Area_Type
  10
320277.500
  20
4632498.000
  0
VERTEX
  8
Unknown_Area_Type
  10
320272.500
  20
4632498.500
  0
VERTEX
  8
Unknown_Area_Type
  10
318322.953
  20
4632148.737
  0
SEQEND
  8
Unknown_Area_Type
  0
INSERT
  8
FeatureAttribs
  2
FEATURE
  41
1
  42
1
  43
1
  50
0
  10
333221.297
  20
4628657.449
 66
1
  0
ATTRIB
  8
FeatureAttribs
 70
0
  1
PNOA-H_AMS_1956-57_33k_ES_PAN_2
  2
NAME
  10
333221.297
  20
4628657.449
 40
34.05031
  0
SEQEND
  0
POLYLINE
  8
Unknown_Area_Type
  70
1
  66
1
  0
VERTEX
  8
Unknown_Area_Type
  10
331409.500
  20
4628511.000
  0
VERTEX
  8
Unknown_Area_Type
  10
333942.000
  20
4631272.500
  0
VERTEX
  8
Unknown_Area_Type
  10
333954.000
  20
4631284.000
  0
VERTEX
  8
Unknown_Area_Type
  10
333957.000
  20
4631282.500
  0
VERTEX
  8
Unknown_Area_Type
  10
333959.500
  20
4631274.500
  0
VERTEX
  8
Unknown_Area_Type
  10
335013.000
  20
4627857.500
  0
VERTEX
  8
Unknown_Area_Type
  10
334620.500
  20
4627415.000
  0
VERTEX
  8
Unknown_Area_Type
  10
331842.000
  20
4626966.000
  0
VERTEX
  8
Unknown_Area_Type
  10
331366.500
  20
4627359.500
  0
VERTEX
  8
Unknown_Area_Type
  10
331409.500
  20
4628500.000
  0
VERTEX
  8
Unknown_Area_Type
  10
331409.500
  20
4628511.000
  0
SEQEND
  8
Unknown_Area_Type
  0
INSERT
  8
FeatureAttribs
  2
FEATURE
  41
1
  42
1
  43
1
  50
0
  10
333221.297
  20
4628657.449
 66
1
  0
ATTRIB
  8
FeatureAttribs
 70
0
  1
PNOA-H_AMS_1956-57_33k_ES_PAN_2
  2
NAME
  10
333221.297
  20
4628657.449
 40
34.05031
  0
SEQEND
  0
POLYLINE
  8
Unknown_Area_Type
  70
1
  66
1
  0
VERTEX
  8
Unknown_Area_Type
  10
331409.500
  20
4628511.000
  0
VERTEX
  8
Unknown_Area_Type
  10
331409.500
  20
4628500.000
  0
VERTEX
  8
Unknown_Area_Type
  10
331366.500
  20
4627359.500
  0
VERTEX
  8
Unknown_Area_Type
  10
331842.000
  20
4626966.000
  0
VERTEX
  8
Unknown_Area_Type
  10
334620.500
  20
4627415.000
  0
VERTEX
  8
Unknown_Area_Type
  10
335013.000
  20
4627857.500
  0
VERTEX
  8
Unknown_Area_Type
  10
333959.500
  20
4631274.500
  0
VERTEX
  8
Unknown_Area_Type
  10
333957.000
  20
4631282.500
  0
VERTEX
  8
Unknown_Area_Type
  10
333954.000
  20
4631284.000
  0
VERTEX
  8
Unknown_Area_Type
  10
333942.000
  20
4631272.500
  0
VERTEX
  8
Unknown_Area_Type
  10
331409.500
  20
4628511.000
  0
SEQEND
  8
Unknown_Area_Type
  0
ENDSEC
  0
EOF
