  0
SECTION
  2
HEADER
  9
$ACADVER
  1
AC1009
  9
$LUNITS
  70
2
  9
$LIMMIN
  10
290136.575
  20
4615079.372
  9
$LIMMAX
  10
318359.564
  20
4634343.955
  9
$EXTMIN
  10
290136.575
  20
4615079.372
  9
$EXTMAX
  10
318359.564
  20
4634343.955
  999
Created by Global Mapper
  999
Projection: UTM
  999
Datum: ETRS89
  999
Ground Units: meters
  999
ZONE: 30
  0
ENDSEC
  0
SECTION
  2
TABLES
  0
ENDSEC
  0
SECTION
  2
BLOCKS
  0
BLOCK
  8
FeatureAttribs
  70
0
  2
FEATURE
  3
FEATURE
  10
0.00000000
  20
0.00000000
  0
ATTDEF
  8
FeatureAttribs
  70
0
  1
 
  2
NAME
  3
NAME
  10
0.00000000
  20
0.00000000
  40
1.00000000
  0
ENDBLK
  0
ENDSEC
  0
SECTION
  2
ENTITIES
  0
INSERT
  8
FeatureAttribs
  2
FEATURE
  41
1
  42
1
  43
1
  50
0
  10
290295.627
  20
4633817.321
 66
1
  0
ATTRIB
  8
FeatureAttribs
 70
0
  1
PNOA-H_AMS_1956-57_33k_ES_PAN_2
  2
NAME
  10
290295.627
  20
4633817.321
 40
34.17106
  0
SEQEND
  0
POLYLINE
  8
Unknown_Area_Type
  70
1
  66
1
  0
VERTEX
  8
Unknown_Area_Type
  10
290474.655
  20
4634343.955
  0
VERTEX
  8
Unknown_Area_Type
  10
290440.500
  20
4633443.500
  0
VERTEX
  8
Unknown_Area_Type
  10
290136.575
  20
4633290.686
  0
VERTEX
  8
Unknown_Area_Type
  10
290136.575
  20
4634343.955
  0
VERTEX
  8
Unknown_Area_Type
  10
290474.655
  20
4634343.955
  0
SEQEND
  8
Unknown_Area_Type
  0
INSERT
  8
FeatureAttribs
  2
FEATURE
  41
1
  42
1
  43
1
  50
0
  10
308200.019
  20
4634080.218
 66
1
  0
ATTRIB
  8
FeatureAttribs
 70
0
  1
PNOA-H_AMS_1956-57_33k_ES_PAN_2
  2
NAME
  10
308200.019
  20
4634080.218
 40
34.17106
  0
SEQEND
  0
POLYLINE
  8
Unknown_Area_Type
  70
1
  66
1
  0
VERTEX
  8
Unknown_Area_Type
  10
309535.588
  20
4634343.955
  0
VERTEX
  8
Unknown_Area_Type
  10
309499.500
  20
4633868.500
  0
VERTEX
  8
Unknown_Area_Type
  10
309499.500
  20
4633864.000
  0
VERTEX
  8
Unknown_Area_Type
  10
309495.889
  20
4633816.480
  0
VERTEX
  8
Unknown_Area_Type
  10
307979.467
  20
4633856.955
  0
VERTEX
  8
Unknown_Area_Type
  10
306875.923
  20
4633886.946
  0
VERTEX
  8
Unknown_Area_Type
  10
306896.131
  20
4634343.955
  0
VERTEX
  8
Unknown_Area_Type
  10
309535.588
  20
4634343.955
  0
SEQEND
  8
Unknown_Area_Type
  0
INSERT
  8
FeatureAttribs
  2
FEATURE
  41
1
  42
1
  43
1
  50
0
  10
308160.693
  20
4633234.359
 66
1
  0
ATTRIB
  8
FeatureAttribs
 70
0
  1
PNOA-H_AMS_1956-57_33k_ES_PAN_2
  2
NAME
  10
308160.693
  20
4633234.359
 40
34.17106
  0
SEQEND
  0
POLYLINE
  8
Unknown_Area_Type
  70
1
  66
1
  0
VERTEX
  8
Unknown_Area_Type
  10
309495.889
  20
4633816.480
  0
VERTEX
  8
Unknown_Area_Type
  10
309400.000
  20
4632554.500
  0
VERTEX
  8
Unknown_Area_Type
  10
307027.000
  20
4632658.000
  0
VERTEX
  8
Unknown_Area_Type
  10
306827.000
  20
4632780.500
  0
VERTEX
  8
Unknown_Area_Type
  10
306875.923
  20
4633886.946
  0
VERTEX
  8
Unknown_Area_Type
  10
307979.467
  20
4633856.955
  0
VERTEX
  8
Unknown_Area_Type
  10
309495.889
  20
4633816.480
  0
SEQEND
  8
Unknown_Area_Type
  0
INSERT
  8
FeatureAttribs
  2
FEATURE
  41
1
  42
1
  43
1
  50
0
  10
308160.693
  20
4633234.359
 66
1
  0
ATTRIB
  8
FeatureAttribs
 70
0
  1
PNOA-H_AMS_1956-57_33k_ES_PAN_2
  2
NAME
  10
308160.693
  20
4633234.359
 40
34.17106
  0
SEQEND
  0
POLYLINE
  8
Unknown_Area_Type
  70
1
  66
1
  0
VERTEX
  8
Unknown_Area_Type
  10
309495.889
  20
4633816.480
  0
VERTEX
  8
Unknown_Area_Type
  10
307979.467
  20
4633856.955
  0
VERTEX
  8
Unknown_Area_Type
  10
306875.923
  20
4633886.946
  0
VERTEX
  8
Unknown_Area_Type
  10
306827.000
  20
4632780.500
  0
VERTEX
  8
Unknown_Area_Type
  10
307027.000
  20
4632658.000
  0
VERTEX
  8
Unknown_Area_Type
  10
309400.000
  20
4632554.500
  0
VERTEX
  8
Unknown_Area_Type
  10
309495.889
  20
4633816.480
  0
SEQEND
  8
Unknown_Area_Type
  0
INSERT
  8
FeatureAttribs
  2
FEATURE
  41
1
  42
1
  43
1
  50
0
  10
313577.158
  20
4634008.381
 66
1
  0
ATTRIB
  8
FeatureAttribs
 70
0
  1
PNOA-H_AMS_1956-57_33k_ES_PAN_2
  2
NAME
  10
313577.158
  20
4634008.381
 40
34.17106
  0
SEQEND
  0
POLYLINE
  8
Unknown_Area_Type
  70
1
  66
1
  0
VERTEX
  8
Unknown_Area_Type
  10
314957.016
  20
4634343.955
  0
VERTEX
  8
Unknown_Area_Type
  10
314943.323
  20
4633672.806
  0
VERTEX
  8
Unknown_Area_Type
  10
314899.524
  20
4633673.932
  0
VERTEX
  8
Unknown_Area_Type
  10
312192.658
  20
4633744.866
  0
VERTEX
  8
Unknown_Area_Type
  10
312218.777
  20
4634343.955
  0
VERTEX
  8
Unknown_Area_Type
  10
314957.016
  20
4634343.955
  0
SEQEND
  8
Unknown_Area_Type
  0
INSERT
  8
FeatureAttribs
  2
FEATURE
  41
1
  42
1
  43
1
  50
0
  10
313536.490
  20
4632965.486
 66
1
  0
ATTRIB
  8
FeatureAttribs
 70
0
  1
PNOA-H_AMS_1956-57_33k_ES_PAN_2
  2
NAME
  10
313536.490
  20
4632965.486
 40
34.17106
  0
SEQEND
  0
POLYLINE
  8
Unknown_Area_Type
  70
1
  66
1
  0
VERTEX
  8
Unknown_Area_Type
  10
314943.323
  20
4633672.806
  0
VERTEX
  8
Unknown_Area_Type
  10
314914.000
  20
4632235.500
  0
VERTEX
  8
Unknown_Area_Type
  10
312507.000
  20
4632197.000
  0
VERTEX
  8
Unknown_Area_Type
  10
312478.000
  20
4632197.000
  0
VERTEX
  8
Unknown_Area_Type
  10
312476.000
  20
4632198.000
  0
VERTEX
  8
Unknown_Area_Type
  10
312133.500
  20
4632388.000
  0
VERTEX
  8
Unknown_Area_Type
  10
312192.658
  20
4633744.866
  0
VERTEX
  8
Unknown_Area_Type
  10
314899.524
  20
4633673.932
  0
VERTEX
  8
Unknown_Area_Type
  10
314943.323
  20
4633672.806
  0
SEQEND
  8
Unknown_Area_Type
  0
INSERT
  8
FeatureAttribs
  2
FEATURE
  41
1
  42
1
  43
1
  50
0
  10
313536.490
  20
4632965.486
 66
1
  0
ATTRIB
  8
FeatureAttribs
 70
0
  1
PNOA-H_AMS_1956-57_33k_ES_PAN_2
  2
NAME
  10
313536.490
  20
4632965.486
 40
34.17106
  0
SEQEND
  0
POLYLINE
  8
Unknown_Area_Type
  70
1
  66
1
  0
VERTEX
  8
Unknown_Area_Type
  10
314943.323
  20
4633672.806
  0
VERTEX
  8
Unknown_Area_Type
  10
314899.524
  20
4633673.932
  0
VERTEX
  8
Unknown_Area_Type
  10
312192.658
  20
4633744.866
  0
VERTEX
  8
Unknown_Area_Type
  10
312133.500
  20
4632388.000
  0
VERTEX
  8
Unknown_Area_Type
  10
312476.000
  20
4632198.000
  0
VERTEX
  8
Unknown_Area_Type
  10
312478.000
  20
4632197.000
  0
VERTEX
  8
Unknown_Area_Type
  10
312507.000
  20
4632197.000
  0
VERTEX
  8
Unknown_Area_Type
  10
314914.000
  20
4632235.500
  0
VERTEX
  8
Unknown_Area_Type
  10
314943.323
  20
4633672.806
  0
SEQEND
  8
Unknown_Area_Type
  0
INSERT
  8
FeatureAttribs
  2
FEATURE
  41
1
  42
1
  43
1
  50
0
  10
302748.614
  20
4634152.997
 66
1
  0
ATTRIB
  8
FeatureAttribs
 70
0
  1
PNOA-H_AMS_1956-57_33k_ES_PAN_2
  2
NAME
  10
302748.614
  20
4634152.997
 40
34.17106
  0
SEQEND
  0
POLYLINE
  8
Unknown_Area_Type
  70
1
  66
1
  0
VERTEX
  8
Unknown_Area_Type
  10
304141.245
  20
4634343.955
  0
VERTEX
  8
Unknown_Area_Type
  10
304119.922
  20
4633962.039
  0
VERTEX
  8
Unknown_Area_Type
  10
301359.094
  20
4634038.411
  0
VERTEX
  8
Unknown_Area_Type
  10
301379.227
  20
4634343.955
  0
VERTEX
  8
Unknown_Area_Type
  10
304141.245
  20
4634343.955
  0
SEQEND
  8
Unknown_Area_Type
  0
INSERT
  8
FeatureAttribs
  2
FEATURE
  41
1
  42
1
  43
1
  50
0
  10
302713.980
  20
4633492.044
 66
1
  0
ATTRIB
  8
FeatureAttribs
 70
0
  1
PNOA-H_AMS_1956-57_33k_ES_PAN_2
  2
NAME
  10
302713.980
  20
4633492.044
 40
34.17106
  0
SEQEND
  0
POLYLINE
  8
Unknown_Area_Type
  70
1
  66
1
  0
VERTEX
  8
Unknown_Area_Type
  10
304119.922
  20
4633962.039
  0
VERTEX
  8
Unknown_Area_Type
  10
304063.000
  20
4632942.500
  0
VERTEX
  8
Unknown_Area_Type
  10
301489.500
  20
4633014.000
  0
VERTEX
  8
Unknown_Area_Type
  10
301299.500
  20
4633134.000
  0
VERTEX
  8
Unknown_Area_Type
  10
301359.094
  20
4634038.411
  0
VERTEX
  8
Unknown_Area_Type
  10
304119.922
  20
4633962.039
  0
SEQEND
  8
Unknown_Area_Type
  0
INSERT
  8
FeatureAttribs
  2
FEATURE
  41
1
  42
1
  43
1
  50
0
  10
302713.980
  20
4633492.044
 66
1
  0
ATTRIB
  8
FeatureAttribs
 70
0
  1
PNOA-H_AMS_1956-57_33k_ES_PAN_2
  2
NAME
  10
302713.980
  20
4633492.044
 40
34.17106
  0
SEQEND
  0
POLYLINE
  8
Unknown_Area_Type
  70
1
  66
1
  0
VERTEX
  8
Unknown_Area_Type
  10
304119.922
  20
4633962.039
  0
VERTEX
  8
Unknown_Area_Type
  10
301359.094
  20
4634038.411
  0
VERTEX
  8
Unknown_Area_Type
  10
301299.500
  20
4633134.000
  0
VERTEX
  8
Unknown_Area_Type
  10
301489.500
  20
4633014.000
  0
VERTEX
  8
Unknown_Area_Type
  10
304063.000
  20
4632942.500
  0
VERTEX
  8
Unknown_Area_Type
  10
304119.922
  20
4633962.039
  0
SEQEND
  8
Unknown_Area_Type
  0
INSERT
  8
FeatureAttribs
  2
FEATURE
  41
1
  42
1
  43
1
  50
0
  10
290678.959
  20
4634343.946
 66
1
  0
ATTRIB
  8
FeatureAttribs
 70
0
  1
PNOA-H_AMS_1956-57_33k_ES_PAN_2
  2
NAME
  10
290678.959
  20
4634343.946
 40
34.17106
  0
SEQEND
  0
POLYLINE
  8
Unknown_Area_Type
  70
1
  66
1
  0
VERTEX
  8
Unknown_Area_Type
  10
290679.123
  20
4634343.955
  0
VERTEX
  8
Unknown_Area_Type
  10
290679.122
  20
4634343.936
  0
VERTEX
  8
Unknown_Area_Type
  10
290678.471
  20
4634343.955
  0
VERTEX
  8
Unknown_Area_Type
  10
290679.123
  20
4634343.955
  0
SEQEND
  8
Unknown_Area_Type
  0
INSERT
  8
FeatureAttribs
  2
FEATURE
  41
1
  42
1
  43
1
  50
0
  10
292537.095
  20
4634307.878
 66
1
  0
ATTRIB
  8
FeatureAttribs
 70
0
  1
PNOA-H_AMS_1956-57_33k_ES_PAN_2
  2
NAME
  10
292537.095
  20
4634307.878
 40
34.17106
  0
SEQEND
  0
POLYLINE
  8
Unknown_Area_Type
  70
1
  66
1
  0
VERTEX
  8
Unknown_Area_Type
  10
293157.416
  20
4634343.955
  0
VERTEX
  8
Unknown_Area_Type
  10
293156.251
  20
4634271.801
  0
VERTEX
  8
Unknown_Area_Type
  10
290679.122
  20
4634343.936
  0
VERTEX
  8
Unknown_Area_Type
  10
290679.123
  20
4634343.955
  0
VERTEX
  8
Unknown_Area_Type
  10
293157.416
  20
4634343.955
  0
SEQEND
  8
Unknown_Area_Type
  0
INSERT
  8
FeatureAttribs
  2
FEATURE
  41
1
  42
1
  43
1
  50
0
  10
290561.517
  20
4633887.047
 66
1
  0
ATTRIB
  8
FeatureAttribs
 70
0
  1
PNOA-H_AMS_1956-57_33k_ES_PAN_2
  2
NAME
  10
290561.517
  20
4633887.047
 40
34.17106
  0
SEQEND
  0
POLYLINE
  8
Unknown_Area_Type
  70
1
  66
1
  0
VERTEX
  8
Unknown_Area_Type
  10
290652.295
  20
4633430.138
  0
VERTEX
  8
Unknown_Area_Type
  10
290440.500
  20
4633443.500
  0
VERTEX
  8
Unknown_Area_Type
  10
290474.655
  20
4634343.955
  0
VERTEX
  8
Unknown_Area_Type
  10
290678.471
  20
4634343.955
  0
VERTEX
  8
Unknown_Area_Type
  10
290679.122
  20
4634343.936
  0
VERTEX
  8
Unknown_Area_Type
  10
290652.295
  20
4633430.138
  0
SEQEND
  8
Unknown_Area_Type
  0
INSERT
  8
FeatureAttribs
  2
FEATURE
  41
1
  42
1
  43
1
  50
0
  10
291921.530
  20
4633830.165
 66
1
  0
ATTRIB
  8
FeatureAttribs
 70
0
  1
PNOA-H_AMS_1956-57_33k_ES_PAN_2
  2
NAME
  10
291921.530
  20
4633830.165
 40
34.17106
  0
SEQEND
  0
POLYLINE
  8
Unknown_Area_Type
  70
1
  66
1
  0
VERTEX
  8
Unknown_Area_Type
  10
293156.251
  20
4634271.801
  0
VERTEX
  8
Unknown_Area_Type
  10
293150.000
  20
4633884.500
  0
VERTEX
  8
Unknown_Area_Type
  10
293150.000
  20
4633864.000
  0
VERTEX
  8
Unknown_Area_Type
  10
293142.000
  20
4633370.500
  0
VERTEX
  8
Unknown_Area_Type
  10
292984.500
  20
4633283.000
  0
VERTEX
  8
Unknown_Area_Type
  10
290652.295
  20
4633430.138
  0
VERTEX
  8
Unknown_Area_Type
  10
290679.122
  20
4634343.936
  0
VERTEX
  8
Unknown_Area_Type
  10
293156.251
  20
4634271.801
  0
SEQEND
  8
Unknown_Area_Type
  0
INSERT
  8
FeatureAttribs
  2
FEATURE
  41
1
  42
1
  43
1
  50
0
  10
291921.530
  20
4633830.165
 66
1
  0
ATTRIB
  8
FeatureAttribs
 70
0
  1
PNOA-H_AMS_1956-57_33k_ES_PAN_2
  2
NAME
  10
291921.530
  20
4633830.165
 40
34.17106
  0
SEQEND
  0
POLYLINE
  8
Unknown_Area_Type
  70
1
  66
1
  0
VERTEX
  8
Unknown_Area_Type
  10
293156.251
  20
4634271.801
  0
VERTEX
  8
Unknown_Area_Type
  10
290679.122
  20
4634343.936
  0
VERTEX
  8
Unknown_Area_Type
  10
290652.295
  20
4633430.138
  0
VERTEX
  8
Unknown_Area_Type
  10
292984.500
  20
4633283.000
  0
VERTEX
  8
Unknown_Area_Type
  10
293142.000
  20
4633370.500
  0
VERTEX
  8
Unknown_Area_Type
  10
293150.000
  20
4633864.000
  0
VERTEX
  8
Unknown_Area_Type
  10
293150.000
  20
4633884.500
  0
VERTEX
  8
Unknown_Area_Type
  10
293156.251
  20
4634271.801
  0
SEQEND
  8
Unknown_Area_Type
  0
INSERT
  8
FeatureAttribs
  2
FEATURE
  41
1
  42
1
  43
1
  50
0
  10
294597.606
  20
4634268.155
 66
1
  0
ATTRIB
  8
FeatureAttribs
 70
0
  1
PNOA-H_AMS_1956-57_33k_ES_PAN_2
  2
NAME
  10
294597.606
  20
4634268.155
 40
34.17106
  0
SEQEND
  0
POLYLINE
  8
Unknown_Area_Type
  70
1
  66
1
  0
VERTEX
  8
Unknown_Area_Type
  10
295913.382
  20
4634343.955
  0
VERTEX
  8
Unknown_Area_Type
  10
295914.099
  20
4634192.354
  0
VERTEX
  8
Unknown_Area_Type
  10
294139.215
  20
4634243.177
  0
VERTEX
  8
Unknown_Area_Type
  10
293156.481
  20
4634271.794
  0
VERTEX
  8
Unknown_Area_Type
  10
293157.641
  20
4634343.955
  0
VERTEX
  8
Unknown_Area_Type
  10
295913.382
  20
4634343.955
  0
SEQEND
  8
Unknown_Area_Type
  0
INSERT
  8
FeatureAttribs
  2
FEATURE
  41
1
  42
1
  43
1
  50
0
  10
294525.003
  20
4633787.489
 66
1
  0
ATTRIB
  8
FeatureAttribs
 70
0
  1
PNOA-H_AMS_1956-57_33k_ES_PAN_2
  2
NAME
  10
294525.003
  20
4633787.489
 40
34.17106
  0
SEQEND
  0
POLYLINE
  8
Unknown_Area_Type
  70
1
  66
1
  0
VERTEX
  8
Unknown_Area_Type
  10
295914.099
  20
4634192.354
  0
VERTEX
  8
Unknown_Area_Type
  10
295918.000
  20
4633368.500
  0
VERTEX
  8
Unknown_Area_Type
  10
295826.500
  20
4633317.000
  0
VERTEX
  8
Unknown_Area_Type
  10
293142.000
  20
4633370.500
  0
VERTEX
  8
Unknown_Area_Type
  10
293156.481
  20
4634271.794
  0
VERTEX
  8
Unknown_Area_Type
  10
294139.215
  20
4634243.177
  0
VERTEX
  8
Unknown_Area_Type
  10
295914.099
  20
4634192.354
  0
SEQEND
  8
Unknown_Area_Type
  0
INSERT
  8
FeatureAttribs
  2
FEATURE
  41
1
  42
1
  43
1
  50
0
  10
294525.003
  20
4633787.489
 66
1
  0
ATTRIB
  8
FeatureAttribs
 70
0
  1
PNOA-H_AMS_1956-57_33k_ES_PAN_2
  2
NAME
  10
294525.003
  20
4633787.489
 40
34.17106
  0
SEQEND
  0
POLYLINE
  8
Unknown_Area_Type
  70
1
  66
1
  0
VERTEX
  8
Unknown_Area_Type
  10
295914.099
  20
4634192.354
  0
VERTEX
  8
Unknown_Area_Type
  10
294139.215
  20
4634243.177
  0
VERTEX
  8
Unknown_Area_Type
  10
293156.481
  20
4634271.794
  0
VERTEX
  8
Unknown_Area_Type
  10
293142.000
  20
4633370.500
  0
VERTEX
  8
Unknown_Area_Type
  10
295826.500
  20
4633317.000
  0
VERTEX
  8
Unknown_Area_Type
  10
295918.000
  20
4633368.500
  0
VERTEX
  8
Unknown_Area_Type
  10
295914.099
  20
4634192.354
  0
SEQEND
  8
Unknown_Area_Type
  0
INSERT
  8
FeatureAttribs
  2
FEATURE
  41
1
  42
1
  43
1
  50
0
  10
310859.275
  20
4634044.411
 66
1
  0
ATTRIB
  8
FeatureAttribs
 70
0
  1
PNOA-H_AMS_1956-57_33k_ES_PAN_2
  2
NAME
  10
310859.275
  20
4634044.411
 40
34.17106
  0
SEQEND
  0
POLYLINE
  8
Unknown_Area_Type
  70
1
  66
1
  0
VERTEX
  8
Unknown_Area_Type
  10
312218.777
  20
4634343.955
  0
VERTEX
  8
Unknown_Area_Type
  10
312192.658
  20
4633744.866
  0
VERTEX
  8
Unknown_Area_Type
  10
311439.501
  20
4633764.603
  0
VERTEX
  8
Unknown_Area_Type
  10
309495.530
  20
4633816.489
  0
VERTEX
  8
Unknown_Area_Type
  10
309535.570
  20
4634343.955
  0
VERTEX
  8
Unknown_Area_Type
  10
312218.777
  20
4634343.955
  0
SEQEND
  8
Unknown_Area_Type
  0
INSERT
  8
FeatureAttribs
  2
FEATURE
  41
1
  42
1
  43
1
  50
0
  10
310796.429
  20
4633080.675
 66
1
  0
ATTRIB
  8
FeatureAttribs
 70
0
  1
PNOA-H_AMS_1956-57_33k_ES_PAN_2
  2
NAME
  10
310796.429
  20
4633080.675
 40
34.17106
  0
SEQEND
  0
POLYLINE
  8
Unknown_Area_Type
  70
1
  66
1
  0
VERTEX
  8
Unknown_Area_Type
  10
312192.658
  20
4633744.866
  0
VERTEX
  8
Unknown_Area_Type
  10
312133.500
  20
4632388.000
  0
VERTEX
  8
Unknown_Area_Type
  10
309730.500
  20
4632361.500
  0
VERTEX
  8
Unknown_Area_Type
  10
309404.500
  20
4632551.500
  0
VERTEX
  8
Unknown_Area_Type
  10
309400.000
  20
4632554.500
  0
VERTEX
  8
Unknown_Area_Type
  10
309400.000
  20
4632558.000
  0
VERTEX
  8
Unknown_Area_Type
  10
309495.530
  20
4633816.489
  0
VERTEX
  8
Unknown_Area_Type
  10
311439.501
  20
4633764.603
  0
VERTEX
  8
Unknown_Area_Type
  10
312192.658
  20
4633744.866
  0
SEQEND
  8
Unknown_Area_Type
  0
INSERT
  8
FeatureAttribs
  2
FEATURE
  41
1
  42
1
  43
1
  50
0
  10
310796.429
  20
4633080.675
 66
1
  0
ATTRIB
  8
FeatureAttribs
 70
0
  1
PNOA-H_AMS_1956-57_33k_ES_PAN_2
  2
NAME
  10
310796.429
  20
4633080.675
 40
34.17106
  0
SEQEND
  0
POLYLINE
  8
Unknown_Area_Type
  70
1
  66
1
  0
VERTEX
  8
Unknown_Area_Type
  10
312192.658
  20
4633744.866
  0
VERTEX
  8
Unknown_Area_Type
  10
311439.501
  20
4633764.603
  0
VERTEX
  8
Unknown_Area_Type
  10
309495.530
  20
4633816.489
  0
VERTEX
  8
Unknown_Area_Type
  10
309400.000
  20
4632558.000
  0
VERTEX
  8
Unknown_Area_Type
  10
309400.000
  20
4632554.500
  0
VERTEX
  8
Unknown_Area_Type
  10
309404.500
  20
4632551.500
  0
VERTEX
  8
Unknown_Area_Type
  10
309730.500
  20
4632361.500
  0
VERTEX
  8
Unknown_Area_Type
  10
312133.500
  20
4632388.000
  0
VERTEX
  8
Unknown_Area_Type
  10
312192.658
  20
4633744.866
  0
SEQEND
  8
Unknown_Area_Type
  0
INSERT
  8
FeatureAttribs
  2
FEATURE
  41
1
  42
1
  43
1
  50
0
  10
316290.803
  20
4633973.965
 66
1
  0
ATTRIB
  8
FeatureAttribs
 70
0
  1
PNOA-H_AMS_1956-57_33k_ES_PAN_2
  2
NAME
  10
316290.803
  20
4633973.965
 40
34.17106
  0
SEQEND
  0
POLYLINE
  8
Unknown_Area_Type
  70
1
  66
1
  0
VERTEX
  8
Unknown_Area_Type
  10
317644.744
  20
4634343.955
  0
VERTEX
  8
Unknown_Area_Type
  10
317619.534
  20
4633603.975
  0
VERTEX
  8
Unknown_Area_Type
  10
314943.323
  20
4633672.806
  0
VERTEX
  8
Unknown_Area_Type
  10
314957.016
  20
4634343.955
  0
VERTEX
  8
Unknown_Area_Type
  10
317644.744
  20
4634343.955
  0
SEQEND
  8
Unknown_Area_Type
  0
INSERT
  8
FeatureAttribs
  2
FEATURE
  41
1
  42
1
  43
1
  50
0
  10
316250.409
  20
4632858.418
 66
1
  0
ATTRIB
  8
FeatureAttribs
 70
0
  1
PNOA-H_AMS_1956-57_33k_ES_PAN_2
  2
NAME
  10
316250.409
  20
4632858.418
 40
34.17106
  0
SEQEND
  0
POLYLINE
  8
Unknown_Area_Type
  70
1
  66
1
  0
VERTEX
  8
Unknown_Area_Type
  10
317619.534
  20
4633603.975
  0
VERTEX
  8
Unknown_Area_Type
  10
317568.500
  20
4632106.000
  0
VERTEX
  8
Unknown_Area_Type
  10
315313.000
  20
4632028.500
  0
VERTEX
  8
Unknown_Area_Type
  10
314914.000
  20
4632235.500
  0
VERTEX
  8
Unknown_Area_Type
  10
314943.323
  20
4633672.806
  0
VERTEX
  8
Unknown_Area_Type
  10
317619.534
  20
4633603.975
  0
SEQEND
  8
Unknown_Area_Type
  0
INSERT
  8
FeatureAttribs
  2
FEATURE
  41
1
  42
1
  43
1
  50
0
  10
316250.409
  20
4632858.418
 66
1
  0
ATTRIB
  8
FeatureAttribs
 70
0
  1
PNOA-H_AMS_1956-57_33k_ES_PAN_2
  2
NAME
  10
316250.409
  20
4632858.418
 40
34.17106
  0
SEQEND
  0
POLYLINE
  8
Unknown_Area_Type
  70
1
  66
1
  0
VERTEX
  8
Unknown_Area_Type
  10
317619.534
  20
4633603.975
  0
VERTEX
  8
Unknown_Area_Type
  10
314943.323
  20
4633672.806
  0
VERTEX
  8
Unknown_Area_Type
  10
314914.000
  20
4632235.500
  0
VERTEX
  8
Unknown_Area_Type
  10
315313.000
  20
4632028.500
  0
VERTEX
  8
Unknown_Area_Type
  10
317568.500
  20
4632106.000
  0
VERTEX
  8
Unknown_Area_Type
  10
317619.534
  20
4633603.975
  0
SEQEND
  8
Unknown_Area_Type
  0
INSERT
  8
FeatureAttribs
  2
FEATURE
  41
1
  42
1
  43
1
  50
0
  10
300002.227
  20
4634191.183
 66
1
  0
ATTRIB
  8
FeatureAttribs
 70
0
  1
PNOA-H_AMS_1956-57_33k_ES_PAN_2
  2
NAME
  10
300002.227
  20
4634191.183
 40
34.17106
  0
SEQEND
  0
POLYLINE
  8
Unknown_Area_Type
  70
1
  66
1
  0
VERTEX
  8
Unknown_Area_Type
  10
301379.227
  20
4634343.955
  0
VERTEX
  8
Unknown_Area_Type
  10
301359.094
  20
4634038.411
  0
VERTEX
  8
Unknown_Area_Type
  10
301059.364
  20
4634046.703
  0
VERTEX
  8
Unknown_Area_Type
  10
298632.221
  20
4634115.023
  0
VERTEX
  8
Unknown_Area_Type
  10
298641.458
  20
4634343.955
  0
VERTEX
  8
Unknown_Area_Type
  10
301379.227
  20
4634343.955
  0
SEQEND
  8
Unknown_Area_Type
  0
INSERT
  8
FeatureAttribs
  2
FEATURE
  41
1
  42
1
  43
1
  50
0
  10
299969.562
  20
4633622.065
 66
1
  0
ATTRIB
  8
FeatureAttribs
 70
0
  1
PNOA-H_AMS_1956-57_33k_ES_PAN_2
  2
NAME
  10
299969.562
  20
4633622.065
 40
34.17106
  0
SEQEND
  0
POLYLINE
  8
Unknown_Area_Type
  70
1
  66
1
  0
VERTEX
  8
Unknown_Area_Type
  10
301359.094
  20
4634038.411
  0
VERTEX
  8
Unknown_Area_Type
  10
301299.500
  20
4633134.000
  0
VERTEX
  8
Unknown_Area_Type
  10
298690.000
  20
4633194.000
  0
VERTEX
  8
Unknown_Area_Type
  10
298597.500
  20
4633254.500
  0
VERTEX
  8
Unknown_Area_Type
  10
298632.221
  20
4634115.023
  0
VERTEX
  8
Unknown_Area_Type
  10
301059.364
  20
4634046.703
  0
VERTEX
  8
Unknown_Area_Type
  10
301359.094
  20
4634038.411
  0
SEQEND
  8
Unknown_Area_Type
  0
INSERT
  8
FeatureAttribs
  2
FEATURE
  41
1
  42
1
  43
1
  50
0
  10
299969.562
  20
4633622.065
 66
1
  0
ATTRIB
  8
FeatureAttribs
 70
0
  1
PNOA-H_AMS_1956-57_33k_ES_PAN_2
  2
NAME
  10
299969.562
  20
4633622.065
 40
34.17106
  0
SEQEND
  0
POLYLINE
  8
Unknown_Area_Type
  70
1
  66
1
  0
VERTEX
  8
Unknown_Area_Type
  10
301359.094
  20
4634038.411
  0
VERTEX
  8
Unknown_Area_Type
  10
301059.364
  20
4634046.703
  0
VERTEX
  8
Unknown_Area_Type
  10
298632.221
  20
4634115.023
  0
VERTEX
  8
Unknown_Area_Type
  10
298597.500
  20
4633254.500
  0
VERTEX
  8
Unknown_Area_Type
  10
298690.000
  20
4633194.000
  0
VERTEX
  8
Unknown_Area_Type
  10
301299.500
  20
4633134.000
  0
VERTEX
  8
Unknown_Area_Type
  10
301359.094
  20
4634038.411
  0
SEQEND
  8
Unknown_Area_Type
  0
INSERT
  8
FeatureAttribs
  2
FEATURE
  41
1
  42
1
  43
1
  50
0
  10
297275.216
  20
4634229.494
 66
1
  0
ATTRIB
  8
FeatureAttribs
 70
0
  1
PNOA-H_AMS_1956-57_33k_ES_PAN_2
  2
NAME
  10
297275.216
  20
4634229.494
 40
34.17106
  0
SEQEND
  0
POLYLINE
  8
Unknown_Area_Type
  70
1
  66
1
  0
VERTEX
  8
Unknown_Area_Type
  10
298641.089
  20
4634343.955
  0
VERTEX
  8
Unknown_Area_Type
  10
298631.930
  20
4634115.032
  0
VERTEX
  8
Unknown_Area_Type
  10
297599.295
  20
4634144.099
  0
VERTEX
  8
Unknown_Area_Type
  10
295914.099
  20
4634192.354
  0
VERTEX
  8
Unknown_Area_Type
  10
295913.382
  20
4634343.955
  0
VERTEX
  8
Unknown_Area_Type
  10
298641.089
  20
4634343.955
  0
SEQEND
  8
Unknown_Area_Type
  0
INSERT
  8
FeatureAttribs
  2
FEATURE
  41
1
  42
1
  43
1
  50
0
  10
297275.531
  20
4633733.138
 66
1
  0
ATTRIB
  8
FeatureAttribs
 70
0
  1
PNOA-H_AMS_1956-57_33k_ES_PAN_2
  2
NAME
  10
297275.531
  20
4633733.138
 40
34.17106
  0
SEQEND
  0
POLYLINE
  8
Unknown_Area_Type
  70
1
  66
1
  0
VERTEX
  8
Unknown_Area_Type
  10
298631.930
  20
4634115.032
  0
VERTEX
  8
Unknown_Area_Type
  10
298597.500
  20
4633254.500
  0
VERTEX
  8
Unknown_Area_Type
  10
295918.000
  20
4633368.500
  0
VERTEX
  8
Unknown_Area_Type
  10
295914.099
  20
4634192.354
  0
VERTEX
  8
Unknown_Area_Type
  10
297599.295
  20
4634144.099
  0
VERTEX
  8
Unknown_Area_Type
  10
298631.930
  20
4634115.032
  0
SEQEND
  8
Unknown_Area_Type
  0
INSERT
  8
FeatureAttribs
  2
FEATURE
  41
1
  42
1
  43
1
  50
0
  10
297275.531
  20
4633733.138
 66
1
  0
ATTRIB
  8
FeatureAttribs
 70
0
  1
PNOA-H_AMS_1956-57_33k_ES_PAN_2
  2
NAME
  10
297275.531
  20
4633733.138
 40
34.17106
  0
SEQEND
  0
POLYLINE
  8
Unknown_Area_Type
  70
1
  66
1
  0
VERTEX
  8
Unknown_Area_Type
  10
298631.930
  20
4634115.032
  0
VERTEX
  8
Unknown_Area_Type
  10
297599.295
  20
4634144.099
  0
VERTEX
  8
Unknown_Area_Type
  10
295914.099
  20
4634192.354
  0
VERTEX
  8
Unknown_Area_Type
  10
295918.000
  20
4633368.500
  0
VERTEX
  8
Unknown_Area_Type
  10
298597.500
  20
4633254.500
  0
VERTEX
  8
Unknown_Area_Type
  10
298631.930
  20
4634115.032
  0
SEQEND
  8
Unknown_Area_Type
  0
INSERT
  8
FeatureAttribs
  2
FEATURE
  41
1
  42
1
  43
1
  50
0
  10
305507.177
  20
4634115.450
 66
1
  0
ATTRIB
  8
FeatureAttribs
 70
0
  1
PNOA-H_AMS_1956-57_33k_ES_PAN_2
  2
NAME
  10
305507.177
  20
4634115.450
 40
34.17106
  0
SEQEND
  0
POLYLINE
  8
Unknown_Area_Type
  70
1
  66
1
  0
VERTEX
  8
Unknown_Area_Type
  10
306896.159
  20
4634343.955
  0
VERTEX
  8
Unknown_Area_Type
  10
306875.943
  20
4633886.945
  0
VERTEX
  8
Unknown_Area_Type
  10
304519.421
  20
4633950.988
  0
VERTEX
  8
Unknown_Area_Type
  10
304119.718
  20
4633962.045
  0
VERTEX
  8
Unknown_Area_Type
  10
304141.090
  20
4634343.955
  0
VERTEX
  8
Unknown_Area_Type
  10
306896.159
  20
4634343.955
  0
SEQEND
  8
Unknown_Area_Type
  0
INSERT
  8
FeatureAttribs
  2
FEATURE
  41
1
  42
1
  43
1
  50
0
  10
305469.621
  20
4633366.981
 66
1
  0
ATTRIB
  8
FeatureAttribs
 70
0
  1
PNOA-H_AMS_1956-57_33k_ES_PAN_2
  2
NAME
  10
305469.621
  20
4633366.981
 40
34.17106
  0
SEQEND
  0
POLYLINE
  8
Unknown_Area_Type
  70
1
  66
1
  0
VERTEX
  8
Unknown_Area_Type
  10
306875.943
  20
4633886.945
  0
VERTEX
  8
Unknown_Area_Type
  10
306827.000
  20
4632780.500
  0
VERTEX
  8
Unknown_Area_Type
  10
304257.500
  20
4632829.500
  0
VERTEX
  8
Unknown_Area_Type
  10
304243.500
  20
4632830.000
  0
VERTEX
  8
Unknown_Area_Type
  10
304063.500
  20
4632942.000
  0
VERTEX
  8
Unknown_Area_Type
  10
304063.000
  20
4632948.500
  0
VERTEX
  8
Unknown_Area_Type
  10
304119.718
  20
4633962.045
  0
VERTEX
  8
Unknown_Area_Type
  10
304519.421
  20
4633950.988
  0
VERTEX
  8
Unknown_Area_Type
  10
306875.943
  20
4633886.945
  0
SEQEND
  8
Unknown_Area_Type
  0
INSERT
  8
FeatureAttribs
  2
FEATURE
  41
1
  42
1
  43
1
  50
0
  10
305469.621
  20
4633366.981
 66
1
  0
ATTRIB
  8
FeatureAttribs
 70
0
  1
PNOA-H_AMS_1956-57_33k_ES_PAN_2
  2
NAME
  10
305469.621
  20
4633366.981
 40
34.17106
  0
SEQEND
  0
POLYLINE
  8
Unknown_Area_Type
  70
1
  66
1
  0
VERTEX
  8
Unknown_Area_Type
  10
306875.943
  20
4633886.945
  0
VERTEX
  8
Unknown_Area_Type
  10
304519.421
  20
4633950.988
  0
VERTEX
  8
Unknown_Area_Type
  10
304119.718
  20
4633962.045
  0
VERTEX
  8
Unknown_Area_Type
  10
304063.000
  20
4632948.500
  0
VERTEX
  8
Unknown_Area_Type
  10
304063.500
  20
4632942.000
  0
VERTEX
  8
Unknown_Area_Type
  10
304243.500
  20
4632830.000
  0
VERTEX
  8
Unknown_Area_Type
  10
304257.500
  20
4632829.500
  0
VERTEX
  8
Unknown_Area_Type
  10
306827.000
  20
4632780.500
  0
VERTEX
  8
Unknown_Area_Type
  10
306875.943
  20
4633886.945
  0
SEQEND
  8
Unknown_Area_Type
  0
INSERT
  8
FeatureAttribs
  2
FEATURE
  41
1
  42
1
  43
1
  50
0
  10
317995.538
  20
4633964.449
 66
1
  0
ATTRIB
  8
FeatureAttribs
 70
0
  1
PNOA-H_AMS_1956-57_33k_ES_PAN_2
  2
NAME
  10
317995.538
  20
4633964.449
 40
34.17106
  0
SEQEND
  0
POLYLINE
  8
Unknown_Area_Type
  70
1
  66
1
  0
VERTEX
  8
Unknown_Area_Type
  10
317644.481
  20
4634343.955
  0
VERTEX
  8
Unknown_Area_Type
  10
318359.564
  20
4634343.955
  0
VERTEX
  8
Unknown_Area_Type
  10
318359.564
  20
4633586.050
  0
VERTEX
  8
Unknown_Area_Type
  10
318359.536
  20
4633584.942
  0
VERTEX
  8
Unknown_Area_Type
  10
317619.194
  20
4633603.984
  0
VERTEX
  8
Unknown_Area_Type
  10
317644.481
  20
4634343.955
  0
SEQEND
  8
Unknown_Area_Type
  0
INSERT
  8
FeatureAttribs
  2
FEATURE
  41
1
  42
1
  43
1
  50
0
  10
318359.550
  20
4633585.219
 66
1
  0
ATTRIB
  8
FeatureAttribs
 70
0
  1
PNOA-H_AMS_1956-57_33k_ES_PAN_2
  2
NAME
  10
318359.550
  20
4633585.219
 40
34.17106
  0
SEQEND
  0
POLYLINE
  8
Unknown_Area_Type
  70
1
  66
1
  0
VERTEX
  8
Unknown_Area_Type
  10
318359.564
  20
4633586.050
  0
VERTEX
  8
Unknown_Area_Type
  10
318359.564
  20
4633584.942
  0
VERTEX
  8
Unknown_Area_Type
  10
318359.536
  20
4633584.942
  0
VERTEX
  8
Unknown_Area_Type
  10
318359.564
  20
4633586.050
  0
SEQEND
  8
Unknown_Area_Type
  0
INSERT
  8
FeatureAttribs
  2
FEATURE
  41
1
  42
1
  43
1
  50
0
  10
318350.401
  20
4632866.615
 66
1
  0
ATTRIB
  8
FeatureAttribs
 70
0
  1
PNOA-H_AMS_1956-57_33k_ES_PAN_2
  2
NAME
  10
318350.401
  20
4632866.615
 40
34.17106
  0
SEQEND
  0
POLYLINE
  8
Unknown_Area_Type
  70
1
  66
1
  0
VERTEX
  8
Unknown_Area_Type
  10
318359.564
  20
4632154.857
  0
VERTEX
  8
Unknown_Area_Type
  10
318322.942
  20
4632148.287
  0
VERTEX
  8
Unknown_Area_Type
  10
318359.536
  20
4633584.942
  0
VERTEX
  8
Unknown_Area_Type
  10
318359.564
  20
4633584.942
  0
VERTEX
  8
Unknown_Area_Type
  10
318359.564
  20
4632154.857
  0
SEQEND
  8
Unknown_Area_Type
  0
INSERT
  8
FeatureAttribs
  2
FEATURE
  41
1
  42
1
  43
1
  50
0
  10
317962.260
  20
4632839.309
 66
1
  0
ATTRIB
  8
FeatureAttribs
 70
0
  1
PNOA-H_AMS_1956-57_33k_ES_PAN_2
  2
NAME
  10
317962.260
  20
4632839.309
 40
34.17106
  0
SEQEND
  0
POLYLINE
  8
Unknown_Area_Type
  70
1
  66
1
  0
VERTEX
  8
Unknown_Area_Type
  10
318322.942
  20
4632148.287
  0
VERTEX
  8
Unknown_Area_Type
  10
317711.000
  20
4632038.500
  0
VERTEX
  8
Unknown_Area_Type
  10
317707.500
  20
4632038.500
  0
VERTEX
  8
Unknown_Area_Type
  10
317700.000
  20
4632042.000
  0
VERTEX
  8
Unknown_Area_Type
  10
317569.000
  20
4632105.500
  0
VERTEX
  8
Unknown_Area_Type
  10
317568.500
  20
4632120.500
  0
VERTEX
  8
Unknown_Area_Type
  10
317619.194
  20
4633603.984
  0
VERTEX
  8
Unknown_Area_Type
  10
318359.536
  20
4633584.942
  0
VERTEX
  8
Unknown_Area_Type
  10
318322.942
  20
4632148.287
  0
SEQEND
  8
Unknown_Area_Type
  0
INSERT
  8
FeatureAttribs
  2
FEATURE
  41
1
  42
1
  43
1
  50
0
  10
317962.260
  20
4632839.309
 66
1
  0
ATTRIB
  8
FeatureAttribs
 70
0
  1
PNOA-H_AMS_1956-57_33k_ES_PAN_2
  2
NAME
  10
317962.260
  20
4632839.309
 40
34.17106
  0
SEQEND
  0
POLYLINE
  8
Unknown_Area_Type
  70
1
  66
1
  0
VERTEX
  8
Unknown_Area_Type
  10
318322.942
  20
4632148.287
  0
VERTEX
  8
Unknown_Area_Type
  10
318359.536
  20
4633584.942
  0
VERTEX
  8
Unknown_Area_Type
  10
317619.194
  20
4633603.984
  0
VERTEX
  8
Unknown_Area_Type
  10
317568.500
  20
4632120.500
  0
VERTEX
  8
Unknown_Area_Type
  10
317569.000
  20
4632105.500
  0
VERTEX
  8
Unknown_Area_Type
  10
317700.000
  20
4632042.000
  0
VERTEX
  8
Unknown_Area_Type
  10
317707.500
  20
4632038.500
  0
VERTEX
  8
Unknown_Area_Type
  10
317711.000
  20
4632038.500
  0
VERTEX
  8
Unknown_Area_Type
  10
318322.942
  20
4632148.287
  0
SEQEND
  8
Unknown_Area_Type
  0
INSERT
  8
FeatureAttribs
  2
FEATURE
  41
1
  42
1
  43
1
  50
0
  10
290230.387
  20
4622243.758
 66
1
  0
ATTRIB
  8
FeatureAttribs
 70
0
  1
PNOA-H_AMS_1956-57_33k_ES_PAN_2
  2
NAME
  10
290230.387
  20
4622243.758
 40
34.17106
  0
SEQEND
  0
POLYLINE
  8
Unknown_Area_Type
  70
1
  66
1
  0
VERTEX
  8
Unknown_Area_Type
  10
290255.648
  20
4619903.739
  0
VERTEX
  8
Unknown_Area_Type
  10
290136.575
  20
4619897.582
  0
VERTEX
  8
Unknown_Area_Type
  10
290136.575
  20
4624534.002
  0
VERTEX
  8
Unknown_Area_Type
  10
290392.958
  20
4624589.935
  0
VERTEX
  8
Unknown_Area_Type
  10
290339.839
  20
4622777.599
  0
VERTEX
  8
Unknown_Area_Type
  10
290272.066
  20
4620464.352
  0
VERTEX
  8
Unknown_Area_Type
  10
290255.648
  20
4619903.739
  0
SEQEND
  8
Unknown_Area_Type
  0
INSERT
  8
FeatureAttribs
  2
FEATURE
  41
1
  42
1
  43
1
  50
0
  10
290972.134
  20
4622220.089
 66
1
  0
ATTRIB
  8
FeatureAttribs
 70
0
  1
PNOA-H_AMS_1956-57_33k_ES_PAN_2
  2
NAME
  10
290972.134
  20
4622220.089
 40
34.17106
  0
SEQEND
  0
POLYLINE
  8
Unknown_Area_Type
  70
1
  66
1
  0
VERTEX
  8
Unknown_Area_Type
  10
290392.958
  20
4624589.935
  0
VERTEX
  8
Unknown_Area_Type
  10
290776.000
  20
4624673.500
  0
VERTEX
  8
Unknown_Area_Type
  10
290778.000
  20
4624674.000
  0
VERTEX
  8
Unknown_Area_Type
  10
291698.000
  20
4624234.000
  0
VERTEX
  8
Unknown_Area_Type
  10
291585.500
  20
4619972.500
  0
VERTEX
  8
Unknown_Area_Type
  10
290255.648
  20
4619903.739
  0
VERTEX
  8
Unknown_Area_Type
  10
290272.066
  20
4620464.352
  0
VERTEX
  8
Unknown_Area_Type
  10
290339.839
  20
4622777.599
  0
VERTEX
  8
Unknown_Area_Type
  10
290392.958
  20
4624589.935
  0
SEQEND
  8
Unknown_Area_Type
  0
INSERT
  8
FeatureAttribs
  2
FEATURE
  41
1
  42
1
  43
1
  50
0
  10
290972.134
  20
4622220.089
 66
1
  0
ATTRIB
  8
FeatureAttribs
 70
0
  1
PNOA-H_AMS_1956-57_33k_ES_PAN_2
  2
NAME
  10
290972.134
  20
4622220.089
 40
34.17106
  0
SEQEND
  0
POLYLINE
  8
Unknown_Area_Type
  70
1
  66
1
  0
VERTEX
  8
Unknown_Area_Type
  10
290392.958
  20
4624589.935
  0
VERTEX
  8
Unknown_Area_Type
  10
290339.839
  20
4622777.599
  0
VERTEX
  8
Unknown_Area_Type
  10
290272.066
  20
4620464.352
  0
VERTEX
  8
Unknown_Area_Type
  10
290255.648
  20
4619903.739
  0
VERTEX
  8
Unknown_Area_Type
  10
291585.500
  20
4619972.500
  0
VERTEX
  8
Unknown_Area_Type
  10
291698.000
  20
4624234.000
  0
VERTEX
  8
Unknown_Area_Type
  10
290778.000
  20
4624674.000
  0
VERTEX
  8
Unknown_Area_Type
  10
290776.000
  20
4624673.500
  0
VERTEX
  8
Unknown_Area_Type
  10
290392.958
  20
4624589.935
  0
SEQEND
  8
Unknown_Area_Type
  0
INSERT
  8
FeatureAttribs
  2
FEATURE
  41
1
  42
1
  43
1
  50
0
  10
290296.266
  20
4626738.639
 66
1
  0
ATTRIB
  8
FeatureAttribs
 70
0
  1
PNOA-H_AMS_1956-57_33k_ES_PAN_2
  2
NAME
  10
290296.266
  20
4626738.639
 40
34.17106
  0
SEQEND
  0
POLYLINE
  8
Unknown_Area_Type
  70
1
  66
1
  0
VERTEX
  8
Unknown_Area_Type
  10
290515.965
  20
4628784.660
  0
VERTEX
  8
Unknown_Area_Type
  10
290475.469
  20
4627404.114
  0
VERTEX
  8
Unknown_Area_Type
  10
290407.640
  20
4625090.853
  0
VERTEX
  8
Unknown_Area_Type
  10
290392.954
  20
4624589.782
  0
VERTEX
  8
Unknown_Area_Type
  10
290136.575
  20
4624533.779
  0
VERTEX
  8
Unknown_Area_Type
  10
290136.575
  20
4628936.295
  0
VERTEX
  8
Unknown_Area_Type
  10
290182.000
  20
4628943.500
  0
VERTEX
  8
Unknown_Area_Type
  10
290515.965
  20
4628784.660
  0
SEQEND
  8
Unknown_Area_Type
  0
INSERT
  8
FeatureAttribs
  2
FEATURE
  41
1
  42
1
  43
1
  50
0
  10
290642.069
  20
4626660.136
 66
1
  0
ATTRIB
  8
FeatureAttribs
 70
0
  1
PNOA-H_AMS_1956-57_33k_ES_PAN_2
  2
NAME
  10
290642.069
  20
4626660.136
 40
34.17106
  0
SEQEND
  0
POLYLINE
  8
Unknown_Area_Type
  70
1
  66
1
  0
VERTEX
  8
Unknown_Area_Type
  10
290515.965
  20
4628784.660
  0
VERTEX
  8
Unknown_Area_Type
  10
290889.500
  20
4628607.000
  0
VERTEX
  8
Unknown_Area_Type
  10
290778.500
  20
4624674.000
  0
VERTEX
  8
Unknown_Area_Type
  10
290392.954
  20
4624589.782
  0
VERTEX
  8
Unknown_Area_Type
  10
290407.640
  20
4625090.853
  0
VERTEX
  8
Unknown_Area_Type
  10
290475.469
  20
4627404.114
  0
VERTEX
  8
Unknown_Area_Type
  10
290515.965
  20
4628784.660
  0
SEQEND
  8
Unknown_Area_Type
  0
INSERT
  8
FeatureAttribs
  2
FEATURE
  41
1
  42
1
  43
1
  50
0
  10
290642.069
  20
4626660.136
 66
1
  0
ATTRIB
  8
FeatureAttribs
 70
0
  1
PNOA-H_AMS_1956-57_33k_ES_PAN_2
  2
NAME
  10
290642.069
  20
4626660.136
 40
34.17106
  0
SEQEND
  0
POLYLINE
  8
Unknown_Area_Type
  70
1
  66
1
  0
VERTEX
  8
Unknown_Area_Type
  10
290515.965
  20
4628784.660
  0
VERTEX
  8
Unknown_Area_Type
  10
290475.469
  20
4627404.114
  0
VERTEX
  8
Unknown_Area_Type
  10
290407.640
  20
4625090.853
  0
VERTEX
  8
Unknown_Area_Type
  10
290392.954
  20
4624589.782
  0
VERTEX
  8
Unknown_Area_Type
  10
290778.500
  20
4624674.000
  0
VERTEX
  8
Unknown_Area_Type
  10
290889.500
  20
4628607.000
  0
VERTEX
  8
Unknown_Area_Type
  10
290515.965
  20
4628784.660
  0
SEQEND
  8
Unknown_Area_Type
  0
INSERT
  8
FeatureAttribs
  2
FEATURE
  41
1
  42
1
  43
1
  50
0
  10
316428.621
  20
4621075.855
 66
1
  0
ATTRIB
  8
FeatureAttribs
 70
0
  1
PNOA-H_AMS_1956-57_33k_ES_PAN_2
  2
NAME
  10
316428.621
  20
4621075.855
 40
34.17106
  0
SEQEND
  0
POLYLINE
  8
Unknown_Area_Type
  70
1
  66
1
  0
VERTEX
  8
Unknown_Area_Type
  10
315248.000
  20
4623390.000
  0
VERTEX
  8
Unknown_Area_Type
  10
315727.000
  20
4623594.500
  0
VERTEX
  8
Unknown_Area_Type
  10
317787.000
  20
4623324.500
  0
VERTEX
  8
Unknown_Area_Type
  10
317676.500
  20
4619535.500
  0
VERTEX
  8
Unknown_Area_Type
  10
317676.500
  20
4619528.000
  0
VERTEX
  8
Unknown_Area_Type
  10
317653.500
  20
4618741.000
  0
VERTEX
  8
Unknown_Area_Type
  10
317330.500
  20
4618583.000
  0
VERTEX
  8
Unknown_Area_Type
  10
315015.000
  20
4618870.000
  0
VERTEX
  8
Unknown_Area_Type
  10
315248.000
  20
4623390.000
  0
SEQEND
  8
Unknown_Area_Type
  0
INSERT
  8
FeatureAttribs
  2
FEATURE
  41
1
  42
1
  43
1
  50
0
  10
316428.621
  20
4621075.855
 66
1
  0
ATTRIB
  8
FeatureAttribs
 70
0
  1
PNOA-H_AMS_1956-57_33k_ES_PAN_2
  2
NAME
  10
316428.621
  20
4621075.855
 40
34.17106
  0
SEQEND
  0
POLYLINE
  8
Unknown_Area_Type
  70
1
  66
1
  0
VERTEX
  8
Unknown_Area_Type
  10
315248.000
  20
4623390.000
  0
VERTEX
  8
Unknown_Area_Type
  10
315015.000
  20
4618870.000
  0
VERTEX
  8
Unknown_Area_Type
  10
317330.500
  20
4618583.000
  0
VERTEX
  8
Unknown_Area_Type
  10
317653.500
  20
4618741.000
  0
VERTEX
  8
Unknown_Area_Type
  10
317676.500
  20
4619528.000
  0
VERTEX
  8
Unknown_Area_Type
  10
317676.500
  20
4619535.500
  0
VERTEX
  8
Unknown_Area_Type
  10
317787.000
  20
4623324.500
  0
VERTEX
  8
Unknown_Area_Type
  10
315727.000
  20
4623594.500
  0
VERTEX
  8
Unknown_Area_Type
  10
315248.000
  20
4623390.000
  0
SEQEND
  8
Unknown_Area_Type
  0
INSERT
  8
FeatureAttribs
  2
FEATURE
  41
1
  42
1
  43
1
  50
0
  10
311272.770
  20
4621279.448
 66
1
  0
ATTRIB
  8
FeatureAttribs
 70
0
  1
PNOA-H_AMS_1956-57_33k_ES_PAN_2
  2
NAME
  10
311272.770
  20
4621279.448
 40
34.17106
  0
SEQEND
  0
POLYLINE
  8
Unknown_Area_Type
  70
1
  66
1
  0
VERTEX
  8
Unknown_Area_Type
  10
310111.000
  20
4623695.000
  0
VERTEX
  8
Unknown_Area_Type
  10
312721.000
  20
4623560.500
  0
VERTEX
  8
Unknown_Area_Type
  10
312413.500
  20
4618964.000
  0
VERTEX
  8
Unknown_Area_Type
  10
311744.000
  20
4618723.500
  0
VERTEX
  8
Unknown_Area_Type
  10
309849.000
  20
4619149.000
  0
VERTEX
  8
Unknown_Area_Type
  10
310086.500
  20
4623681.000
  0
VERTEX
  8
Unknown_Area_Type
  10
310110.000
  20
4623694.500
  0
VERTEX
  8
Unknown_Area_Type
  10
310111.000
  20
4623695.000
  0
SEQEND
  8
Unknown_Area_Type
  0
INSERT
  8
FeatureAttribs
  2
FEATURE
  41
1
  42
1
  43
1
  50
0
  10
311272.770
  20
4621279.448
 66
1
  0
ATTRIB
  8
FeatureAttribs
 70
0
  1
PNOA-H_AMS_1956-57_33k_ES_PAN_2
  2
NAME
  10
311272.770
  20
4621279.448
 40
34.17106
  0
SEQEND
  0
POLYLINE
  8
Unknown_Area_Type
  70
1
  66
1
  0
VERTEX
  8
Unknown_Area_Type
  10
310111.000
  20
4623695.000
  0
VERTEX
  8
Unknown_Area_Type
  10
310110.000
  20
4623694.500
  0
VERTEX
  8
Unknown_Area_Type
  10
310086.500
  20
4623681.000
  0
VERTEX
  8
Unknown_Area_Type
  10
309849.000
  20
4619149.000
  0
VERTEX
  8
Unknown_Area_Type
  10
311744.000
  20
4618723.500
  0
VERTEX
  8
Unknown_Area_Type
  10
312413.500
  20
4618964.000
  0
VERTEX
  8
Unknown_Area_Type
  10
312721.000
  20
4623560.500
  0
VERTEX
  8
Unknown_Area_Type
  10
310111.000
  20
4623695.000
  0
SEQEND
  8
Unknown_Area_Type
  0
INSERT
  8
FeatureAttribs
  2
FEATURE
  41
1
  42
1
  43
1
  50
0
  10
308637.076
  20
4621369.194
 66
1
  0
ATTRIB
  8
FeatureAttribs
 70
0
  1
PNOA-H_AMS_1956-57_33k_ES_PAN_2
  2
NAME
  10
308637.076
  20
4621369.194
 40
34.17106
  0
SEQEND
  0
POLYLINE
  8
Unknown_Area_Type
  70
1
  66
1
  0
VERTEX
  8
Unknown_Area_Type
  10
307468.000
  20
4623770.000
  0
VERTEX
  8
Unknown_Area_Type
  10
310087.000
  20
4623681.500
  0
VERTEX
  8
Unknown_Area_Type
  10
309849.000
  20
4619148.500
  0
VERTEX
  8
Unknown_Area_Type
  10
308976.500
  20
4618855.000
  0
VERTEX
  8
Unknown_Area_Type
  10
307139.000
  20
4619270.000
  0
VERTEX
  8
Unknown_Area_Type
  10
307468.000
  20
4623767.500
  0
VERTEX
  8
Unknown_Area_Type
  10
307468.000
  20
4623770.000
  0
SEQEND
  8
Unknown_Area_Type
  0
INSERT
  8
FeatureAttribs
  2
FEATURE
  41
1
  42
1
  43
1
  50
0
  10
308637.076
  20
4621369.194
 66
1
  0
ATTRIB
  8
FeatureAttribs
 70
0
  1
PNOA-H_AMS_1956-57_33k_ES_PAN_2
  2
NAME
  10
308637.076
  20
4621369.194
 40
34.17106
  0
SEQEND
  0
POLYLINE
  8
Unknown_Area_Type
  70
1
  66
1
  0
VERTEX
  8
Unknown_Area_Type
  10
307468.000
  20
4623770.000
  0
VERTEX
  8
Unknown_Area_Type
  10
307468.000
  20
4623767.500
  0
VERTEX
  8
Unknown_Area_Type
  10
307139.000
  20
4619270.000
  0
VERTEX
  8
Unknown_Area_Type
  10
308976.500
  20
4618855.000
  0
VERTEX
  8
Unknown_Area_Type
  10
309849.000
  20
4619148.500
  0
VERTEX
  8
Unknown_Area_Type
  10
310087.000
  20
4623681.500
  0
VERTEX
  8
Unknown_Area_Type
  10
307468.000
  20
4623770.000
  0
SEQEND
  8
Unknown_Area_Type
  0
INSERT
  8
FeatureAttribs
  2
FEATURE
  41
1
  42
1
  43
1
  50
0
  10
300905.153
  20
4621824.560
 66
1
  0
ATTRIB
  8
FeatureAttribs
 70
0
  1
PNOA-H_AMS_1956-57_33k_ES_PAN_2
  2
NAME
  10
300905.153
  20
4621824.560
 40
34.17106
  0
SEQEND
  0
POLYLINE
  8
Unknown_Area_Type
  70
1
  66
1
  0
VERTEX
  8
Unknown_Area_Type
  10
300689.500
  20
4624104.000
  0
VERTEX
  8
Unknown_Area_Type
  10
301857.000
  20
4624214.500
  0
VERTEX
  8
Unknown_Area_Type
  10
302317.000
  20
4623949.500
  0
VERTEX
  8
Unknown_Area_Type
  10
302321.000
  20
4623947.000
  0
VERTEX
  8
Unknown_Area_Type
  10
302321.500
  20
4623945.500
  0
VERTEX
  8
Unknown_Area_Type
  10
302014.500
  20
4619642.500
  0
VERTEX
  8
Unknown_Area_Type
  10
300589.000
  20
4619364.000
  0
VERTEX
  8
Unknown_Area_Type
  10
299492.500
  20
4619774.500
  0
VERTEX
  8
Unknown_Area_Type
  10
299491.000
  20
4619775.500
  0
VERTEX
  8
Unknown_Area_Type
  10
299491.000
  20
4619782.500
  0
VERTEX
  8
Unknown_Area_Type
  10
299765.000
  20
4624016.000
  0
VERTEX
  8
Unknown_Area_Type
  10
300684.000
  20
4624103.500
  0
VERTEX
  8
Unknown_Area_Type
  10
300689.500
  20
4624104.000
  0
SEQEND
  8
Unknown_Area_Type
  0
INSERT
  8
FeatureAttribs
  2
FEATURE
  41
1
  42
1
  43
1
  50
0
  10
300905.153
  20
4621824.560
 66
1
  0
ATTRIB
  8
FeatureAttribs
 70
0
  1
PNOA-H_AMS_1956-57_33k_ES_PAN_2
  2
NAME
  10
300905.153
  20
4621824.560
 40
34.17106
  0
SEQEND
  0
POLYLINE
  8
Unknown_Area_Type
  70
1
  66
1
  0
VERTEX
  8
Unknown_Area_Type
  10
300689.500
  20
4624104.000
  0
VERTEX
  8
Unknown_Area_Type
  10
300684.000
  20
4624103.500
  0
VERTEX
  8
Unknown_Area_Type
  10
299765.000
  20
4624016.000
  0
VERTEX
  8
Unknown_Area_Type
  10
299491.000
  20
4619782.500
  0
VERTEX
  8
Unknown_Area_Type
  10
299491.000
  20
4619775.500
  0
VERTEX
  8
Unknown_Area_Type
  10
299492.500
  20
4619774.500
  0
VERTEX
  8
Unknown_Area_Type
  10
300589.000
  20
4619364.000
  0
VERTEX
  8
Unknown_Area_Type
  10
302014.500
  20
4619642.500
  0
VERTEX
  8
Unknown_Area_Type
  10
302321.500
  20
4623945.500
  0
VERTEX
  8
Unknown_Area_Type
  10
302321.000
  20
4623947.000
  0
VERTEX
  8
Unknown_Area_Type
  10
302317.000
  20
4623949.500
  0
VERTEX
  8
Unknown_Area_Type
  10
301857.000
  20
4624214.500
  0
VERTEX
  8
Unknown_Area_Type
  10
300689.500
  20
4624104.000
  0
SEQEND
  8
Unknown_Area_Type
  0
INSERT
  8
FeatureAttribs
  2
FEATURE
  41
1
  42
1
  43
1
  50
0
  10
313846.040
  20
4621148.587
 66
1
  0
ATTRIB
  8
FeatureAttribs
 70
0
  1
PNOA-H_AMS_1956-57_33k_ES_PAN_2
  2
NAME
  10
313846.040
  20
4621148.587
 40
34.17106
  0
SEQEND
  0
POLYLINE
  8
Unknown_Area_Type
  70
1
  66
1
  0
VERTEX
  8
Unknown_Area_Type
  10
312978.000
  20
4623651.000
  0
VERTEX
  8
Unknown_Area_Type
  10
315248.000
  20
4623390.000
  0
VERTEX
  8
Unknown_Area_Type
  10
315015.500
  20
4618871.500
  0
VERTEX
  8
Unknown_Area_Type
  10
315014.000
  20
4618869.000
  0
VERTEX
  8
Unknown_Area_Type
  10
314483.500
  20
4618634.500
  0
VERTEX
  8
Unknown_Area_Type
  10
312413.500
  20
4618964.000
  0
VERTEX
  8
Unknown_Area_Type
  10
312720.500
  20
4623556.500
  0
VERTEX
  8
Unknown_Area_Type
  10
312721.000
  20
4623560.500
  0
VERTEX
  8
Unknown_Area_Type
  10
312723.500
  20
4623562.000
  0
VERTEX
  8
Unknown_Area_Type
  10
312925.500
  20
4623656.500
  0
VERTEX
  8
Unknown_Area_Type
  10
312974.000
  20
4623651.000
  0
VERTEX
  8
Unknown_Area_Type
  10
312978.000
  20
4623651.000
  0
SEQEND
  8
Unknown_Area_Type
  0
INSERT
  8
FeatureAttribs
  2
FEATURE
  41
1
  42
1
  43
1
  50
0
  10
313846.040
  20
4621148.587
 66
1
  0
ATTRIB
  8
FeatureAttribs
 70
0
  1
PNOA-H_AMS_1956-57_33k_ES_PAN_2
  2
NAME
  10
313846.040
  20
4621148.587
 40
34.17106
  0
SEQEND
  0
POLYLINE
  8
Unknown_Area_Type
  70
1
  66
1
  0
VERTEX
  8
Unknown_Area_Type
  10
312978.000
  20
4623651.000
  0
VERTEX
  8
Unknown_Area_Type
  10
312974.000
  20
4623651.000
  0
VERTEX
  8
Unknown_Area_Type
  10
312925.500
  20
4623656.500
  0
VERTEX
  8
Unknown_Area_Type
  10
312723.500
  20
4623562.000
  0
VERTEX
  8
Unknown_Area_Type
  10
312721.000
  20
4623560.500
  0
VERTEX
  8
Unknown_Area_Type
  10
312720.500
  20
4623556.500
  0
VERTEX
  8
Unknown_Area_Type
  10
312413.500
  20
4618964.000
  0
VERTEX
  8
Unknown_Area_Type
  10
314483.500
  20
4618634.500
  0
VERTEX
  8
Unknown_Area_Type
  10
315014.000
  20
4618869.000
  0
VERTEX
  8
Unknown_Area_Type
  10
315015.500
  20
4618871.500
  0
VERTEX
  8
Unknown_Area_Type
  10
315248.000
  20
4623390.000
  0
VERTEX
  8
Unknown_Area_Type
  10
312978.000
  20
4623651.000
  0
SEQEND
  8
Unknown_Area_Type
  0
INSERT
  8
FeatureAttribs
  2
FEATURE
  41
1
  42
1
  43
1
  50
0
  10
298325.778
  20
4621955.504
 66
1
  0
ATTRIB
  8
FeatureAttribs
 70
0
  1
PNOA-H_AMS_1956-57_33k_ES_PAN_2
  2
NAME
  10
298325.778
  20
4621955.504
 40
34.17106
  0
SEQEND
  0
POLYLINE
  8
Unknown_Area_Type
  70
1
  66
1
  0
VERTEX
  8
Unknown_Area_Type
  10
299103.500
  20
4624363.500
  0
VERTEX
  8
Unknown_Area_Type
  10
299107.000
  20
4624363.500
  0
VERTEX
  8
Unknown_Area_Type
  10
299765.000
  20
4624016.500
  0
VERTEX
  8
Unknown_Area_Type
  10
299491.000
  20
4619775.500
  0
VERTEX
  8
Unknown_Area_Type
  10
297913.000
  20
4619549.500
  0
VERTEX
  8
Unknown_Area_Type
  10
297775.000
  20
4619530.500
  0
VERTEX
  8
Unknown_Area_Type
  10
296919.500
  20
4619896.500
  0
VERTEX
  8
Unknown_Area_Type
  10
297096.000
  20
4624065.000
  0
VERTEX
  8
Unknown_Area_Type
  10
297096.500
  20
4624066.000
  0
VERTEX
  8
Unknown_Area_Type
  10
297105.000
  20
4624067.500
  0
VERTEX
  8
Unknown_Area_Type
  10
299100.000
  20
4624363.000
  0
VERTEX
  8
Unknown_Area_Type
  10
299103.500
  20
4624363.500
  0
SEQEND
  8
Unknown_Area_Type
  0
INSERT
  8
FeatureAttribs
  2
FEATURE
  41
1
  42
1
  43
1
  50
0
  10
298325.778
  20
4621955.504
 66
1
  0
ATTRIB
  8
FeatureAttribs
 70
0
  1
PNOA-H_AMS_1956-57_33k_ES_PAN_2
  2
NAME
  10
298325.778
  20
4621955.504
 40
34.17106
  0
SEQEND
  0
POLYLINE
  8
Unknown_Area_Type
  70
1
  66
1
  0
VERTEX
  8
Unknown_Area_Type
  10
299103.500
  20
4624363.500
  0
VERTEX
  8
Unknown_Area_Type
  10
299100.000
  20
4624363.000
  0
VERTEX
  8
Unknown_Area_Type
  10
297105.000
  20
4624067.500
  0
VERTEX
  8
Unknown_Area_Type
  10
297096.500
  20
4624066.000
  0
VERTEX
  8
Unknown_Area_Type
  10
297096.000
  20
4624065.000
  0
VERTEX
  8
Unknown_Area_Type
  10
296919.500
  20
4619896.500
  0
VERTEX
  8
Unknown_Area_Type
  10
297775.000
  20
4619530.500
  0
VERTEX
  8
Unknown_Area_Type
  10
297913.000
  20
4619549.500
  0
VERTEX
  8
Unknown_Area_Type
  10
299491.000
  20
4619775.500
  0
VERTEX
  8
Unknown_Area_Type
  10
299765.000
  20
4624016.500
  0
VERTEX
  8
Unknown_Area_Type
  10
299107.000
  20
4624363.500
  0
VERTEX
  8
Unknown_Area_Type
  10
299103.500
  20
4624363.500
  0
SEQEND
  8
Unknown_Area_Type
  0
INSERT
  8
FeatureAttribs
  2
FEATURE
  41
1
  42
1
  43
1
  50
0
  10
303450.428
  20
4621680.002
 66
1
  0
ATTRIB
  8
FeatureAttribs
 70
0
  1
PNOA-H_AMS_1956-57_33k_ES_PAN_2
  2
NAME
  10
303450.428
  20
4621680.002
 40
34.17106
  0
SEQEND
  0
POLYLINE
  8
Unknown_Area_Type
  70
1
  66
1
  0
VERTEX
  8
Unknown_Area_Type
  10
302737.500
  20
4623962.000
  0
VERTEX
  8
Unknown_Area_Type
  10
304580.000
  20
4624028.500
  0
VERTEX
  8
Unknown_Area_Type
  10
304875.500
  20
4623848.000
  0
VERTEX
  8
Unknown_Area_Type
  10
304563.000
  20
4619480.500
  0
VERTEX
  8
Unknown_Area_Type
  10
303383.500
  20
4619192.500
  0
VERTEX
  8
Unknown_Area_Type
  10
303350.500
  20
4619202.500
  0
VERTEX
  8
Unknown_Area_Type
  10
302014.500
  20
4619642.500
  0
VERTEX
  8
Unknown_Area_Type
  10
302321.000
  20
4623945.500
  0
VERTEX
  8
Unknown_Area_Type
  10
302321.500
  20
4623946.500
  0
VERTEX
  8
Unknown_Area_Type
  10
302325.000
  20
4623947.000
  0
VERTEX
  8
Unknown_Area_Type
  10
302724.000
  20
4623961.500
  0
VERTEX
  8
Unknown_Area_Type
  10
302737.500
  20
4623962.000
  0
SEQEND
  8
Unknown_Area_Type
  0
INSERT
  8
FeatureAttribs
  2
FEATURE
  41
1
  42
1
  43
1
  50
0
  10
303450.428
  20
4621680.002
 66
1
  0
ATTRIB
  8
FeatureAttribs
 70
0
  1
PNOA-H_AMS_1956-57_33k_ES_PAN_2
  2
NAME
  10
303450.428
  20
4621680.002
 40
34.17106
  0
SEQEND
  0
POLYLINE
  8
Unknown_Area_Type
  70
1
  66
1
  0
VERTEX
  8
Unknown_Area_Type
  10
302737.500
  20
4623962.000
  0
VERTEX
  8
Unknown_Area_Type
  10
302724.000
  20
4623961.500
  0
VERTEX
  8
Unknown_Area_Type
  10
302325.000
  20
4623947.000
  0
VERTEX
  8
Unknown_Area_Type
  10
302321.500
  20
4623946.500
  0
VERTEX
  8
Unknown_Area_Type
  10
302321.000
  20
4623945.500
  0
VERTEX
  8
Unknown_Area_Type
  10
302014.500
  20
4619642.500
  0
VERTEX
  8
Unknown_Area_Type
  10
303350.500
  20
4619202.500
  0
VERTEX
  8
Unknown_Area_Type
  10
303383.500
  20
4619192.500
  0
VERTEX
  8
Unknown_Area_Type
  10
304563.000
  20
4619480.500
  0
VERTEX
  8
Unknown_Area_Type
  10
304875.500
  20
4623848.000
  0
VERTEX
  8
Unknown_Area_Type
  10
304580.000
  20
4624028.500
  0
VERTEX
  8
Unknown_Area_Type
  10
302737.500
  20
4623962.000
  0
SEQEND
  8
Unknown_Area_Type
  0
INSERT
  8
FeatureAttribs
  2
FEATURE
  41
1
  42
1
  43
1
  50
0
  10
292977.885
  20
4622127.790
 66
1
  0
ATTRIB
  8
FeatureAttribs
 70
0
  1
PNOA-H_AMS_1956-57_33k_ES_PAN_2
  2
NAME
  10
292977.885
  20
4622127.790
 40
34.17106
  0
SEQEND
  0
POLYLINE
  8
Unknown_Area_Type
  70
1
  66
1
  0
VERTEX
  8
Unknown_Area_Type
  10
293588.500
  20
4624573.500
  0
VERTEX
  8
Unknown_Area_Type
  10
294363.500
  20
4624163.000
  0
VERTEX
  8
Unknown_Area_Type
  10
294272.000
  20
4619974.500
  0
VERTEX
  8
Unknown_Area_Type
  10
292025.000
  20
4619759.500
  0
VERTEX
  8
Unknown_Area_Type
  10
292019.500
  20
4619759.500
  0
VERTEX
  8
Unknown_Area_Type
  10
292010.000
  20
4619764.000
  0
VERTEX
  8
Unknown_Area_Type
  10
291585.500
  20
4619972.500
  0
VERTEX
  8
Unknown_Area_Type
  10
291698.000
  20
4624233.500
  0
VERTEX
  8
Unknown_Area_Type
  10
293585.500
  20
4624573.000
  0
VERTEX
  8
Unknown_Area_Type
  10
293588.500
  20
4624573.500
  0
SEQEND
  8
Unknown_Area_Type
  0
INSERT
  8
FeatureAttribs
  2
FEATURE
  41
1
  42
1
  43
1
  50
0
  10
292977.885
  20
4622127.790
 66
1
  0
ATTRIB
  8
FeatureAttribs
 70
0
  1
PNOA-H_AMS_1956-57_33k_ES_PAN_2
  2
NAME
  10
292977.885
  20
4622127.790
 40
34.17106
  0
SEQEND
  0
POLYLINE
  8
Unknown_Area_Type
  70
1
  66
1
  0
VERTEX
  8
Unknown_Area_Type
  10
293588.500
  20
4624573.500
  0
VERTEX
  8
Unknown_Area_Type
  10
293585.500
  20
4624573.000
  0
VERTEX
  8
Unknown_Area_Type
  10
291698.000
  20
4624233.500
  0
VERTEX
  8
Unknown_Area_Type
  10
291585.500
  20
4619972.500
  0
VERTEX
  8
Unknown_Area_Type
  10
292010.000
  20
4619764.000
  0
VERTEX
  8
Unknown_Area_Type
  10
292019.500
  20
4619759.500
  0
VERTEX
  8
Unknown_Area_Type
  10
292025.000
  20
4619759.500
  0
VERTEX
  8
Unknown_Area_Type
  10
294272.000
  20
4619974.500
  0
VERTEX
  8
Unknown_Area_Type
  10
294363.500
  20
4624163.000
  0
VERTEX
  8
Unknown_Area_Type
  10
293588.500
  20
4624573.500
  0
SEQEND
  8
Unknown_Area_Type
  0
INSERT
  8
FeatureAttribs
  2
FEATURE
  41
1
  42
1
  43
1
  50
0
  10
306020.372
  20
4621521.682
 66
1
  0
ATTRIB
  8
FeatureAttribs
 70
0
  1
PNOA-H_AMS_1956-57_33k_ES_PAN_2
  2
NAME
  10
306020.372
  20
4621521.682
 40
34.17106
  0
SEQEND
  0
POLYLINE
  8
Unknown_Area_Type
  70
1
  66
1
  0
VERTEX
  8
Unknown_Area_Type
  10
306834.000
  20
4623837.500
  0
VERTEX
  8
Unknown_Area_Type
  10
307367.000
  20
4623834.500
  0
VERTEX
  8
Unknown_Area_Type
  10
307468.000
  20
4623770.500
  0
VERTEX
  8
Unknown_Area_Type
  10
307139.000
  20
4619270.000
  0
VERTEX
  8
Unknown_Area_Type
  10
306263.000
  20
4618999.500
  0
VERTEX
  8
Unknown_Area_Type
  10
304563.000
  20
4619480.500
  0
VERTEX
  8
Unknown_Area_Type
  10
304875.000
  20
4623846.500
  0
VERTEX
  8
Unknown_Area_Type
  10
304875.500
  20
4623848.000
  0
VERTEX
  8
Unknown_Area_Type
  10
304911.000
  20
4623848.000
  0
VERTEX
  8
Unknown_Area_Type
  10
306746.500
  20
4623837.500
  0
VERTEX
  8
Unknown_Area_Type
  10
306834.000
  20
4623837.500
  0
SEQEND
  8
Unknown_Area_Type
  0
INSERT
  8
FeatureAttribs
  2
FEATURE
  41
1
  42
1
  43
1
  50
0
  10
306020.372
  20
4621521.682
 66
1
  0
ATTRIB
  8
FeatureAttribs
 70
0
  1
PNOA-H_AMS_1956-57_33k_ES_PAN_2
  2
NAME
  10
306020.372
  20
4621521.682
 40
34.17106
  0
SEQEND
  0
POLYLINE
  8
Unknown_Area_Type
  70
1
  66
1
  0
VERTEX
  8
Unknown_Area_Type
  10
306834.000
  20
4623837.500
  0
VERTEX
  8
Unknown_Area_Type
  10
306746.500
  20
4623837.500
  0
VERTEX
  8
Unknown_Area_Type
  10
304911.000
  20
4623848.000
  0
VERTEX
  8
Unknown_Area_Type
  10
304875.500
  20
4623848.000
  0
VERTEX
  8
Unknown_Area_Type
  10
304875.000
  20
4623846.500
  0
VERTEX
  8
Unknown_Area_Type
  10
304563.000
  20
4619480.500
  0
VERTEX
  8
Unknown_Area_Type
  10
306263.000
  20
4618999.500
  0
VERTEX
  8
Unknown_Area_Type
  10
307139.000
  20
4619270.000
  0
VERTEX
  8
Unknown_Area_Type
  10
307468.000
  20
4623770.500
  0
VERTEX
  8
Unknown_Area_Type
  10
307367.000
  20
4623834.500
  0
VERTEX
  8
Unknown_Area_Type
  10
306834.000
  20
4623837.500
  0
SEQEND
  8
Unknown_Area_Type
  0
INSERT
  8
FeatureAttribs
  2
FEATURE
  41
1
  42
1
  43
1
  50
0
  10
295664.986
  20
4622051.330
 66
1
  0
ATTRIB
  8
FeatureAttribs
 70
0
  1
PNOA-H_AMS_1956-57_33k_ES_PAN_2
  2
NAME
  10
295664.986
  20
4622051.330
 40
34.17106
  0
SEQEND
  0
POLYLINE
  8
Unknown_Area_Type
  70
1
  66
1
  0
VERTEX
  8
Unknown_Area_Type
  10
294544.000
  20
4624188.000
  0
VERTEX
  8
Unknown_Area_Type
  10
296385.500
  20
4624444.000
  0
VERTEX
  8
Unknown_Area_Type
  10
297096.500
  20
4624066.000
  0
VERTEX
  8
Unknown_Area_Type
  10
296920.000
  20
4619897.500
  0
VERTEX
  8
Unknown_Area_Type
  10
296918.500
  20
4619896.000
  0
VERTEX
  8
Unknown_Area_Type
  10
294979.500
  20
4619654.500
  0
VERTEX
  8
Unknown_Area_Type
  10
294272.000
  20
4619974.500
  0
VERTEX
  8
Unknown_Area_Type
  10
294363.500
  20
4624162.500
  0
VERTEX
  8
Unknown_Area_Type
  10
294540.500
  20
4624187.500
  0
VERTEX
  8
Unknown_Area_Type
  10
294544.000
  20
4624188.000
  0
SEQEND
  8
Unknown_Area_Type
  0
INSERT
  8
FeatureAttribs
  2
FEATURE
  41
1
  42
1
  43
1
  50
0
  10
295664.986
  20
4622051.330
 66
1
  0
ATTRIB
  8
FeatureAttribs
 70
0
  1
PNOA-H_AMS_1956-57_33k_ES_PAN_2
  2
NAME
  10
295664.986
  20
4622051.330
 40
34.17106
  0
SEQEND
  0
POLYLINE
  8
Unknown_Area_Type
  70
1
  66
1
  0
VERTEX
  8
Unknown_Area_Type
  10
294544.000
  20
4624188.000
  0
VERTEX
  8
Unknown_Area_Type
  10
294540.500
  20
4624187.500
  0
VERTEX
  8
Unknown_Area_Type
  10
294363.500
  20
4624162.500
  0
VERTEX
  8
Unknown_Area_Type
  10
294272.000
  20
4619974.500
  0
VERTEX
  8
Unknown_Area_Type
  10
294979.500
  20
4619654.500
  0
VERTEX
  8
Unknown_Area_Type
  10
296918.500
  20
4619896.000
  0
VERTEX
  8
Unknown_Area_Type
  10
296920.000
  20
4619897.500
  0
VERTEX
  8
Unknown_Area_Type
  10
297096.500
  20
4624066.000
  0
VERTEX
  8
Unknown_Area_Type
  10
296385.500
  20
4624444.000
  0
VERTEX
  8
Unknown_Area_Type
  10
294544.000
  20
4624188.000
  0
SEQEND
  8
Unknown_Area_Type
  0
INSERT
  8
FeatureAttribs
  2
FEATURE
  41
1
  42
1
  43
1
  50
0
  10
318256.313
  20
4625474.611
 66
1
  0
ATTRIB
  8
FeatureAttribs
 70
0
  1
PNOA-H_AMS_1956-57_33k_ES_PAN_2
  2
NAME
  10
318256.313
  20
4625474.611
 40
34.17106
  0
SEQEND
  0
POLYLINE
  8
Unknown_Area_Type
  70
1
  66
1
  0
VERTEX
  8
Unknown_Area_Type
  10
318359.564
  20
4623542.854
  0
VERTEX
  8
Unknown_Area_Type
  10
318101.422
  20
4623444.409
  0
VERTEX
  8
Unknown_Area_Type
  10
318123.996
  20
4624332.109
  0
VERTEX
  8
Unknown_Area_Type
  10
318182.845
  20
4626645.307
  0
VERTEX
  8
Unknown_Area_Type
  10
318204.720
  20
4627504.813
  0
VERTEX
  8
Unknown_Area_Type
  10
318359.564
  20
4627406.176
  0
VERTEX
  8
Unknown_Area_Type
  10
318359.564
  20
4623542.854
  0
SEQEND
  8
Unknown_Area_Type
  0
INSERT
  8
FeatureAttribs
  2
FEATURE
  41
1
  42
1
  43
1
  50
0
  10
316962.252
  20
4625570.700
 66
1
  0
ATTRIB
  8
FeatureAttribs
 70
0
  1
PNOA-H_AMS_1956-57_33k_ES_PAN_2
  2
NAME
  10
316962.252
  20
4625570.700
 40
34.17106
  0
SEQEND
  0
POLYLINE
  8
Unknown_Area_Type
  70
1
  66
1
  0
VERTEX
  8
Unknown_Area_Type
  10
318101.422
  20
4623444.409
  0
VERTEX
  8
Unknown_Area_Type
  10
317787.000
  20
4623324.500
  0
VERTEX
  8
Unknown_Area_Type
  10
315728.000
  20
4623594.500
  0
VERTEX
  8
Unknown_Area_Type
  10
315721.500
  20
4627487.000
  0
VERTEX
  8
Unknown_Area_Type
  10
317696.500
  20
4627825.000
  0
VERTEX
  8
Unknown_Area_Type
  10
317699.500
  20
4627825.500
  0
VERTEX
  8
Unknown_Area_Type
  10
317706.000
  20
4627822.500
  0
VERTEX
  8
Unknown_Area_Type
  10
318204.720
  20
4627504.813
  0
VERTEX
  8
Unknown_Area_Type
  10
318182.845
  20
4626645.307
  0
VERTEX
  8
Unknown_Area_Type
  10
318123.996
  20
4624332.109
  0
VERTEX
  8
Unknown_Area_Type
  10
318101.422
  20
4623444.409
  0
SEQEND
  8
Unknown_Area_Type
  0
INSERT
  8
FeatureAttribs
  2
FEATURE
  41
1
  42
1
  43
1
  50
0
  10
316962.252
  20
4625570.700
 66
1
  0
ATTRIB
  8
FeatureAttribs
 70
0
  1
PNOA-H_AMS_1956-57_33k_ES_PAN_2
  2
NAME
  10
316962.252
  20
4625570.700
 40
34.17106
  0
SEQEND
  0
POLYLINE
  8
Unknown_Area_Type
  70
1
  66
1
  0
VERTEX
  8
Unknown_Area_Type
  10
318101.422
  20
4623444.409
  0
VERTEX
  8
Unknown_Area_Type
  10
318123.996
  20
4624332.109
  0
VERTEX
  8
Unknown_Area_Type
  10
318182.845
  20
4626645.307
  0
VERTEX
  8
Unknown_Area_Type
  10
318204.720
  20
4627504.813
  0
VERTEX
  8
Unknown_Area_Type
  10
317706.000
  20
4627822.500
  0
VERTEX
  8
Unknown_Area_Type
  10
317699.500
  20
4627825.500
  0
VERTEX
  8
Unknown_Area_Type
  10
317696.500
  20
4627825.000
  0
VERTEX
  8
Unknown_Area_Type
  10
315721.500
  20
4627487.000
  0
VERTEX
  8
Unknown_Area_Type
  10
315728.000
  20
4623594.500
  0
VERTEX
  8
Unknown_Area_Type
  10
317787.000
  20
4623324.500
  0
VERTEX
  8
Unknown_Area_Type
  10
318101.422
  20
4623444.409
  0
SEQEND
  8
Unknown_Area_Type
  0
INSERT
  8
FeatureAttribs
  2
FEATURE
  41
1
  42
1
  43
1
  50
0
  10
308781.234
  20
4625890.398
 66
1
  0
ATTRIB
  8
FeatureAttribs
 70
0
  1
PNOA-H_AMS_1956-57_33k_ES_PAN_2
  2
NAME
  10
308781.234
  20
4625890.398
 40
34.17106
  0
SEQEND
  0
POLYLINE
  8
Unknown_Area_Type
  70
1
  66
1
  0
VERTEX
  8
Unknown_Area_Type
  10
309331.000
  20
4628221.500
  0
VERTEX
  8
Unknown_Area_Type
  10
310202.500
  20
4627737.500
  0
VERTEX
  8
Unknown_Area_Type
  10
310112.500
  20
4623707.500
  0
VERTEX
  8
Unknown_Area_Type
  10
310112.000
  20
4623695.000
  0
VERTEX
  8
Unknown_Area_Type
  10
310087.000
  20
4623681.500
  0
VERTEX
  8
Unknown_Area_Type
  10
307468.000
  20
4623770.000
  0
VERTEX
  8
Unknown_Area_Type
  10
307366.500
  20
4623834.500
  0
VERTEX
  8
Unknown_Area_Type
  10
307418.000
  20
4627910.000
  0
VERTEX
  8
Unknown_Area_Type
  10
307418.500
  20
4627911.000
  0
VERTEX
  8
Unknown_Area_Type
  10
307430.000
  20
4627913.000
  0
VERTEX
  8
Unknown_Area_Type
  10
309328.000
  20
4628221.000
  0
VERTEX
  8
Unknown_Area_Type
  10
309331.000
  20
4628221.500
  0
SEQEND
  8
Unknown_Area_Type
  0
INSERT
  8
FeatureAttribs
  2
FEATURE
  41
1
  42
1
  43
1
  50
0
  10
308781.234
  20
4625890.398
 66
1
  0
ATTRIB
  8
FeatureAttribs
 70
0
  1
PNOA-H_AMS_1956-57_33k_ES_PAN_2
  2
NAME
  10
308781.234
  20
4625890.398
 40
34.17106
  0
SEQEND
  0
POLYLINE
  8
Unknown_Area_Type
  70
1
  66
1
  0
VERTEX
  8
Unknown_Area_Type
  10
309331.000
  20
4628221.500
  0
VERTEX
  8
Unknown_Area_Type
  10
309328.000
  20
4628221.000
  0
VERTEX
  8
Unknown_Area_Type
  10
307430.000
  20
4627913.000
  0
VERTEX
  8
Unknown_Area_Type
  10
307418.500
  20
4627911.000
  0
VERTEX
  8
Unknown_Area_Type
  10
307418.000
  20
4627910.000
  0
VERTEX
  8
Unknown_Area_Type
  10
307366.500
  20
4623834.500
  0
VERTEX
  8
Unknown_Area_Type
  10
307468.000
  20
4623770.000
  0
VERTEX
  8
Unknown_Area_Type
  10
310087.000
  20
4623681.500
  0
VERTEX
  8
Unknown_Area_Type
  10
310112.000
  20
4623695.000
  0
VERTEX
  8
Unknown_Area_Type
  10
310112.500
  20
4623707.500
  0
VERTEX
  8
Unknown_Area_Type
  10
310202.500
  20
4627737.500
  0
VERTEX
  8
Unknown_Area_Type
  10
309331.000
  20
4628221.500
  0
SEQEND
  8
Unknown_Area_Type
  0
INSERT
  8
FeatureAttribs
  2
FEATURE
  41
1
  42
1
  43
1
  50
0
  10
314354.498
  20
4625632.703
 66
1
  0
ATTRIB
  8
FeatureAttribs
 70
0
  1
PNOA-H_AMS_1956-57_33k_ES_PAN_2
  2
NAME
  10
314354.498
  20
4625632.703
 40
34.17106
  0
SEQEND
  0
POLYLINE
  8
Unknown_Area_Type
  70
1
  66
1
  0
VERTEX
  8
Unknown_Area_Type
  10
315724.500
  20
4625672.000
  0
VERTEX
  8
Unknown_Area_Type
  10
315728.000
  20
4623594.500
  0
VERTEX
  8
Unknown_Area_Type
  10
315260.000
  20
4623394.500
  0
VERTEX
  8
Unknown_Area_Type
  10
315249.000
  20
4623390.000
  0
VERTEX
  8
Unknown_Area_Type
  10
315243.500
  20
4623390.000
  0
VERTEX
  8
Unknown_Area_Type
  10
312926.500
  20
4623656.500
  0
VERTEX
  8
Unknown_Area_Type
  10
312982.000
  20
4627608.500
  0
VERTEX
  8
Unknown_Area_Type
  10
314956.500
  20
4627951.000
  0
VERTEX
  8
Unknown_Area_Type
  10
315721.000
  20
4627488.000
  0
VERTEX
  8
Unknown_Area_Type
  10
315722.000
  20
4627478.000
  0
VERTEX
  8
Unknown_Area_Type
  10
315724.500
  20
4625921.500
  0
VERTEX
  8
Unknown_Area_Type
  10
315724.500
  20
4625672.000
  0
SEQEND
  8
Unknown_Area_Type
  0
INSERT
  8
FeatureAttribs
  2
FEATURE
  41
1
  42
1
  43
1
  50
0
  10
314354.498
  20
4625632.703
 66
1
  0
ATTRIB
  8
FeatureAttribs
 70
0
  1
PNOA-H_AMS_1956-57_33k_ES_PAN_2
  2
NAME
  10
314354.498
  20
4625632.703
 40
34.17106
  0
SEQEND
  0
POLYLINE
  8
Unknown_Area_Type
  70
1
  66
1
  0
VERTEX
  8
Unknown_Area_Type
  10
315724.500
  20
4625672.000
  0
VERTEX
  8
Unknown_Area_Type
  10
315724.500
  20
4625921.500
  0
VERTEX
  8
Unknown_Area_Type
  10
315722.000
  20
4627478.000
  0
VERTEX
  8
Unknown_Area_Type
  10
315721.000
  20
4627488.000
  0
VERTEX
  8
Unknown_Area_Type
  10
314956.500
  20
4627951.000
  0
VERTEX
  8
Unknown_Area_Type
  10
312982.000
  20
4627608.500
  0
VERTEX
  8
Unknown_Area_Type
  10
312926.500
  20
4623656.500
  0
VERTEX
  8
Unknown_Area_Type
  10
315243.500
  20
4623390.000
  0
VERTEX
  8
Unknown_Area_Type
  10
315249.000
  20
4623390.000
  0
VERTEX
  8
Unknown_Area_Type
  10
315260.000
  20
4623394.500
  0
VERTEX
  8
Unknown_Area_Type
  10
315728.000
  20
4623594.500
  0
VERTEX
  8
Unknown_Area_Type
  10
315724.500
  20
4625672.000
  0
SEQEND
  8
Unknown_Area_Type
  0
INSERT
  8
FeatureAttribs
  2
FEATURE
  41
1
  42
1
  43
1
  50
0
  10
311566.452
  20
4625751.181
 66
1
  0
ATTRIB
  8
FeatureAttribs
 70
0
  1
PNOA-H_AMS_1956-57_33k_ES_PAN_2
  2
NAME
  10
311566.452
  20
4625751.181
 40
34.17106
  0
SEQEND
  0
POLYLINE
  8
Unknown_Area_Type
  70
1
  66
1
  0
VERTEX
  8
Unknown_Area_Type
  10
312978.000
  20
4627610.500
  0
VERTEX
  8
Unknown_Area_Type
  10
312982.000
  20
4627608.500
  0
VERTEX
  8
Unknown_Area_Type
  10
312982.000
  20
4627596.500
  0
VERTEX
  8
Unknown_Area_Type
  10
312926.500
  20
4623656.500
  0
VERTEX
  8
Unknown_Area_Type
  10
312725.000
  20
4623562.000
  0
VERTEX
  8
Unknown_Area_Type
  10
312721.500
  20
4623560.500
  0
VERTEX
  8
Unknown_Area_Type
  10
312715.500
  20
4623560.500
  0
VERTEX
  8
Unknown_Area_Type
  10
310112.000
  20
4623695.000
  0
VERTEX
  8
Unknown_Area_Type
  10
310202.500
  20
4627737.500
  0
VERTEX
  8
Unknown_Area_Type
  10
312187.500
  20
4628065.000
  0
VERTEX
  8
Unknown_Area_Type
  10
312976.500
  20
4627611.000
  0
VERTEX
  8
Unknown_Area_Type
  10
312978.000
  20
4627610.500
  0
SEQEND
  8
Unknown_Area_Type
  0
INSERT
  8
FeatureAttribs
  2
FEATURE
  41
1
  42
1
  43
1
  50
0
  10
311566.452
  20
4625751.181
 66
1
  0
ATTRIB
  8
FeatureAttribs
 70
0
  1
PNOA-H_AMS_1956-57_33k_ES_PAN_2
  2
NAME
  10
311566.452
  20
4625751.181
 40
34.17106
  0
SEQEND
  0
POLYLINE
  8
Unknown_Area_Type
  70
1
  66
1
  0
VERTEX
  8
Unknown_Area_Type
  10
312978.000
  20
4627610.500
  0
VERTEX
  8
Unknown_Area_Type
  10
312976.500
  20
4627611.000
  0
VERTEX
  8
Unknown_Area_Type
  10
312187.500
  20
4628065.000
  0
VERTEX
  8
Unknown_Area_Type
  10
310202.500
  20
4627737.500
  0
VERTEX
  8
Unknown_Area_Type
  10
310112.000
  20
4623695.000
  0
VERTEX
  8
Unknown_Area_Type
  10
312715.500
  20
4623560.500
  0
VERTEX
  8
Unknown_Area_Type
  10
312721.500
  20
4623560.500
  0
VERTEX
  8
Unknown_Area_Type
  10
312725.000
  20
4623562.000
  0
VERTEX
  8
Unknown_Area_Type
  10
312926.500
  20
4623656.500
  0
VERTEX
  8
Unknown_Area_Type
  10
312982.000
  20
4627596.500
  0
VERTEX
  8
Unknown_Area_Type
  10
312982.000
  20
4627608.500
  0
VERTEX
  8
Unknown_Area_Type
  10
312978.000
  20
4627610.500
  0
SEQEND
  8
Unknown_Area_Type
  0
INSERT
  8
FeatureAttribs
  2
FEATURE
  41
1
  42
1
  43
1
  50
0
  10
303282.417
  20
4626187.857
 66
1
  0
ATTRIB
  8
FeatureAttribs
 70
0
  1
PNOA-H_AMS_1956-57_33k_ES_PAN_2
  2
NAME
  10
303282.417
  20
4626187.857
 40
34.17106
  0
SEQEND
  0
POLYLINE
  8
Unknown_Area_Type
  70
1
  66
1
  0
VERTEX
  8
Unknown_Area_Type
  10
303939.500
  20
4628504.000
  0
VERTEX
  8
Unknown_Area_Type
  10
304733.500
  20
4628101.000
  0
VERTEX
  8
Unknown_Area_Type
  10
304579.000
  20
4624028.500
  0
VERTEX
  8
Unknown_Area_Type
  10
302321.000
  20
4623946.500
  0
VERTEX
  8
Unknown_Area_Type
  10
301857.000
  20
4624214.000
  0
VERTEX
  8
Unknown_Area_Type
  10
301943.000
  20
4628240.000
  0
VERTEX
  8
Unknown_Area_Type
  10
303936.000
  20
4628503.500
  0
VERTEX
  8
Unknown_Area_Type
  10
303939.500
  20
4628504.000
  0
SEQEND
  8
Unknown_Area_Type
  0
INSERT
  8
FeatureAttribs
  2
FEATURE
  41
1
  42
1
  43
1
  50
0
  10
303282.417
  20
4626187.857
 66
1
  0
ATTRIB
  8
FeatureAttribs
 70
0
  1
PNOA-H_AMS_1956-57_33k_ES_PAN_2
  2
NAME
  10
303282.417
  20
4626187.857
 40
34.17106
  0
SEQEND
  0
POLYLINE
  8
Unknown_Area_Type
  70
1
  66
1
  0
VERTEX
  8
Unknown_Area_Type
  10
303939.500
  20
4628504.000
  0
VERTEX
  8
Unknown_Area_Type
  10
303936.000
  20
4628503.500
  0
VERTEX
  8
Unknown_Area_Type
  10
301943.000
  20
4628240.000
  0
VERTEX
  8
Unknown_Area_Type
  10
301857.000
  20
4624214.000
  0
VERTEX
  8
Unknown_Area_Type
  10
302321.000
  20
4623946.500
  0
VERTEX
  8
Unknown_Area_Type
  10
304579.000
  20
4624028.500
  0
VERTEX
  8
Unknown_Area_Type
  10
304733.500
  20
4628101.000
  0
VERTEX
  8
Unknown_Area_Type
  10
303939.500
  20
4628504.000
  0
SEQEND
  8
Unknown_Area_Type
  0
INSERT
  8
FeatureAttribs
  2
FEATURE
  41
1
  42
1
  43
1
  50
0
  10
300521.037
  20
4626307.976
 66
1
  0
ATTRIB
  8
FeatureAttribs
 70
0
  1
PNOA-H_AMS_1956-57_33k_ES_PAN_2
  2
NAME
  10
300521.037
  20
4626307.976
 40
34.17106
  0
SEQEND
  0
POLYLINE
  8
Unknown_Area_Type
  70
1
  66
1
  0
VERTEX
  8
Unknown_Area_Type
  10
301184.500
  20
4628616.000
  0
VERTEX
  8
Unknown_Area_Type
  10
301189.000
  20
4628616.000
  0
VERTEX
  8
Unknown_Area_Type
  10
301242.500
  20
4628589.500
  0
VERTEX
  8
Unknown_Area_Type
  10
301943.000
  20
4628240.000
  0
VERTEX
  8
Unknown_Area_Type
  10
301857.500
  20
4624229.500
  0
VERTEX
  8
Unknown_Area_Type
  10
301857.000
  20
4624214.500
  0
VERTEX
  8
Unknown_Area_Type
  10
301856.000
  20
4624214.000
  0
VERTEX
  8
Unknown_Area_Type
  10
299765.000
  20
4624016.000
  0
VERTEX
  8
Unknown_Area_Type
  10
299106.000
  20
4624363.500
  0
VERTEX
  8
Unknown_Area_Type
  10
299176.000
  20
4628377.500
  0
VERTEX
  8
Unknown_Area_Type
  10
301180.500
  20
4628615.500
  0
VERTEX
  8
Unknown_Area_Type
  10
301184.500
  20
4628616.000
  0
SEQEND
  8
Unknown_Area_Type
  0
INSERT
  8
FeatureAttribs
  2
FEATURE
  41
1
  42
1
  43
1
  50
0
  10
300521.037
  20
4626307.976
 66
1
  0
ATTRIB
  8
FeatureAttribs
 70
0
  1
PNOA-H_AMS_1956-57_33k_ES_PAN_2
  2
NAME
  10
300521.037
  20
4626307.976
 40
34.17106
  0
SEQEND
  0
POLYLINE
  8
Unknown_Area_Type
  70
1
  66
1
  0
VERTEX
  8
Unknown_Area_Type
  10
301184.500
  20
4628616.000
  0
VERTEX
  8
Unknown_Area_Type
  10
301180.500
  20
4628615.500
  0
VERTEX
  8
Unknown_Area_Type
  10
299176.000
  20
4628377.500
  0
VERTEX
  8
Unknown_Area_Type
  10
299106.000
  20
4624363.500
  0
VERTEX
  8
Unknown_Area_Type
  10
299765.000
  20
4624016.000
  0
VERTEX
  8
Unknown_Area_Type
  10
301856.000
  20
4624214.000
  0
VERTEX
  8
Unknown_Area_Type
  10
301857.000
  20
4624214.500
  0
VERTEX
  8
Unknown_Area_Type
  10
301857.500
  20
4624229.500
  0
VERTEX
  8
Unknown_Area_Type
  10
301943.000
  20
4628240.000
  0
VERTEX
  8
Unknown_Area_Type
  10
301242.500
  20
4628589.500
  0
VERTEX
  8
Unknown_Area_Type
  10
301189.000
  20
4628616.000
  0
VERTEX
  8
Unknown_Area_Type
  10
301184.500
  20
4628616.000
  0
SEQEND
  8
Unknown_Area_Type
  0
INSERT
  8
FeatureAttribs
  2
FEATURE
  41
1
  42
1
  43
1
  50
0
  10
295060.372
  20
4626491.010
 66
1
  0
ATTRIB
  8
FeatureAttribs
 70
0
  1
PNOA-H_AMS_1956-57_33k_ES_PAN_2
  2
NAME
  10
295060.372
  20
4626491.010
 40
34.17106
  0
SEQEND
  0
POLYLINE
  8
Unknown_Area_Type
  70
1
  66
1
  0
VERTEX
  8
Unknown_Area_Type
  10
295698.500
  20
4628831.500
  0
VERTEX
  8
Unknown_Area_Type
  10
295702.500
  20
4628831.500
  0
VERTEX
  8
Unknown_Area_Type
  10
295707.500
  20
4628829.500
  0
VERTEX
  8
Unknown_Area_Type
  10
296493.500
  20
4628489.500
  0
VERTEX
  8
Unknown_Area_Type
  10
296386.000
  20
4624458.000
  0
VERTEX
  8
Unknown_Area_Type
  10
296385.500
  20
4624444.000
  0
VERTEX
  8
Unknown_Area_Type
  10
296384.500
  20
4624443.500
  0
VERTEX
  8
Unknown_Area_Type
  10
294363.500
  20
4624162.500
  0
VERTEX
  8
Unknown_Area_Type
  10
293589.000
  20
4624573.500
  0
VERTEX
  8
Unknown_Area_Type
  10
293771.500
  20
4628552.500
  0
VERTEX
  8
Unknown_Area_Type
  10
295695.000
  20
4628831.000
  0
VERTEX
  8
Unknown_Area_Type
  10
295698.500
  20
4628831.500
  0
SEQEND
  8
Unknown_Area_Type
  0
INSERT
  8
FeatureAttribs
  2
FEATURE
  41
1
  42
1
  43
1
  50
0
  10
295060.372
  20
4626491.010
 66
1
  0
ATTRIB
  8
FeatureAttribs
 70
0
  1
PNOA-H_AMS_1956-57_33k_ES_PAN_2
  2
NAME
  10
295060.372
  20
4626491.010
 40
34.17106
  0
SEQEND
  0
POLYLINE
  8
Unknown_Area_Type
  70
1
  66
1
  0
VERTEX
  8
Unknown_Area_Type
  10
295698.500
  20
4628831.500
  0
VERTEX
  8
Unknown_Area_Type
  10
295695.000
  20
4628831.000
  0
VERTEX
  8
Unknown_Area_Type
  10
293771.500
  20
4628552.500
  0
VERTEX
  8
Unknown_Area_Type
  10
293589.000
  20
4624573.500
  0
VERTEX
  8
Unknown_Area_Type
  10
294363.500
  20
4624162.500
  0
VERTEX
  8
Unknown_Area_Type
  10
296384.500
  20
4624443.500
  0
VERTEX
  8
Unknown_Area_Type
  10
296385.500
  20
4624444.000
  0
VERTEX
  8
Unknown_Area_Type
  10
296386.000
  20
4624458.000
  0
VERTEX
  8
Unknown_Area_Type
  10
296493.500
  20
4628489.500
  0
VERTEX
  8
Unknown_Area_Type
  10
295707.500
  20
4628829.500
  0
VERTEX
  8
Unknown_Area_Type
  10
295702.500
  20
4628831.500
  0
VERTEX
  8
Unknown_Area_Type
  10
295698.500
  20
4628831.500
  0
SEQEND
  8
Unknown_Area_Type
  0
INSERT
  8
FeatureAttribs
  2
FEATURE
  41
1
  42
1
  43
1
  50
0
  10
306025.059
  20
4626007.121
 66
1
  0
ATTRIB
  8
FeatureAttribs
 70
0
  1
PNOA-H_AMS_1956-57_33k_ES_PAN_2
  2
NAME
  10
306025.059
  20
4626007.121
 40
34.17106
  0
SEQEND
  0
POLYLINE
  8
Unknown_Area_Type
  70
1
  66
1
  0
VERTEX
  8
Unknown_Area_Type
  10
304783.000
  20
4628107.500
  0
VERTEX
  8
Unknown_Area_Type
  10
306574.500
  20
4628337.500
  0
VERTEX
  8
Unknown_Area_Type
  10
307418.500
  20
4627911.000
  0
VERTEX
  8
Unknown_Area_Type
  10
307366.500
  20
4623834.500
  0
VERTEX
  8
Unknown_Area_Type
  10
304875.000
  20
4623848.000
  0
VERTEX
  8
Unknown_Area_Type
  10
304579.000
  20
4624028.500
  0
VERTEX
  8
Unknown_Area_Type
  10
304733.000
  20
4628091.500
  0
VERTEX
  8
Unknown_Area_Type
  10
304733.500
  20
4628101.000
  0
VERTEX
  8
Unknown_Area_Type
  10
304779.500
  20
4628107.000
  0
VERTEX
  8
Unknown_Area_Type
  10
304783.000
  20
4628107.500
  0
SEQEND
  8
Unknown_Area_Type
  0
INSERT
  8
FeatureAttribs
  2
FEATURE
  41
1
  42
1
  43
1
  50
0
  10
306025.059
  20
4626007.121
 66
1
  0
ATTRIB
  8
FeatureAttribs
 70
0
  1
PNOA-H_AMS_1956-57_33k_ES_PAN_2
  2
NAME
  10
306025.059
  20
4626007.121
 40
34.17106
  0
SEQEND
  0
POLYLINE
  8
Unknown_Area_Type
  70
1
  66
1
  0
VERTEX
  8
Unknown_Area_Type
  10
304783.000
  20
4628107.500
  0
VERTEX
  8
Unknown_Area_Type
  10
304779.500
  20
4628107.000
  0
VERTEX
  8
Unknown_Area_Type
  10
304733.500
  20
4628101.000
  0
VERTEX
  8
Unknown_Area_Type
  10
304733.000
  20
4628091.500
  0
VERTEX
  8
Unknown_Area_Type
  10
304579.000
  20
4624028.500
  0
VERTEX
  8
Unknown_Area_Type
  10
304875.000
  20
4623848.000
  0
VERTEX
  8
Unknown_Area_Type
  10
307366.500
  20
4623834.500
  0
VERTEX
  8
Unknown_Area_Type
  10
307418.500
  20
4627911.000
  0
VERTEX
  8
Unknown_Area_Type
  10
306574.500
  20
4628337.500
  0
VERTEX
  8
Unknown_Area_Type
  10
304783.000
  20
4628107.500
  0
SEQEND
  8
Unknown_Area_Type
  0
INSERT
  8
FeatureAttribs
  2
FEATURE
  41
1
  42
1
  43
1
  50
0
  10
292261.161
  20
4626597.131
 66
1
  0
ATTRIB
  8
FeatureAttribs
 70
0
  1
PNOA-H_AMS_1956-57_33k_ES_PAN_2
  2
NAME
  10
292261.161
  20
4626597.131
 40
34.17106
  0
SEQEND
  0
POLYLINE
  8
Unknown_Area_Type
  70
1
  66
1
  0
VERTEX
  8
Unknown_Area_Type
  10
290889.500
  20
4628607.000
  0
VERTEX
  8
Unknown_Area_Type
  10
292986.500
  20
4628918.500
  0
VERTEX
  8
Unknown_Area_Type
  10
292990.000
  20
4628919.000
  0
VERTEX
  8
Unknown_Area_Type
  10
292992.000
  20
4628919.000
  0
VERTEX
  8
Unknown_Area_Type
  10
293006.000
  20
4628912.500
  0
VERTEX
  8
Unknown_Area_Type
  10
293771.500
  20
4628552.500
  0
VERTEX
  8
Unknown_Area_Type
  10
293589.000
  20
4624573.500
  0
VERTEX
  8
Unknown_Area_Type
  10
291698.500
  20
4624233.500
  0
VERTEX
  8
Unknown_Area_Type
  10
290778.500
  20
4624673.500
  0
VERTEX
  8
Unknown_Area_Type
  10
290889.500
  20
4628607.000
  0
SEQEND
  8
Unknown_Area_Type
  0
INSERT
  8
FeatureAttribs
  2
FEATURE
  41
1
  42
1
  43
1
  50
0
  10
292261.161
  20
4626597.131
 66
1
  0
ATTRIB
  8
FeatureAttribs
 70
0
  1
PNOA-H_AMS_1956-57_33k_ES_PAN_2
  2
NAME
  10
292261.161
  20
4626597.131
 40
34.17106
  0
SEQEND
  0
POLYLINE
  8
Unknown_Area_Type
  70
1
  66
1
  0
VERTEX
  8
Unknown_Area_Type
  10
290889.500
  20
4628607.000
  0
VERTEX
  8
Unknown_Area_Type
  10
290778.500
  20
4624673.500
  0
VERTEX
  8
Unknown_Area_Type
  10
291698.500
  20
4624233.500
  0
VERTEX
  8
Unknown_Area_Type
  10
293589.000
  20
4624573.500
  0
VERTEX
  8
Unknown_Area_Type
  10
293771.500
  20
4628552.500
  0
VERTEX
  8
Unknown_Area_Type
  10
293006.000
  20
4628912.500
  0
VERTEX
  8
Unknown_Area_Type
  10
292992.000
  20
4628919.000
  0
VERTEX
  8
Unknown_Area_Type
  10
292990.000
  20
4628919.000
  0
VERTEX
  8
Unknown_Area_Type
  10
292986.500
  20
4628918.500
  0
VERTEX
  8
Unknown_Area_Type
  10
290889.500
  20
4628607.000
  0
SEQEND
  8
Unknown_Area_Type
  0
INSERT
  8
FeatureAttribs
  2
FEATURE
  41
1
  42
1
  43
1
  50
0
  10
297786.616
  20
4626409.722
 66
1
  0
ATTRIB
  8
FeatureAttribs
 70
0
  1
PNOA-H_AMS_1956-57_33k_ES_PAN_2
  2
NAME
  10
297786.616
  20
4626409.722
 40
34.17106
  0
SEQEND
  0
POLYLINE
  8
Unknown_Area_Type
  70
1
  66
1
  0
VERTEX
  8
Unknown_Area_Type
  10
296591.500
  20
4628503.500
  0
VERTEX
  8
Unknown_Area_Type
  10
298396.000
  20
4628753.500
  0
VERTEX
  8
Unknown_Area_Type
  10
299176.000
  20
4628377.500
  0
VERTEX
  8
Unknown_Area_Type
  10
299106.000
  20
4624363.500
  0
VERTEX
  8
Unknown_Area_Type
  10
297102.000
  20
4624066.500
  0
VERTEX
  8
Unknown_Area_Type
  10
297095.500
  20
4624066.000
  0
VERTEX
  8
Unknown_Area_Type
  10
296385.500
  20
4624443.500
  0
VERTEX
  8
Unknown_Area_Type
  10
296493.000
  20
4628489.000
  0
VERTEX
  8
Unknown_Area_Type
  10
296494.500
  20
4628490.000
  0
VERTEX
  8
Unknown_Area_Type
  10
296588.000
  20
4628503.000
  0
VERTEX
  8
Unknown_Area_Type
  10
296591.500
  20
4628503.500
  0
SEQEND
  8
Unknown_Area_Type
  0
INSERT
  8
FeatureAttribs
  2
FEATURE
  41
1
  42
1
  43
1
  50
0
  10
297786.616
  20
4626409.722
 66
1
  0
ATTRIB
  8
FeatureAttribs
 70
0
  1
PNOA-H_AMS_1956-57_33k_ES_PAN_2
  2
NAME
  10
297786.616
  20
4626409.722
 40
34.17106
  0
SEQEND
  0
POLYLINE
  8
Unknown_Area_Type
  70
1
  66
1
  0
VERTEX
  8
Unknown_Area_Type
  10
296591.500
  20
4628503.500
  0
VERTEX
  8
Unknown_Area_Type
  10
296588.000
  20
4628503.000
  0
VERTEX
  8
Unknown_Area_Type
  10
296494.500
  20
4628490.000
  0
VERTEX
  8
Unknown_Area_Type
  10
296493.000
  20
4628489.000
  0
VERTEX
  8
Unknown_Area_Type
  10
296385.500
  20
4624443.500
  0
VERTEX
  8
Unknown_Area_Type
  10
297095.500
  20
4624066.000
  0
VERTEX
  8
Unknown_Area_Type
  10
297102.000
  20
4624066.500
  0
VERTEX
  8
Unknown_Area_Type
  10
299106.000
  20
4624363.500
  0
VERTEX
  8
Unknown_Area_Type
  10
299176.000
  20
4628377.500
  0
VERTEX
  8
Unknown_Area_Type
  10
298396.000
  20
4628753.500
  0
VERTEX
  8
Unknown_Area_Type
  10
296591.500
  20
4628503.500
  0
SEQEND
  8
Unknown_Area_Type
  0
INSERT
  8
FeatureAttribs
  2
FEATURE
  41
1
  42
1
  43
1
  50
0
  10
317881.528
  20
4621082.412
 66
1
  0
ATTRIB
  8
FeatureAttribs
 70
0
  1
PNOA-H_AMS_1956-57_33k_ES_PAN_2
  2
NAME
  10
317881.528
  20
4621082.412
 40
34.17106
  0
SEQEND
  0
POLYLINE
  8
Unknown_Area_Type
  70
1
  66
1
  0
VERTEX
  8
Unknown_Area_Type
  10
317981.326
  20
4618720.064
  0
VERTEX
  8
Unknown_Area_Type
  10
317653.500
  20
4618741.000
  0
VERTEX
  8
Unknown_Area_Type
  10
317787.000
  20
4623325.000
  0
VERTEX
  8
Unknown_Area_Type
  10
318101.431
  20
4623444.760
  0
VERTEX
  8
Unknown_Area_Type
  10
318065.172
  20
4622018.919
  0
VERTEX
  8
Unknown_Area_Type
  10
318006.372
  20
4619705.736
  0
VERTEX
  8
Unknown_Area_Type
  10
317981.326
  20
4618720.064
  0
SEQEND
  8
Unknown_Area_Type
  0
INSERT
  8
FeatureAttribs
  2
FEATURE
  41
1
  42
1
  43
1
  50
0
  10
317881.528
  20
4621082.412
 66
1
  0
ATTRIB
  8
FeatureAttribs
 70
0
  1
PNOA-H_AMS_1956-57_33k_ES_PAN_2
  2
NAME
  10
317881.528
  20
4621082.412
 40
34.17106
  0
SEQEND
  0
POLYLINE
  8
Unknown_Area_Type
  70
1
  66
1
  0
VERTEX
  8
Unknown_Area_Type
  10
317981.326
  20
4618720.064
  0
VERTEX
  8
Unknown_Area_Type
  10
317653.500
  20
4618741.000
  0
VERTEX
  8
Unknown_Area_Type
  10
317787.000
  20
4623325.000
  0
VERTEX
  8
Unknown_Area_Type
  10
318101.431
  20
4623444.760
  0
VERTEX
  8
Unknown_Area_Type
  10
318065.172
  20
4622018.919
  0
VERTEX
  8
Unknown_Area_Type
  10
318006.372
  20
4619705.736
  0
VERTEX
  8
Unknown_Area_Type
  10
317981.326
  20
4618720.064
  0
SEQEND
  8
Unknown_Area_Type
  0
INSERT
  8
FeatureAttribs
  2
FEATURE
  41
1
  42
1
  43
1
  50
0
  10
318200.936
  20
4621119.492
 66
1
  0
ATTRIB
  8
FeatureAttribs
 70
0
  1
PNOA-H_AMS_1956-57_33k_ES_PAN_2
  2
NAME
  10
318200.936
  20
4621119.492
 40
34.17106
  0
SEQEND
  0
POLYLINE
  8
Unknown_Area_Type
  70
1
  66
1
  0
VERTEX
  8
Unknown_Area_Type
  10
318359.564
  20
4618695.908
  0
VERTEX
  8
Unknown_Area_Type
  10
317981.326
  20
4618720.064
  0
VERTEX
  8
Unknown_Area_Type
  10
318006.372
  20
4619705.736
  0
VERTEX
  8
Unknown_Area_Type
  10
318065.172
  20
4622018.919
  0
VERTEX
  8
Unknown_Area_Type
  10
318101.431
  20
4623444.760
  0
VERTEX
  8
Unknown_Area_Type
  10
318359.564
  20
4623543.077
  0
VERTEX
  8
Unknown_Area_Type
  10
318359.564
  20
4618695.908
  0
SEQEND
  8
Unknown_Area_Type
  0
INSERT
  8
FeatureAttribs
  2
FEATURE
  41
1
  42
1
  43
1
  50
0
  10
290147.847
  20
4629925.192
 66
1
  0
ATTRIB
  8
FeatureAttribs
 70
0
  1
PNOA-H_AMS_1956-57_33k_ES_PAN_2
  2
NAME
  10
290147.847
  20
4629925.192
 40
34.17106
  0
SEQEND
  0
POLYLINE
  8
Unknown_Area_Type
  70
1
  66
1
  0
VERTEX
  8
Unknown_Area_Type
  10
290136.575
  20
4630914.025
  0
VERTEX
  8
Unknown_Area_Type
  10
290181.500
  20
4628943.500
  0
VERTEX
  8
Unknown_Area_Type
  10
290136.575
  20
4628936.360
  0
VERTEX
  8
Unknown_Area_Type
  10
290136.575
  20
4630914.025
  0
SEQEND
  8
Unknown_Area_Type
  0
INSERT
  8
FeatureAttribs
  2
FEATURE
  41
1
  42
1
  43
1
  50
0
  10
290166.348
  20
4617870.979
 66
1
  0
ATTRIB
  8
FeatureAttribs
 70
0
  1
PNOA-H_AMS_1956-57_33k_ES_PAN_2
  2
NAME
  10
290166.348
  20
4617870.979
 40
34.17106
  0
SEQEND
  0
POLYLINE
  8
Unknown_Area_Type
  70
1
  66
1
  0
VERTEX
  8
Unknown_Area_Type
  10
290255.658
  20
4619904.080
  0
VERTEX
  8
Unknown_Area_Type
  10
290204.321
  20
4618151.112
  0
VERTEX
  8
Unknown_Area_Type
  10
290136.604
  20
4615837.879
  0
VERTEX
  8
Unknown_Area_Type
  10
290136.575
  20
4615837.879
  0
VERTEX
  8
Unknown_Area_Type
  10
290136.575
  20
4619897.928
  0
VERTEX
  8
Unknown_Area_Type
  10
290255.658
  20
4619904.080
  0
SEQEND
  8
Unknown_Area_Type
  0
INSERT
  8
FeatureAttribs
  2
FEATURE
  41
1
  42
1
  43
1
  50
0
  10
290136.590
  20
4615837.638
 66
1
  0
ATTRIB
  8
FeatureAttribs
 70
0
  1
PNOA-H_AMS_1956-57_33k_ES_PAN_2
  2
NAME
  10
290136.590
  20
4615837.638
 40
34.17106
  0
SEQEND
  0
POLYLINE
  8
Unknown_Area_Type
  70
1
  66
1
  0
VERTEX
  8
Unknown_Area_Type
  10
290136.575
  20
4615837.879
  0
VERTEX
  8
Unknown_Area_Type
  10
290136.604
  20
4615837.879
  0
VERTEX
  8
Unknown_Area_Type
  10
290136.575
  20
4615836.914
  0
VERTEX
  8
Unknown_Area_Type
  10
290136.575
  20
4615837.879
  0
SEQEND
  8
Unknown_Area_Type
  0
INSERT
  8
FeatureAttribs
  2
FEATURE
  41
1
  42
1
  43
1
  50
0
  10
291072.822
  20
4615683.939
 66
1
  0
ATTRIB
  8
FeatureAttribs
 70
0
  1
PNOA-H_AMS_1956-57_33k_ES_PAN_2
  2
NAME
  10
291072.822
  20
4615683.939
 40
34.17106
  0
SEQEND
  0
POLYLINE
  8
Unknown_Area_Type
  70
1
  66
1
  0
VERTEX
  8
Unknown_Area_Type
  10
292009.348
  20
4615783.521
  0
VERTEX
  8
Unknown_Area_Type
  10
292008.637
  20
4615530.000
  0
VERTEX
  8
Unknown_Area_Type
  10
290136.575
  20
4615530.000
  0
VERTEX
  8
Unknown_Area_Type
  10
290136.575
  20
4615836.914
  0
VERTEX
  8
Unknown_Area_Type
  10
290136.604
  20
4615837.879
  0
VERTEX
  8
Unknown_Area_Type
  10
292009.348
  20
4615783.521
  0
SEQEND
  8
Unknown_Area_Type
  0
INSERT
  8
FeatureAttribs
  2
FEATURE
  41
1
  42
1
  43
1
  50
0
  10
291105.476
  20
4617845.345
 66
1
  0
ATTRIB
  8
FeatureAttribs
 70
0
  1
PNOA-H_AMS_1956-57_33k_ES_PAN_2
  2
NAME
  10
291105.476
  20
4617845.345
 40
34.17106
  0
SEQEND
  0
POLYLINE
  8
Unknown_Area_Type
  70
1
  66
1
  0
VERTEX
  8
Unknown_Area_Type
  10
292009.348
  20
4615783.521
  0
VERTEX
  8
Unknown_Area_Type
  10
290136.604
  20
4615837.879
  0
VERTEX
  8
Unknown_Area_Type
  10
290204.321
  20
4618151.112
  0
VERTEX
  8
Unknown_Area_Type
  10
290255.658
  20
4619904.080
  0
VERTEX
  8
Unknown_Area_Type
  10
290438.000
  20
4619913.500
  0
VERTEX
  8
Unknown_Area_Type
  10
290447.500
  20
4619914.000
  0
VERTEX
  8
Unknown_Area_Type
  10
291586.000
  20
4619972.500
  0
VERTEX
  8
Unknown_Area_Type
  10
292020.500
  20
4619759.500
  0
VERTEX
  8
Unknown_Area_Type
  10
292009.348
  20
4615783.521
  0
SEQEND
  8
Unknown_Area_Type
  0
INSERT
  8
FeatureAttribs
  2
FEATURE
  41
1
  42
1
  43
1
  50
0
  10
291105.476
  20
4617845.345
 66
1
  0
ATTRIB
  8
FeatureAttribs
 70
0
  1
PNOA-H_AMS_1956-57_33k_ES_PAN_2
  2
NAME
  10
291105.476
  20
4617845.345
 40
34.17106
  0
SEQEND
  0
POLYLINE
  8
Unknown_Area_Type
  70
1
  66
1
  0
VERTEX
  8
Unknown_Area_Type
  10
292009.348
  20
4615783.521
  0
VERTEX
  8
Unknown_Area_Type
  10
292020.500
  20
4619759.500
  0
VERTEX
  8
Unknown_Area_Type
  10
291586.000
  20
4619972.500
  0
VERTEX
  8
Unknown_Area_Type
  10
290447.500
  20
4619914.000
  0
VERTEX
  8
Unknown_Area_Type
  10
290438.000
  20
4619913.500
  0
VERTEX
  8
Unknown_Area_Type
  10
290255.658
  20
4619904.080
  0
VERTEX
  8
Unknown_Area_Type
  10
290204.321
  20
4618151.112
  0
VERTEX
  8
Unknown_Area_Type
  10
290136.604
  20
4615837.879
  0
VERTEX
  8
Unknown_Area_Type
  10
292009.348
  20
4615783.521
  0
SEQEND
  8
Unknown_Area_Type
  0
INSERT
  8
FeatureAttribs
  2
FEATURE
  41
1
  42
1
  43
1
  50
0
  10
299014.331
  20
4615481.338
 66
1
  0
ATTRIB
  8
FeatureAttribs
 70
0
  1
PNOA-H_AMS_1956-57_33k_ES_PAN_2
  2
NAME
  10
299014.331
  20
4615481.338
 40
34.17106
  0
SEQEND
  0
POLYLINE
  8
Unknown_Area_Type
  70
1
  66
1
  0
VERTEX
  8
Unknown_Area_Type
  10
300409.898
  20
4615544.600
  0
VERTEX
  8
Unknown_Area_Type
  10
300400.332
  20
4615340.000
  0
VERTEX
  8
Unknown_Area_Type
  10
297616.320
  20
4615340.000
  0
VERTEX
  8
Unknown_Area_Type
  10
297627.125
  20
4615622.676
  0
VERTEX
  8
Unknown_Area_Type
  10
300409.898
  20
4615544.600
  0
SEQEND
  8
Unknown_Area_Type
  0
INSERT
  8
FeatureAttribs
  2
FEATURE
  41
1
  42
1
  43
1
  50
0
  10
299103.620
  20
4617607.252
 66
1
  0
ATTRIB
  8
FeatureAttribs
 70
0
  1
PNOA-H_AMS_1956-57_33k_ES_PAN_2
  2
NAME
  10
299103.620
  20
4617607.252
 40
34.17106
  0
SEQEND
  0
POLYLINE
  8
Unknown_Area_Type
  70
1
  66
1
  0
VERTEX
  8
Unknown_Area_Type
  10
300409.898
  20
4615544.600
  0
VERTEX
  8
Unknown_Area_Type
  10
297627.125
  20
4615622.676
  0
VERTEX
  8
Unknown_Area_Type
  10
297776.500
  20
4619530.500
  0
VERTEX
  8
Unknown_Area_Type
  10
298636.500
  20
4619653.500
  0
VERTEX
  8
Unknown_Area_Type
  10
298640.000
  20
4619654.000
  0
VERTEX
  8
Unknown_Area_Type
  10
299491.500
  20
4619775.500
  0
VERTEX
  8
Unknown_Area_Type
  10
300588.500
  20
4619364.500
  0
VERTEX
  8
Unknown_Area_Type
  10
300409.898
  20
4615544.600
  0
SEQEND
  8
Unknown_Area_Type
  0
INSERT
  8
FeatureAttribs
  2
FEATURE
  41
1
  42
1
  43
1
  50
0
  10
299103.620
  20
4617607.252
 66
1
  0
ATTRIB
  8
FeatureAttribs
 70
0
  1
PNOA-H_AMS_1956-57_33k_ES_PAN_2
  2
NAME
  10
299103.620
  20
4617607.252
 40
34.17106
  0
SEQEND
  0
POLYLINE
  8
Unknown_Area_Type
  70
1
  66
1
  0
VERTEX
  8
Unknown_Area_Type
  10
300409.898
  20
4615544.600
  0
VERTEX
  8
Unknown_Area_Type
  10
300588.500
  20
4619364.500
  0
VERTEX
  8
Unknown_Area_Type
  10
299491.500
  20
4619775.500
  0
VERTEX
  8
Unknown_Area_Type
  10
298640.000
  20
4619654.000
  0
VERTEX
  8
Unknown_Area_Type
  10
298636.500
  20
4619653.500
  0
VERTEX
  8
Unknown_Area_Type
  10
297776.500
  20
4619530.500
  0
VERTEX
  8
Unknown_Area_Type
  10
297627.125
  20
4615622.676
  0
VERTEX
  8
Unknown_Area_Type
  10
300409.898
  20
4615544.600
  0
SEQEND
  8
Unknown_Area_Type
  0
INSERT
  8
FeatureAttribs
  2
FEATURE
  41
1
  42
1
  43
1
  50
0
  10
296206.810
  20
4615596.473
 66
1
  0
ATTRIB
  8
FeatureAttribs
 70
0
  1
PNOA-H_AMS_1956-57_33k_ES_PAN_2
  2
NAME
  10
296206.810
  20
4615596.473
 40
34.17106
  0
SEQEND
  0
POLYLINE
  8
Unknown_Area_Type
  70
1
  66
1
  0
VERTEX
  8
Unknown_Area_Type
  10
297627.486
  20
4615622.666
  0
VERTEX
  8
Unknown_Area_Type
  10
297616.708
  20
4615340.000
  0
VERTEX
  8
Unknown_Area_Type
  10
296970.000
  20
4615340.000
  0
VERTEX
  8
Unknown_Area_Type
  10
296970.000
  20
4615530.000
  0
VERTEX
  8
Unknown_Area_Type
  10
294786.133
  20
4615530.000
  0
VERTEX
  8
Unknown_Area_Type
  10
294794.277
  20
4615703.262
  0
VERTEX
  8
Unknown_Area_Type
  10
297074.738
  20
4615638.175
  0
VERTEX
  8
Unknown_Area_Type
  10
297627.486
  20
4615622.666
  0
SEQEND
  8
Unknown_Area_Type
  0
INSERT
  8
FeatureAttribs
  2
FEATURE
  41
1
  42
1
  43
1
  50
0
  10
296302.349
  20
4617706.062
 66
1
  0
ATTRIB
  8
FeatureAttribs
 70
0
  1
PNOA-H_AMS_1956-57_33k_ES_PAN_2
  2
NAME
  10
296302.349
  20
4617706.062
 40
34.17106
  0
SEQEND
  0
POLYLINE
  8
Unknown_Area_Type
  70
1
  66
1
  0
VERTEX
  8
Unknown_Area_Type
  10
297627.486
  20
4615622.666
  0
VERTEX
  8
Unknown_Area_Type
  10
297074.738
  20
4615638.175
  0
VERTEX
  8
Unknown_Area_Type
  10
294794.277
  20
4615703.262
  0
VERTEX
  8
Unknown_Area_Type
  10
294980.000
  20
4619654.500
  0
VERTEX
  8
Unknown_Area_Type
  10
296589.500
  20
4619855.500
  0
VERTEX
  8
Unknown_Area_Type
  10
296593.500
  20
4619856.000
  0
VERTEX
  8
Unknown_Area_Type
  10
296920.000
  20
4619896.500
  0
VERTEX
  8
Unknown_Area_Type
  10
297776.500
  20
4619530.500
  0
VERTEX
  8
Unknown_Area_Type
  10
297627.486
  20
4615622.666
  0
SEQEND
  8
Unknown_Area_Type
  0
INSERT
  8
FeatureAttribs
  2
FEATURE
  41
1
  42
1
  43
1
  50
0
  10
296302.349
  20
4617706.062
 66
1
  0
ATTRIB
  8
FeatureAttribs
 70
0
  1
PNOA-H_AMS_1956-57_33k_ES_PAN_2
  2
NAME
  10
296302.349
  20
4617706.062
 40
34.17106
  0
SEQEND
  0
POLYLINE
  8
Unknown_Area_Type
  70
1
  66
1
  0
VERTEX
  8
Unknown_Area_Type
  10
297627.486
  20
4615622.666
  0
VERTEX
  8
Unknown_Area_Type
  10
297776.500
  20
4619530.500
  0
VERTEX
  8
Unknown_Area_Type
  10
296920.000
  20
4619896.500
  0
VERTEX
  8
Unknown_Area_Type
  10
296593.500
  20
4619856.000
  0
VERTEX
  8
Unknown_Area_Type
  10
296589.500
  20
4619855.500
  0
VERTEX
  8
Unknown_Area_Type
  10
294980.000
  20
4619654.500
  0
VERTEX
  8
Unknown_Area_Type
  10
294794.277
  20
4615703.262
  0
VERTEX
  8
Unknown_Area_Type
  10
297074.738
  20
4615638.175
  0
VERTEX
  8
Unknown_Area_Type
  10
297627.486
  20
4615622.666
  0
SEQEND
  8
Unknown_Area_Type
  0
INSERT
  8
FeatureAttribs
  2
FEATURE
  41
1
  42
1
  43
1
  50
0
  10
293400.542
  20
4615656.760
 66
1
  0
ATTRIB
  8
FeatureAttribs
 70
0
  1
PNOA-H_AMS_1956-57_33k_ES_PAN_2
  2
NAME
  10
293400.542
  20
4615656.760
 40
34.17106
  0
SEQEND
  0
POLYLINE
  8
Unknown_Area_Type
  70
1
  66
1
  0
VERTEX
  8
Unknown_Area_Type
  10
294794.277
  20
4615703.262
  0
VERTEX
  8
Unknown_Area_Type
  10
294786.133
  20
4615530.000
  0
VERTEX
  8
Unknown_Area_Type
  10
292008.637
  20
4615530.000
  0
VERTEX
  8
Unknown_Area_Type
  10
292009.348
  20
4615783.521
  0
VERTEX
  8
Unknown_Area_Type
  10
293605.677
  20
4615737.186
  0
VERTEX
  8
Unknown_Area_Type
  10
294794.277
  20
4615703.262
  0
SEQEND
  8
Unknown_Area_Type
  0
INSERT
  8
FeatureAttribs
  2
FEATURE
  41
1
  42
1
  43
1
  50
0
  10
293461.704
  20
4617820.977
 66
1
  0
ATTRIB
  8
FeatureAttribs
 70
0
  1
PNOA-H_AMS_1956-57_33k_ES_PAN_2
  2
NAME
  10
293461.704
  20
4617820.977
 40
34.17106
  0
SEQEND
  0
POLYLINE
  8
Unknown_Area_Type
  70
1
  66
1
  0
VERTEX
  8
Unknown_Area_Type
  10
294794.277
  20
4615703.262
  0
VERTEX
  8
Unknown_Area_Type
  10
293605.677
  20
4615737.186
  0
VERTEX
  8
Unknown_Area_Type
  10
292009.348
  20
4615783.521
  0
VERTEX
  8
Unknown_Area_Type
  10
292020.500
  20
4619759.500
  0
VERTEX
  8
Unknown_Area_Type
  10
294269.000
  20
4619974.500
  0
VERTEX
  8
Unknown_Area_Type
  10
294272.500
  20
4619974.500
  0
VERTEX
  8
Unknown_Area_Type
  10
294277.000
  20
4619972.500
  0
VERTEX
  8
Unknown_Area_Type
  10
294544.500
  20
4619851.000
  0
VERTEX
  8
Unknown_Area_Type
  10
294546.000
  20
4619850.500
  0
VERTEX
  8
Unknown_Area_Type
  10
294980.000
  20
4619654.500
  0
VERTEX
  8
Unknown_Area_Type
  10
294794.277
  20
4615703.262
  0
SEQEND
  8
Unknown_Area_Type
  0
INSERT
  8
FeatureAttribs
  2
FEATURE
  41
1
  42
1
  43
1
  50
0
  10
293461.704
  20
4617820.977
 66
1
  0
ATTRIB
  8
FeatureAttribs
 70
0
  1
PNOA-H_AMS_1956-57_33k_ES_PAN_2
  2
NAME
  10
293461.704
  20
4617820.977
 40
34.17106
  0
SEQEND
  0
POLYLINE
  8
Unknown_Area_Type
  70
1
  66
1
  0
VERTEX
  8
Unknown_Area_Type
  10
294794.277
  20
4615703.262
  0
VERTEX
  8
Unknown_Area_Type
  10
294980.000
  20
4619654.500
  0
VERTEX
  8
Unknown_Area_Type
  10
294546.000
  20
4619850.500
  0
VERTEX
  8
Unknown_Area_Type
  10
294544.500
  20
4619851.000
  0
VERTEX
  8
Unknown_Area_Type
  10
294277.000
  20
4619972.500
  0
VERTEX
  8
Unknown_Area_Type
  10
294272.500
  20
4619974.500
  0
VERTEX
  8
Unknown_Area_Type
  10
294269.000
  20
4619974.500
  0
VERTEX
  8
Unknown_Area_Type
  10
292020.500
  20
4619759.500
  0
VERTEX
  8
Unknown_Area_Type
  10
292009.348
  20
4615783.521
  0
VERTEX
  8
Unknown_Area_Type
  10
293605.677
  20
4615737.186
  0
VERTEX
  8
Unknown_Area_Type
  10
294794.277
  20
4615703.262
  0
SEQEND
  8
Unknown_Area_Type
  0
INSERT
  8
FeatureAttribs
  2
FEATURE
  41
1
  42
1
  43
1
  50
0
  10
304945.670
  20
4615309.022
 66
1
  0
ATTRIB
  8
FeatureAttribs
 70
0
  1
PNOA-H_AMS_1956-57_33k_ES_PAN_2
  2
NAME
  10
304945.670
  20
4615309.022
 40
34.17106
  0
SEQEND
  0
POLYLINE
  8
Unknown_Area_Type
  70
1
  66
1
  0
VERTEX
  8
Unknown_Area_Type
  10
305987.638
  20
4615391.698
  0
VERTEX
  8
Unknown_Area_Type
  10
305969.225
  20
4615150.000
  0
VERTEX
  8
Unknown_Area_Type
  10
303910.000
  20
4615150.000
  0
VERTEX
  8
Unknown_Area_Type
  10
303910.000
  20
4615340.000
  0
VERTEX
  8
Unknown_Area_Type
  10
303177.268
  20
4615340.000
  0
VERTEX
  8
Unknown_Area_Type
  10
303184.072
  20
4615468.043
  0
VERTEX
  8
Unknown_Area_Type
  10
304012.821
  20
4615445.193
  0
VERTEX
  8
Unknown_Area_Type
  10
305987.638
  20
4615391.698
  0
SEQEND
  8
Unknown_Area_Type
  0
INSERT
  8
FeatureAttribs
  2
FEATURE
  41
1
  42
1
  43
1
  50
0
  10
304699.194
  20
4617366.319
 66
1
  0
ATTRIB
  8
FeatureAttribs
 70
0
  1
PNOA-H_AMS_1956-57_33k_ES_PAN_2
  2
NAME
  10
304699.194
  20
4617366.319
 40
34.17106
  0
SEQEND
  0
POLYLINE
  8
Unknown_Area_Type
  70
1
  66
1
  0
VERTEX
  8
Unknown_Area_Type
  10
305987.638
  20
4615391.698
  0
VERTEX
  8
Unknown_Area_Type
  10
304012.821
  20
4615445.193
  0
VERTEX
  8
Unknown_Area_Type
  10
303184.072
  20
4615468.043
  0
VERTEX
  8
Unknown_Area_Type
  10
303382.000
  20
4619192.500
  0
VERTEX
  8
Unknown_Area_Type
  10
304561.500
  20
4619480.500
  0
VERTEX
  8
Unknown_Area_Type
  10
304566.500
  20
4619480.000
  0
VERTEX
  8
Unknown_Area_Type
  10
304783.500
  20
4619418.000
  0
VERTEX
  8
Unknown_Area_Type
  10
304786.000
  20
4619417.500
  0
VERTEX
  8
Unknown_Area_Type
  10
306262.500
  20
4618999.500
  0
VERTEX
  8
Unknown_Area_Type
  10
305987.638
  20
4615391.698
  0
SEQEND
  8
Unknown_Area_Type
  0
INSERT
  8
FeatureAttribs
  2
FEATURE
  41
1
  42
1
  43
1
  50
0
  10
304699.194
  20
4617366.319
 66
1
  0
ATTRIB
  8
FeatureAttribs
 70
0
  1
PNOA-H_AMS_1956-57_33k_ES_PAN_2
  2
NAME
  10
304699.194
  20
4617366.319
 40
34.17106
  0
SEQEND
  0
POLYLINE
  8
Unknown_Area_Type
  70
1
  66
1
  0
VERTEX
  8
Unknown_Area_Type
  10
305987.638
  20
4615391.698
  0
VERTEX
  8
Unknown_Area_Type
  10
306262.500
  20
4618999.500
  0
VERTEX
  8
Unknown_Area_Type
  10
304786.000
  20
4619417.500
  0
VERTEX
  8
Unknown_Area_Type
  10
304783.500
  20
4619418.000
  0
VERTEX
  8
Unknown_Area_Type
  10
304566.500
  20
4619480.000
  0
VERTEX
  8
Unknown_Area_Type
  10
304561.500
  20
4619480.500
  0
VERTEX
  8
Unknown_Area_Type
  10
303382.000
  20
4619192.500
  0
VERTEX
  8
Unknown_Area_Type
  10
303184.072
  20
4615468.043
  0
VERTEX
  8
Unknown_Area_Type
  10
304012.821
  20
4615445.193
  0
VERTEX
  8
Unknown_Area_Type
  10
305987.638
  20
4615391.698
  0
SEQEND
  8
Unknown_Area_Type
  0
INSERT
  8
FeatureAttribs
  2
FEATURE
  41
1
  42
1
  43
1
  50
0
  10
313038.411
  20
4615160.520
 66
1
  0
ATTRIB
  8
FeatureAttribs
 70
0
  1
PNOA-H_AMS_1956-57_33k_ES_PAN_2
  2
NAME
  10
313038.411
  20
4615160.520
 40
34.17106
  0
SEQEND
  0
POLYLINE
  8
Unknown_Area_Type
  70
1
  66
1
  0
VERTEX
  8
Unknown_Area_Type
  10
314468.188
  20
4615167.083
  0
VERTEX
  8
Unknown_Area_Type
  10
314467.814
  20
4615079.372
  0
VERTEX
  8
Unknown_Area_Type
  10
311605.556
  20
4615079.372
  0
VERTEX
  8
Unknown_Area_Type
  10
311611.766
  20
4615241.669
  0
VERTEX
  8
Unknown_Area_Type
  10
314419.856
  20
4615168.322
  0
VERTEX
  8
Unknown_Area_Type
  10
314468.188
  20
4615167.083
  0
SEQEND
  8
Unknown_Area_Type
  0
INSERT
  8
FeatureAttribs
  2
FEATURE
  41
1
  42
1
  43
1
  50
0
  10
313068.556
  20
4616995.175
 66
1
  0
ATTRIB
  8
FeatureAttribs
 70
0
  1
PNOA-H_AMS_1956-57_33k_ES_PAN_2
  2
NAME
  10
313068.556
  20
4616995.175
 40
34.17106
  0
SEQEND
  0
POLYLINE
  8
Unknown_Area_Type
  70
1
  66
1
  0
VERTEX
  8
Unknown_Area_Type
  10
314468.188
  20
4615167.083
  0
VERTEX
  8
Unknown_Area_Type
  10
314419.856
  20
4615168.322
  0
VERTEX
  8
Unknown_Area_Type
  10
311611.766
  20
4615241.669
  0
VERTEX
  8
Unknown_Area_Type
  10
311745.000
  20
4618724.000
  0
VERTEX
  8
Unknown_Area_Type
  10
312412.500
  20
4618964.000
  0
VERTEX
  8
Unknown_Area_Type
  10
312977.000
  20
4618874.000
  0
VERTEX
  8
Unknown_Area_Type
  10
312978.000
  20
4618874.000
  0
VERTEX
  8
Unknown_Area_Type
  10
314483.000
  20
4618634.500
  0
VERTEX
  8
Unknown_Area_Type
  10
314468.188
  20
4615167.083
  0
SEQEND
  8
Unknown_Area_Type
  0
INSERT
  8
FeatureAttribs
  2
FEATURE
  41
1
  42
1
  43
1
  50
0
  10
313068.556
  20
4616995.175
 66
1
  0
ATTRIB
  8
FeatureAttribs
 70
0
  1
PNOA-H_AMS_1956-57_33k_ES_PAN_2
  2
NAME
  10
313068.556
  20
4616995.175
 40
34.17106
  0
SEQEND
  0
POLYLINE
  8
Unknown_Area_Type
  70
1
  66
1
  0
VERTEX
  8
Unknown_Area_Type
  10
314468.188
  20
4615167.083
  0
VERTEX
  8
Unknown_Area_Type
  10
314483.000
  20
4618634.500
  0
VERTEX
  8
Unknown_Area_Type
  10
312978.000
  20
4618874.000
  0
VERTEX
  8
Unknown_Area_Type
  10
312977.000
  20
4618874.000
  0
VERTEX
  8
Unknown_Area_Type
  10
312412.500
  20
4618964.000
  0
VERTEX
  8
Unknown_Area_Type
  10
311745.000
  20
4618724.000
  0
VERTEX
  8
Unknown_Area_Type
  10
311611.766
  20
4615241.669
  0
VERTEX
  8
Unknown_Area_Type
  10
314419.856
  20
4615168.322
  0
VERTEX
  8
Unknown_Area_Type
  10
314468.188
  20
4615167.083
  0
SEQEND
  8
Unknown_Area_Type
  0
INSERT
  8
FeatureAttribs
  2
FEATURE
  41
1
  42
1
  43
1
  50
0
  10
307411.655
  20
4615270.855
 66
1
  0
ATTRIB
  8
FeatureAttribs
 70
0
  1
PNOA-H_AMS_1956-57_33k_ES_PAN_2
  2
NAME
  10
307411.655
  20
4615270.855
 40
34.17106
  0
SEQEND
  0
POLYLINE
  8
Unknown_Area_Type
  70
1
  66
1
  0
VERTEX
  8
Unknown_Area_Type
  10
308846.941
  20
4615314.905
  0
VERTEX
  8
Unknown_Area_Type
  10
308840.836
  20
4615150.000
  0
VERTEX
  8
Unknown_Area_Type
  10
305968.794
  20
4615150.000
  0
VERTEX
  8
Unknown_Area_Type
  10
305987.207
  20
4615391.709
  0
VERTEX
  8
Unknown_Area_Type
  10
307481.844
  20
4615351.222
  0
VERTEX
  8
Unknown_Area_Type
  10
308846.941
  20
4615314.905
  0
SEQEND
  8
Unknown_Area_Type
  0
INSERT
  8
FeatureAttribs
  2
FEATURE
  41
1
  42
1
  43
1
  50
0
  10
307510.744
  20
4617204.689
 66
1
  0
ATTRIB
  8
FeatureAttribs
 70
0
  1
PNOA-H_AMS_1956-57_33k_ES_PAN_2
  2
NAME
  10
307510.744
  20
4617204.689
 40
34.17106
  0
SEQEND
  0
POLYLINE
  8
Unknown_Area_Type
  70
1
  66
1
  0
VERTEX
  8
Unknown_Area_Type
  10
308846.941
  20
4615314.905
  0
VERTEX
  8
Unknown_Area_Type
  10
307481.844
  20
4615351.222
  0
VERTEX
  8
Unknown_Area_Type
  10
305987.207
  20
4615391.709
  0
VERTEX
  8
Unknown_Area_Type
  10
306262.000
  20
4618999.000
  0
VERTEX
  8
Unknown_Area_Type
  10
306832.000
  20
4619175.500
  0
VERTEX
  8
Unknown_Area_Type
  10
306833.500
  20
4619176.000
  0
VERTEX
  8
Unknown_Area_Type
  10
307139.500
  20
4619270.000
  0
VERTEX
  8
Unknown_Area_Type
  10
308978.000
  20
4618855.000
  0
VERTEX
  8
Unknown_Area_Type
  10
308846.941
  20
4615314.905
  0
SEQEND
  8
Unknown_Area_Type
  0
INSERT
  8
FeatureAttribs
  2
FEATURE
  41
1
  42
1
  43
1
  50
0
  10
307510.744
  20
4617204.689
 66
1
  0
ATTRIB
  8
FeatureAttribs
 70
0
  1
PNOA-H_AMS_1956-57_33k_ES_PAN_2
  2
NAME
  10
307510.744
  20
4617204.689
 40
34.17106
  0
SEQEND
  0
POLYLINE
  8
Unknown_Area_Type
  70
1
  66
1
  0
VERTEX
  8
Unknown_Area_Type
  10
308846.941
  20
4615314.905
  0
VERTEX
  8
Unknown_Area_Type
  10
308978.000
  20
4618855.000
  0
VERTEX
  8
Unknown_Area_Type
  10
307139.500
  20
4619270.000
  0
VERTEX
  8
Unknown_Area_Type
  10
306833.500
  20
4619176.000
  0
VERTEX
  8
Unknown_Area_Type
  10
306832.000
  20
4619175.500
  0
VERTEX
  8
Unknown_Area_Type
  10
306262.000
  20
4618999.000
  0
VERTEX
  8
Unknown_Area_Type
  10
305987.207
  20
4615391.709
  0
VERTEX
  8
Unknown_Area_Type
  10
307481.844
  20
4615351.222
  0
VERTEX
  8
Unknown_Area_Type
  10
308846.941
  20
4615314.905
  0
SEQEND
  8
Unknown_Area_Type
  0
INSERT
  8
FeatureAttribs
  2
FEATURE
  41
1
  42
1
  43
1
  50
0
  10
310226.515
  20
4615197.134
 66
1
  0
ATTRIB
  8
FeatureAttribs
 70
0
  1
PNOA-H_AMS_1956-57_33k_ES_PAN_2
  2
NAME
  10
310226.515
  20
4615197.134
 40
34.17106
  0
SEQEND
  0
POLYLINE
  8
Unknown_Area_Type
  70
1
  66
1
  0
VERTEX
  8
Unknown_Area_Type
  10
311605.575
  20
4615079.372
  0
VERTEX
  8
Unknown_Area_Type
  10
310850.000
  20
4615079.372
  0
VERTEX
  8
Unknown_Area_Type
  10
310850.000
  20
4615150.000
  0
VERTEX
  8
Unknown_Area_Type
  10
308841.211
  20
4615150.000
  0
VERTEX
  8
Unknown_Area_Type
  10
308847.292
  20
4615314.895
  0
VERTEX
  8
Unknown_Area_Type
  10
310950.856
  20
4615258.932
  0
VERTEX
  8
Unknown_Area_Type
  10
311611.785
  20
4615241.668
  0
VERTEX
  8
Unknown_Area_Type
  10
311605.575
  20
4615079.372
  0
SEQEND
  8
Unknown_Area_Type
  0
INSERT
  8
FeatureAttribs
  2
FEATURE
  41
1
  42
1
  43
1
  50
0
  10
310286.940
  20
4617119.812
 66
1
  0
ATTRIB
  8
FeatureAttribs
 70
0
  1
PNOA-H_AMS_1956-57_33k_ES_PAN_2
  2
NAME
  10
310286.940
  20
4617119.812
 40
34.17106
  0
SEQEND
  0
POLYLINE
  8
Unknown_Area_Type
  70
1
  66
1
  0
VERTEX
  8
Unknown_Area_Type
  10
311611.785
  20
4615241.668
  0
VERTEX
  8
Unknown_Area_Type
  10
310950.856
  20
4615258.932
  0
VERTEX
  8
Unknown_Area_Type
  10
308847.292
  20
4615314.895
  0
VERTEX
  8
Unknown_Area_Type
  10
308881.500
  20
4616242.500
  0
VERTEX
  8
Unknown_Area_Type
  10
308881.500
  20
4616256.000
  0
VERTEX
  8
Unknown_Area_Type
  10
308977.500
  20
4618854.500
  0
VERTEX
  8
Unknown_Area_Type
  10
308978.500
  20
4618855.500
  0
VERTEX
  8
Unknown_Area_Type
  10
309849.500
  20
4619149.000
  0
VERTEX
  8
Unknown_Area_Type
  10
311745.000
  20
4618723.500
  0
VERTEX
  8
Unknown_Area_Type
  10
311611.785
  20
4615241.668
  0
SEQEND
  8
Unknown_Area_Type
  0
INSERT
  8
FeatureAttribs
  2
FEATURE
  41
1
  42
1
  43
1
  50
0
  10
310286.940
  20
4617119.812
 66
1
  0
ATTRIB
  8
FeatureAttribs
 70
0
  1
PNOA-H_AMS_1956-57_33k_ES_PAN_2
  2
NAME
  10
310286.940
  20
4617119.812
 40
34.17106
  0
SEQEND
  0
POLYLINE
  8
Unknown_Area_Type
  70
1
  66
1
  0
VERTEX
  8
Unknown_Area_Type
  10
311611.785
  20
4615241.668
  0
VERTEX
  8
Unknown_Area_Type
  10
311745.000
  20
4618723.500
  0
VERTEX
  8
Unknown_Area_Type
  10
309849.500
  20
4619149.000
  0
VERTEX
  8
Unknown_Area_Type
  10
308978.500
  20
4618855.500
  0
VERTEX
  8
Unknown_Area_Type
  10
308977.500
  20
4618854.500
  0
VERTEX
  8
Unknown_Area_Type
  10
308881.500
  20
4616256.000
  0
VERTEX
  8
Unknown_Area_Type
  10
308881.500
  20
4616242.500
  0
VERTEX
  8
Unknown_Area_Type
  10
308847.292
  20
4615314.895
  0
VERTEX
  8
Unknown_Area_Type
  10
310950.856
  20
4615258.932
  0
VERTEX
  8
Unknown_Area_Type
  10
311611.785
  20
4615241.668
  0
SEQEND
  8
Unknown_Area_Type
  0
INSERT
  8
FeatureAttribs
  2
FEATURE
  41
1
  42
1
  43
1
  50
0
  10
294370.565
  20
4631041.833
 66
1
  0
ATTRIB
  8
FeatureAttribs
 70
0
  1
PNOA-H_AMS_1956-57_33k_ES_PAN_2
  2
NAME
  10
294370.565
  20
4631041.833
 40
34.17106
  0
SEQEND
  0
POLYLINE
  8
Unknown_Area_Type
  70
1
  66
1
  0
VERTEX
  8
Unknown_Area_Type
  10
294546.000
  20
4633342.500
  0
VERTEX
  8
Unknown_Area_Type
  10
295826.500
  20
4633317.000
  0
VERTEX
  8
Unknown_Area_Type
  10
295701.500
  20
4628831.500
  0
VERTEX
  8
Unknown_Area_Type
  10
293774.000
  20
4628552.500
  0
VERTEX
  8
Unknown_Area_Type
  10
293771.000
  20
4628552.500
  0
VERTEX
  8
Unknown_Area_Type
  10
293766.500
  20
4628554.500
  0
VERTEX
  8
Unknown_Area_Type
  10
292991.500
  20
4628919.000
  0
VERTEX
  8
Unknown_Area_Type
  10
292984.000
  20
4633283.000
  0
VERTEX
  8
Unknown_Area_Type
  10
293141.000
  20
4633370.500
  0
VERTEX
  8
Unknown_Area_Type
  10
294543.500
  20
4633342.500
  0
VERTEX
  8
Unknown_Area_Type
  10
294546.000
  20
4633342.500
  0
SEQEND
  8
Unknown_Area_Type
  0
INSERT
  8
FeatureAttribs
  2
FEATURE
  41
1
  42
1
  43
1
  50
0
  10
294370.565
  20
4631041.833
 66
1
  0
ATTRIB
  8
FeatureAttribs
 70
0
  1
PNOA-H_AMS_1956-57_33k_ES_PAN_2
  2
NAME
  10
294370.565
  20
4631041.833
 40
34.17106
  0
SEQEND
  0
POLYLINE
  8
Unknown_Area_Type
  70
1
  66
1
  0
VERTEX
  8
Unknown_Area_Type
  10
294546.000
  20
4633342.500
  0
VERTEX
  8
Unknown_Area_Type
  10
294543.500
  20
4633342.500
  0
VERTEX
  8
Unknown_Area_Type
  10
293141.000
  20
4633370.500
  0
VERTEX
  8
Unknown_Area_Type
  10
292984.000
  20
4633283.000
  0
VERTEX
  8
Unknown_Area_Type
  10
292991.500
  20
4628919.000
  0
VERTEX
  8
Unknown_Area_Type
  10
293766.500
  20
4628554.500
  0
VERTEX
  8
Unknown_Area_Type
  10
293771.000
  20
4628552.500
  0
VERTEX
  8
Unknown_Area_Type
  10
293774.000
  20
4628552.500
  0
VERTEX
  8
Unknown_Area_Type
  10
295701.500
  20
4628831.500
  0
VERTEX
  8
Unknown_Area_Type
  10
295826.500
  20
4633317.000
  0
VERTEX
  8
Unknown_Area_Type
  10
294546.000
  20
4633342.500
  0
SEQEND
  8
Unknown_Area_Type
  0
INSERT
  8
FeatureAttribs
  2
FEATURE
  41
1
  42
1
  43
1
  50
0
  10
297144.129
  20
4630996.074
 66
1
  0
ATTRIB
  8
FeatureAttribs
 70
0
  1
PNOA-H_AMS_1956-57_33k_ES_PAN_2
  2
NAME
  10
297144.129
  20
4630996.074
 40
34.17106
  0
SEQEND
  0
POLYLINE
  8
Unknown_Area_Type
  70
1
  66
1
  0
VERTEX
  8
Unknown_Area_Type
  10
298642.000
  20
4633225.500
  0
VERTEX
  8
Unknown_Area_Type
  10
298690.000
  20
4633194.500
  0
VERTEX
  8
Unknown_Area_Type
  10
298690.000
  20
4633188.000
  0
VERTEX
  8
Unknown_Area_Type
  10
298395.000
  20
4628753.500
  0
VERTEX
  8
Unknown_Area_Type
  10
296493.000
  20
4628489.500
  0
VERTEX
  8
Unknown_Area_Type
  10
295702.500
  20
4628831.000
  0
VERTEX
  8
Unknown_Area_Type
  10
295701.500
  20
4628831.500
  0
VERTEX
  8
Unknown_Area_Type
  10
295701.500
  20
4628836.000
  0
VERTEX
  8
Unknown_Area_Type
  10
295826.500
  20
4633317.500
  0
VERTEX
  8
Unknown_Area_Type
  10
295917.000
  20
4633368.500
  0
VERTEX
  8
Unknown_Area_Type
  10
295928.500
  20
4633368.500
  0
VERTEX
  8
Unknown_Area_Type
  10
298598.000
  20
4633254.500
  0
VERTEX
  8
Unknown_Area_Type
  10
298641.000
  20
4633226.000
  0
VERTEX
  8
Unknown_Area_Type
  10
298642.000
  20
4633225.500
  0
SEQEND
  8
Unknown_Area_Type
  0
INSERT
  8
FeatureAttribs
  2
FEATURE
  41
1
  42
1
  43
1
  50
0
  10
297144.129
  20
4630996.074
 66
1
  0
ATTRIB
  8
FeatureAttribs
 70
0
  1
PNOA-H_AMS_1956-57_33k_ES_PAN_2
  2
NAME
  10
297144.129
  20
4630996.074
 40
34.17106
  0
SEQEND
  0
POLYLINE
  8
Unknown_Area_Type
  70
1
  66
1
  0
VERTEX
  8
Unknown_Area_Type
  10
298642.000
  20
4633225.500
  0
VERTEX
  8
Unknown_Area_Type
  10
298641.000
  20
4633226.000
  0
VERTEX
  8
Unknown_Area_Type
  10
298598.000
  20
4633254.500
  0
VERTEX
  8
Unknown_Area_Type
  10
295928.500
  20
4633368.500
  0
VERTEX
  8
Unknown_Area_Type
  10
295917.000
  20
4633368.500
  0
VERTEX
  8
Unknown_Area_Type
  10
295826.500
  20
4633317.500
  0
VERTEX
  8
Unknown_Area_Type
  10
295701.500
  20
4628836.000
  0
VERTEX
  8
Unknown_Area_Type
  10
295701.500
  20
4628831.500
  0
VERTEX
  8
Unknown_Area_Type
  10
295702.500
  20
4628831.000
  0
VERTEX
  8
Unknown_Area_Type
  10
296493.000
  20
4628489.500
  0
VERTEX
  8
Unknown_Area_Type
  10
298395.000
  20
4628753.500
  0
VERTEX
  8
Unknown_Area_Type
  10
298690.000
  20
4633188.000
  0
VERTEX
  8
Unknown_Area_Type
  10
298690.000
  20
4633194.500
  0
VERTEX
  8
Unknown_Area_Type
  10
298642.000
  20
4633225.500
  0
SEQEND
  8
Unknown_Area_Type
  0
INSERT
  8
FeatureAttribs
  2
FEATURE
  41
1
  42
1
  43
1
  50
0
  10
315323.445
  20
4615123.227
 66
1
  0
ATTRIB
  8
FeatureAttribs
 70
0
  1
PNOA-H_AMS_1956-57_33k_ES_PAN_2
  2
NAME
  10
315323.445
  20
4615123.227
 40
34.17106
  0
SEQEND
  0
POLYLINE
  8
Unknown_Area_Type
  70
1
  66
1
  0
VERTEX
  8
Unknown_Area_Type
  10
317267.741
  20
4615095.314
  0
VERTEX
  8
Unknown_Area_Type
  10
317267.456
  20
4615079.372
  0
VERTEX
  8
Unknown_Area_Type
  10
314467.812
  20
4615079.372
  0
VERTEX
  8
Unknown_Area_Type
  10
314468.187
  20
4615167.083
  0
VERTEX
  8
Unknown_Area_Type
  10
317267.741
  20
4615095.314
  0
SEQEND
  8
Unknown_Area_Type
  0
INSERT
  8
FeatureAttribs
  2
FEATURE
  41
1
  42
1
  43
1
  50
0
  10
315879.142
  20
4616937.270
 66
1
  0
ATTRIB
  8
FeatureAttribs
 70
0
  1
PNOA-H_AMS_1956-57_33k_ES_PAN_2
  2
NAME
  10
315879.142
  20
4616937.270
 40
34.17106
  0
SEQEND
  0
POLYLINE
  8
Unknown_Area_Type
  70
1
  66
1
  0
VERTEX
  8
Unknown_Area_Type
  10
317267.741
  20
4615095.314
  0
VERTEX
  8
Unknown_Area_Type
  10
314468.187
  20
4615167.083
  0
VERTEX
  8
Unknown_Area_Type
  10
314483.000
  20
4618634.500
  0
VERTEX
  8
Unknown_Area_Type
  10
315014.000
  20
4618869.500
  0
VERTEX
  8
Unknown_Area_Type
  10
315015.000
  20
4618870.000
  0
VERTEX
  8
Unknown_Area_Type
  10
317330.000
  20
4618583.000
  0
VERTEX
  8
Unknown_Area_Type
  10
317267.741
  20
4615095.314
  0
SEQEND
  8
Unknown_Area_Type
  0
INSERT
  8
FeatureAttribs
  2
FEATURE
  41
1
  42
1
  43
1
  50
0
  10
315879.142
  20
4616937.270
 66
1
  0
ATTRIB
  8
FeatureAttribs
 70
0
  1
PNOA-H_AMS_1956-57_33k_ES_PAN_2
  2
NAME
  10
315879.142
  20
4616937.270
 40
34.17106
  0
SEQEND
  0
POLYLINE
  8
Unknown_Area_Type
  70
1
  66
1
  0
VERTEX
  8
Unknown_Area_Type
  10
317267.741
  20
4615095.314
  0
VERTEX
  8
Unknown_Area_Type
  10
317330.000
  20
4618583.000
  0
VERTEX
  8
Unknown_Area_Type
  10
315015.000
  20
4618870.000
  0
VERTEX
  8
Unknown_Area_Type
  10
315014.000
  20
4618869.500
  0
VERTEX
  8
Unknown_Area_Type
  10
314483.000
  20
4618634.500
  0
VERTEX
  8
Unknown_Area_Type
  10
314468.187
  20
4615167.083
  0
VERTEX
  8
Unknown_Area_Type
  10
317267.741
  20
4615095.314
  0
SEQEND
  8
Unknown_Area_Type
  0
INSERT
  8
FeatureAttribs
  2
FEATURE
  41
1
  42
1
  43
1
  50
0
  10
302704.668
  20
4630680.159
 66
1
  0
ATTRIB
  8
FeatureAttribs
 70
0
  1
PNOA-H_AMS_1956-57_33k_ES_PAN_2
  2
NAME
  10
302704.668
  20
4630680.159
 40
34.17106
  0
SEQEND
  0
POLYLINE
  8
Unknown_Area_Type
  70
1
  66
1
  0
VERTEX
  8
Unknown_Area_Type
  10
302738.000
  20
4632979.500
  0
VERTEX
  8
Unknown_Area_Type
  10
304061.500
  20
4632943.000
  0
VERTEX
  8
Unknown_Area_Type
  10
304065.500
  20
4632941.500
  0
VERTEX
  8
Unknown_Area_Type
  10
304244.000
  20
4632830.000
  0
VERTEX
  8
Unknown_Area_Type
  10
303940.500
  20
4628506.500
  0
VERTEX
  8
Unknown_Area_Type
  10
303939.500
  20
4628503.500
  0
VERTEX
  8
Unknown_Area_Type
  10
303936.000
  20
4628503.000
  0
VERTEX
  8
Unknown_Area_Type
  10
301945.000
  20
4628240.000
  0
VERTEX
  8
Unknown_Area_Type
  10
301942.500
  20
4628240.000
  0
VERTEX
  8
Unknown_Area_Type
  10
301879.000
  20
4628271.500
  0
VERTEX
  8
Unknown_Area_Type
  10
301188.500
  20
4628616.000
  0
VERTEX
  8
Unknown_Area_Type
  10
301489.500
  20
4633014.000
  0
VERTEX
  8
Unknown_Area_Type
  10
302728.000
  20
4632979.500
  0
VERTEX
  8
Unknown_Area_Type
  10
302738.000
  20
4632979.500
  0
SEQEND
  8
Unknown_Area_Type
  0
INSERT
  8
FeatureAttribs
  2
FEATURE
  41
1
  42
1
  43
1
  50
0
  10
302704.668
  20
4630680.159
 66
1
  0
ATTRIB
  8
FeatureAttribs
 70
0
  1
PNOA-H_AMS_1956-57_33k_ES_PAN_2
  2
NAME
  10
302704.668
  20
4630680.159
 40
34.17106
  0
SEQEND
  0
POLYLINE
  8
Unknown_Area_Type
  70
1
  66
1
  0
VERTEX
  8
Unknown_Area_Type
  10
302738.000
  20
4632979.500
  0
VERTEX
  8
Unknown_Area_Type
  10
302728.000
  20
4632979.500
  0
VERTEX
  8
Unknown_Area_Type
  10
301489.500
  20
4633014.000
  0
VERTEX
  8
Unknown_Area_Type
  10
301188.500
  20
4628616.000
  0
VERTEX
  8
Unknown_Area_Type
  10
301879.000
  20
4628271.500
  0
VERTEX
  8
Unknown_Area_Type
  10
301942.500
  20
4628240.000
  0
VERTEX
  8
Unknown_Area_Type
  10
301945.000
  20
4628240.000
  0
VERTEX
  8
Unknown_Area_Type
  10
303936.000
  20
4628503.000
  0
VERTEX
  8
Unknown_Area_Type
  10
303939.500
  20
4628503.500
  0
VERTEX
  8
Unknown_Area_Type
  10
303940.500
  20
4628506.500
  0
VERTEX
  8
Unknown_Area_Type
  10
304244.000
  20
4632830.000
  0
VERTEX
  8
Unknown_Area_Type
  10
304065.500
  20
4632941.500
  0
VERTEX
  8
Unknown_Area_Type
  10
304061.500
  20
4632943.000
  0
VERTEX
  8
Unknown_Area_Type
  10
302738.000
  20
4632979.500
  0
SEQEND
  8
Unknown_Area_Type
  0
INSERT
  8
FeatureAttribs
  2
FEATURE
  41
1
  42
1
  43
1
  50
0
  10
290360.441
  20
4631113.907
 66
1
  0
ATTRIB
  8
FeatureAttribs
 70
0
  1
PNOA-H_AMS_1956-57_33k_ES_PAN_2
  2
NAME
  10
290360.441
  20
4631113.907
 40
34.17106
  0
SEQEND
  0
POLYLINE
  8
Unknown_Area_Type
  70
1
  66
1
  0
VERTEX
  8
Unknown_Area_Type
  10
290652.294
  20
4633430.106
  0
VERTEX
  8
Unknown_Area_Type
  10
290611.210
  20
4632030.655
  0
VERTEX
  8
Unknown_Area_Type
  10
290543.325
  20
4629717.381
  0
VERTEX
  8
Unknown_Area_Type
  10
290515.955
  20
4628784.314
  0
VERTEX
  8
Unknown_Area_Type
  10
290181.500
  20
4628943.500
  0
VERTEX
  8
Unknown_Area_Type
  10
290136.575
  20
4630914.025
  0
VERTEX
  8
Unknown_Area_Type
  10
290136.575
  20
4633290.938
  0
VERTEX
  8
Unknown_Area_Type
  10
290439.000
  20
4633443.000
  0
VERTEX
  8
Unknown_Area_Type
  10
290440.000
  20
4633443.500
  0
VERTEX
  8
Unknown_Area_Type
  10
290652.294
  20
4633430.106
  0
SEQEND
  8
Unknown_Area_Type
  0
INSERT
  8
FeatureAttribs
  2
FEATURE
  41
1
  42
1
  43
1
  50
0
  10
291766.277
  20
4631031.235
 66
1
  0
ATTRIB
  8
FeatureAttribs
 70
0
  1
PNOA-H_AMS_1956-57_33k_ES_PAN_2
  2
NAME
  10
291766.277
  20
4631031.235
 40
34.17106
  0
SEQEND
  0
POLYLINE
  8
Unknown_Area_Type
  70
1
  66
1
  0
VERTEX
  8
Unknown_Area_Type
  10
290652.294
  20
4633430.106
  0
VERTEX
  8
Unknown_Area_Type
  10
292984.000
  20
4633283.000
  0
VERTEX
  8
Unknown_Area_Type
  10
292991.500
  20
4628919.000
  0
VERTEX
  8
Unknown_Area_Type
  10
290888.500
  20
4628607.000
  0
VERTEX
  8
Unknown_Area_Type
  10
290515.955
  20
4628784.314
  0
VERTEX
  8
Unknown_Area_Type
  10
290543.325
  20
4629717.381
  0
VERTEX
  8
Unknown_Area_Type
  10
290611.210
  20
4632030.655
  0
VERTEX
  8
Unknown_Area_Type
  10
290652.294
  20
4633430.106
  0
SEQEND
  8
Unknown_Area_Type
  0
INSERT
  8
FeatureAttribs
  2
FEATURE
  41
1
  42
1
  43
1
  50
0
  10
291766.277
  20
4631031.235
 66
1
  0
ATTRIB
  8
FeatureAttribs
 70
0
  1
PNOA-H_AMS_1956-57_33k_ES_PAN_2
  2
NAME
  10
291766.277
  20
4631031.235
 40
34.17106
  0
SEQEND
  0
POLYLINE
  8
Unknown_Area_Type
  70
1
  66
1
  0
VERTEX
  8
Unknown_Area_Type
  10
290652.294
  20
4633430.106
  0
VERTEX
  8
Unknown_Area_Type
  10
290611.210
  20
4632030.655
  0
VERTEX
  8
Unknown_Area_Type
  10
290543.325
  20
4629717.381
  0
VERTEX
  8
Unknown_Area_Type
  10
290515.955
  20
4628784.314
  0
VERTEX
  8
Unknown_Area_Type
  10
290888.500
  20
4628607.000
  0
VERTEX
  8
Unknown_Area_Type
  10
292991.500
  20
4628919.000
  0
VERTEX
  8
Unknown_Area_Type
  10
292984.000
  20
4633283.000
  0
VERTEX
  8
Unknown_Area_Type
  10
290652.294
  20
4633430.106
  0
SEQEND
  8
Unknown_Area_Type
  0
INSERT
  8
FeatureAttribs
  2
FEATURE
  41
1
  42
1
  43
1
  50
0
  10
301793.745
  20
4615442.300
 66
1
  0
ATTRIB
  8
FeatureAttribs
 70
0
  1
PNOA-H_AMS_1956-57_33k_ES_PAN_2
  2
NAME
  10
301793.745
  20
4615442.300
 40
34.17106
  0
SEQEND
  0
POLYLINE
  8
Unknown_Area_Type
  70
1
  66
1
  0
VERTEX
  8
Unknown_Area_Type
  10
303183.733
  20
4615468.053
  0
VERTEX
  8
Unknown_Area_Type
  10
303182.000
  20
4615435.500
  0
VERTEX
  8
Unknown_Area_Type
  10
303182.000
  20
4615432.000
  0
VERTEX
  8
Unknown_Area_Type
  10
303177.126
  20
4615340.000
  0
VERTEX
  8
Unknown_Area_Type
  10
300400.332
  20
4615340.000
  0
VERTEX
  8
Unknown_Area_Type
  10
300409.923
  20
4615544.599
  0
VERTEX
  8
Unknown_Area_Type
  10
300543.785
  20
4615540.843
  0
VERTEX
  8
Unknown_Area_Type
  10
303183.733
  20
4615468.053
  0
SEQEND
  8
Unknown_Area_Type
  0
INSERT
  8
FeatureAttribs
  2
FEATURE
  41
1
  42
1
  43
1
  50
0
  10
301890.585
  20
4617488.171
 66
1
  0
ATTRIB
  8
FeatureAttribs
 70
0
  1
PNOA-H_AMS_1956-57_33k_ES_PAN_2
  2
NAME
  10
301890.585
  20
4617488.171
 40
34.17106
  0
SEQEND
  0
POLYLINE
  8
Unknown_Area_Type
  70
1
  66
1
  0
VERTEX
  8
Unknown_Area_Type
  10
303183.733
  20
4615468.053
  0
VERTEX
  8
Unknown_Area_Type
  10
300543.785
  20
4615540.843
  0
VERTEX
  8
Unknown_Area_Type
  10
300409.923
  20
4615544.599
  0
VERTEX
  8
Unknown_Area_Type
  10
300589.000
  20
4619364.500
  0
VERTEX
  8
Unknown_Area_Type
  10
302015.500
  20
4619642.500
  0
VERTEX
  8
Unknown_Area_Type
  10
303382.000
  20
4619192.500
  0
VERTEX
  8
Unknown_Area_Type
  10
303183.733
  20
4615468.053
  0
SEQEND
  8
Unknown_Area_Type
  0
INSERT
  8
FeatureAttribs
  2
FEATURE
  41
1
  42
1
  43
1
  50
0
  10
301890.585
  20
4617488.171
 66
1
  0
ATTRIB
  8
FeatureAttribs
 70
0
  1
PNOA-H_AMS_1956-57_33k_ES_PAN_2
  2
NAME
  10
301890.585
  20
4617488.171
 40
34.17106
  0
SEQEND
  0
POLYLINE
  8
Unknown_Area_Type
  70
1
  66
1
  0
VERTEX
  8
Unknown_Area_Type
  10
303183.733
  20
4615468.053
  0
VERTEX
  8
Unknown_Area_Type
  10
303382.000
  20
4619192.500
  0
VERTEX
  8
Unknown_Area_Type
  10
302015.500
  20
4619642.500
  0
VERTEX
  8
Unknown_Area_Type
  10
300589.000
  20
4619364.500
  0
VERTEX
  8
Unknown_Area_Type
  10
300409.923
  20
4615544.599
  0
VERTEX
  8
Unknown_Area_Type
  10
300543.785
  20
4615540.843
  0
VERTEX
  8
Unknown_Area_Type
  10
303183.733
  20
4615468.053
  0
SEQEND
  8
Unknown_Area_Type
  0
INSERT
  8
FeatureAttribs
  2
FEATURE
  41
1
  42
1
  43
1
  50
0
  10
310922.322
  20
4630128.784
 66
1
  0
ATTRIB
  8
FeatureAttribs
 70
0
  1
PNOA-H_AMS_1956-57_33k_ES_PAN_2
  2
NAME
  10
310922.322
  20
4630128.784
 40
34.17106
  0
SEQEND
  0
POLYLINE
  8
Unknown_Area_Type
  70
1
  66
1
  0
VERTEX
  8
Unknown_Area_Type
  10
312091.500
  20
4632388.000
  0
VERTEX
  8
Unknown_Area_Type
  10
312134.500
  20
4632388.000
  0
VERTEX
  8
Unknown_Area_Type
  10
312479.000
  20
4632197.000
  0
VERTEX
  8
Unknown_Area_Type
  10
312187.500
  20
4628065.500
  0
VERTEX
  8
Unknown_Area_Type
  10
312186.500
  20
4628064.500
  0
VERTEX
  8
Unknown_Area_Type
  10
312171.500
  20
4628062.000
  0
VERTEX
  8
Unknown_Area_Type
  10
310203.500
  20
4627737.500
  0
VERTEX
  8
Unknown_Area_Type
  10
310200.000
  20
4627738.500
  0
VERTEX
  8
Unknown_Area_Type
  10
309332.000
  20
4628221.500
  0
VERTEX
  8
Unknown_Area_Type
  10
309730.500
  20
4632361.500
  0
VERTEX
  8
Unknown_Area_Type
  10
312046.000
  20
4632387.500
  0
VERTEX
  8
Unknown_Area_Type
  10
312091.500
  20
4632388.000
  0
SEQEND
  8
Unknown_Area_Type
  0
INSERT
  8
FeatureAttribs
  2
FEATURE
  41
1
  42
1
  43
1
  50
0
  10
310922.322
  20
4630128.784
 66
1
  0
ATTRIB
  8
FeatureAttribs
 70
0
  1
PNOA-H_AMS_1956-57_33k_ES_PAN_2
  2
NAME
  10
310922.322
  20
4630128.784
 40
34.17106
  0
SEQEND
  0
POLYLINE
  8
Unknown_Area_Type
  70
1
  66
1
  0
VERTEX
  8
Unknown_Area_Type
  10
312091.500
  20
4632388.000
  0
VERTEX
  8
Unknown_Area_Type
  10
312046.000
  20
4632387.500
  0
VERTEX
  8
Unknown_Area_Type
  10
309730.500
  20
4632361.500
  0
VERTEX
  8
Unknown_Area_Type
  10
309332.000
  20
4628221.500
  0
VERTEX
  8
Unknown_Area_Type
  10
310200.000
  20
4627738.500
  0
VERTEX
  8
Unknown_Area_Type
  10
310203.500
  20
4627737.500
  0
VERTEX
  8
Unknown_Area_Type
  10
312171.500
  20
4628062.000
  0
VERTEX
  8
Unknown_Area_Type
  10
312186.500
  20
4628064.500
  0
VERTEX
  8
Unknown_Area_Type
  10
312187.500
  20
4628065.500
  0
VERTEX
  8
Unknown_Area_Type
  10
312479.000
  20
4632197.000
  0
VERTEX
  8
Unknown_Area_Type
  10
312134.500
  20
4632388.000
  0
VERTEX
  8
Unknown_Area_Type
  10
312091.500
  20
4632388.000
  0
SEQEND
  8
Unknown_Area_Type
  0
INSERT
  8
FeatureAttribs
  2
FEATURE
  41
1
  42
1
  43
1
  50
0
  10
299932.367
  20
4630837.733
 66
1
  0
ATTRIB
  8
FeatureAttribs
 70
0
  1
PNOA-H_AMS_1956-57_33k_ES_PAN_2
  2
NAME
  10
299932.367
  20
4630837.733
 40
34.17106
  0
SEQEND
  0
POLYLINE
  8
Unknown_Area_Type
  70
1
  66
1
  0
VERTEX
  8
Unknown_Area_Type
  10
298641.500
  20
4632466.500
  0
VERTEX
  8
Unknown_Area_Type
  10
298690.000
  20
4633194.000
  0
VERTEX
  8
Unknown_Area_Type
  10
301296.500
  20
4633134.500
  0
VERTEX
  8
Unknown_Area_Type
  10
301300.500
  20
4633134.000
  0
VERTEX
  8
Unknown_Area_Type
  10
301489.500
  20
4633014.500
  0
VERTEX
  8
Unknown_Area_Type
  10
301188.500
  20
4628616.000
  0
VERTEX
  8
Unknown_Area_Type
  10
299175.500
  20
4628377.500
  0
VERTEX
  8
Unknown_Area_Type
  10
298395.000
  20
4628753.500
  0
VERTEX
  8
Unknown_Area_Type
  10
298641.500
  20
4632459.000
  0
VERTEX
  8
Unknown_Area_Type
  10
298641.500
  20
4632466.500
  0
SEQEND
  8
Unknown_Area_Type
  0
INSERT
  8
FeatureAttribs
  2
FEATURE
  41
1
  42
1
  43
1
  50
0
  10
299932.367
  20
4630837.733
 66
1
  0
ATTRIB
  8
FeatureAttribs
 70
0
  1
PNOA-H_AMS_1956-57_33k_ES_PAN_2
  2
NAME
  10
299932.367
  20
4630837.733
 40
34.17106
  0
SEQEND
  0
POLYLINE
  8
Unknown_Area_Type
  70
1
  66
1
  0
VERTEX
  8
Unknown_Area_Type
  10
298641.500
  20
4632466.500
  0
VERTEX
  8
Unknown_Area_Type
  10
298641.500
  20
4632459.000
  0
VERTEX
  8
Unknown_Area_Type
  10
298395.000
  20
4628753.500
  0
VERTEX
  8
Unknown_Area_Type
  10
299175.500
  20
4628377.500
  0
VERTEX
  8
Unknown_Area_Type
  10
301188.500
  20
4628616.000
  0
VERTEX
  8
Unknown_Area_Type
  10
301489.500
  20
4633014.500
  0
VERTEX
  8
Unknown_Area_Type
  10
301300.500
  20
4633134.000
  0
VERTEX
  8
Unknown_Area_Type
  10
301296.500
  20
4633134.500
  0
VERTEX
  8
Unknown_Area_Type
  10
298690.000
  20
4633194.000
  0
VERTEX
  8
Unknown_Area_Type
  10
298641.500
  20
4632466.500
  0
SEQEND
  8
Unknown_Area_Type
  0
INSERT
  8
FeatureAttribs
  2
FEATURE
  41
1
  42
1
  43
1
  50
0
  10
305441.859
  20
4630542.826
 66
1
  0
ATTRIB
  8
FeatureAttribs
 70
0
  1
PNOA-H_AMS_1956-57_33k_ES_PAN_2
  2
NAME
  10
305441.859
  20
4630542.826
 40
34.17106
  0
SEQEND
  0
POLYLINE
  8
Unknown_Area_Type
  70
1
  66
1
  0
VERTEX
  8
Unknown_Area_Type
  10
304244.000
  20
4632830.000
  0
VERTEX
  8
Unknown_Area_Type
  10
306827.500
  20
4632780.500
  0
VERTEX
  8
Unknown_Area_Type
  10
307027.000
  20
4632658.500
  0
VERTEX
  8
Unknown_Area_Type
  10
306574.500
  20
4628337.500
  0
VERTEX
  8
Unknown_Area_Type
  10
304733.000
  20
4628101.000
  0
VERTEX
  8
Unknown_Area_Type
  10
303940.000
  20
4628503.500
  0
VERTEX
  8
Unknown_Area_Type
  10
304244.000
  20
4632825.500
  0
VERTEX
  8
Unknown_Area_Type
  10
304244.000
  20
4632830.000
  0
SEQEND
  8
Unknown_Area_Type
  0
INSERT
  8
FeatureAttribs
  2
FEATURE
  41
1
  42
1
  43
1
  50
0
  10
305441.859
  20
4630542.826
 66
1
  0
ATTRIB
  8
FeatureAttribs
 70
0
  1
PNOA-H_AMS_1956-57_33k_ES_PAN_2
  2
NAME
  10
305441.859
  20
4630542.826
 40
34.17106
  0
SEQEND
  0
POLYLINE
  8
Unknown_Area_Type
  70
1
  66
1
  0
VERTEX
  8
Unknown_Area_Type
  10
304244.000
  20
4632830.000
  0
VERTEX
  8
Unknown_Area_Type
  10
304244.000
  20
4632825.500
  0
VERTEX
  8
Unknown_Area_Type
  10
303940.000
  20
4628503.500
  0
VERTEX
  8
Unknown_Area_Type
  10
304733.000
  20
4628101.000
  0
VERTEX
  8
Unknown_Area_Type
  10
306574.500
  20
4628337.500
  0
VERTEX
  8
Unknown_Area_Type
  10
307027.000
  20
4632658.500
  0
VERTEX
  8
Unknown_Area_Type
  10
306827.500
  20
4632780.500
  0
VERTEX
  8
Unknown_Area_Type
  10
304244.000
  20
4632830.000
  0
SEQEND
  8
Unknown_Area_Type
  0
INSERT
  8
FeatureAttribs
  2
FEATURE
  41
1
  42
1
  43
1
  50
0
  10
308148.735
  20
4630330.072
 66
1
  0
ATTRIB
  8
FeatureAttribs
 70
0
  1
PNOA-H_AMS_1956-57_33k_ES_PAN_2
  2
NAME
  10
308148.735
  20
4630330.072
 40
34.17106
  0
SEQEND
  0
POLYLINE
  8
Unknown_Area_Type
  70
1
  66
1
  0
VERTEX
  8
Unknown_Area_Type
  10
306833.500
  20
4630813.000
  0
VERTEX
  8
Unknown_Area_Type
  10
307027.000
  20
4632658.000
  0
VERTEX
  8
Unknown_Area_Type
  10
309400.500
  20
4632554.500
  0
VERTEX
  8
Unknown_Area_Type
  10
309730.500
  20
4632362.000
  0
VERTEX
  8
Unknown_Area_Type
  10
309332.000
  20
4628221.500
  0
VERTEX
  8
Unknown_Area_Type
  10
307417.500
  20
4627911.000
  0
VERTEX
  8
Unknown_Area_Type
  10
306574.500
  20
4628337.000
  0
VERTEX
  8
Unknown_Area_Type
  10
306833.500
  20
4630808.500
  0
VERTEX
  8
Unknown_Area_Type
  10
306833.500
  20
4630813.000
  0
SEQEND
  8
Unknown_Area_Type
  0
INSERT
  8
FeatureAttribs
  2
FEATURE
  41
1
  42
1
  43
1
  50
0
  10
308148.735
  20
4630330.072
 66
1
  0
ATTRIB
  8
FeatureAttribs
 70
0
  1
PNOA-H_AMS_1956-57_33k_ES_PAN_2
  2
NAME
  10
308148.735
  20
4630330.072
 40
34.17106
  0
SEQEND
  0
POLYLINE
  8
Unknown_Area_Type
  70
1
  66
1
  0
VERTEX
  8
Unknown_Area_Type
  10
306833.500
  20
4630813.000
  0
VERTEX
  8
Unknown_Area_Type
  10
306833.500
  20
4630808.500
  0
VERTEX
  8
Unknown_Area_Type
  10
306574.500
  20
4628337.000
  0
VERTEX
  8
Unknown_Area_Type
  10
307417.500
  20
4627911.000
  0
VERTEX
  8
Unknown_Area_Type
  10
309332.000
  20
4628221.500
  0
VERTEX
  8
Unknown_Area_Type
  10
309730.500
  20
4632362.000
  0
VERTEX
  8
Unknown_Area_Type
  10
309400.500
  20
4632554.500
  0
VERTEX
  8
Unknown_Area_Type
  10
307027.000
  20
4632658.000
  0
VERTEX
  8
Unknown_Area_Type
  10
306833.500
  20
4630813.000
  0
SEQEND
  8
Unknown_Area_Type
  0
INSERT
  8
FeatureAttribs
  2
FEATURE
  41
1
  42
1
  43
1
  50
0
  10
313725.342
  20
4630008.896
 66
1
  0
ATTRIB
  8
FeatureAttribs
 70
0
  1
PNOA-H_AMS_1956-57_33k_ES_PAN_2
  2
NAME
  10
313725.342
  20
4630008.896
 40
34.17106
  0
SEQEND
  0
POLYLINE
  8
Unknown_Area_Type
  70
1
  66
1
  0
VERTEX
  8
Unknown_Area_Type
  10
314890.500
  20
4632235.500
  0
VERTEX
  8
Unknown_Area_Type
  10
314914.500
  20
4632235.500
  0
VERTEX
  8
Unknown_Area_Type
  10
315314.000
  20
4632028.500
  0
VERTEX
  8
Unknown_Area_Type
  10
314956.000
  20
4627951.000
  0
VERTEX
  8
Unknown_Area_Type
  10
312985.000
  20
4627608.500
  0
VERTEX
  8
Unknown_Area_Type
  10
312981.000
  20
4627608.500
  0
VERTEX
  8
Unknown_Area_Type
  10
312962.500
  20
4627619.000
  0
VERTEX
  8
Unknown_Area_Type
  10
312187.000
  20
4628065.000
  0
VERTEX
  8
Unknown_Area_Type
  10
312478.500
  20
4632196.000
  0
VERTEX
  8
Unknown_Area_Type
  10
312479.000
  20
4632197.000
  0
VERTEX
  8
Unknown_Area_Type
  10
312507.000
  20
4632197.500
  0
VERTEX
  8
Unknown_Area_Type
  10
314859.000
  20
4632235.000
  0
VERTEX
  8
Unknown_Area_Type
  10
314890.500
  20
4632235.500
  0
SEQEND
  8
Unknown_Area_Type
  0
INSERT
  8
FeatureAttribs
  2
FEATURE
  41
1
  42
1
  43
1
  50
0
  10
313725.342
  20
4630008.896
 66
1
  0
ATTRIB
  8
FeatureAttribs
 70
0
  1
PNOA-H_AMS_1956-57_33k_ES_PAN_2
  2
NAME
  10
313725.342
  20
4630008.896
 40
34.17106
  0
SEQEND
  0
POLYLINE
  8
Unknown_Area_Type
  70
1
  66
1
  0
VERTEX
  8
Unknown_Area_Type
  10
314890.500
  20
4632235.500
  0
VERTEX
  8
Unknown_Area_Type
  10
314859.000
  20
4632235.000
  0
VERTEX
  8
Unknown_Area_Type
  10
312507.000
  20
4632197.500
  0
VERTEX
  8
Unknown_Area_Type
  10
312479.000
  20
4632197.000
  0
VERTEX
  8
Unknown_Area_Type
  10
312478.500
  20
4632196.000
  0
VERTEX
  8
Unknown_Area_Type
  10
312187.000
  20
4628065.000
  0
VERTEX
  8
Unknown_Area_Type
  10
312962.500
  20
4627619.000
  0
VERTEX
  8
Unknown_Area_Type
  10
312981.000
  20
4627608.500
  0
VERTEX
  8
Unknown_Area_Type
  10
312985.000
  20
4627608.500
  0
VERTEX
  8
Unknown_Area_Type
  10
314956.000
  20
4627951.000
  0
VERTEX
  8
Unknown_Area_Type
  10
315314.000
  20
4632028.500
  0
VERTEX
  8
Unknown_Area_Type
  10
314914.500
  20
4632235.500
  0
VERTEX
  8
Unknown_Area_Type
  10
314890.500
  20
4632235.500
  0
SEQEND
  8
Unknown_Area_Type
  0
INSERT
  8
FeatureAttribs
  2
FEATURE
  41
1
  42
1
  43
1
  50
0
  10
318147.320
  20
4616899.684
 66
1
  0
ATTRIB
  8
FeatureAttribs
 70
0
  1
PNOA-H_AMS_1956-57_33k_ES_PAN_2
  2
NAME
  10
318147.320
  20
4616899.684
 40
34.17106
  0
SEQEND
  0
POLYLINE
  8
Unknown_Area_Type
  70
1
  66
1
  0
VERTEX
  8
Unknown_Area_Type
  10
318359.564
  20
4618695.797
  0
VERTEX
  8
Unknown_Area_Type
  10
318359.564
  20
4615079.372
  0
VERTEX
  8
Unknown_Area_Type
  10
317889.610
  20
4615079.372
  0
VERTEX
  8
Unknown_Area_Type
  10
317888.844
  20
4615079.391
  0
VERTEX
  8
Unknown_Area_Type
  10
317947.596
  20
4617392.560
  0
VERTEX
  8
Unknown_Area_Type
  10
317981.325
  20
4618719.995
  0
VERTEX
  8
Unknown_Area_Type
  10
318359.564
  20
4618695.797
  0
SEQEND
  8
Unknown_Area_Type
  0
INSERT
  8
FeatureAttribs
  2
FEATURE
  41
1
  42
1
  43
1
  50
0
  10
317423.133
  20
4615087.343
 66
1
  0
ATTRIB
  8
FeatureAttribs
 70
0
  1
PNOA-H_AMS_1956-57_33k_ES_PAN_2
  2
NAME
  10
317423.133
  20
4615087.343
 40
34.17106
  0
SEQEND
  0
POLYLINE
  8
Unknown_Area_Type
  70
1
  66
1
  0
VERTEX
  8
Unknown_Area_Type
  10
317267.741
  20
4615095.314
  0
VERTEX
  8
Unknown_Area_Type
  10
317888.844
  20
4615079.391
  0
VERTEX
  8
Unknown_Area_Type
  10
317888.843
  20
4615079.372
  0
VERTEX
  8
Unknown_Area_Type
  10
317267.456
  20
4615079.372
  0
VERTEX
  8
Unknown_Area_Type
  10
317267.741
  20
4615095.314
  0
SEQEND
  8
Unknown_Area_Type
  0
INSERT
  8
FeatureAttribs
  2
FEATURE
  41
1
  42
1
  43
1
  50
0
  10
317889.035
  20
4615079.382
 66
1
  0
ATTRIB
  8
FeatureAttribs
 70
0
  1
PNOA-H_AMS_1956-57_33k_ES_PAN_2
  2
NAME
  10
317889.035
  20
4615079.382
 40
34.17106
  0
SEQEND
  0
POLYLINE
  8
Unknown_Area_Type
  70
1
  66
1
  0
VERTEX
  8
Unknown_Area_Type
  10
317888.844
  20
4615079.391
  0
VERTEX
  8
Unknown_Area_Type
  10
317889.610
  20
4615079.372
  0
VERTEX
  8
Unknown_Area_Type
  10
317888.843
  20
4615079.372
  0
VERTEX
  8
Unknown_Area_Type
  10
317888.844
  20
4615079.391
  0
SEQEND
  8
Unknown_Area_Type
  0
INSERT
  8
FeatureAttribs
  2
FEATURE
  41
1
  42
1
  43
1
  50
0
  10
317619.936
  20
4616905.242
 66
1
  0
ATTRIB
  8
FeatureAttribs
 70
0
  1
PNOA-H_AMS_1956-57_33k_ES_PAN_2
  2
NAME
  10
317619.936
  20
4616905.242
 40
34.17106
  0
SEQEND
  0
POLYLINE
  8
Unknown_Area_Type
  70
1
  66
1
  0
VERTEX
  8
Unknown_Area_Type
  10
317981.325
  20
4618719.995
  0
VERTEX
  8
Unknown_Area_Type
  10
317947.596
  20
4617392.560
  0
VERTEX
  8
Unknown_Area_Type
  10
317888.844
  20
4615079.391
  0
VERTEX
  8
Unknown_Area_Type
  10
317267.741
  20
4615095.314
  0
VERTEX
  8
Unknown_Area_Type
  10
317330.000
  20
4618583.000
  0
VERTEX
  8
Unknown_Area_Type
  10
317653.000
  20
4618741.000
  0
VERTEX
  8
Unknown_Area_Type
  10
317981.325
  20
4618719.995
  0
SEQEND
  8
Unknown_Area_Type
  0
INSERT
  8
FeatureAttribs
  2
FEATURE
  41
1
  42
1
  43
1
  50
0
  10
317619.936
  20
4616905.242
 66
1
  0
ATTRIB
  8
FeatureAttribs
 70
0
  1
PNOA-H_AMS_1956-57_33k_ES_PAN_2
  2
NAME
  10
317619.936
  20
4616905.242
 40
34.17106
  0
SEQEND
  0
POLYLINE
  8
Unknown_Area_Type
  70
1
  66
1
  0
VERTEX
  8
Unknown_Area_Type
  10
317981.325
  20
4618719.995
  0
VERTEX
  8
Unknown_Area_Type
  10
317653.000
  20
4618741.000
  0
VERTEX
  8
Unknown_Area_Type
  10
317330.000
  20
4618583.000
  0
VERTEX
  8
Unknown_Area_Type
  10
317267.741
  20
4615095.314
  0
VERTEX
  8
Unknown_Area_Type
  10
317888.844
  20
4615079.391
  0
VERTEX
  8
Unknown_Area_Type
  10
317947.596
  20
4617392.560
  0
VERTEX
  8
Unknown_Area_Type
  10
317981.325
  20
4618719.995
  0
SEQEND
  8
Unknown_Area_Type
  0
INSERT
  8
FeatureAttribs
  2
FEATURE
  41
1
  42
1
  43
1
  50
0
  10
316474.496
  20
4629833.736
 66
1
  0
ATTRIB
  8
FeatureAttribs
 70
0
  1
PNOA-H_AMS_1956-57_33k_ES_PAN_2
  2
NAME
  10
316474.496
  20
4629833.736
 40
34.17106
  0
SEQEND
  0
POLYLINE
  8
Unknown_Area_Type
  70
1
  66
1
  0
VERTEX
  8
Unknown_Area_Type
  10
315313.500
  20
4632028.000
  0
VERTEX
  8
Unknown_Area_Type
  10
317048.000
  20
4632088.500
  0
VERTEX
  8
Unknown_Area_Type
  10
317062.500
  20
4632089.000
  0
VERTEX
  8
Unknown_Area_Type
  10
317569.000
  20
4632106.000
  0
VERTEX
  8
Unknown_Area_Type
  10
317708.500
  20
4632038.500
  0
VERTEX
  8
Unknown_Area_Type
  10
317962.000
  20
4630735.500
  0
VERTEX
  8
Unknown_Area_Type
  10
317701.000
  20
4627826.000
  0
VERTEX
  8
Unknown_Area_Type
  10
315722.000
  20
4627487.000
  0
VERTEX
  8
Unknown_Area_Type
  10
314956.000
  20
4627951.000
  0
VERTEX
  8
Unknown_Area_Type
  10
315313.500
  20
4632028.000
  0
SEQEND
  8
Unknown_Area_Type
  0
INSERT
  8
FeatureAttribs
  2
FEATURE
  41
1
  42
1
  43
1
  50
0
  10
316474.496
  20
4629833.736
 66
1
  0
ATTRIB
  8
FeatureAttribs
 70
0
  1
PNOA-H_AMS_1956-57_33k_ES_PAN_2
  2
NAME
  10
316474.496
  20
4629833.736
 40
34.17106
  0
SEQEND
  0
POLYLINE
  8
Unknown_Area_Type
  70
1
  66
1
  0
VERTEX
  8
Unknown_Area_Type
  10
315313.500
  20
4632028.000
  0
VERTEX
  8
Unknown_Area_Type
  10
314956.000
  20
4627951.000
  0
VERTEX
  8
Unknown_Area_Type
  10
315722.000
  20
4627487.000
  0
VERTEX
  8
Unknown_Area_Type
  10
317701.000
  20
4627826.000
  0
VERTEX
  8
Unknown_Area_Type
  10
317962.000
  20
4630735.500
  0
VERTEX
  8
Unknown_Area_Type
  10
317708.500
  20
4632038.500
  0
VERTEX
  8
Unknown_Area_Type
  10
317569.000
  20
4632106.000
  0
VERTEX
  8
Unknown_Area_Type
  10
317062.500
  20
4632089.000
  0
VERTEX
  8
Unknown_Area_Type
  10
317048.000
  20
4632088.500
  0
VERTEX
  8
Unknown_Area_Type
  10
315313.500
  20
4632028.000
  0
SEQEND
  8
Unknown_Area_Type
  0
INSERT
  8
FeatureAttribs
  2
FEATURE
  41
1
  42
1
  43
1
  50
0
  10
318300.597
  20
4628955.077
 66
1
  0
ATTRIB
  8
FeatureAttribs
 70
0
  1
PNOA-H_AMS_1956-57_33k_ES_PAN_2
  2
NAME
  10
318300.597
  20
4628955.077
 40
34.17106
  0
SEQEND
  0
POLYLINE
  8
Unknown_Area_Type
  70
1
  66
1
  0
VERTEX
  8
Unknown_Area_Type
  10
318359.564
  20
4630447.933
  0
VERTEX
  8
Unknown_Area_Type
  10
318359.564
  20
4627405.844
  0
VERTEX
  8
Unknown_Area_Type
  10
318204.711
  20
4627504.446
  0
VERTEX
  8
Unknown_Area_Type
  10
318241.718
  20
4628958.511
  0
VERTEX
  8
Unknown_Area_Type
  10
318281.075
  20
4630504.311
  0
VERTEX
  8
Unknown_Area_Type
  10
318359.564
  20
4630447.933
  0
SEQEND
  8
Unknown_Area_Type
  0
INSERT
  8
FeatureAttribs
  2
FEATURE
  41
1
  42
1
  43
1
  50
0
  10
318030.442
  20
4629032.517
 66
1
  0
ATTRIB
  8
FeatureAttribs
 70
0
  1
PNOA-H_AMS_1956-57_33k_ES_PAN_2
  2
NAME
  10
318030.442
  20
4629032.517
 40
34.17106
  0
SEQEND
  0
POLYLINE
  8
Unknown_Area_Type
  70
1
  66
1
  0
VERTEX
  8
Unknown_Area_Type
  10
318281.075
  20
4630504.311
  0
VERTEX
  8
Unknown_Area_Type
  10
318241.718
  20
4628958.511
  0
VERTEX
  8
Unknown_Area_Type
  10
318204.711
  20
4627504.446
  0
VERTEX
  8
Unknown_Area_Type
  10
317700.500
  20
4627825.500
  0
VERTEX
  8
Unknown_Area_Type
  10
317962.000
  20
4630733.500
  0
VERTEX
  8
Unknown_Area_Type
  10
318281.075
  20
4630504.311
  0
SEQEND
  8
Unknown_Area_Type
  0
INSERT
  8
FeatureAttribs
  2
FEATURE
  41
1
  42
1
  43
1
  50
0
  10
318030.442
  20
4629032.517
 66
1
  0
ATTRIB
  8
FeatureAttribs
 70
0
  1
PNOA-H_AMS_1956-57_33k_ES_PAN_2
  2
NAME
  10
318030.442
  20
4629032.517
 40
34.17106
  0
SEQEND
  0
POLYLINE
  8
Unknown_Area_Type
  70
1
  66
1
  0
VERTEX
  8
Unknown_Area_Type
  10
318281.075
  20
4630504.311
  0
VERTEX
  8
Unknown_Area_Type
  10
317962.000
  20
4630733.500
  0
VERTEX
  8
Unknown_Area_Type
  10
317700.500
  20
4627825.500
  0
VERTEX
  8
Unknown_Area_Type
  10
318204.711
  20
4627504.446
  0
VERTEX
  8
Unknown_Area_Type
  10
318241.718
  20
4628958.511
  0
VERTEX
  8
Unknown_Area_Type
  10
318281.075
  20
4630504.311
  0
SEQEND
  8
Unknown_Area_Type
  0
INSERT
  8
FeatureAttribs
  2
FEATURE
  41
1
  42
1
  43
1
  50
0
  10
318330.470
  20
4631301.628
 66
1
  0
ATTRIB
  8
FeatureAttribs
 70
0
  1
PNOA-H_AMS_1956-57_33k_ES_PAN_2
  2
NAME
  10
318330.470
  20
4631301.628
 40
34.17106
  0
SEQEND
  0
POLYLINE
  8
Unknown_Area_Type
  70
1
  66
1
  0
VERTEX
  8
Unknown_Area_Type
  10
318359.564
  20
4630447.950
  0
VERTEX
  8
Unknown_Area_Type
  10
318281.076
  20
4630504.324
  0
VERTEX
  8
Unknown_Area_Type
  10
318300.615
  20
4631271.723
  0
VERTEX
  8
Unknown_Area_Type
  10
318322.953
  20
4632148.737
  0
VERTEX
  8
Unknown_Area_Type
  10
318359.564
  20
4632155.306
  0
VERTEX
  8
Unknown_Area_Type
  10
318359.564
  20
4630447.950
  0
SEQEND
  8
Unknown_Area_Type
  0
INSERT
  8
FeatureAttribs
  2
FEATURE
  41
1
  42
1
  43
1
  50
0
  10
318072.572
  20
4631439.944
 66
1
  0
ATTRIB
  8
FeatureAttribs
 70
0
  1
PNOA-H_AMS_1956-57_33k_ES_PAN_2
  2
NAME
  10
318072.572
  20
4631439.944
 40
34.17106
  0
SEQEND
  0
POLYLINE
  8
Unknown_Area_Type
  70
1
  66
1
  0
VERTEX
  8
Unknown_Area_Type
  10
318281.076
  20
4630504.324
  0
VERTEX
  8
Unknown_Area_Type
  10
317962.000
  20
4630733.500
  0
VERTEX
  8
Unknown_Area_Type
  10
317708.500
  20
4632038.500
  0
VERTEX
  8
Unknown_Area_Type
  10
318322.953
  20
4632148.737
  0
VERTEX
  8
Unknown_Area_Type
  10
318300.615
  20
4631271.723
  0
VERTEX
  8
Unknown_Area_Type
  10
318281.076
  20
4630504.324
  0
SEQEND
  8
Unknown_Area_Type
  0
INSERT
  8
FeatureAttribs
  2
FEATURE
  41
1
  42
1
  43
1
  50
0
  10
318072.572
  20
4631439.944
 66
1
  0
ATTRIB
  8
FeatureAttribs
 70
0
  1
PNOA-H_AMS_1956-57_33k_ES_PAN_2
  2
NAME
  10
318072.572
  20
4631439.944
 40
34.17106
  0
SEQEND
  0
POLYLINE
  8
Unknown_Area_Type
  70
1
  66
1
  0
VERTEX
  8
Unknown_Area_Type
  10
318281.076
  20
4630504.324
  0
VERTEX
  8
Unknown_Area_Type
  10
318300.615
  20
4631271.723
  0
VERTEX
  8
Unknown_Area_Type
  10
318322.953
  20
4632148.737
  0
VERTEX
  8
Unknown_Area_Type
  10
317708.500
  20
4632038.500
  0
VERTEX
  8
Unknown_Area_Type
  10
317962.000
  20
4630733.500
  0
VERTEX
  8
Unknown_Area_Type
  10
318281.076
  20
4630504.324
  0
SEQEND
  8
Unknown_Area_Type
  0
ENDSEC
  0
EOF
