  0
SECTION
  2
HEADER
  9
$ACADVER
  1
AC1009
  9
$LUNITS
  70
2
  9
$LIMMIN
  10
262383.502
  20
4615837.859
  9
$LIMMAX
  10
290679.150
  20
4635210.591
  9
$EXTMIN
  10
262383.502
  20
4615837.859
  9
$EXTMAX
  10
290679.150
  20
4635210.591
  999
Created by Global Mapper
  999
Projection: UTM
  999
Datum: ETRS89
  999
Ground Units: meters
  999
ZONE: 30
  0
ENDSEC
  0
SECTION
  2
TABLES
  0
ENDSEC
  0
SECTION
  2
BLOCKS
  0
BLOCK
  8
FeatureAttribs
  70
0
  2
FEATURE
  3
FEATURE
  10
0.00000000
  20
0.00000000
  0
ATTDEF
  8
FeatureAttribs
  70
0
  1
 
  2
NAME
  3
NAME
  10
0.00000000
  20
0.00000000
  40
1.00000000
  0
ENDBLK
  0
ENDSEC
  0
SECTION
  2
ENTITIES
  0
INSERT
  8
FeatureAttribs
  2
FEATURE
  41
1
  42
1
  43
1
  50
0
  10
262997.774
  20
4635210.582
 66
1
  0
ATTRIB
  8
FeatureAttribs
 70
0
  1
PNOA-H_AMS_1956-57_33k_ES_PAN_2
  2
NAME
  10
262997.774
  20
4635210.582
 40
34.29208
  0
SEQEND
  0
POLYLINE
  8
Unknown_Area_Type
  70
1
  66
1
  0
VERTEX
  8
Unknown_Area_Type
  10
262997.919
  20
4635210.591
  0
VERTEX
  8
Unknown_Area_Type
  10
262997.918
  20
4635210.572
  0
VERTEX
  8
Unknown_Area_Type
  10
262997.340
  20
4635210.591
  0
VERTEX
  8
Unknown_Area_Type
  10
262997.919
  20
4635210.591
  0
SEQEND
  8
Unknown_Area_Type
  0
INSERT
  8
FeatureAttribs
  2
FEATURE
  41
1
  42
1
  43
1
  50
0
  10
263650.620
  20
4635196.215
 66
1
  0
ATTRIB
  8
FeatureAttribs
 70
0
  1
PNOA-H_AMS_1956-57_33k_ES_PAN_2
  2
NAME
  10
263650.620
  20
4635196.215
 40
34.29208
  0
SEQEND
  0
POLYLINE
  8
Unknown_Area_Type
  70
1
  66
1
  0
VERTEX
  8
Unknown_Area_Type
  10
263868.413
  20
4635210.591
  0
VERTEX
  8
Unknown_Area_Type
  10
263868.368
  20
4635181.839
  0
VERTEX
  8
Unknown_Area_Type
  10
262997.918
  20
4635210.572
  0
VERTEX
  8
Unknown_Area_Type
  10
262997.919
  20
4635210.591
  0
VERTEX
  8
Unknown_Area_Type
  10
263868.413
  20
4635210.591
  0
SEQEND
  8
Unknown_Area_Type
  0
INSERT
  8
FeatureAttribs
  2
FEATURE
  41
1
  42
1
  43
1
  50
0
  10
262675.007
  20
4634265.868
 66
1
  0
ATTRIB
  8
FeatureAttribs
 70
0
  1
PNOA-H_AMS_1956-57_33k_ES_PAN_2
  2
NAME
  10
262675.007
  20
4634265.868
 40
34.29208
  0
SEQEND
  0
POLYLINE
  8
Unknown_Area_Type
  70
1
  66
1
  0
VERTEX
  8
Unknown_Area_Type
  10
262939.465
  20
4633452.346
  0
VERTEX
  8
Unknown_Area_Type
  10
262383.502
  20
4633321.144
  0
VERTEX
  8
Unknown_Area_Type
  10
262383.502
  20
4635210.591
  0
VERTEX
  8
Unknown_Area_Type
  10
262997.340
  20
4635210.591
  0
VERTEX
  8
Unknown_Area_Type
  10
262997.918
  20
4635210.572
  0
VERTEX
  8
Unknown_Area_Type
  10
262939.465
  20
4633452.346
  0
SEQEND
  8
Unknown_Area_Type
  0
INSERT
  8
FeatureAttribs
  2
FEATURE
  41
1
  42
1
  43
1
  50
0
  10
263406.710
  20
4634369.948
 66
1
  0
ATTRIB
  8
FeatureAttribs
 70
0
  1
PNOA-H_AMS_1956-57_33k_ES_PAN_2
  2
NAME
  10
263406.710
  20
4634369.948
 40
34.29208
  0
SEQEND
  0
POLYLINE
  8
Unknown_Area_Type
  70
1
  66
1
  0
VERTEX
  8
Unknown_Area_Type
  10
263868.368
  20
4635181.839
  0
VERTEX
  8
Unknown_Area_Type
  10
263866.000
  20
4633671.000
  0
VERTEX
  8
Unknown_Area_Type
  10
262939.465
  20
4633452.346
  0
VERTEX
  8
Unknown_Area_Type
  10
262997.918
  20
4635210.572
  0
VERTEX
  8
Unknown_Area_Type
  10
263868.368
  20
4635181.839
  0
SEQEND
  8
Unknown_Area_Type
  0
INSERT
  8
FeatureAttribs
  2
FEATURE
  41
1
  42
1
  43
1
  50
0
  10
263406.710
  20
4634369.948
 66
1
  0
ATTRIB
  8
FeatureAttribs
 70
0
  1
PNOA-H_AMS_1956-57_33k_ES_PAN_2
  2
NAME
  10
263406.710
  20
4634369.948
 40
34.29208
  0
SEQEND
  0
POLYLINE
  8
Unknown_Area_Type
  70
1
  66
1
  0
VERTEX
  8
Unknown_Area_Type
  10
263868.368
  20
4635181.839
  0
VERTEX
  8
Unknown_Area_Type
  10
262997.918
  20
4635210.572
  0
VERTEX
  8
Unknown_Area_Type
  10
262939.465
  20
4633452.346
  0
VERTEX
  8
Unknown_Area_Type
  10
263866.000
  20
4633671.000
  0
VERTEX
  8
Unknown_Area_Type
  10
263868.368
  20
4635181.839
  0
SEQEND
  8
Unknown_Area_Type
  0
INSERT
  8
FeatureAttribs
  2
FEATURE
  41
1
  42
1
  43
1
  50
0
  10
286476.489
  20
4634820.124
 66
1
  0
ATTRIB
  8
FeatureAttribs
 70
0
  1
PNOA-H_AMS_1956-57_33k_ES_PAN_2
  2
NAME
  10
286476.489
  20
4634820.124
 40
34.29208
  0
SEQEND
  0
POLYLINE
  8
Unknown_Area_Type
  70
1
  66
1
  0
VERTEX
  8
Unknown_Area_Type
  10
287811.531
  20
4635210.591
  0
VERTEX
  8
Unknown_Area_Type
  10
287783.807
  20
4634429.656
  0
VERTEX
  8
Unknown_Area_Type
  10
287219.017
  20
4634446.378
  0
VERTEX
  8
Unknown_Area_Type
  10
285148.928
  20
4634508.672
  0
VERTEX
  8
Unknown_Area_Type
  10
285163.309
  20
4635210.591
  0
VERTEX
  8
Unknown_Area_Type
  10
287811.531
  20
4635210.591
  0
SEQEND
  8
Unknown_Area_Type
  0
INSERT
  8
FeatureAttribs
  2
FEATURE
  41
1
  42
1
  43
1
  50
0
  10
286472.060
  20
4633930.062
 66
1
  0
ATTRIB
  8
FeatureAttribs
 70
0
  1
PNOA-H_AMS_1956-57_33k_ES_PAN_2
  2
NAME
  10
286472.060
  20
4633930.062
 40
34.29208
  0
SEQEND
  0
POLYLINE
  8
Unknown_Area_Type
  70
1
  66
1
  0
VERTEX
  8
Unknown_Area_Type
  10
287783.807
  20
4634429.656
  0
VERTEX
  8
Unknown_Area_Type
  10
287751.000
  20
4633505.500
  0
VERTEX
  8
Unknown_Area_Type
  10
287218.500
  20
4633260.500
  0
VERTEX
  8
Unknown_Area_Type
  10
285129.000
  20
4633536.000
  0
VERTEX
  8
Unknown_Area_Type
  10
285148.928
  20
4634508.672
  0
VERTEX
  8
Unknown_Area_Type
  10
287219.017
  20
4634446.378
  0
VERTEX
  8
Unknown_Area_Type
  10
287783.807
  20
4634429.656
  0
SEQEND
  8
Unknown_Area_Type
  0
INSERT
  8
FeatureAttribs
  2
FEATURE
  41
1
  42
1
  43
1
  50
0
  10
286472.060
  20
4633930.062
 66
1
  0
ATTRIB
  8
FeatureAttribs
 70
0
  1
PNOA-H_AMS_1956-57_33k_ES_PAN_2
  2
NAME
  10
286472.060
  20
4633930.062
 40
34.29208
  0
SEQEND
  0
POLYLINE
  8
Unknown_Area_Type
  70
1
  66
1
  0
VERTEX
  8
Unknown_Area_Type
  10
287783.807
  20
4634429.656
  0
VERTEX
  8
Unknown_Area_Type
  10
287219.017
  20
4634446.378
  0
VERTEX
  8
Unknown_Area_Type
  10
285148.928
  20
4634508.672
  0
VERTEX
  8
Unknown_Area_Type
  10
285129.000
  20
4633536.000
  0
VERTEX
  8
Unknown_Area_Type
  10
287218.500
  20
4633260.500
  0
VERTEX
  8
Unknown_Area_Type
  10
287751.000
  20
4633505.500
  0
VERTEX
  8
Unknown_Area_Type
  10
287783.807
  20
4634429.656
  0
SEQEND
  8
Unknown_Area_Type
  0
INSERT
  8
FeatureAttribs
  2
FEATURE
  41
1
  42
1
  43
1
  50
0
  10
283847.524
  20
4634859.632
 66
1
  0
ATTRIB
  8
FeatureAttribs
 70
0
  1
PNOA-H_AMS_1956-57_33k_ES_PAN_2
  2
NAME
  10
283847.524
  20
4634859.632
 40
34.29208
  0
SEQEND
  0
POLYLINE
  8
Unknown_Area_Type
  70
1
  66
1
  0
VERTEX
  8
Unknown_Area_Type
  10
285163.309
  20
4635210.591
  0
VERTEX
  8
Unknown_Area_Type
  10
285148.928
  20
4634508.672
  0
VERTEX
  8
Unknown_Area_Type
  10
283758.899
  20
4634550.501
  0
VERTEX
  8
Unknown_Area_Type
  10
282540.964
  20
4634587.744
  0
VERTEX
  8
Unknown_Area_Type
  10
282536.301
  20
4635210.591
  0
VERTEX
  8
Unknown_Area_Type
  10
285163.309
  20
4635210.591
  0
SEQEND
  8
Unknown_Area_Type
  0
INSERT
  8
FeatureAttribs
  2
FEATURE
  41
1
  42
1
  43
1
  50
0
  10
283859.904
  20
4633984.150
 66
1
  0
ATTRIB
  8
FeatureAttribs
 70
0
  1
PNOA-H_AMS_1956-57_33k_ES_PAN_2
  2
NAME
  10
283859.904
  20
4633984.150
 40
34.29208
  0
SEQEND
  0
POLYLINE
  8
Unknown_Area_Type
  70
1
  66
1
  0
VERTEX
  8
Unknown_Area_Type
  10
285148.928
  20
4634508.672
  0
VERTEX
  8
Unknown_Area_Type
  10
285129.000
  20
4633536.000
  0
VERTEX
  8
Unknown_Area_Type
  10
284464.500
  20
4633278.500
  0
VERTEX
  8
Unknown_Area_Type
  10
282548.500
  20
4633581.000
  0
VERTEX
  8
Unknown_Area_Type
  10
282540.964
  20
4634587.744
  0
VERTEX
  8
Unknown_Area_Type
  10
283758.899
  20
4634550.501
  0
VERTEX
  8
Unknown_Area_Type
  10
285148.928
  20
4634508.672
  0
SEQEND
  8
Unknown_Area_Type
  0
INSERT
  8
FeatureAttribs
  2
FEATURE
  41
1
  42
1
  43
1
  50
0
  10
283859.904
  20
4633984.150
 66
1
  0
ATTRIB
  8
FeatureAttribs
 70
0
  1
PNOA-H_AMS_1956-57_33k_ES_PAN_2
  2
NAME
  10
283859.904
  20
4633984.150
 40
34.29208
  0
SEQEND
  0
POLYLINE
  8
Unknown_Area_Type
  70
1
  66
1
  0
VERTEX
  8
Unknown_Area_Type
  10
285148.928
  20
4634508.672
  0
VERTEX
  8
Unknown_Area_Type
  10
283758.899
  20
4634550.501
  0
VERTEX
  8
Unknown_Area_Type
  10
282540.964
  20
4634587.744
  0
VERTEX
  8
Unknown_Area_Type
  10
282548.500
  20
4633581.000
  0
VERTEX
  8
Unknown_Area_Type
  10
284464.500
  20
4633278.500
  0
VERTEX
  8
Unknown_Area_Type
  10
285129.000
  20
4633536.000
  0
VERTEX
  8
Unknown_Area_Type
  10
285148.928
  20
4634508.672
  0
SEQEND
  8
Unknown_Area_Type
  0
INSERT
  8
FeatureAttribs
  2
FEATURE
  41
1
  42
1
  43
1
  50
0
  10
278490.503
  20
4634941.081
 66
1
  0
ATTRIB
  8
FeatureAttribs
 70
0
  1
PNOA-H_AMS_1956-57_33k_ES_PAN_2
  2
NAME
  10
278490.503
  20
4634941.081
 40
34.29208
  0
SEQEND
  0
POLYLINE
  8
Unknown_Area_Type
  70
1
  66
1
  0
VERTEX
  8
Unknown_Area_Type
  10
279812.923
  20
4635210.591
  0
VERTEX
  8
Unknown_Area_Type
  10
279807.415
  20
4634671.571
  0
VERTEX
  8
Unknown_Area_Type
  10
277170.222
  20
4634753.494
  0
VERTEX
  8
Unknown_Area_Type
  10
277171.723
  20
4635210.591
  0
VERTEX
  8
Unknown_Area_Type
  10
279812.923
  20
4635210.591
  0
SEQEND
  8
Unknown_Area_Type
  0
INSERT
  8
FeatureAttribs
  2
FEATURE
  41
1
  42
1
  43
1
  50
0
  10
278490.732
  20
4634075.958
 66
1
  0
ATTRIB
  8
FeatureAttribs
 70
0
  1
PNOA-H_AMS_1956-57_33k_ES_PAN_2
  2
NAME
  10
278490.732
  20
4634075.958
 40
34.29208
  0
SEQEND
  0
POLYLINE
  8
Unknown_Area_Type
  70
1
  66
1
  0
VERTEX
  8
Unknown_Area_Type
  10
279807.415
  20
4634671.571
  0
VERTEX
  8
Unknown_Area_Type
  10
279796.500
  20
4633603.500
  0
VERTEX
  8
Unknown_Area_Type
  10
278882.000
  20
4633277.500
  0
VERTEX
  8
Unknown_Area_Type
  10
277166.500
  20
4633619.500
  0
VERTEX
  8
Unknown_Area_Type
  10
277170.222
  20
4634753.494
  0
VERTEX
  8
Unknown_Area_Type
  10
279807.415
  20
4634671.571
  0
SEQEND
  8
Unknown_Area_Type
  0
INSERT
  8
FeatureAttribs
  2
FEATURE
  41
1
  42
1
  43
1
  50
0
  10
278490.732
  20
4634075.958
 66
1
  0
ATTRIB
  8
FeatureAttribs
 70
0
  1
PNOA-H_AMS_1956-57_33k_ES_PAN_2
  2
NAME
  10
278490.732
  20
4634075.958
 40
34.29208
  0
SEQEND
  0
POLYLINE
  8
Unknown_Area_Type
  70
1
  66
1
  0
VERTEX
  8
Unknown_Area_Type
  10
279807.415
  20
4634671.571
  0
VERTEX
  8
Unknown_Area_Type
  10
277170.222
  20
4634753.494
  0
VERTEX
  8
Unknown_Area_Type
  10
277166.500
  20
4633619.500
  0
VERTEX
  8
Unknown_Area_Type
  10
278882.000
  20
4633277.500
  0
VERTEX
  8
Unknown_Area_Type
  10
279796.500
  20
4633603.500
  0
VERTEX
  8
Unknown_Area_Type
  10
279807.415
  20
4634671.571
  0
SEQEND
  8
Unknown_Area_Type
  0
INSERT
  8
FeatureAttribs
  2
FEATURE
  41
1
  42
1
  43
1
  50
0
  10
289143.656
  20
4634780.287
 66
1
  0
ATTRIB
  8
FeatureAttribs
 70
0
  1
PNOA-H_AMS_1956-57_33k_ES_PAN_2
  2
NAME
  10
289143.656
  20
4634780.287
 40
34.29208
  0
SEQEND
  0
POLYLINE
  8
Unknown_Area_Type
  70
1
  66
1
  0
VERTEX
  8
Unknown_Area_Type
  10
290507.528
  20
4635210.591
  0
VERTEX
  8
Unknown_Area_Type
  10
290474.884
  20
4634349.983
  0
VERTEX
  8
Unknown_Area_Type
  10
287783.700
  20
4634429.659
  0
VERTEX
  8
Unknown_Area_Type
  10
287811.332
  20
4635210.591
  0
VERTEX
  8
Unknown_Area_Type
  10
290507.528
  20
4635210.591
  0
SEQEND
  8
Unknown_Area_Type
  0
INSERT
  8
FeatureAttribs
  2
FEATURE
  41
1
  42
1
  43
1
  50
0
  10
289137.640
  20
4633883.287
 66
1
  0
ATTRIB
  8
FeatureAttribs
 70
0
  1
PNOA-H_AMS_1956-57_33k_ES_PAN_2
  2
NAME
  10
289137.640
  20
4633883.287
 40
34.29208
  0
SEQEND
  0
POLYLINE
  8
Unknown_Area_Type
  70
1
  66
1
  0
VERTEX
  8
Unknown_Area_Type
  10
290474.884
  20
4634349.983
  0
VERTEX
  8
Unknown_Area_Type
  10
290440.500
  20
4633443.500
  0
VERTEX
  8
Unknown_Area_Type
  10
290083.500
  20
4633264.000
  0
VERTEX
  8
Unknown_Area_Type
  10
287751.000
  20
4633505.500
  0
VERTEX
  8
Unknown_Area_Type
  10
287783.700
  20
4634429.659
  0
VERTEX
  8
Unknown_Area_Type
  10
290474.884
  20
4634349.983
  0
SEQEND
  8
Unknown_Area_Type
  0
INSERT
  8
FeatureAttribs
  2
FEATURE
  41
1
  42
1
  43
1
  50
0
  10
289137.640
  20
4633883.287
 66
1
  0
ATTRIB
  8
FeatureAttribs
 70
0
  1
PNOA-H_AMS_1956-57_33k_ES_PAN_2
  2
NAME
  10
289137.640
  20
4633883.287
 40
34.29208
  0
SEQEND
  0
POLYLINE
  8
Unknown_Area_Type
  70
1
  66
1
  0
VERTEX
  8
Unknown_Area_Type
  10
290474.884
  20
4634349.983
  0
VERTEX
  8
Unknown_Area_Type
  10
287783.700
  20
4634429.659
  0
VERTEX
  8
Unknown_Area_Type
  10
287751.000
  20
4633505.500
  0
VERTEX
  8
Unknown_Area_Type
  10
290083.500
  20
4633264.000
  0
VERTEX
  8
Unknown_Area_Type
  10
290440.500
  20
4633443.500
  0
VERTEX
  8
Unknown_Area_Type
  10
290474.884
  20
4634349.983
  0
SEQEND
  8
Unknown_Area_Type
  0
INSERT
  8
FeatureAttribs
  2
FEATURE
  41
1
  42
1
  43
1
  50
0
  10
275860.657
  20
4634982.043
 66
1
  0
ATTRIB
  8
FeatureAttribs
 70
0
  1
PNOA-H_AMS_1956-57_33k_ES_PAN_2
  2
NAME
  10
275860.657
  20
4634982.043
 40
34.29208
  0
SEQEND
  0
POLYLINE
  8
Unknown_Area_Type
  70
1
  66
1
  0
VERTEX
  8
Unknown_Area_Type
  10
277171.724
  20
4635210.591
  0
VERTEX
  8
Unknown_Area_Type
  10
277170.223
  20
4634753.494
  0
VERTEX
  8
Unknown_Area_Type
  10
276838.625
  20
4634763.795
  0
VERTEX
  8
Unknown_Area_Type
  10
274554.882
  20
4634835.848
  0
VERTEX
  8
Unknown_Area_Type
  10
274543.241
  20
4635210.591
  0
VERTEX
  8
Unknown_Area_Type
  10
277171.724
  20
4635210.591
  0
SEQEND
  8
Unknown_Area_Type
  0
INSERT
  8
FeatureAttribs
  2
FEATURE
  41
1
  42
1
  43
1
  50
0
  10
275872.413
  20
4634123.310
 66
1
  0
ATTRIB
  8
FeatureAttribs
 70
0
  1
PNOA-H_AMS_1956-57_33k_ES_PAN_2
  2
NAME
  10
275872.413
  20
4634123.310
 40
34.29208
  0
SEQEND
  0
POLYLINE
  8
Unknown_Area_Type
  70
1
  66
1
  0
VERTEX
  8
Unknown_Area_Type
  10
277170.223
  20
4634753.494
  0
VERTEX
  8
Unknown_Area_Type
  10
277166.500
  20
4633619.500
  0
VERTEX
  8
Unknown_Area_Type
  10
276118.000
  20
4633280.000
  0
VERTEX
  8
Unknown_Area_Type
  10
276112.500
  20
4633279.500
  0
VERTEX
  8
Unknown_Area_Type
  10
274592.000
  20
4633641.000
  0
VERTEX
  8
Unknown_Area_Type
  10
274554.882
  20
4634835.848
  0
VERTEX
  8
Unknown_Area_Type
  10
276838.625
  20
4634763.795
  0
VERTEX
  8
Unknown_Area_Type
  10
277170.223
  20
4634753.494
  0
SEQEND
  8
Unknown_Area_Type
  0
INSERT
  8
FeatureAttribs
  2
FEATURE
  41
1
  42
1
  43
1
  50
0
  10
275872.413
  20
4634123.310
 66
1
  0
ATTRIB
  8
FeatureAttribs
 70
0
  1
PNOA-H_AMS_1956-57_33k_ES_PAN_2
  2
NAME
  10
275872.413
  20
4634123.310
 40
34.29208
  0
SEQEND
  0
POLYLINE
  8
Unknown_Area_Type
  70
1
  66
1
  0
VERTEX
  8
Unknown_Area_Type
  10
277170.223
  20
4634753.494
  0
VERTEX
  8
Unknown_Area_Type
  10
276838.625
  20
4634763.795
  0
VERTEX
  8
Unknown_Area_Type
  10
274554.882
  20
4634835.848
  0
VERTEX
  8
Unknown_Area_Type
  10
274592.000
  20
4633641.000
  0
VERTEX
  8
Unknown_Area_Type
  10
276112.500
  20
4633279.500
  0
VERTEX
  8
Unknown_Area_Type
  10
276118.000
  20
4633280.000
  0
VERTEX
  8
Unknown_Area_Type
  10
277166.500
  20
4633619.500
  0
VERTEX
  8
Unknown_Area_Type
  10
277170.223
  20
4634753.494
  0
SEQEND
  8
Unknown_Area_Type
  0
INSERT
  8
FeatureAttribs
  2
FEATURE
  41
1
  42
1
  43
1
  50
0
  10
267900.456
  20
4635108.432
 66
1
  0
ATTRIB
  8
FeatureAttribs
 70
0
  1
PNOA-H_AMS_1956-57_33k_ES_PAN_2
  2
NAME
  10
267900.456
  20
4635108.432
 40
34.29208
  0
SEQEND
  0
POLYLINE
  8
Unknown_Area_Type
  70
1
  66
1
  0
VERTEX
  8
Unknown_Area_Type
  10
269232.352
  20
4635210.591
  0
VERTEX
  8
Unknown_Area_Type
  10
269227.886
  20
4635006.272
  0
VERTEX
  8
Unknown_Area_Type
  10
266570.434
  20
4635092.701
  0
VERTEX
  8
Unknown_Area_Type
  10
266573.116
  20
4635210.591
  0
VERTEX
  8
Unknown_Area_Type
  10
269232.352
  20
4635210.591
  0
SEQEND
  8
Unknown_Area_Type
  0
INSERT
  8
FeatureAttribs
  2
FEATURE
  41
1
  42
1
  43
1
  50
0
  10
267874.854
  20
4634234.882
 66
1
  0
ATTRIB
  8
FeatureAttribs
 70
0
  1
PNOA-H_AMS_1956-57_33k_ES_PAN_2
  2
NAME
  10
267874.854
  20
4634234.882
 40
34.29208
  0
SEQEND
  0
POLYLINE
  8
Unknown_Area_Type
  70
1
  66
1
  0
VERTEX
  8
Unknown_Area_Type
  10
269227.886
  20
4635006.272
  0
VERTEX
  8
Unknown_Area_Type
  10
269197.000
  20
4633593.000
  0
VERTEX
  8
Unknown_Area_Type
  10
267822.500
  20
4633237.000
  0
VERTEX
  8
Unknown_Area_Type
  10
266537.500
  20
4633645.000
  0
VERTEX
  8
Unknown_Area_Type
  10
266570.434
  20
4635092.701
  0
VERTEX
  8
Unknown_Area_Type
  10
269227.886
  20
4635006.272
  0
SEQEND
  8
Unknown_Area_Type
  0
INSERT
  8
FeatureAttribs
  2
FEATURE
  41
1
  42
1
  43
1
  50
0
  10
267874.854
  20
4634234.882
 66
1
  0
ATTRIB
  8
FeatureAttribs
 70
0
  1
PNOA-H_AMS_1956-57_33k_ES_PAN_2
  2
NAME
  10
267874.854
  20
4634234.882
 40
34.29208
  0
SEQEND
  0
POLYLINE
  8
Unknown_Area_Type
  70
1
  66
1
  0
VERTEX
  8
Unknown_Area_Type
  10
269227.886
  20
4635006.272
  0
VERTEX
  8
Unknown_Area_Type
  10
266570.434
  20
4635092.701
  0
VERTEX
  8
Unknown_Area_Type
  10
266537.500
  20
4633645.000
  0
VERTEX
  8
Unknown_Area_Type
  10
267822.500
  20
4633237.000
  0
VERTEX
  8
Unknown_Area_Type
  10
269197.000
  20
4633593.000
  0
VERTEX
  8
Unknown_Area_Type
  10
269227.886
  20
4635006.272
  0
SEQEND
  8
Unknown_Area_Type
  0
INSERT
  8
FeatureAttribs
  2
FEATURE
  41
1
  42
1
  43
1
  50
0
  10
270544.039
  20
4635066.113
 66
1
  0
ATTRIB
  8
FeatureAttribs
 70
0
  1
PNOA-H_AMS_1956-57_33k_ES_PAN_2
  2
NAME
  10
270544.039
  20
4635066.113
 40
34.29208
  0
SEQEND
  0
POLYLINE
  8
Unknown_Area_Type
  70
1
  66
1
  0
VERTEX
  8
Unknown_Area_Type
  10
271858.451
  20
4635210.591
  0
VERTEX
  8
Unknown_Area_Type
  10
271859.318
  20
4634921.634
  0
VERTEX
  8
Unknown_Area_Type
  10
269918.299
  20
4634983.818
  0
VERTEX
  8
Unknown_Area_Type
  10
269227.886
  20
4635006.272
  0
VERTEX
  8
Unknown_Area_Type
  10
269232.352
  20
4635210.591
  0
VERTEX
  8
Unknown_Area_Type
  10
271858.451
  20
4635210.591
  0
SEQEND
  8
Unknown_Area_Type
  0
INSERT
  8
FeatureAttribs
  2
FEATURE
  41
1
  42
1
  43
1
  50
0
  10
270524.387
  20
4634180.270
 66
1
  0
ATTRIB
  8
FeatureAttribs
 70
0
  1
PNOA-H_AMS_1956-57_33k_ES_PAN_2
  2
NAME
  10
270524.387
  20
4634180.270
 40
34.29208
  0
SEQEND
  0
POLYLINE
  8
Unknown_Area_Type
  70
1
  66
1
  0
VERTEX
  8
Unknown_Area_Type
  10
271859.318
  20
4634921.634
  0
VERTEX
  8
Unknown_Area_Type
  10
271863.000
  20
4633694.000
  0
VERTEX
  8
Unknown_Area_Type
  10
271863.000
  20
4633601.000
  0
VERTEX
  8
Unknown_Area_Type
  10
271862.000
  20
4633600.500
  0
VERTEX
  8
Unknown_Area_Type
  10
270567.500
  20
4633218.500
  0
VERTEX
  8
Unknown_Area_Type
  10
269197.000
  20
4633593.000
  0
VERTEX
  8
Unknown_Area_Type
  10
269227.886
  20
4635006.272
  0
VERTEX
  8
Unknown_Area_Type
  10
269918.299
  20
4634983.818
  0
VERTEX
  8
Unknown_Area_Type
  10
271859.318
  20
4634921.634
  0
SEQEND
  8
Unknown_Area_Type
  0
INSERT
  8
FeatureAttribs
  2
FEATURE
  41
1
  42
1
  43
1
  50
0
  10
270524.387
  20
4634180.270
 66
1
  0
ATTRIB
  8
FeatureAttribs
 70
0
  1
PNOA-H_AMS_1956-57_33k_ES_PAN_2
  2
NAME
  10
270524.387
  20
4634180.270
 40
34.29208
  0
SEQEND
  0
POLYLINE
  8
Unknown_Area_Type
  70
1
  66
1
  0
VERTEX
  8
Unknown_Area_Type
  10
271859.318
  20
4634921.634
  0
VERTEX
  8
Unknown_Area_Type
  10
269918.299
  20
4634983.818
  0
VERTEX
  8
Unknown_Area_Type
  10
269227.886
  20
4635006.272
  0
VERTEX
  8
Unknown_Area_Type
  10
269197.000
  20
4633593.000
  0
VERTEX
  8
Unknown_Area_Type
  10
270567.500
  20
4633218.500
  0
VERTEX
  8
Unknown_Area_Type
  10
271862.000
  20
4633600.500
  0
VERTEX
  8
Unknown_Area_Type
  10
271863.000
  20
4633601.000
  0
VERTEX
  8
Unknown_Area_Type
  10
271863.000
  20
4633694.000
  0
VERTEX
  8
Unknown_Area_Type
  10
271859.318
  20
4634921.634
  0
SEQEND
  8
Unknown_Area_Type
  0
INSERT
  8
FeatureAttribs
  2
FEATURE
  41
1
  42
1
  43
1
  50
0
  10
273203.948
  20
4635023.220
 66
1
  0
ATTRIB
  8
FeatureAttribs
 70
0
  1
PNOA-H_AMS_1956-57_33k_ES_PAN_2
  2
NAME
  10
273203.948
  20
4635023.220
 40
34.29208
  0
SEQEND
  0
POLYLINE
  8
Unknown_Area_Type
  70
1
  66
1
  0
VERTEX
  8
Unknown_Area_Type
  10
274543.241
  20
4635210.591
  0
VERTEX
  8
Unknown_Area_Type
  10
274554.882
  20
4634835.848
  0
VERTEX
  8
Unknown_Area_Type
  10
273378.469
  20
4634872.965
  0
VERTEX
  8
Unknown_Area_Type
  10
271859.133
  20
4634921.640
  0
VERTEX
  8
Unknown_Area_Type
  10
271858.286
  20
4635210.591
  0
VERTEX
  8
Unknown_Area_Type
  10
274543.241
  20
4635210.591
  0
SEQEND
  8
Unknown_Area_Type
  0
INSERT
  8
FeatureAttribs
  2
FEATURE
  41
1
  42
1
  43
1
  50
0
  10
273204.053
  20
4634148.290
 66
1
  0
ATTRIB
  8
FeatureAttribs
 70
0
  1
PNOA-H_AMS_1956-57_33k_ES_PAN_2
  2
NAME
  10
273204.053
  20
4634148.290
 40
34.29208
  0
SEQEND
  0
POLYLINE
  8
Unknown_Area_Type
  70
1
  66
1
  0
VERTEX
  8
Unknown_Area_Type
  10
274554.882
  20
4634835.848
  0
VERTEX
  8
Unknown_Area_Type
  10
274592.000
  20
4633641.000
  0
VERTEX
  8
Unknown_Area_Type
  10
273342.000
  20
4633239.500
  0
VERTEX
  8
Unknown_Area_Type
  10
271863.000
  20
4633601.000
  0
VERTEX
  8
Unknown_Area_Type
  10
271859.133
  20
4634921.640
  0
VERTEX
  8
Unknown_Area_Type
  10
273378.469
  20
4634872.965
  0
VERTEX
  8
Unknown_Area_Type
  10
274554.882
  20
4634835.848
  0
SEQEND
  8
Unknown_Area_Type
  0
INSERT
  8
FeatureAttribs
  2
FEATURE
  41
1
  42
1
  43
1
  50
0
  10
273204.053
  20
4634148.290
 66
1
  0
ATTRIB
  8
FeatureAttribs
 70
0
  1
PNOA-H_AMS_1956-57_33k_ES_PAN_2
  2
NAME
  10
273204.053
  20
4634148.290
 40
34.29208
  0
SEQEND
  0
POLYLINE
  8
Unknown_Area_Type
  70
1
  66
1
  0
VERTEX
  8
Unknown_Area_Type
  10
274554.882
  20
4634835.848
  0
VERTEX
  8
Unknown_Area_Type
  10
273378.469
  20
4634872.965
  0
VERTEX
  8
Unknown_Area_Type
  10
271859.133
  20
4634921.640
  0
VERTEX
  8
Unknown_Area_Type
  10
271863.000
  20
4633601.000
  0
VERTEX
  8
Unknown_Area_Type
  10
273342.000
  20
4633239.500
  0
VERTEX
  8
Unknown_Area_Type
  10
274592.000
  20
4633641.000
  0
VERTEX
  8
Unknown_Area_Type
  10
274554.882
  20
4634835.848
  0
SEQEND
  8
Unknown_Area_Type
  0
INSERT
  8
FeatureAttribs
  2
FEATURE
  41
1
  42
1
  43
1
  50
0
  10
281174.101
  20
4634899.168
 66
1
  0
ATTRIB
  8
FeatureAttribs
 70
0
  1
PNOA-H_AMS_1956-57_33k_ES_PAN_2
  2
NAME
  10
281174.101
  20
4634899.168
 40
34.29208
  0
SEQEND
  0
POLYLINE
  8
Unknown_Area_Type
  70
1
  66
1
  0
VERTEX
  8
Unknown_Area_Type
  10
282536.301
  20
4635210.591
  0
VERTEX
  8
Unknown_Area_Type
  10
282540.964
  20
4634587.744
  0
VERTEX
  8
Unknown_Area_Type
  10
280298.769
  20
4634656.307
  0
VERTEX
  8
Unknown_Area_Type
  10
279807.274
  20
4634671.575
  0
VERTEX
  8
Unknown_Area_Type
  10
279812.712
  20
4635210.591
  0
VERTEX
  8
Unknown_Area_Type
  10
282536.301
  20
4635210.591
  0
SEQEND
  8
Unknown_Area_Type
  0
INSERT
  8
FeatureAttribs
  2
FEATURE
  41
1
  42
1
  43
1
  50
0
  10
281185.863
  20
4634020.088
 66
1
  0
ATTRIB
  8
FeatureAttribs
 70
0
  1
PNOA-H_AMS_1956-57_33k_ES_PAN_2
  2
NAME
  10
281185.863
  20
4634020.088
 40
34.29208
  0
SEQEND
  0
POLYLINE
  8
Unknown_Area_Type
  70
1
  66
1
  0
VERTEX
  8
Unknown_Area_Type
  10
282540.964
  20
4634587.744
  0
VERTEX
  8
Unknown_Area_Type
  10
282548.500
  20
4633581.000
  0
VERTEX
  8
Unknown_Area_Type
  10
281683.500
  20
4633244.000
  0
VERTEX
  8
Unknown_Area_Type
  10
279796.500
  20
4633603.500
  0
VERTEX
  8
Unknown_Area_Type
  10
279807.274
  20
4634671.575
  0
VERTEX
  8
Unknown_Area_Type
  10
280298.769
  20
4634656.307
  0
VERTEX
  8
Unknown_Area_Type
  10
282540.964
  20
4634587.744
  0
SEQEND
  8
Unknown_Area_Type
  0
INSERT
  8
FeatureAttribs
  2
FEATURE
  41
1
  42
1
  43
1
  50
0
  10
281185.863
  20
4634020.088
 66
1
  0
ATTRIB
  8
FeatureAttribs
 70
0
  1
PNOA-H_AMS_1956-57_33k_ES_PAN_2
  2
NAME
  10
281185.863
  20
4634020.088
 40
34.29208
  0
SEQEND
  0
POLYLINE
  8
Unknown_Area_Type
  70
1
  66
1
  0
VERTEX
  8
Unknown_Area_Type
  10
282540.964
  20
4634587.744
  0
VERTEX
  8
Unknown_Area_Type
  10
280298.769
  20
4634656.307
  0
VERTEX
  8
Unknown_Area_Type
  10
279807.274
  20
4634671.575
  0
VERTEX
  8
Unknown_Area_Type
  10
279796.500
  20
4633603.500
  0
VERTEX
  8
Unknown_Area_Type
  10
281683.500
  20
4633244.000
  0
VERTEX
  8
Unknown_Area_Type
  10
282548.500
  20
4633581.000
  0
VERTEX
  8
Unknown_Area_Type
  10
282540.964
  20
4634587.744
  0
SEQEND
  8
Unknown_Area_Type
  0
INSERT
  8
FeatureAttribs
  2
FEATURE
  41
1
  42
1
  43
1
  50
0
  10
265677.416
  20
4635151.646
 66
1
  0
ATTRIB
  8
FeatureAttribs
 70
0
  1
PNOA-H_AMS_1956-57_33k_ES_PAN_2
  2
NAME
  10
265677.416
  20
4635151.646
 40
34.29208
  0
SEQEND
  0
POLYLINE
  8
Unknown_Area_Type
  70
1
  66
1
  0
VERTEX
  8
Unknown_Area_Type
  10
266573.116
  20
4635210.591
  0
VERTEX
  8
Unknown_Area_Type
  10
266570.434
  20
4635092.701
  0
VERTEX
  8
Unknown_Area_Type
  10
266458.116
  20
4635096.354
  0
VERTEX
  8
Unknown_Area_Type
  10
263868.368
  20
4635181.839
  0
VERTEX
  8
Unknown_Area_Type
  10
263868.413
  20
4635210.591
  0
VERTEX
  8
Unknown_Area_Type
  10
266573.116
  20
4635210.591
  0
SEQEND
  8
Unknown_Area_Type
  0
INSERT
  8
FeatureAttribs
  2
FEATURE
  41
1
  42
1
  43
1
  50
0
  10
265195.429
  20
4634306.229
 66
1
  0
ATTRIB
  8
FeatureAttribs
 70
0
  1
PNOA-H_AMS_1956-57_33k_ES_PAN_2
  2
NAME
  10
265195.429
  20
4634306.229
 40
34.29208
  0
SEQEND
  0
POLYLINE
  8
Unknown_Area_Type
  70
1
  66
1
  0
VERTEX
  8
Unknown_Area_Type
  10
266570.434
  20
4635092.701
  0
VERTEX
  8
Unknown_Area_Type
  10
266537.500
  20
4633645.000
  0
VERTEX
  8
Unknown_Area_Type
  10
265046.000
  20
4633300.000
  0
VERTEX
  8
Unknown_Area_Type
  10
265040.000
  20
4633299.500
  0
VERTEX
  8
Unknown_Area_Type
  10
263866.000
  20
4633671.000
  0
VERTEX
  8
Unknown_Area_Type
  10
263868.368
  20
4635181.839
  0
VERTEX
  8
Unknown_Area_Type
  10
266458.116
  20
4635096.354
  0
VERTEX
  8
Unknown_Area_Type
  10
266570.434
  20
4635092.701
  0
SEQEND
  8
Unknown_Area_Type
  0
INSERT
  8
FeatureAttribs
  2
FEATURE
  41
1
  42
1
  43
1
  50
0
  10
265195.429
  20
4634306.229
 66
1
  0
ATTRIB
  8
FeatureAttribs
 70
0
  1
PNOA-H_AMS_1956-57_33k_ES_PAN_2
  2
NAME
  10
265195.429
  20
4634306.229
 40
34.29208
  0
SEQEND
  0
POLYLINE
  8
Unknown_Area_Type
  70
1
  66
1
  0
VERTEX
  8
Unknown_Area_Type
  10
266570.434
  20
4635092.701
  0
VERTEX
  8
Unknown_Area_Type
  10
266458.116
  20
4635096.354
  0
VERTEX
  8
Unknown_Area_Type
  10
263868.368
  20
4635181.839
  0
VERTEX
  8
Unknown_Area_Type
  10
263866.000
  20
4633671.000
  0
VERTEX
  8
Unknown_Area_Type
  10
265040.000
  20
4633299.500
  0
VERTEX
  8
Unknown_Area_Type
  10
265046.000
  20
4633300.000
  0
VERTEX
  8
Unknown_Area_Type
  10
266537.500
  20
4633645.000
  0
VERTEX
  8
Unknown_Area_Type
  10
266570.434
  20
4635092.701
  0
SEQEND
  8
Unknown_Area_Type
  0
INSERT
  8
FeatureAttribs
  2
FEATURE
  41
1
  42
1
  43
1
  50
0
  10
290585.121
  20
4634777.264
 66
1
  0
ATTRIB
  8
FeatureAttribs
 70
0
  1
PNOA-H_AMS_1956-57_33k_ES_PAN_2
  2
NAME
  10
290585.121
  20
4634777.264
 40
34.29208
  0
SEQEND
  0
POLYLINE
  8
Unknown_Area_Type
  70
1
  66
1
  0
VERTEX
  8
Unknown_Area_Type
  10
290507.528
  20
4635210.591
  0
VERTEX
  8
Unknown_Area_Type
  10
290679.150
  20
4635210.591
  0
VERTEX
  8
Unknown_Area_Type
  10
290679.150
  20
4634344.900
  0
VERTEX
  8
Unknown_Area_Type
  10
290679.122
  20
4634343.936
  0
VERTEX
  8
Unknown_Area_Type
  10
290474.884
  20
4634349.983
  0
VERTEX
  8
Unknown_Area_Type
  10
290507.528
  20
4635210.591
  0
SEQEND
  8
Unknown_Area_Type
  0
INSERT
  8
FeatureAttribs
  2
FEATURE
  41
1
  42
1
  43
1
  50
0
  10
290679.136
  20
4634344.177
 66
1
  0
ATTRIB
  8
FeatureAttribs
 70
0
  1
PNOA-H_AMS_1956-57_33k_ES_PAN_2
  2
NAME
  10
290679.136
  20
4634344.177
 40
34.29208
  0
SEQEND
  0
POLYLINE
  8
Unknown_Area_Type
  70
1
  66
1
  0
VERTEX
  8
Unknown_Area_Type
  10
290679.150
  20
4634344.900
  0
VERTEX
  8
Unknown_Area_Type
  10
290679.150
  20
4634343.935
  0
VERTEX
  8
Unknown_Area_Type
  10
290679.122
  20
4634343.936
  0
VERTEX
  8
Unknown_Area_Type
  10
290679.150
  20
4634344.900
  0
SEQEND
  8
Unknown_Area_Type
  0
INSERT
  8
FeatureAttribs
  2
FEATURE
  41
1
  42
1
  43
1
  50
0
  10
290672.417
  20
4633886.190
 66
1
  0
ATTRIB
  8
FeatureAttribs
 70
0
  1
PNOA-H_AMS_1956-57_33k_ES_PAN_2
  2
NAME
  10
290672.417
  20
4633886.190
 40
34.29208
  0
SEQEND
  0
POLYLINE
  8
Unknown_Area_Type
  70
1
  66
1
  0
VERTEX
  8
Unknown_Area_Type
  10
290679.150
  20
4633428.444
  0
VERTEX
  8
Unknown_Area_Type
  10
290652.295
  20
4633430.138
  0
VERTEX
  8
Unknown_Area_Type
  10
290679.122
  20
4634343.936
  0
VERTEX
  8
Unknown_Area_Type
  10
290679.150
  20
4634343.935
  0
VERTEX
  8
Unknown_Area_Type
  10
290679.150
  20
4633428.444
  0
SEQEND
  8
Unknown_Area_Type
  0
INSERT
  8
FeatureAttribs
  2
FEATURE
  41
1
  42
1
  43
1
  50
0
  10
290561.737
  20
4633889.043
 66
1
  0
ATTRIB
  8
FeatureAttribs
 70
0
  1
PNOA-H_AMS_1956-57_33k_ES_PAN_2
  2
NAME
  10
290561.737
  20
4633889.043
 40
34.29208
  0
SEQEND
  0
POLYLINE
  8
Unknown_Area_Type
  70
1
  66
1
  0
VERTEX
  8
Unknown_Area_Type
  10
290652.295
  20
4633430.138
  0
VERTEX
  8
Unknown_Area_Type
  10
290440.500
  20
4633443.500
  0
VERTEX
  8
Unknown_Area_Type
  10
290474.884
  20
4634349.983
  0
VERTEX
  8
Unknown_Area_Type
  10
290679.122
  20
4634343.936
  0
VERTEX
  8
Unknown_Area_Type
  10
290652.295
  20
4633430.138
  0
SEQEND
  8
Unknown_Area_Type
  0
INSERT
  8
FeatureAttribs
  2
FEATURE
  41
1
  42
1
  43
1
  50
0
  10
290561.737
  20
4633889.043
 66
1
  0
ATTRIB
  8
FeatureAttribs
 70
0
  1
PNOA-H_AMS_1956-57_33k_ES_PAN_2
  2
NAME
  10
290561.737
  20
4633889.043
 40
34.29208
  0
SEQEND
  0
POLYLINE
  8
Unknown_Area_Type
  70
1
  66
1
  0
VERTEX
  8
Unknown_Area_Type
  10
290652.295
  20
4633430.138
  0
VERTEX
  8
Unknown_Area_Type
  10
290679.122
  20
4634343.936
  0
VERTEX
  8
Unknown_Area_Type
  10
290474.884
  20
4634349.983
  0
VERTEX
  8
Unknown_Area_Type
  10
290440.500
  20
4633443.500
  0
VERTEX
  8
Unknown_Area_Type
  10
290652.295
  20
4633430.138
  0
SEQEND
  8
Unknown_Area_Type
  0
INSERT
  8
FeatureAttribs
  2
FEATURE
  41
1
  42
1
  43
1
  50
0
  10
262428.582
  20
4623734.964
 66
1
  0
ATTRIB
  8
FeatureAttribs
 70
0
  1
PNOA-H_AMS_1956-57_33k_ES_PAN_2
  2
NAME
  10
262428.582
  20
4623734.964
 40
34.29208
  0
SEQEND
  0
POLYLINE
  8
Unknown_Area_Type
  70
1
  66
1
  0
VERTEX
  8
Unknown_Area_Type
  10
262383.502
  20
4624938.802
  0
VERTEX
  8
Unknown_Area_Type
  10
262562.000
  20
4624914.500
  0
VERTEX
  8
Unknown_Area_Type
  10
262383.502
  20
4622531.125
  0
VERTEX
  8
Unknown_Area_Type
  10
262383.502
  20
4624938.802
  0
SEQEND
  8
Unknown_Area_Type
  0
INSERT
  8
FeatureAttribs
  2
FEATURE
  41
1
  42
1
  43
1
  50
0
  10
262886.221
  20
4627040.382
 66
1
  0
ATTRIB
  8
FeatureAttribs
 70
0
  1
PNOA-H_AMS_1956-57_33k_ES_PAN_2
  2
NAME
  10
262886.221
  20
4627040.382
 40
34.29208
  0
SEQEND
  0
POLYLINE
  8
Unknown_Area_Type
  70
1
  66
1
  0
VERTEX
  8
Unknown_Area_Type
  10
262795.696
  20
4629125.745
  0
VERTEX
  8
Unknown_Area_Type
  10
263076.500
  20
4628973.000
  0
VERTEX
  8
Unknown_Area_Type
  10
263015.500
  20
4625107.500
  0
VERTEX
  8
Unknown_Area_Type
  10
262657.208
  20
4624955.019
  0
VERTEX
  8
Unknown_Area_Type
  10
262690.472
  20
4625957.204
  0
VERTEX
  8
Unknown_Area_Type
  10
262767.287
  20
4628270.536
  0
VERTEX
  8
Unknown_Area_Type
  10
262795.696
  20
4629125.745
  0
SEQEND
  8
Unknown_Area_Type
  0
INSERT
  8
FeatureAttribs
  2
FEATURE
  41
1
  42
1
  43
1
  50
0
  10
262886.221
  20
4627040.382
 66
1
  0
ATTRIB
  8
FeatureAttribs
 70
0
  1
PNOA-H_AMS_1956-57_33k_ES_PAN_2
  2
NAME
  10
262886.221
  20
4627040.382
 40
34.29208
  0
SEQEND
  0
POLYLINE
  8
Unknown_Area_Type
  70
1
  66
1
  0
VERTEX
  8
Unknown_Area_Type
  10
262795.696
  20
4629125.745
  0
VERTEX
  8
Unknown_Area_Type
  10
263076.500
  20
4628973.000
  0
VERTEX
  8
Unknown_Area_Type
  10
263015.500
  20
4625107.500
  0
VERTEX
  8
Unknown_Area_Type
  10
262657.208
  20
4624955.019
  0
VERTEX
  8
Unknown_Area_Type
  10
262690.472
  20
4625957.204
  0
VERTEX
  8
Unknown_Area_Type
  10
262767.287
  20
4628270.536
  0
VERTEX
  8
Unknown_Area_Type
  10
262795.696
  20
4629125.745
  0
SEQEND
  8
Unknown_Area_Type
  0
INSERT
  8
FeatureAttribs
  2
FEATURE
  41
1
  42
1
  43
1
  50
0
  10
262556.496
  20
4627132.230
 66
1
  0
ATTRIB
  8
FeatureAttribs
 70
0
  1
PNOA-H_AMS_1956-57_33k_ES_PAN_2
  2
NAME
  10
262556.496
  20
4627132.230
 40
34.29208
  0
SEQEND
  0
POLYLINE
  8
Unknown_Area_Type
  70
1
  66
1
  0
VERTEX
  8
Unknown_Area_Type
  10
262795.696
  20
4629125.745
  0
VERTEX
  8
Unknown_Area_Type
  10
262767.287
  20
4628270.536
  0
VERTEX
  8
Unknown_Area_Type
  10
262690.472
  20
4625957.204
  0
VERTEX
  8
Unknown_Area_Type
  10
262657.208
  20
4624955.019
  0
VERTEX
  8
Unknown_Area_Type
  10
262562.000
  20
4624914.500
  0
VERTEX
  8
Unknown_Area_Type
  10
262383.502
  20
4624938.771
  0
VERTEX
  8
Unknown_Area_Type
  10
262383.502
  20
4629349.960
  0
VERTEX
  8
Unknown_Area_Type
  10
262795.696
  20
4629125.745
  0
SEQEND
  8
Unknown_Area_Type
  0
INSERT
  8
FeatureAttribs
  2
FEATURE
  41
1
  42
1
  43
1
  50
0
  10
290502.177
  20
4622278.055
 66
1
  0
ATTRIB
  8
FeatureAttribs
 70
0
  1
PNOA-H_AMS_1956-57_33k_ES_PAN_2
  2
NAME
  10
290502.177
  20
4622278.055
 40
34.29208
  0
SEQEND
  0
POLYLINE
  8
Unknown_Area_Type
  70
1
  66
1
  0
VERTEX
  8
Unknown_Area_Type
  10
290679.150
  20
4619925.636
  0
VERTEX
  8
Unknown_Area_Type
  10
290255.648
  20
4619903.739
  0
VERTEX
  8
Unknown_Area_Type
  10
290272.066
  20
4620464.352
  0
VERTEX
  8
Unknown_Area_Type
  10
290339.839
  20
4622777.599
  0
VERTEX
  8
Unknown_Area_Type
  10
290392.958
  20
4624589.935
  0
VERTEX
  8
Unknown_Area_Type
  10
290679.150
  20
4624652.371
  0
VERTEX
  8
Unknown_Area_Type
  10
290679.150
  20
4619925.636
  0
SEQEND
  8
Unknown_Area_Type
  0
INSERT
  8
FeatureAttribs
  2
FEATURE
  41
1
  42
1
  43
1
  50
0
  10
289659.237
  20
4622201.644
 66
1
  0
ATTRIB
  8
FeatureAttribs
 70
0
  1
PNOA-H_AMS_1956-57_33k_ES_PAN_2
  2
NAME
  10
289659.237
  20
4622201.644
 40
34.29208
  0
SEQEND
  0
POLYLINE
  8
Unknown_Area_Type
  70
1
  66
1
  0
VERTEX
  8
Unknown_Area_Type
  10
290255.648
  20
4619903.739
  0
VERTEX
  8
Unknown_Area_Type
  10
289197.000
  20
4619849.000
  0
VERTEX
  8
Unknown_Area_Type
  10
289188.500
  20
4619849.000
  0
VERTEX
  8
Unknown_Area_Type
  10
289186.500
  20
4619850.000
  0
VERTEX
  8
Unknown_Area_Type
  10
288989.000
  20
4619956.500
  0
VERTEX
  8
Unknown_Area_Type
  10
288970.000
  20
4624279.500
  0
VERTEX
  8
Unknown_Area_Type
  10
290392.958
  20
4624589.935
  0
VERTEX
  8
Unknown_Area_Type
  10
290339.839
  20
4622777.599
  0
VERTEX
  8
Unknown_Area_Type
  10
290272.066
  20
4620464.352
  0
VERTEX
  8
Unknown_Area_Type
  10
290255.648
  20
4619903.739
  0
SEQEND
  8
Unknown_Area_Type
  0
INSERT
  8
FeatureAttribs
  2
FEATURE
  41
1
  42
1
  43
1
  50
0
  10
289659.237
  20
4622201.644
 66
1
  0
ATTRIB
  8
FeatureAttribs
 70
0
  1
PNOA-H_AMS_1956-57_33k_ES_PAN_2
  2
NAME
  10
289659.237
  20
4622201.644
 40
34.29208
  0
SEQEND
  0
POLYLINE
  8
Unknown_Area_Type
  70
1
  66
1
  0
VERTEX
  8
Unknown_Area_Type
  10
290255.648
  20
4619903.739
  0
VERTEX
  8
Unknown_Area_Type
  10
290272.066
  20
4620464.352
  0
VERTEX
  8
Unknown_Area_Type
  10
290339.839
  20
4622777.599
  0
VERTEX
  8
Unknown_Area_Type
  10
290392.958
  20
4624589.935
  0
VERTEX
  8
Unknown_Area_Type
  10
288970.000
  20
4624279.500
  0
VERTEX
  8
Unknown_Area_Type
  10
288989.000
  20
4619956.500
  0
VERTEX
  8
Unknown_Area_Type
  10
289186.500
  20
4619850.000
  0
VERTEX
  8
Unknown_Area_Type
  10
289188.500
  20
4619849.000
  0
VERTEX
  8
Unknown_Area_Type
  10
289197.000
  20
4619849.000
  0
VERTEX
  8
Unknown_Area_Type
  10
290255.648
  20
4619903.739
  0
SEQEND
  8
Unknown_Area_Type
  0
INSERT
  8
FeatureAttribs
  2
FEATURE
  41
1
  42
1
  43
1
  50
0
  10
287659.456
  20
4622242.272
 66
1
  0
ATTRIB
  8
FeatureAttribs
 70
0
  1
PNOA-H_AMS_1956-57_33k_ES_PAN_2
  2
NAME
  10
287659.456
  20
4622242.272
 40
34.29208
  0
SEQEND
  0
POLYLINE
  8
Unknown_Area_Type
  70
1
  66
1
  0
VERTEX
  8
Unknown_Area_Type
  10
286353.500
  20
4624328.000
  0
VERTEX
  8
Unknown_Area_Type
  10
287949.500
  20
4624706.000
  0
VERTEX
  8
Unknown_Area_Type
  10
287965.500
  20
4624709.000
  0
VERTEX
  8
Unknown_Area_Type
  10
288970.000
  20
4624279.500
  0
VERTEX
  8
Unknown_Area_Type
  10
288989.000
  20
4619956.500
  0
VERTEX
  8
Unknown_Area_Type
  10
286391.000
  20
4619944.000
  0
VERTEX
  8
Unknown_Area_Type
  10
286282.000
  20
4624306.500
  0
VERTEX
  8
Unknown_Area_Type
  10
286282.000
  20
4624311.000
  0
VERTEX
  8
Unknown_Area_Type
  10
286351.500
  20
4624327.500
  0
VERTEX
  8
Unknown_Area_Type
  10
286353.500
  20
4624328.000
  0
SEQEND
  8
Unknown_Area_Type
  0
INSERT
  8
FeatureAttribs
  2
FEATURE
  41
1
  42
1
  43
1
  50
0
  10
287659.456
  20
4622242.272
 66
1
  0
ATTRIB
  8
FeatureAttribs
 70
0
  1
PNOA-H_AMS_1956-57_33k_ES_PAN_2
  2
NAME
  10
287659.456
  20
4622242.272
 40
34.29208
  0
SEQEND
  0
POLYLINE
  8
Unknown_Area_Type
  70
1
  66
1
  0
VERTEX
  8
Unknown_Area_Type
  10
286353.500
  20
4624328.000
  0
VERTEX
  8
Unknown_Area_Type
  10
286351.500
  20
4624327.500
  0
VERTEX
  8
Unknown_Area_Type
  10
286282.000
  20
4624311.000
  0
VERTEX
  8
Unknown_Area_Type
  10
286282.000
  20
4624306.500
  0
VERTEX
  8
Unknown_Area_Type
  10
286391.000
  20
4619944.000
  0
VERTEX
  8
Unknown_Area_Type
  10
288989.000
  20
4619956.500
  0
VERTEX
  8
Unknown_Area_Type
  10
288970.000
  20
4624279.500
  0
VERTEX
  8
Unknown_Area_Type
  10
287965.500
  20
4624709.000
  0
VERTEX
  8
Unknown_Area_Type
  10
287949.500
  20
4624706.000
  0
VERTEX
  8
Unknown_Area_Type
  10
286353.500
  20
4624328.000
  0
SEQEND
  8
Unknown_Area_Type
  0
INSERT
  8
FeatureAttribs
  2
FEATURE
  41
1
  42
1
  43
1
  50
0
  10
279697.729
  20
4622206.291
 66
1
  0
ATTRIB
  8
FeatureAttribs
 70
0
  1
PNOA-H_AMS_1956-57_33k_ES_PAN_2
  2
NAME
  10
279697.729
  20
4622206.291
 40
34.29208
  0
SEQEND
  0
POLYLINE
  8
Unknown_Area_Type
  70
1
  66
1
  0
VERTEX
  8
Unknown_Area_Type
  10
280210.000
  20
4624587.000
  0
VERTEX
  8
Unknown_Area_Type
  10
280991.000
  20
4624327.000
  0
VERTEX
  8
Unknown_Area_Type
  10
281067.500
  20
4620032.500
  0
VERTEX
  8
Unknown_Area_Type
  10
280570.500
  20
4619787.500
  0
VERTEX
  8
Unknown_Area_Type
  10
278321.000
  20
4620014.500
  0
VERTEX
  8
Unknown_Area_Type
  10
278392.000
  20
4624371.000
  0
VERTEX
  8
Unknown_Area_Type
  10
279695.500
  20
4624758.000
  0
VERTEX
  8
Unknown_Area_Type
  10
279698.000
  20
4624758.000
  0
VERTEX
  8
Unknown_Area_Type
  10
280208.500
  20
4624587.500
  0
VERTEX
  8
Unknown_Area_Type
  10
280210.000
  20
4624587.000
  0
SEQEND
  8
Unknown_Area_Type
  0
INSERT
  8
FeatureAttribs
  2
FEATURE
  41
1
  42
1
  43
1
  50
0
  10
279697.729
  20
4622206.291
 66
1
  0
ATTRIB
  8
FeatureAttribs
 70
0
  1
PNOA-H_AMS_1956-57_33k_ES_PAN_2
  2
NAME
  10
279697.729
  20
4622206.291
 40
34.29208
  0
SEQEND
  0
POLYLINE
  8
Unknown_Area_Type
  70
1
  66
1
  0
VERTEX
  8
Unknown_Area_Type
  10
280210.000
  20
4624587.000
  0
VERTEX
  8
Unknown_Area_Type
  10
280208.500
  20
4624587.500
  0
VERTEX
  8
Unknown_Area_Type
  10
279698.000
  20
4624758.000
  0
VERTEX
  8
Unknown_Area_Type
  10
279695.500
  20
4624758.000
  0
VERTEX
  8
Unknown_Area_Type
  10
278392.000
  20
4624371.000
  0
VERTEX
  8
Unknown_Area_Type
  10
278321.000
  20
4620014.500
  0
VERTEX
  8
Unknown_Area_Type
  10
280570.500
  20
4619787.500
  0
VERTEX
  8
Unknown_Area_Type
  10
281067.500
  20
4620032.500
  0
VERTEX
  8
Unknown_Area_Type
  10
280991.000
  20
4624327.000
  0
VERTEX
  8
Unknown_Area_Type
  10
280210.000
  20
4624587.000
  0
SEQEND
  8
Unknown_Area_Type
  0
INSERT
  8
FeatureAttribs
  2
FEATURE
  41
1
  42
1
  43
1
  50
0
  10
282374.346
  20
4622203.729
 66
1
  0
ATTRIB
  8
FeatureAttribs
 70
0
  1
PNOA-H_AMS_1956-57_33k_ES_PAN_2
  2
NAME
  10
282374.346
  20
4622203.729
 40
34.29208
  0
SEQEND
  0
POLYLINE
  8
Unknown_Area_Type
  70
1
  66
1
  0
VERTEX
  8
Unknown_Area_Type
  10
282434.500
  20
4624694.500
  0
VERTEX
  8
Unknown_Area_Type
  10
282445.500
  20
4624692.000
  0
VERTEX
  8
Unknown_Area_Type
  10
283619.000
  20
4624314.000
  0
VERTEX
  8
Unknown_Area_Type
  10
283632.000
  20
4624309.000
  0
VERTEX
  8
Unknown_Area_Type
  10
283771.500
  20
4619988.000
  0
VERTEX
  8
Unknown_Area_Type
  10
283437.000
  20
4619809.000
  0
VERTEX
  8
Unknown_Area_Type
  10
281067.500
  20
4620032.000
  0
VERTEX
  8
Unknown_Area_Type
  10
281067.000
  20
4620034.000
  0
VERTEX
  8
Unknown_Area_Type
  10
280991.000
  20
4624327.000
  0
VERTEX
  8
Unknown_Area_Type
  10
282433.000
  20
4624694.000
  0
VERTEX
  8
Unknown_Area_Type
  10
282434.500
  20
4624694.500
  0
SEQEND
  8
Unknown_Area_Type
  0
INSERT
  8
FeatureAttribs
  2
FEATURE
  41
1
  42
1
  43
1
  50
0
  10
282374.346
  20
4622203.729
 66
1
  0
ATTRIB
  8
FeatureAttribs
 70
0
  1
PNOA-H_AMS_1956-57_33k_ES_PAN_2
  2
NAME
  10
282374.346
  20
4622203.729
 40
34.29208
  0
SEQEND
  0
POLYLINE
  8
Unknown_Area_Type
  70
1
  66
1
  0
VERTEX
  8
Unknown_Area_Type
  10
282434.500
  20
4624694.500
  0
VERTEX
  8
Unknown_Area_Type
  10
282433.000
  20
4624694.000
  0
VERTEX
  8
Unknown_Area_Type
  10
280991.000
  20
4624327.000
  0
VERTEX
  8
Unknown_Area_Type
  10
281067.000
  20
4620034.000
  0
VERTEX
  8
Unknown_Area_Type
  10
281067.500
  20
4620032.000
  0
VERTEX
  8
Unknown_Area_Type
  10
283437.000
  20
4619809.000
  0
VERTEX
  8
Unknown_Area_Type
  10
283771.500
  20
4619988.000
  0
VERTEX
  8
Unknown_Area_Type
  10
283632.000
  20
4624309.000
  0
VERTEX
  8
Unknown_Area_Type
  10
283619.000
  20
4624314.000
  0
VERTEX
  8
Unknown_Area_Type
  10
282445.500
  20
4624692.000
  0
VERTEX
  8
Unknown_Area_Type
  10
282434.500
  20
4624694.500
  0
SEQEND
  8
Unknown_Area_Type
  0
INSERT
  8
FeatureAttribs
  2
FEATURE
  41
1
  42
1
  43
1
  50
0
  10
285023.268
  20
4622241.906
 66
1
  0
ATTRIB
  8
FeatureAttribs
 70
0
  1
PNOA-H_AMS_1956-57_33k_ES_PAN_2
  2
NAME
  10
285023.268
  20
4622241.906
 40
34.29208
  0
SEQEND
  0
POLYLINE
  8
Unknown_Area_Type
  70
1
  66
1
  0
VERTEX
  8
Unknown_Area_Type
  10
286354.000
  20
4621424.000
  0
VERTEX
  8
Unknown_Area_Type
  10
286391.000
  20
4619962.500
  0
VERTEX
  8
Unknown_Area_Type
  10
286391.000
  20
4619944.000
  0
VERTEX
  8
Unknown_Area_Type
  10
286389.000
  20
4619942.500
  0
VERTEX
  8
Unknown_Area_Type
  10
286335.000
  20
4619913.000
  0
VERTEX
  8
Unknown_Area_Type
  10
286321.000
  20
4619913.000
  0
VERTEX
  8
Unknown_Area_Type
  10
283771.500
  20
4619988.000
  0
VERTEX
  8
Unknown_Area_Type
  10
283631.500
  20
4624309.000
  0
VERTEX
  8
Unknown_Area_Type
  10
283654.000
  20
4624316.000
  0
VERTEX
  8
Unknown_Area_Type
  10
285169.000
  20
4624731.500
  0
VERTEX
  8
Unknown_Area_Type
  10
285176.000
  20
4624730.000
  0
VERTEX
  8
Unknown_Area_Type
  10
286282.000
  20
4624311.000
  0
VERTEX
  8
Unknown_Area_Type
  10
286354.000
  20
4621444.000
  0
VERTEX
  8
Unknown_Area_Type
  10
286354.000
  20
4621424.000
  0
SEQEND
  8
Unknown_Area_Type
  0
INSERT
  8
FeatureAttribs
  2
FEATURE
  41
1
  42
1
  43
1
  50
0
  10
285023.268
  20
4622241.906
 66
1
  0
ATTRIB
  8
FeatureAttribs
 70
0
  1
PNOA-H_AMS_1956-57_33k_ES_PAN_2
  2
NAME
  10
285023.268
  20
4622241.906
 40
34.29208
  0
SEQEND
  0
POLYLINE
  8
Unknown_Area_Type
  70
1
  66
1
  0
VERTEX
  8
Unknown_Area_Type
  10
286354.000
  20
4621424.000
  0
VERTEX
  8
Unknown_Area_Type
  10
286354.000
  20
4621444.000
  0
VERTEX
  8
Unknown_Area_Type
  10
286282.000
  20
4624311.000
  0
VERTEX
  8
Unknown_Area_Type
  10
285176.000
  20
4624730.000
  0
VERTEX
  8
Unknown_Area_Type
  10
285169.000
  20
4624731.500
  0
VERTEX
  8
Unknown_Area_Type
  10
283654.000
  20
4624316.000
  0
VERTEX
  8
Unknown_Area_Type
  10
283631.500
  20
4624309.000
  0
VERTEX
  8
Unknown_Area_Type
  10
283771.500
  20
4619988.000
  0
VERTEX
  8
Unknown_Area_Type
  10
286321.000
  20
4619913.000
  0
VERTEX
  8
Unknown_Area_Type
  10
286335.000
  20
4619913.000
  0
VERTEX
  8
Unknown_Area_Type
  10
286389.000
  20
4619942.500
  0
VERTEX
  8
Unknown_Area_Type
  10
286391.000
  20
4619944.000
  0
VERTEX
  8
Unknown_Area_Type
  10
286391.000
  20
4619962.500
  0
VERTEX
  8
Unknown_Area_Type
  10
286354.000
  20
4621424.000
  0
SEQEND
  8
Unknown_Area_Type
  0
INSERT
  8
FeatureAttribs
  2
FEATURE
  41
1
  42
1
  43
1
  50
0
  10
274390.891
  20
4622348.563
 66
1
  0
ATTRIB
  8
FeatureAttribs
 70
0
  1
PNOA-H_AMS_1956-57_33k_ES_PAN_2
  2
NAME
  10
274390.891
  20
4622348.563
 40
34.29208
  0
SEQEND
  0
POLYLINE
  8
Unknown_Area_Type
  70
1
  66
1
  0
VERTEX
  8
Unknown_Area_Type
  10
274136.500
  20
4624871.500
  0
VERTEX
  8
Unknown_Area_Type
  10
274153.500
  20
4624868.000
  0
VERTEX
  8
Unknown_Area_Type
  10
275775.000
  20
4624443.000
  0
VERTEX
  8
Unknown_Area_Type
  10
275630.500
  20
4620098.000
  0
VERTEX
  8
Unknown_Area_Type
  10
274954.000
  20
4619819.500
  0
VERTEX
  8
Unknown_Area_Type
  10
274948.500
  20
4619819.000
  0
VERTEX
  8
Unknown_Area_Type
  10
273050.000
  20
4620181.000
  0
VERTEX
  8
Unknown_Area_Type
  10
273098.000
  20
4624542.500
  0
VERTEX
  8
Unknown_Area_Type
  10
274135.000
  20
4624871.000
  0
VERTEX
  8
Unknown_Area_Type
  10
274136.500
  20
4624871.500
  0
SEQEND
  8
Unknown_Area_Type
  0
INSERT
  8
FeatureAttribs
  2
FEATURE
  41
1
  42
1
  43
1
  50
0
  10
274390.891
  20
4622348.563
 66
1
  0
ATTRIB
  8
FeatureAttribs
 70
0
  1
PNOA-H_AMS_1956-57_33k_ES_PAN_2
  2
NAME
  10
274390.891
  20
4622348.563
 40
34.29208
  0
SEQEND
  0
POLYLINE
  8
Unknown_Area_Type
  70
1
  66
1
  0
VERTEX
  8
Unknown_Area_Type
  10
274136.500
  20
4624871.500
  0
VERTEX
  8
Unknown_Area_Type
  10
274135.000
  20
4624871.000
  0
VERTEX
  8
Unknown_Area_Type
  10
273098.000
  20
4624542.500
  0
VERTEX
  8
Unknown_Area_Type
  10
273050.000
  20
4620181.000
  0
VERTEX
  8
Unknown_Area_Type
  10
274948.500
  20
4619819.000
  0
VERTEX
  8
Unknown_Area_Type
  10
274954.000
  20
4619819.500
  0
VERTEX
  8
Unknown_Area_Type
  10
275630.500
  20
4620098.000
  0
VERTEX
  8
Unknown_Area_Type
  10
275775.000
  20
4624443.000
  0
VERTEX
  8
Unknown_Area_Type
  10
274153.500
  20
4624868.000
  0
VERTEX
  8
Unknown_Area_Type
  10
274136.500
  20
4624871.500
  0
SEQEND
  8
Unknown_Area_Type
  0
INSERT
  8
FeatureAttribs
  2
FEATURE
  41
1
  42
1
  43
1
  50
0
  10
271738.653
  20
4622390.028
 66
1
  0
ATTRIB
  8
FeatureAttribs
 70
0
  1
PNOA-H_AMS_1956-57_33k_ES_PAN_2
  2
NAME
  10
271738.653
  20
4622390.028
 40
34.29208
  0
SEQEND
  0
POLYLINE
  8
Unknown_Area_Type
  70
1
  66
1
  0
VERTEX
  8
Unknown_Area_Type
  10
272018.000
  20
4624792.000
  0
VERTEX
  8
Unknown_Area_Type
  10
273098.000
  20
4624542.500
  0
VERTEX
  8
Unknown_Area_Type
  10
273050.000
  20
4620181.000
  0
VERTEX
  8
Unknown_Area_Type
  10
272170.500
  20
4619858.500
  0
VERTEX
  8
Unknown_Area_Type
  10
270366.000
  20
4620242.000
  0
VERTEX
  8
Unknown_Area_Type
  10
270364.500
  20
4620242.500
  0
VERTEX
  8
Unknown_Area_Type
  10
270364.500
  20
4620266.000
  0
VERTEX
  8
Unknown_Area_Type
  10
270436.000
  20
4624590.500
  0
VERTEX
  8
Unknown_Area_Type
  10
271403.500
  20
4624934.500
  0
VERTEX
  8
Unknown_Area_Type
  10
272016.000
  20
4624792.500
  0
VERTEX
  8
Unknown_Area_Type
  10
272018.000
  20
4624792.000
  0
SEQEND
  8
Unknown_Area_Type
  0
INSERT
  8
FeatureAttribs
  2
FEATURE
  41
1
  42
1
  43
1
  50
0
  10
271738.653
  20
4622390.028
 66
1
  0
ATTRIB
  8
FeatureAttribs
 70
0
  1
PNOA-H_AMS_1956-57_33k_ES_PAN_2
  2
NAME
  10
271738.653
  20
4622390.028
 40
34.29208
  0
SEQEND
  0
POLYLINE
  8
Unknown_Area_Type
  70
1
  66
1
  0
VERTEX
  8
Unknown_Area_Type
  10
272018.000
  20
4624792.000
  0
VERTEX
  8
Unknown_Area_Type
  10
272016.000
  20
4624792.500
  0
VERTEX
  8
Unknown_Area_Type
  10
271403.500
  20
4624934.500
  0
VERTEX
  8
Unknown_Area_Type
  10
270436.000
  20
4624590.500
  0
VERTEX
  8
Unknown_Area_Type
  10
270364.500
  20
4620266.000
  0
VERTEX
  8
Unknown_Area_Type
  10
270364.500
  20
4620242.500
  0
VERTEX
  8
Unknown_Area_Type
  10
270366.000
  20
4620242.000
  0
VERTEX
  8
Unknown_Area_Type
  10
272170.500
  20
4619858.500
  0
VERTEX
  8
Unknown_Area_Type
  10
273050.000
  20
4620181.000
  0
VERTEX
  8
Unknown_Area_Type
  10
273098.000
  20
4624542.500
  0
VERTEX
  8
Unknown_Area_Type
  10
272018.000
  20
4624792.000
  0
SEQEND
  8
Unknown_Area_Type
  0
INSERT
  8
FeatureAttribs
  2
FEATURE
  41
1
  42
1
  43
1
  50
0
  10
266367.851
  20
4622500.848
 66
1
  0
ATTRIB
  8
FeatureAttribs
 70
0
  1
PNOA-H_AMS_1956-57_33k_ES_PAN_2
  2
NAME
  10
266367.851
  20
4622500.848
 40
34.29208
  0
SEQEND
  0
POLYLINE
  8
Unknown_Area_Type
  70
1
  66
1
  0
VERTEX
  8
Unknown_Area_Type
  10
265874.000
  20
4625030.500
  0
VERTEX
  8
Unknown_Area_Type
  10
267740.000
  20
4624677.000
  0
VERTEX
  8
Unknown_Area_Type
  10
267650.000
  20
4620301.000
  0
VERTEX
  8
Unknown_Area_Type
  10
267649.500
  20
4620299.000
  0
VERTEX
  8
Unknown_Area_Type
  10
267647.500
  20
4620298.000
  0
VERTEX
  8
Unknown_Area_Type
  10
266625.500
  20
4619949.000
  0
VERTEX
  8
Unknown_Area_Type
  10
264944.000
  20
4620423.000
  0
VERTEX
  8
Unknown_Area_Type
  10
265151.000
  20
4624797.500
  0
VERTEX
  8
Unknown_Area_Type
  10
265777.500
  20
4625049.000
  0
VERTEX
  8
Unknown_Area_Type
  10
265873.000
  20
4625030.500
  0
VERTEX
  8
Unknown_Area_Type
  10
265874.000
  20
4625030.500
  0
SEQEND
  8
Unknown_Area_Type
  0
INSERT
  8
FeatureAttribs
  2
FEATURE
  41
1
  42
1
  43
1
  50
0
  10
266367.851
  20
4622500.848
 66
1
  0
ATTRIB
  8
FeatureAttribs
 70
0
  1
PNOA-H_AMS_1956-57_33k_ES_PAN_2
  2
NAME
  10
266367.851
  20
4622500.848
 40
34.29208
  0
SEQEND
  0
POLYLINE
  8
Unknown_Area_Type
  70
1
  66
1
  0
VERTEX
  8
Unknown_Area_Type
  10
265874.000
  20
4625030.500
  0
VERTEX
  8
Unknown_Area_Type
  10
265873.000
  20
4625030.500
  0
VERTEX
  8
Unknown_Area_Type
  10
265777.500
  20
4625049.000
  0
VERTEX
  8
Unknown_Area_Type
  10
265151.000
  20
4624797.500
  0
VERTEX
  8
Unknown_Area_Type
  10
264944.000
  20
4620423.000
  0
VERTEX
  8
Unknown_Area_Type
  10
266625.500
  20
4619949.000
  0
VERTEX
  8
Unknown_Area_Type
  10
267647.500
  20
4620298.000
  0
VERTEX
  8
Unknown_Area_Type
  10
267649.500
  20
4620299.000
  0
VERTEX
  8
Unknown_Area_Type
  10
267650.000
  20
4620301.000
  0
VERTEX
  8
Unknown_Area_Type
  10
267740.000
  20
4624677.000
  0
VERTEX
  8
Unknown_Area_Type
  10
265874.000
  20
4625030.500
  0
SEQEND
  8
Unknown_Area_Type
  0
INSERT
  8
FeatureAttribs
  2
FEATURE
  41
1
  42
1
  43
1
  50
0
  10
277035.586
  20
4622244.999
 66
1
  0
ATTRIB
  8
FeatureAttribs
 70
0
  1
PNOA-H_AMS_1956-57_33k_ES_PAN_2
  2
NAME
  10
277035.586
  20
4622244.999
 40
34.29208
  0
SEQEND
  0
POLYLINE
  8
Unknown_Area_Type
  70
1
  66
1
  0
VERTEX
  8
Unknown_Area_Type
  10
276112.500
  20
4624546.500
  0
VERTEX
  8
Unknown_Area_Type
  10
276871.000
  20
4624779.000
  0
VERTEX
  8
Unknown_Area_Type
  10
276878.000
  20
4624780.000
  0
VERTEX
  8
Unknown_Area_Type
  10
278392.000
  20
4624371.500
  0
VERTEX
  8
Unknown_Area_Type
  10
278321.000
  20
4620014.500
  0
VERTEX
  8
Unknown_Area_Type
  10
277781.500
  20
4619761.000
  0
VERTEX
  8
Unknown_Area_Type
  10
275630.500
  20
4620098.500
  0
VERTEX
  8
Unknown_Area_Type
  10
275775.000
  20
4624443.000
  0
VERTEX
  8
Unknown_Area_Type
  10
276111.000
  20
4624546.000
  0
VERTEX
  8
Unknown_Area_Type
  10
276112.500
  20
4624546.500
  0
SEQEND
  8
Unknown_Area_Type
  0
INSERT
  8
FeatureAttribs
  2
FEATURE
  41
1
  42
1
  43
1
  50
0
  10
277035.586
  20
4622244.999
 66
1
  0
ATTRIB
  8
FeatureAttribs
 70
0
  1
PNOA-H_AMS_1956-57_33k_ES_PAN_2
  2
NAME
  10
277035.586
  20
4622244.999
 40
34.29208
  0
SEQEND
  0
POLYLINE
  8
Unknown_Area_Type
  70
1
  66
1
  0
VERTEX
  8
Unknown_Area_Type
  10
276112.500
  20
4624546.500
  0
VERTEX
  8
Unknown_Area_Type
  10
276111.000
  20
4624546.000
  0
VERTEX
  8
Unknown_Area_Type
  10
275775.000
  20
4624443.000
  0
VERTEX
  8
Unknown_Area_Type
  10
275630.500
  20
4620098.500
  0
VERTEX
  8
Unknown_Area_Type
  10
277781.500
  20
4619761.000
  0
VERTEX
  8
Unknown_Area_Type
  10
278321.000
  20
4620014.500
  0
VERTEX
  8
Unknown_Area_Type
  10
278392.000
  20
4624371.500
  0
VERTEX
  8
Unknown_Area_Type
  10
276878.000
  20
4624780.000
  0
VERTEX
  8
Unknown_Area_Type
  10
276871.000
  20
4624779.000
  0
VERTEX
  8
Unknown_Area_Type
  10
276112.500
  20
4624546.500
  0
SEQEND
  8
Unknown_Area_Type
  0
INSERT
  8
FeatureAttribs
  2
FEATURE
  41
1
  42
1
  43
1
  50
0
  10
262490.468
  20
4622726.835
 66
1
  0
ATTRIB
  8
FeatureAttribs
 70
0
  1
PNOA-H_AMS_1956-57_33k_ES_PAN_2
  2
NAME
  10
262490.468
  20
4622726.835
 40
34.29208
  0
SEQEND
  0
POLYLINE
  8
Unknown_Area_Type
  70
1
  66
1
  0
VERTEX
  8
Unknown_Area_Type
  10
262509.353
  20
4620498.790
  0
VERTEX
  8
Unknown_Area_Type
  10
262383.502
  20
4620538.946
  0
VERTEX
  8
Unknown_Area_Type
  10
262383.502
  20
4622537.673
  0
VERTEX
  8
Unknown_Area_Type
  10
262561.500
  20
4624914.000
  0
VERTEX
  8
Unknown_Area_Type
  10
262657.204
  20
4624954.880
  0
VERTEX
  8
Unknown_Area_Type
  10
262613.690
  20
4623643.878
  0
VERTEX
  8
Unknown_Area_Type
  10
262536.938
  20
4621330.558
  0
VERTEX
  8
Unknown_Area_Type
  10
262509.353
  20
4620498.790
  0
SEQEND
  8
Unknown_Area_Type
  0
INSERT
  8
FeatureAttribs
  2
FEATURE
  41
1
  42
1
  43
1
  50
0
  10
263806.043
  20
4622629.250
 66
1
  0
ATTRIB
  8
FeatureAttribs
 70
0
  1
PNOA-H_AMS_1956-57_33k_ES_PAN_2
  2
NAME
  10
263806.043
  20
4622629.250
 40
34.29208
  0
SEQEND
  0
POLYLINE
  8
Unknown_Area_Type
  70
1
  66
1
  0
VERTEX
  8
Unknown_Area_Type
  10
262657.204
  20
4624954.880
  0
VERTEX
  8
Unknown_Area_Type
  10
263014.500
  20
4625107.500
  0
VERTEX
  8
Unknown_Area_Type
  10
263823.500
  20
4624990.000
  0
VERTEX
  8
Unknown_Area_Type
  10
263826.000
  20
4624990.000
  0
VERTEX
  8
Unknown_Area_Type
  10
265151.000
  20
4624797.500
  0
VERTEX
  8
Unknown_Area_Type
  10
265151.000
  20
4624793.000
  0
VERTEX
  8
Unknown_Area_Type
  10
264944.500
  20
4620424.500
  0
VERTEX
  8
Unknown_Area_Type
  10
264943.500
  20
4620422.500
  0
VERTEX
  8
Unknown_Area_Type
  10
264938.500
  20
4620421.000
  0
VERTEX
  8
Unknown_Area_Type
  10
263801.500
  20
4620086.500
  0
VERTEX
  8
Unknown_Area_Type
  10
262509.353
  20
4620498.790
  0
VERTEX
  8
Unknown_Area_Type
  10
262536.938
  20
4621330.558
  0
VERTEX
  8
Unknown_Area_Type
  10
262613.690
  20
4623643.878
  0
VERTEX
  8
Unknown_Area_Type
  10
262657.204
  20
4624954.880
  0
SEQEND
  8
Unknown_Area_Type
  0
INSERT
  8
FeatureAttribs
  2
FEATURE
  41
1
  42
1
  43
1
  50
0
  10
263806.043
  20
4622629.250
 66
1
  0
ATTRIB
  8
FeatureAttribs
 70
0
  1
PNOA-H_AMS_1956-57_33k_ES_PAN_2
  2
NAME
  10
263806.043
  20
4622629.250
 40
34.29208
  0
SEQEND
  0
POLYLINE
  8
Unknown_Area_Type
  70
1
  66
1
  0
VERTEX
  8
Unknown_Area_Type
  10
262657.204
  20
4624954.880
  0
VERTEX
  8
Unknown_Area_Type
  10
262613.690
  20
4623643.878
  0
VERTEX
  8
Unknown_Area_Type
  10
262536.938
  20
4621330.558
  0
VERTEX
  8
Unknown_Area_Type
  10
262509.353
  20
4620498.790
  0
VERTEX
  8
Unknown_Area_Type
  10
263801.500
  20
4620086.500
  0
VERTEX
  8
Unknown_Area_Type
  10
264938.500
  20
4620421.000
  0
VERTEX
  8
Unknown_Area_Type
  10
264943.500
  20
4620422.500
  0
VERTEX
  8
Unknown_Area_Type
  10
264944.500
  20
4620424.500
  0
VERTEX
  8
Unknown_Area_Type
  10
265151.000
  20
4624793.000
  0
VERTEX
  8
Unknown_Area_Type
  10
265151.000
  20
4624797.500
  0
VERTEX
  8
Unknown_Area_Type
  10
263826.000
  20
4624990.000
  0
VERTEX
  8
Unknown_Area_Type
  10
263823.500
  20
4624990.000
  0
VERTEX
  8
Unknown_Area_Type
  10
263014.500
  20
4625107.500
  0
VERTEX
  8
Unknown_Area_Type
  10
262657.204
  20
4624954.880
  0
SEQEND
  8
Unknown_Area_Type
  0
INSERT
  8
FeatureAttribs
  2
FEATURE
  41
1
  42
1
  43
1
  50
0
  10
286635.679
  20
4626657.977
 66
1
  0
ATTRIB
  8
FeatureAttribs
 70
0
  1
PNOA-H_AMS_1956-57_33k_ES_PAN_2
  2
NAME
  10
286635.679
  20
4626657.977
 40
34.29208
  0
SEQEND
  0
POLYLINE
  8
Unknown_Area_Type
  70
1
  66
1
  0
VERTEX
  8
Unknown_Area_Type
  10
287296.000
  20
4628989.500
  0
VERTEX
  8
Unknown_Area_Type
  10
287299.500
  20
4628989.000
  0
VERTEX
  8
Unknown_Area_Type
  10
288096.500
  20
4628612.500
  0
VERTEX
  8
Unknown_Area_Type
  10
287964.500
  20
4624709.000
  0
VERTEX
  8
Unknown_Area_Type
  10
286284.000
  20
4624311.000
  0
VERTEX
  8
Unknown_Area_Type
  10
286281.000
  20
4624311.000
  0
VERTEX
  8
Unknown_Area_Type
  10
286265.000
  20
4624317.000
  0
VERTEX
  8
Unknown_Area_Type
  10
285170.500
  20
4624731.500
  0
VERTEX
  8
Unknown_Area_Type
  10
285287.500
  20
4628604.000
  0
VERTEX
  8
Unknown_Area_Type
  10
287293.500
  20
4628989.000
  0
VERTEX
  8
Unknown_Area_Type
  10
287296.000
  20
4628989.500
  0
SEQEND
  8
Unknown_Area_Type
  0
INSERT
  8
FeatureAttribs
  2
FEATURE
  41
1
  42
1
  43
1
  50
0
  10
286635.679
  20
4626657.977
 66
1
  0
ATTRIB
  8
FeatureAttribs
 70
0
  1
PNOA-H_AMS_1956-57_33k_ES_PAN_2
  2
NAME
  10
286635.679
  20
4626657.977
 40
34.29208
  0
SEQEND
  0
POLYLINE
  8
Unknown_Area_Type
  70
1
  66
1
  0
VERTEX
  8
Unknown_Area_Type
  10
287296.000
  20
4628989.500
  0
VERTEX
  8
Unknown_Area_Type
  10
287293.500
  20
4628989.000
  0
VERTEX
  8
Unknown_Area_Type
  10
285287.500
  20
4628604.000
  0
VERTEX
  8
Unknown_Area_Type
  10
285170.500
  20
4624731.500
  0
VERTEX
  8
Unknown_Area_Type
  10
286265.000
  20
4624317.000
  0
VERTEX
  8
Unknown_Area_Type
  10
286281.000
  20
4624311.000
  0
VERTEX
  8
Unknown_Area_Type
  10
286284.000
  20
4624311.000
  0
VERTEX
  8
Unknown_Area_Type
  10
287964.500
  20
4624709.000
  0
VERTEX
  8
Unknown_Area_Type
  10
288096.500
  20
4628612.500
  0
VERTEX
  8
Unknown_Area_Type
  10
287299.500
  20
4628989.000
  0
VERTEX
  8
Unknown_Area_Type
  10
287296.000
  20
4628989.500
  0
SEQEND
  8
Unknown_Area_Type
  0
INSERT
  8
FeatureAttribs
  2
FEATURE
  41
1
  42
1
  43
1
  50
0
  10
290566.799
  20
4626687.221
 66
1
  0
ATTRIB
  8
FeatureAttribs
 70
0
  1
PNOA-H_AMS_1956-57_33k_ES_PAN_2
  2
NAME
  10
290566.799
  20
4626687.221
 40
34.29208
  0
SEQEND
  0
POLYLINE
  8
Unknown_Area_Type
  70
1
  66
1
  0
VERTEX
  8
Unknown_Area_Type
  10
290679.150
  20
4628707.046
  0
VERTEX
  8
Unknown_Area_Type
  10
290679.150
  20
4624652.298
  0
VERTEX
  8
Unknown_Area_Type
  10
290392.954
  20
4624589.782
  0
VERTEX
  8
Unknown_Area_Type
  10
290407.640
  20
4625090.853
  0
VERTEX
  8
Unknown_Area_Type
  10
290475.469
  20
4627404.114
  0
VERTEX
  8
Unknown_Area_Type
  10
290515.965
  20
4628784.660
  0
VERTEX
  8
Unknown_Area_Type
  10
290679.150
  20
4628707.046
  0
SEQEND
  8
Unknown_Area_Type
  0
INSERT
  8
FeatureAttribs
  2
FEATURE
  41
1
  42
1
  43
1
  50
0
  10
289257.508
  20
4626621.583
 66
1
  0
ATTRIB
  8
FeatureAttribs
 70
0
  1
PNOA-H_AMS_1956-57_33k_ES_PAN_2
  2
NAME
  10
289257.508
  20
4626621.583
 40
34.29208
  0
SEQEND
  0
POLYLINE
  8
Unknown_Area_Type
  70
1
  66
1
  0
VERTEX
  8
Unknown_Area_Type
  10
290515.965
  20
4628784.660
  0
VERTEX
  8
Unknown_Area_Type
  10
290475.469
  20
4627404.114
  0
VERTEX
  8
Unknown_Area_Type
  10
290407.640
  20
4625090.853
  0
VERTEX
  8
Unknown_Area_Type
  10
290392.954
  20
4624589.782
  0
VERTEX
  8
Unknown_Area_Type
  10
288972.500
  20
4624279.500
  0
VERTEX
  8
Unknown_Area_Type
  10
288966.500
  20
4624280.500
  0
VERTEX
  8
Unknown_Area_Type
  10
287964.500
  20
4624709.000
  0
VERTEX
  8
Unknown_Area_Type
  10
288096.000
  20
4628612.000
  0
VERTEX
  8
Unknown_Area_Type
  10
288398.000
  20
4628660.500
  0
VERTEX
  8
Unknown_Area_Type
  10
288401.000
  20
4628661.000
  0
VERTEX
  8
Unknown_Area_Type
  10
290182.000
  20
4628943.500
  0
VERTEX
  8
Unknown_Area_Type
  10
290515.965
  20
4628784.660
  0
SEQEND
  8
Unknown_Area_Type
  0
INSERT
  8
FeatureAttribs
  2
FEATURE
  41
1
  42
1
  43
1
  50
0
  10
289257.508
  20
4626621.583
 66
1
  0
ATTRIB
  8
FeatureAttribs
 70
0
  1
PNOA-H_AMS_1956-57_33k_ES_PAN_2
  2
NAME
  10
289257.508
  20
4626621.583
 40
34.29208
  0
SEQEND
  0
POLYLINE
  8
Unknown_Area_Type
  70
1
  66
1
  0
VERTEX
  8
Unknown_Area_Type
  10
290515.965
  20
4628784.660
  0
VERTEX
  8
Unknown_Area_Type
  10
290182.000
  20
4628943.500
  0
VERTEX
  8
Unknown_Area_Type
  10
288401.000
  20
4628661.000
  0
VERTEX
  8
Unknown_Area_Type
  10
288398.000
  20
4628660.500
  0
VERTEX
  8
Unknown_Area_Type
  10
288096.000
  20
4628612.000
  0
VERTEX
  8
Unknown_Area_Type
  10
287964.500
  20
4624709.000
  0
VERTEX
  8
Unknown_Area_Type
  10
288966.500
  20
4624280.500
  0
VERTEX
  8
Unknown_Area_Type
  10
288972.500
  20
4624279.500
  0
VERTEX
  8
Unknown_Area_Type
  10
290392.954
  20
4624589.782
  0
VERTEX
  8
Unknown_Area_Type
  10
290407.640
  20
4625090.853
  0
VERTEX
  8
Unknown_Area_Type
  10
290475.469
  20
4627404.114
  0
VERTEX
  8
Unknown_Area_Type
  10
290515.965
  20
4628784.660
  0
SEQEND
  8
Unknown_Area_Type
  0
INSERT
  8
FeatureAttribs
  2
FEATURE
  41
1
  42
1
  43
1
  50
0
  10
269045.623
  20
4622441.266
 66
1
  0
ATTRIB
  8
FeatureAttribs
 70
0
  1
PNOA-H_AMS_1956-57_33k_ES_PAN_2
  2
NAME
  10
269045.623
  20
4622441.266
 40
34.29208
  0
SEQEND
  0
POLYLINE
  8
Unknown_Area_Type
  70
1
  66
1
  0
VERTEX
  8
Unknown_Area_Type
  10
267921.500
  20
4624743.000
  0
VERTEX
  8
Unknown_Area_Type
  10
268609.000
  20
4624992.000
  0
VERTEX
  8
Unknown_Area_Type
  10
270436.000
  20
4624590.500
  0
VERTEX
  8
Unknown_Area_Type
  10
270364.500
  20
4620242.500
  0
VERTEX
  8
Unknown_Area_Type
  10
269444.500
  20
4619894.500
  0
VERTEX
  8
Unknown_Area_Type
  10
269423.500
  20
4619887.500
  0
VERTEX
  8
Unknown_Area_Type
  10
267649.500
  20
4620299.000
  0
VERTEX
  8
Unknown_Area_Type
  10
267740.000
  20
4624677.000
  0
VERTEX
  8
Unknown_Area_Type
  10
267920.500
  20
4624742.500
  0
VERTEX
  8
Unknown_Area_Type
  10
267921.500
  20
4624743.000
  0
SEQEND
  8
Unknown_Area_Type
  0
INSERT
  8
FeatureAttribs
  2
FEATURE
  41
1
  42
1
  43
1
  50
0
  10
269045.623
  20
4622441.266
 66
1
  0
ATTRIB
  8
FeatureAttribs
 70
0
  1
PNOA-H_AMS_1956-57_33k_ES_PAN_2
  2
NAME
  10
269045.623
  20
4622441.266
 40
34.29208
  0
SEQEND
  0
POLYLINE
  8
Unknown_Area_Type
  70
1
  66
1
  0
VERTEX
  8
Unknown_Area_Type
  10
267921.500
  20
4624743.000
  0
VERTEX
  8
Unknown_Area_Type
  10
267920.500
  20
4624742.500
  0
VERTEX
  8
Unknown_Area_Type
  10
267740.000
  20
4624677.000
  0
VERTEX
  8
Unknown_Area_Type
  10
267649.500
  20
4620299.000
  0
VERTEX
  8
Unknown_Area_Type
  10
269423.500
  20
4619887.500
  0
VERTEX
  8
Unknown_Area_Type
  10
269444.500
  20
4619894.500
  0
VERTEX
  8
Unknown_Area_Type
  10
270364.500
  20
4620242.500
  0
VERTEX
  8
Unknown_Area_Type
  10
270436.000
  20
4624590.500
  0
VERTEX
  8
Unknown_Area_Type
  10
268609.000
  20
4624992.000
  0
VERTEX
  8
Unknown_Area_Type
  10
267921.500
  20
4624743.000
  0
SEQEND
  8
Unknown_Area_Type
  0
INSERT
  8
FeatureAttribs
  2
FEATURE
  41
1
  42
1
  43
1
  50
0
  10
283869.018
  20
4626665.494
 66
1
  0
ATTRIB
  8
FeatureAttribs
 70
0
  1
PNOA-H_AMS_1956-57_33k_ES_PAN_2
  2
NAME
  10
283869.018
  20
4626665.494
 40
34.29208
  0
SEQEND
  0
POLYLINE
  8
Unknown_Area_Type
  70
1
  66
1
  0
VERTEX
  8
Unknown_Area_Type
  10
284453.000
  20
4628998.000
  0
VERTEX
  8
Unknown_Area_Type
  10
284456.000
  20
4628998.000
  0
VERTEX
  8
Unknown_Area_Type
  10
284470.000
  20
4628991.500
  0
VERTEX
  8
Unknown_Area_Type
  10
285287.500
  20
4628604.000
  0
VERTEX
  8
Unknown_Area_Type
  10
285170.500
  20
4624731.500
  0
VERTEX
  8
Unknown_Area_Type
  10
283632.500
  20
4624309.500
  0
VERTEX
  8
Unknown_Area_Type
  10
282436.500
  20
4624694.500
  0
VERTEX
  8
Unknown_Area_Type
  10
282589.000
  20
4628681.500
  0
VERTEX
  8
Unknown_Area_Type
  10
282590.000
  20
4628684.000
  0
VERTEX
  8
Unknown_Area_Type
  10
282601.500
  20
4628686.000
  0
VERTEX
  8
Unknown_Area_Type
  10
284450.000
  20
4628997.500
  0
VERTEX
  8
Unknown_Area_Type
  10
284453.000
  20
4628998.000
  0
SEQEND
  8
Unknown_Area_Type
  0
INSERT
  8
FeatureAttribs
  2
FEATURE
  41
1
  42
1
  43
1
  50
0
  10
283869.018
  20
4626665.494
 66
1
  0
ATTRIB
  8
FeatureAttribs
 70
0
  1
PNOA-H_AMS_1956-57_33k_ES_PAN_2
  2
NAME
  10
283869.018
  20
4626665.494
 40
34.29208
  0
SEQEND
  0
POLYLINE
  8
Unknown_Area_Type
  70
1
  66
1
  0
VERTEX
  8
Unknown_Area_Type
  10
284453.000
  20
4628998.000
  0
VERTEX
  8
Unknown_Area_Type
  10
284450.000
  20
4628997.500
  0
VERTEX
  8
Unknown_Area_Type
  10
282601.500
  20
4628686.000
  0
VERTEX
  8
Unknown_Area_Type
  10
282590.000
  20
4628684.000
  0
VERTEX
  8
Unknown_Area_Type
  10
282589.000
  20
4628681.500
  0
VERTEX
  8
Unknown_Area_Type
  10
282436.500
  20
4624694.500
  0
VERTEX
  8
Unknown_Area_Type
  10
283632.500
  20
4624309.500
  0
VERTEX
  8
Unknown_Area_Type
  10
285170.500
  20
4624731.500
  0
VERTEX
  8
Unknown_Area_Type
  10
285287.500
  20
4628604.000
  0
VERTEX
  8
Unknown_Area_Type
  10
284470.000
  20
4628991.500
  0
VERTEX
  8
Unknown_Area_Type
  10
284456.000
  20
4628998.000
  0
VERTEX
  8
Unknown_Area_Type
  10
284453.000
  20
4628998.000
  0
SEQEND
  8
Unknown_Area_Type
  0
INSERT
  8
FeatureAttribs
  2
FEATURE
  41
1
  42
1
  43
1
  50
0
  10
278345.888
  20
4626749.975
 66
1
  0
ATTRIB
  8
FeatureAttribs
 70
0
  1
PNOA-H_AMS_1956-57_33k_ES_PAN_2
  2
NAME
  10
278345.888
  20
4626749.975
 40
34.29208
  0
SEQEND
  0
POLYLINE
  8
Unknown_Area_Type
  70
1
  66
1
  0
VERTEX
  8
Unknown_Area_Type
  10
278836.000
  20
4629130.000
  0
VERTEX
  8
Unknown_Area_Type
  10
278840.000
  20
4629129.500
  0
VERTEX
  8
Unknown_Area_Type
  10
279800.500
  20
4628670.500
  0
VERTEX
  8
Unknown_Area_Type
  10
279697.000
  20
4624758.000
  0
VERTEX
  8
Unknown_Area_Type
  10
278392.500
  20
4624371.000
  0
VERTEX
  8
Unknown_Area_Type
  10
276876.000
  20
4624780.000
  0
VERTEX
  8
Unknown_Area_Type
  10
276990.000
  20
4628762.500
  0
VERTEX
  8
Unknown_Area_Type
  10
276990.500
  20
4628766.500
  0
VERTEX
  8
Unknown_Area_Type
  10
278833.500
  20
4629129.500
  0
VERTEX
  8
Unknown_Area_Type
  10
278836.000
  20
4629130.000
  0
SEQEND
  8
Unknown_Area_Type
  0
INSERT
  8
FeatureAttribs
  2
FEATURE
  41
1
  42
1
  43
1
  50
0
  10
278345.888
  20
4626749.975
 66
1
  0
ATTRIB
  8
FeatureAttribs
 70
0
  1
PNOA-H_AMS_1956-57_33k_ES_PAN_2
  2
NAME
  10
278345.888
  20
4626749.975
 40
34.29208
  0
SEQEND
  0
POLYLINE
  8
Unknown_Area_Type
  70
1
  66
1
  0
VERTEX
  8
Unknown_Area_Type
  10
278836.000
  20
4629130.000
  0
VERTEX
  8
Unknown_Area_Type
  10
278833.500
  20
4629129.500
  0
VERTEX
  8
Unknown_Area_Type
  10
276990.500
  20
4628766.500
  0
VERTEX
  8
Unknown_Area_Type
  10
276990.000
  20
4628762.500
  0
VERTEX
  8
Unknown_Area_Type
  10
276876.000
  20
4624780.000
  0
VERTEX
  8
Unknown_Area_Type
  10
278392.500
  20
4624371.000
  0
VERTEX
  8
Unknown_Area_Type
  10
279697.000
  20
4624758.000
  0
VERTEX
  8
Unknown_Area_Type
  10
279800.500
  20
4628670.500
  0
VERTEX
  8
Unknown_Area_Type
  10
278840.000
  20
4629129.500
  0
VERTEX
  8
Unknown_Area_Type
  10
278836.000
  20
4629130.000
  0
SEQEND
  8
Unknown_Area_Type
  0
INSERT
  8
FeatureAttribs
  2
FEATURE
  41
1
  42
1
  43
1
  50
0
  10
270079.003
  20
4626926.798
 66
1
  0
ATTRIB
  8
FeatureAttribs
 70
0
  1
PNOA-H_AMS_1956-57_33k_ES_PAN_2
  2
NAME
  10
270079.003
  20
4626926.798
 40
34.29208
  0
SEQEND
  0
POLYLINE
  8
Unknown_Area_Type
  70
1
  66
1
  0
VERTEX
  8
Unknown_Area_Type
  10
270621.000
  20
4629285.000
  0
VERTEX
  8
Unknown_Area_Type
  10
270624.000
  20
4629285.000
  0
VERTEX
  8
Unknown_Area_Type
  10
270666.500
  20
4629264.000
  0
VERTEX
  8
Unknown_Area_Type
  10
271519.000
  20
4628840.500
  0
VERTEX
  8
Unknown_Area_Type
  10
271404.500
  20
4624939.500
  0
VERTEX
  8
Unknown_Area_Type
  10
271404.000
  20
4624934.500
  0
VERTEX
  8
Unknown_Area_Type
  10
271402.500
  20
4624933.500
  0
VERTEX
  8
Unknown_Area_Type
  10
270437.000
  20
4624590.500
  0
VERTEX
  8
Unknown_Area_Type
  10
268608.500
  20
4624992.000
  0
VERTEX
  8
Unknown_Area_Type
  10
268714.500
  20
4628848.500
  0
VERTEX
  8
Unknown_Area_Type
  10
268715.000
  20
4628859.500
  0
VERTEX
  8
Unknown_Area_Type
  10
268716.000
  20
4628860.000
  0
VERTEX
  8
Unknown_Area_Type
  10
270619.000
  20
4629284.500
  0
VERTEX
  8
Unknown_Area_Type
  10
270621.000
  20
4629285.000
  0
SEQEND
  8
Unknown_Area_Type
  0
INSERT
  8
FeatureAttribs
  2
FEATURE
  41
1
  42
1
  43
1
  50
0
  10
270079.003
  20
4626926.798
 66
1
  0
ATTRIB
  8
FeatureAttribs
 70
0
  1
PNOA-H_AMS_1956-57_33k_ES_PAN_2
  2
NAME
  10
270079.003
  20
4626926.798
 40
34.29208
  0
SEQEND
  0
POLYLINE
  8
Unknown_Area_Type
  70
1
  66
1
  0
VERTEX
  8
Unknown_Area_Type
  10
270621.000
  20
4629285.000
  0
VERTEX
  8
Unknown_Area_Type
  10
270619.000
  20
4629284.500
  0
VERTEX
  8
Unknown_Area_Type
  10
268716.000
  20
4628860.000
  0
VERTEX
  8
Unknown_Area_Type
  10
268715.000
  20
4628859.500
  0
VERTEX
  8
Unknown_Area_Type
  10
268714.500
  20
4628848.500
  0
VERTEX
  8
Unknown_Area_Type
  10
268608.500
  20
4624992.000
  0
VERTEX
  8
Unknown_Area_Type
  10
270437.000
  20
4624590.500
  0
VERTEX
  8
Unknown_Area_Type
  10
271402.500
  20
4624933.500
  0
VERTEX
  8
Unknown_Area_Type
  10
271404.000
  20
4624934.500
  0
VERTEX
  8
Unknown_Area_Type
  10
271404.500
  20
4624939.500
  0
VERTEX
  8
Unknown_Area_Type
  10
271519.000
  20
4628840.500
  0
VERTEX
  8
Unknown_Area_Type
  10
270666.500
  20
4629264.000
  0
VERTEX
  8
Unknown_Area_Type
  10
270624.000
  20
4629285.000
  0
VERTEX
  8
Unknown_Area_Type
  10
270621.000
  20
4629285.000
  0
SEQEND
  8
Unknown_Area_Type
  0
INSERT
  8
FeatureAttribs
  2
FEATURE
  41
1
  42
1
  43
1
  50
0
  10
275589.739
  20
4626808.828
 66
1
  0
ATTRIB
  8
FeatureAttribs
 70
0
  1
PNOA-H_AMS_1956-57_33k_ES_PAN_2
  2
NAME
  10
275589.739
  20
4626808.828
 40
34.29208
  0
SEQEND
  0
POLYLINE
  8
Unknown_Area_Type
  70
1
  66
1
  0
VERTEX
  8
Unknown_Area_Type
  10
276114.000
  20
4629178.500
  0
VERTEX
  8
Unknown_Area_Type
  10
276990.500
  20
4628766.000
  0
VERTEX
  8
Unknown_Area_Type
  10
276876.000
  20
4624780.000
  0
VERTEX
  8
Unknown_Area_Type
  10
275776.500
  20
4624443.000
  0
VERTEX
  8
Unknown_Area_Type
  10
275773.500
  20
4624443.000
  0
VERTEX
  8
Unknown_Area_Type
  10
274138.000
  20
4624871.500
  0
VERTEX
  8
Unknown_Area_Type
  10
274301.500
  20
4628808.500
  0
VERTEX
  8
Unknown_Area_Type
  10
276081.500
  20
4629193.000
  0
VERTEX
  8
Unknown_Area_Type
  10
276085.500
  20
4629192.500
  0
VERTEX
  8
Unknown_Area_Type
  10
276113.000
  20
4629179.000
  0
VERTEX
  8
Unknown_Area_Type
  10
276114.000
  20
4629178.500
  0
SEQEND
  8
Unknown_Area_Type
  0
INSERT
  8
FeatureAttribs
  2
FEATURE
  41
1
  42
1
  43
1
  50
0
  10
275589.739
  20
4626808.828
 66
1
  0
ATTRIB
  8
FeatureAttribs
 70
0
  1
PNOA-H_AMS_1956-57_33k_ES_PAN_2
  2
NAME
  10
275589.739
  20
4626808.828
 40
34.29208
  0
SEQEND
  0
POLYLINE
  8
Unknown_Area_Type
  70
1
  66
1
  0
VERTEX
  8
Unknown_Area_Type
  10
276114.000
  20
4629178.500
  0
VERTEX
  8
Unknown_Area_Type
  10
276113.000
  20
4629179.000
  0
VERTEX
  8
Unknown_Area_Type
  10
276085.500
  20
4629192.500
  0
VERTEX
  8
Unknown_Area_Type
  10
276081.500
  20
4629193.000
  0
VERTEX
  8
Unknown_Area_Type
  10
274301.500
  20
4628808.500
  0
VERTEX
  8
Unknown_Area_Type
  10
274138.000
  20
4624871.500
  0
VERTEX
  8
Unknown_Area_Type
  10
275773.500
  20
4624443.000
  0
VERTEX
  8
Unknown_Area_Type
  10
275776.500
  20
4624443.000
  0
VERTEX
  8
Unknown_Area_Type
  10
276876.000
  20
4624780.000
  0
VERTEX
  8
Unknown_Area_Type
  10
276990.500
  20
4628766.000
  0
VERTEX
  8
Unknown_Area_Type
  10
276114.000
  20
4629178.500
  0
SEQEND
  8
Unknown_Area_Type
  0
INSERT
  8
FeatureAttribs
  2
FEATURE
  41
1
  42
1
  43
1
  50
0
  10
264456.569
  20
4627058.191
 66
1
  0
ATTRIB
  8
FeatureAttribs
 70
0
  1
PNOA-H_AMS_1956-57_33k_ES_PAN_2
  2
NAME
  10
264456.569
  20
4627058.191
 40
34.29208
  0
SEQEND
  0
POLYLINE
  8
Unknown_Area_Type
  70
1
  66
1
  0
VERTEX
  8
Unknown_Area_Type
  10
263076.500
  20
4628973.000
  0
VERTEX
  8
Unknown_Area_Type
  10
265020.000
  20
4629362.500
  0
VERTEX
  8
Unknown_Area_Type
  10
265872.500
  20
4628904.000
  0
VERTEX
  8
Unknown_Area_Type
  10
265874.000
  20
4628903.500
  0
VERTEX
  8
Unknown_Area_Type
  10
265886.500
  20
4628897.000
  0
VERTEX
  8
Unknown_Area_Type
  10
265886.500
  20
4628883.000
  0
VERTEX
  8
Unknown_Area_Type
  10
265777.500
  20
4625048.500
  0
VERTEX
  8
Unknown_Area_Type
  10
265153.500
  20
4624798.000
  0
VERTEX
  8
Unknown_Area_Type
  10
265147.500
  20
4624797.500
  0
VERTEX
  8
Unknown_Area_Type
  10
263015.500
  20
4625107.500
  0
VERTEX
  8
Unknown_Area_Type
  10
263076.500
  20
4628973.000
  0
SEQEND
  8
Unknown_Area_Type
  0
INSERT
  8
FeatureAttribs
  2
FEATURE
  41
1
  42
1
  43
1
  50
0
  10
264456.569
  20
4627058.191
 66
1
  0
ATTRIB
  8
FeatureAttribs
 70
0
  1
PNOA-H_AMS_1956-57_33k_ES_PAN_2
  2
NAME
  10
264456.569
  20
4627058.191
 40
34.29208
  0
SEQEND
  0
POLYLINE
  8
Unknown_Area_Type
  70
1
  66
1
  0
VERTEX
  8
Unknown_Area_Type
  10
263076.500
  20
4628973.000
  0
VERTEX
  8
Unknown_Area_Type
  10
263015.500
  20
4625107.500
  0
VERTEX
  8
Unknown_Area_Type
  10
265147.500
  20
4624797.500
  0
VERTEX
  8
Unknown_Area_Type
  10
265153.500
  20
4624798.000
  0
VERTEX
  8
Unknown_Area_Type
  10
265777.500
  20
4625048.500
  0
VERTEX
  8
Unknown_Area_Type
  10
265886.500
  20
4628883.000
  0
VERTEX
  8
Unknown_Area_Type
  10
265886.500
  20
4628897.000
  0
VERTEX
  8
Unknown_Area_Type
  10
265874.000
  20
4628903.500
  0
VERTEX
  8
Unknown_Area_Type
  10
265872.500
  20
4628904.000
  0
VERTEX
  8
Unknown_Area_Type
  10
265020.000
  20
4629362.500
  0
VERTEX
  8
Unknown_Area_Type
  10
263076.500
  20
4628973.000
  0
SEQEND
  8
Unknown_Area_Type
  0
INSERT
  8
FeatureAttribs
  2
FEATURE
  41
1
  42
1
  43
1
  50
0
  10
281141.867
  20
4626716.194
 66
1
  0
ATTRIB
  8
FeatureAttribs
 70
0
  1
PNOA-H_AMS_1956-57_33k_ES_PAN_2
  2
NAME
  10
281141.867
  20
4626716.194
 40
34.29208
  0
SEQEND
  0
POLYLINE
  8
Unknown_Area_Type
  70
1
  66
1
  0
VERTEX
  8
Unknown_Area_Type
  10
280209.000
  20
4628767.500
  0
VERTEX
  8
Unknown_Area_Type
  10
281656.500
  20
4629110.000
  0
VERTEX
  8
Unknown_Area_Type
  10
282589.500
  20
4628683.500
  0
VERTEX
  8
Unknown_Area_Type
  10
282436.500
  20
4624694.500
  0
VERTEX
  8
Unknown_Area_Type
  10
281006.000
  20
4624330.500
  0
VERTEX
  8
Unknown_Area_Type
  10
280990.500
  20
4624327.000
  0
VERTEX
  8
Unknown_Area_Type
  10
279697.000
  20
4624758.000
  0
VERTEX
  8
Unknown_Area_Type
  10
279800.500
  20
4628670.500
  0
VERTEX
  8
Unknown_Area_Type
  10
280207.000
  20
4628767.000
  0
VERTEX
  8
Unknown_Area_Type
  10
280209.000
  20
4628767.500
  0
SEQEND
  8
Unknown_Area_Type
  0
INSERT
  8
FeatureAttribs
  2
FEATURE
  41
1
  42
1
  43
1
  50
0
  10
281141.867
  20
4626716.194
 66
1
  0
ATTRIB
  8
FeatureAttribs
 70
0
  1
PNOA-H_AMS_1956-57_33k_ES_PAN_2
  2
NAME
  10
281141.867
  20
4626716.194
 40
34.29208
  0
SEQEND
  0
POLYLINE
  8
Unknown_Area_Type
  70
1
  66
1
  0
VERTEX
  8
Unknown_Area_Type
  10
280209.000
  20
4628767.500
  0
VERTEX
  8
Unknown_Area_Type
  10
280207.000
  20
4628767.000
  0
VERTEX
  8
Unknown_Area_Type
  10
279800.500
  20
4628670.500
  0
VERTEX
  8
Unknown_Area_Type
  10
279697.000
  20
4624758.000
  0
VERTEX
  8
Unknown_Area_Type
  10
280990.500
  20
4624327.000
  0
VERTEX
  8
Unknown_Area_Type
  10
281006.000
  20
4624330.500
  0
VERTEX
  8
Unknown_Area_Type
  10
282436.500
  20
4624694.500
  0
VERTEX
  8
Unknown_Area_Type
  10
282589.500
  20
4628683.500
  0
VERTEX
  8
Unknown_Area_Type
  10
281656.500
  20
4629110.000
  0
VERTEX
  8
Unknown_Area_Type
  10
280209.000
  20
4628767.500
  0
SEQEND
  8
Unknown_Area_Type
  0
INSERT
  8
FeatureAttribs
  2
FEATURE
  41
1
  42
1
  43
1
  50
0
  10
272855.093
  20
4626891.603
 66
1
  0
ATTRIB
  8
FeatureAttribs
 70
0
  1
PNOA-H_AMS_1956-57_33k_ES_PAN_2
  2
NAME
  10
272855.093
  20
4626891.603
 40
34.29208
  0
SEQEND
  0
POLYLINE
  8
Unknown_Area_Type
  70
1
  66
1
  0
VERTEX
  8
Unknown_Area_Type
  10
272017.000
  20
4628953.500
  0
VERTEX
  8
Unknown_Area_Type
  10
273349.500
  20
4629255.500
  0
VERTEX
  8
Unknown_Area_Type
  10
274301.500
  20
4628808.500
  0
VERTEX
  8
Unknown_Area_Type
  10
274138.000
  20
4624871.500
  0
VERTEX
  8
Unknown_Area_Type
  10
273099.500
  20
4624542.500
  0
VERTEX
  8
Unknown_Area_Type
  10
273076.500
  20
4624547.000
  0
VERTEX
  8
Unknown_Area_Type
  10
271404.000
  20
4624934.500
  0
VERTEX
  8
Unknown_Area_Type
  10
271519.000
  20
4628840.500
  0
VERTEX
  8
Unknown_Area_Type
  10
272014.500
  20
4628953.000
  0
VERTEX
  8
Unknown_Area_Type
  10
272017.000
  20
4628953.500
  0
SEQEND
  8
Unknown_Area_Type
  0
INSERT
  8
FeatureAttribs
  2
FEATURE
  41
1
  42
1
  43
1
  50
0
  10
272855.093
  20
4626891.603
 66
1
  0
ATTRIB
  8
FeatureAttribs
 70
0
  1
PNOA-H_AMS_1956-57_33k_ES_PAN_2
  2
NAME
  10
272855.093
  20
4626891.603
 40
34.29208
  0
SEQEND
  0
POLYLINE
  8
Unknown_Area_Type
  70
1
  66
1
  0
VERTEX
  8
Unknown_Area_Type
  10
272017.000
  20
4628953.500
  0
VERTEX
  8
Unknown_Area_Type
  10
272014.500
  20
4628953.000
  0
VERTEX
  8
Unknown_Area_Type
  10
271519.000
  20
4628840.500
  0
VERTEX
  8
Unknown_Area_Type
  10
271404.000
  20
4624934.500
  0
VERTEX
  8
Unknown_Area_Type
  10
273076.500
  20
4624547.000
  0
VERTEX
  8
Unknown_Area_Type
  10
273099.500
  20
4624542.500
  0
VERTEX
  8
Unknown_Area_Type
  10
274138.000
  20
4624871.500
  0
VERTEX
  8
Unknown_Area_Type
  10
274301.500
  20
4628808.500
  0
VERTEX
  8
Unknown_Area_Type
  10
273349.500
  20
4629255.500
  0
VERTEX
  8
Unknown_Area_Type
  10
272017.000
  20
4628953.500
  0
SEQEND
  8
Unknown_Area_Type
  0
INSERT
  8
FeatureAttribs
  2
FEATURE
  41
1
  42
1
  43
1
  50
0
  10
267265.041
  20
4626984.972
 66
1
  0
ATTRIB
  8
FeatureAttribs
 70
0
  1
PNOA-H_AMS_1956-57_33k_ES_PAN_2
  2
NAME
  10
267265.041
  20
4626984.972
 40
34.29208
  0
SEQEND
  0
POLYLINE
  8
Unknown_Area_Type
  70
1
  66
1
  0
VERTEX
  8
Unknown_Area_Type
  10
265873.500
  20
4628442.000
  0
VERTEX
  8
Unknown_Area_Type
  10
265886.500
  20
4628897.000
  0
VERTEX
  8
Unknown_Area_Type
  10
267785.500
  20
4629344.500
  0
VERTEX
  8
Unknown_Area_Type
  10
267788.500
  20
4629344.500
  0
VERTEX
  8
Unknown_Area_Type
  10
267796.500
  20
4629340.500
  0
VERTEX
  8
Unknown_Area_Type
  10
268715.000
  20
4628859.500
  0
VERTEX
  8
Unknown_Area_Type
  10
268608.500
  20
4624992.000
  0
VERTEX
  8
Unknown_Area_Type
  10
267741.000
  20
4624677.000
  0
VERTEX
  8
Unknown_Area_Type
  10
265777.500
  20
4625049.000
  0
VERTEX
  8
Unknown_Area_Type
  10
265873.500
  20
4628424.500
  0
VERTEX
  8
Unknown_Area_Type
  10
265873.500
  20
4628442.000
  0
SEQEND
  8
Unknown_Area_Type
  0
INSERT
  8
FeatureAttribs
  2
FEATURE
  41
1
  42
1
  43
1
  50
0
  10
267265.041
  20
4626984.972
 66
1
  0
ATTRIB
  8
FeatureAttribs
 70
0
  1
PNOA-H_AMS_1956-57_33k_ES_PAN_2
  2
NAME
  10
267265.041
  20
4626984.972
 40
34.29208
  0
SEQEND
  0
POLYLINE
  8
Unknown_Area_Type
  70
1
  66
1
  0
VERTEX
  8
Unknown_Area_Type
  10
265873.500
  20
4628442.000
  0
VERTEX
  8
Unknown_Area_Type
  10
265873.500
  20
4628424.500
  0
VERTEX
  8
Unknown_Area_Type
  10
265777.500
  20
4625049.000
  0
VERTEX
  8
Unknown_Area_Type
  10
267741.000
  20
4624677.000
  0
VERTEX
  8
Unknown_Area_Type
  10
268608.500
  20
4624992.000
  0
VERTEX
  8
Unknown_Area_Type
  10
268715.000
  20
4628859.500
  0
VERTEX
  8
Unknown_Area_Type
  10
267796.500
  20
4629340.500
  0
VERTEX
  8
Unknown_Area_Type
  10
267788.500
  20
4629344.500
  0
VERTEX
  8
Unknown_Area_Type
  10
267785.500
  20
4629344.500
  0
VERTEX
  8
Unknown_Area_Type
  10
265886.500
  20
4628897.000
  0
VERTEX
  8
Unknown_Area_Type
  10
265873.500
  20
4628442.000
  0
SEQEND
  8
Unknown_Area_Type
  0
INSERT
  8
FeatureAttribs
  2
FEATURE
  41
1
  42
1
  43
1
  50
0
  10
262415.302
  20
4618621.567
 66
1
  0
ATTRIB
  8
FeatureAttribs
 70
0
  1
PNOA-H_AMS_1956-57_33k_ES_PAN_2
  2
NAME
  10
262415.302
  20
4618621.567
 40
34.29208
  0
SEQEND
  0
POLYLINE
  8
Unknown_Area_Type
  70
1
  66
1
  0
VERTEX
  8
Unknown_Area_Type
  10
262509.360
  20
4620498.988
  0
VERTEX
  8
Unknown_Area_Type
  10
262460.219
  20
4619017.244
  0
VERTEX
  8
Unknown_Area_Type
  10
262383.530
  20
4616703.937
  0
VERTEX
  8
Unknown_Area_Type
  10
262383.502
  20
4616703.938
  0
VERTEX
  8
Unknown_Area_Type
  10
262383.502
  20
4620539.196
  0
VERTEX
  8
Unknown_Area_Type
  10
262509.360
  20
4620498.988
  0
SEQEND
  8
Unknown_Area_Type
  0
INSERT
  8
FeatureAttribs
  2
FEATURE
  41
1
  42
1
  43
1
  50
0
  10
262383.516
  20
4616703.724
 66
1
  0
ATTRIB
  8
FeatureAttribs
 70
0
  1
PNOA-H_AMS_1956-57_33k_ES_PAN_2
  2
NAME
  10
262383.516
  20
4616703.724
 40
34.29208
  0
SEQEND
  0
POLYLINE
  8
Unknown_Area_Type
  70
1
  66
1
  0
VERTEX
  8
Unknown_Area_Type
  10
262383.502
  20
4616703.938
  0
VERTEX
  8
Unknown_Area_Type
  10
262383.530
  20
4616703.937
  0
VERTEX
  8
Unknown_Area_Type
  10
262383.502
  20
4616703.083
  0
VERTEX
  8
Unknown_Area_Type
  10
262383.502
  20
4616703.938
  0
SEQEND
  8
Unknown_Area_Type
  0
INSERT
  8
FeatureAttribs
  2
FEATURE
  41
1
  42
1
  43
1
  50
0
  10
262999.658
  20
4616526.833
 66
1
  0
ATTRIB
  8
FeatureAttribs
 70
0
  1
PNOA-H_AMS_1956-57_33k_ES_PAN_2
  2
NAME
  10
262999.658
  20
4616526.833
 40
34.29208
  0
SEQEND
  0
POLYLINE
  8
Unknown_Area_Type
  70
1
  66
1
  0
VERTEX
  8
Unknown_Area_Type
  10
262490.000
  20
4615837.859
  0
VERTEX
  8
Unknown_Area_Type
  10
262383.502
  20
4615837.859
  0
VERTEX
  8
Unknown_Area_Type
  10
262383.502
  20
4616703.083
  0
VERTEX
  8
Unknown_Area_Type
  10
262383.530
  20
4616703.937
  0
VERTEX
  8
Unknown_Area_Type
  10
263615.813
  20
4616663.393
  0
VERTEX
  8
Unknown_Area_Type
  10
263599.983
  20
4616370.000
  0
VERTEX
  8
Unknown_Area_Type
  10
262490.000
  20
4616370.000
  0
VERTEX
  8
Unknown_Area_Type
  10
262490.000
  20
4615837.859
  0
SEQEND
  8
Unknown_Area_Type
  0
INSERT
  8
FeatureAttribs
  2
FEATURE
  41
1
  42
1
  43
1
  50
0
  10
263067.612
  20
4618507.789
 66
1
  0
ATTRIB
  8
FeatureAttribs
 70
0
  1
PNOA-H_AMS_1956-57_33k_ES_PAN_2
  2
NAME
  10
263067.612
  20
4618507.789
 40
34.29208
  0
SEQEND
  0
POLYLINE
  8
Unknown_Area_Type
  70
1
  66
1
  0
VERTEX
  8
Unknown_Area_Type
  10
263615.813
  20
4616663.393
  0
VERTEX
  8
Unknown_Area_Type
  10
262383.530
  20
4616703.937
  0
VERTEX
  8
Unknown_Area_Type
  10
262460.219
  20
4619017.244
  0
VERTEX
  8
Unknown_Area_Type
  10
262509.360
  20
4620498.988
  0
VERTEX
  8
Unknown_Area_Type
  10
263800.500
  20
4620086.500
  0
VERTEX
  8
Unknown_Area_Type
  10
263615.813
  20
4616663.393
  0
SEQEND
  8
Unknown_Area_Type
  0
INSERT
  8
FeatureAttribs
  2
FEATURE
  41
1
  42
1
  43
1
  50
0
  10
263067.612
  20
4618507.789
 66
1
  0
ATTRIB
  8
FeatureAttribs
 70
0
  1
PNOA-H_AMS_1956-57_33k_ES_PAN_2
  2
NAME
  10
263067.612
  20
4618507.789
 40
34.29208
  0
SEQEND
  0
POLYLINE
  8
Unknown_Area_Type
  70
1
  66
1
  0
VERTEX
  8
Unknown_Area_Type
  10
263615.813
  20
4616663.393
  0
VERTEX
  8
Unknown_Area_Type
  10
263800.500
  20
4620086.500
  0
VERTEX
  8
Unknown_Area_Type
  10
262509.360
  20
4620498.988
  0
VERTEX
  8
Unknown_Area_Type
  10
262460.219
  20
4619017.244
  0
VERTEX
  8
Unknown_Area_Type
  10
262383.530
  20
4616703.937
  0
VERTEX
  8
Unknown_Area_Type
  10
263615.813
  20
4616663.393
  0
SEQEND
  8
Unknown_Area_Type
  0
INSERT
  8
FeatureAttribs
  2
FEATURE
  41
1
  42
1
  43
1
  50
0
  10
267895.478
  20
4616446.787
 66
1
  0
ATTRIB
  8
FeatureAttribs
 70
0
  1
PNOA-H_AMS_1956-57_33k_ES_PAN_2
  2
NAME
  10
267895.478
  20
4616446.787
 40
34.29208
  0
SEQEND
  0
POLYLINE
  8
Unknown_Area_Type
  70
1
  66
1
  0
VERTEX
  8
Unknown_Area_Type
  10
269342.382
  20
4616476.680
  0
VERTEX
  8
Unknown_Area_Type
  10
269334.469
  20
4616150.000
  0
VERTEX
  8
Unknown_Area_Type
  10
269220.000
  20
4616150.000
  0
VERTEX
  8
Unknown_Area_Type
  10
269220.000
  20
4616370.000
  0
VERTEX
  8
Unknown_Area_Type
  10
266448.573
  20
4616370.000
  0
VERTEX
  8
Unknown_Area_Type
  10
266458.440
  20
4616570.159
  0
VERTEX
  8
Unknown_Area_Type
  10
269321.883
  20
4616477.334
  0
VERTEX
  8
Unknown_Area_Type
  10
269342.382
  20
4616476.680
  0
SEQEND
  8
Unknown_Area_Type
  0
INSERT
  8
FeatureAttribs
  2
FEATURE
  41
1
  42
1
  43
1
  50
0
  10
267961.149
  20
4618306.255
 66
1
  0
ATTRIB
  8
FeatureAttribs
 70
0
  1
PNOA-H_AMS_1956-57_33k_ES_PAN_2
  2
NAME
  10
267961.149
  20
4618306.255
 40
34.29208
  0
SEQEND
  0
POLYLINE
  8
Unknown_Area_Type
  70
1
  66
1
  0
VERTEX
  8
Unknown_Area_Type
  10
269342.382
  20
4616476.680
  0
VERTEX
  8
Unknown_Area_Type
  10
269321.883
  20
4616477.334
  0
VERTEX
  8
Unknown_Area_Type
  10
266458.440
  20
4616570.159
  0
VERTEX
  8
Unknown_Area_Type
  10
266625.000
  20
4619949.000
  0
VERTEX
  8
Unknown_Area_Type
  10
267648.500
  20
4620299.000
  0
VERTEX
  8
Unknown_Area_Type
  10
267920.500
  20
4620236.000
  0
VERTEX
  8
Unknown_Area_Type
  10
267922.000
  20
4620236.000
  0
VERTEX
  8
Unknown_Area_Type
  10
269425.000
  20
4619887.500
  0
VERTEX
  8
Unknown_Area_Type
  10
269342.382
  20
4616476.680
  0
SEQEND
  8
Unknown_Area_Type
  0
INSERT
  8
FeatureAttribs
  2
FEATURE
  41
1
  42
1
  43
1
  50
0
  10
267961.149
  20
4618306.255
 66
1
  0
ATTRIB
  8
FeatureAttribs
 70
0
  1
PNOA-H_AMS_1956-57_33k_ES_PAN_2
  2
NAME
  10
267961.149
  20
4618306.255
 40
34.29208
  0
SEQEND
  0
POLYLINE
  8
Unknown_Area_Type
  70
1
  66
1
  0
VERTEX
  8
Unknown_Area_Type
  10
269342.382
  20
4616476.680
  0
VERTEX
  8
Unknown_Area_Type
  10
269425.000
  20
4619887.500
  0
VERTEX
  8
Unknown_Area_Type
  10
267922.000
  20
4620236.000
  0
VERTEX
  8
Unknown_Area_Type
  10
267920.500
  20
4620236.000
  0
VERTEX
  8
Unknown_Area_Type
  10
267648.500
  20
4620299.000
  0
VERTEX
  8
Unknown_Area_Type
  10
266625.000
  20
4619949.000
  0
VERTEX
  8
Unknown_Area_Type
  10
266458.440
  20
4616570.159
  0
VERTEX
  8
Unknown_Area_Type
  10
269321.883
  20
4616477.334
  0
VERTEX
  8
Unknown_Area_Type
  10
269342.382
  20
4616476.680
  0
SEQEND
  8
Unknown_Area_Type
  0
INSERT
  8
FeatureAttribs
  2
FEATURE
  41
1
  42
1
  43
1
  50
0
  10
273492.273
  20
4616268.984
 66
1
  0
ATTRIB
  8
FeatureAttribs
 70
0
  1
PNOA-H_AMS_1956-57_33k_ES_PAN_2
  2
NAME
  10
273492.273
  20
4616268.984
 40
34.29208
  0
SEQEND
  0
POLYLINE
  8
Unknown_Area_Type
  70
1
  66
1
  0
VERTEX
  8
Unknown_Area_Type
  10
274866.615
  20
4616301.282
  0
VERTEX
  8
Unknown_Area_Type
  10
274862.964
  20
4616150.000
  0
VERTEX
  8
Unknown_Area_Type
  10
272116.978
  20
4616150.000
  0
VERTEX
  8
Unknown_Area_Type
  10
272120.445
  20
4616387.969
  0
VERTEX
  8
Unknown_Area_Type
  10
272791.037
  20
4616366.555
  0
VERTEX
  8
Unknown_Area_Type
  10
274866.615
  20
4616301.282
  0
SEQEND
  8
Unknown_Area_Type
  0
INSERT
  8
FeatureAttribs
  2
FEATURE
  41
1
  42
1
  43
1
  50
0
  10
273524.165
  20
4618180.515
 66
1
  0
ATTRIB
  8
FeatureAttribs
 70
0
  1
PNOA-H_AMS_1956-57_33k_ES_PAN_2
  2
NAME
  10
273524.165
  20
4618180.515
 40
34.29208
  0
SEQEND
  0
POLYLINE
  8
Unknown_Area_Type
  70
1
  66
1
  0
VERTEX
  8
Unknown_Area_Type
  10
274866.615
  20
4616301.282
  0
VERTEX
  8
Unknown_Area_Type
  10
272791.037
  20
4616366.555
  0
VERTEX
  8
Unknown_Area_Type
  10
272120.445
  20
4616387.969
  0
VERTEX
  8
Unknown_Area_Type
  10
272171.000
  20
4619858.500
  0
VERTEX
  8
Unknown_Area_Type
  10
273049.000
  20
4620181.000
  0
VERTEX
  8
Unknown_Area_Type
  10
274951.500
  20
4619819.000
  0
VERTEX
  8
Unknown_Area_Type
  10
274866.615
  20
4616301.282
  0
SEQEND
  8
Unknown_Area_Type
  0
INSERT
  8
FeatureAttribs
  2
FEATURE
  41
1
  42
1
  43
1
  50
0
  10
273524.165
  20
4618180.515
 66
1
  0
ATTRIB
  8
FeatureAttribs
 70
0
  1
PNOA-H_AMS_1956-57_33k_ES_PAN_2
  2
NAME
  10
273524.165
  20
4618180.515
 40
34.29208
  0
SEQEND
  0
POLYLINE
  8
Unknown_Area_Type
  70
1
  66
1
  0
VERTEX
  8
Unknown_Area_Type
  10
274866.615
  20
4616301.282
  0
VERTEX
  8
Unknown_Area_Type
  10
274951.500
  20
4619819.000
  0
VERTEX
  8
Unknown_Area_Type
  10
273049.000
  20
4620181.000
  0
VERTEX
  8
Unknown_Area_Type
  10
272171.000
  20
4619858.500
  0
VERTEX
  8
Unknown_Area_Type
  10
272120.445
  20
4616387.969
  0
VERTEX
  8
Unknown_Area_Type
  10
272791.037
  20
4616366.555
  0
VERTEX
  8
Unknown_Area_Type
  10
274866.615
  20
4616301.282
  0
SEQEND
  8
Unknown_Area_Type
  0
INSERT
  8
FeatureAttribs
  2
FEATURE
  41
1
  42
1
  43
1
  50
0
  10
276954.924
  20
4616120.642
 66
1
  0
ATTRIB
  8
FeatureAttribs
 70
0
  1
PNOA-H_AMS_1956-57_33k_ES_PAN_2
  2
NAME
  10
276954.924
  20
4616120.642
 40
34.29208
  0
SEQEND
  0
POLYLINE
  8
Unknown_Area_Type
  70
1
  66
1
  0
VERTEX
  8
Unknown_Area_Type
  10
277750.623
  20
4616211.308
  0
VERTEX
  8
Unknown_Area_Type
  10
277748.301
  20
4615940.000
  0
VERTEX
  8
Unknown_Area_Type
  10
276160.000
  20
4615940.000
  0
VERTEX
  8
Unknown_Area_Type
  10
276160.000
  20
4616150.000
  0
VERTEX
  8
Unknown_Area_Type
  10
274862.893
  20
4616150.000
  0
VERTEX
  8
Unknown_Area_Type
  10
274866.529
  20
4616301.285
  0
VERTEX
  8
Unknown_Area_Type
  10
276260.178
  20
4616257.457
  0
VERTEX
  8
Unknown_Area_Type
  10
277750.623
  20
4616211.308
  0
SEQEND
  8
Unknown_Area_Type
  0
INSERT
  8
FeatureAttribs
  2
FEATURE
  41
1
  42
1
  43
1
  50
0
  10
276330.642
  20
4618091.427
 66
1
  0
ATTRIB
  8
FeatureAttribs
 70
0
  1
PNOA-H_AMS_1956-57_33k_ES_PAN_2
  2
NAME
  10
276330.642
  20
4618091.427
 40
34.29208
  0
SEQEND
  0
POLYLINE
  8
Unknown_Area_Type
  70
1
  66
1
  0
VERTEX
  8
Unknown_Area_Type
  10
277750.623
  20
4616211.308
  0
VERTEX
  8
Unknown_Area_Type
  10
276260.178
  20
4616257.457
  0
VERTEX
  8
Unknown_Area_Type
  10
274866.529
  20
4616301.285
  0
VERTEX
  8
Unknown_Area_Type
  10
274951.000
  20
4619816.500
  0
VERTEX
  8
Unknown_Area_Type
  10
274951.500
  20
4619819.000
  0
VERTEX
  8
Unknown_Area_Type
  10
274956.000
  20
4619821.000
  0
VERTEX
  8
Unknown_Area_Type
  10
275629.000
  20
4620098.000
  0
VERTEX
  8
Unknown_Area_Type
  10
275630.500
  20
4620098.500
  0
VERTEX
  8
Unknown_Area_Type
  10
277781.000
  20
4619761.000
  0
VERTEX
  8
Unknown_Area_Type
  10
277750.623
  20
4616211.308
  0
SEQEND
  8
Unknown_Area_Type
  0
INSERT
  8
FeatureAttribs
  2
FEATURE
  41
1
  42
1
  43
1
  50
0
  10
276330.642
  20
4618091.427
 66
1
  0
ATTRIB
  8
FeatureAttribs
 70
0
  1
PNOA-H_AMS_1956-57_33k_ES_PAN_2
  2
NAME
  10
276330.642
  20
4618091.427
 40
34.29208
  0
SEQEND
  0
POLYLINE
  8
Unknown_Area_Type
  70
1
  66
1
  0
VERTEX
  8
Unknown_Area_Type
  10
277750.623
  20
4616211.308
  0
VERTEX
  8
Unknown_Area_Type
  10
277781.000
  20
4619761.000
  0
VERTEX
  8
Unknown_Area_Type
  10
275630.500
  20
4620098.500
  0
VERTEX
  8
Unknown_Area_Type
  10
275629.000
  20
4620098.000
  0
VERTEX
  8
Unknown_Area_Type
  10
274956.000
  20
4619821.000
  0
VERTEX
  8
Unknown_Area_Type
  10
274951.500
  20
4619819.000
  0
VERTEX
  8
Unknown_Area_Type
  10
274951.000
  20
4619816.500
  0
VERTEX
  8
Unknown_Area_Type
  10
274866.529
  20
4616301.285
  0
VERTEX
  8
Unknown_Area_Type
  10
276260.178
  20
4616257.457
  0
VERTEX
  8
Unknown_Area_Type
  10
277750.623
  20
4616211.308
  0
SEQEND
  8
Unknown_Area_Type
  0
INSERT
  8
FeatureAttribs
  2
FEATURE
  41
1
  42
1
  43
1
  50
0
  10
281985.188
  20
4615980.955
 66
1
  0
ATTRIB
  8
FeatureAttribs
 70
0
  1
PNOA-H_AMS_1956-57_33k_ES_PAN_2
  2
NAME
  10
281985.188
  20
4615980.955
 40
34.29208
  0
SEQEND
  0
POLYLINE
  8
Unknown_Area_Type
  70
1
  66
1
  0
VERTEX
  8
Unknown_Area_Type
  10
283386.065
  20
4615837.859
  0
VERTEX
  8
Unknown_Area_Type
  10
283090.000
  20
4615837.859
  0
VERTEX
  8
Unknown_Area_Type
  10
283090.000
  20
4615940.000
  0
VERTEX
  8
Unknown_Area_Type
  10
280582.629
  20
4615940.000
  0
VERTEX
  8
Unknown_Area_Type
  10
280582.024
  20
4616124.051
  0
VERTEX
  8
Unknown_Area_Type
  10
283198.418
  20
4616044.306
  0
VERTEX
  8
Unknown_Area_Type
  10
283388.614
  20
4616038.601
  0
VERTEX
  8
Unknown_Area_Type
  10
283386.065
  20
4615837.859
  0
SEQEND
  8
Unknown_Area_Type
  0
INSERT
  8
FeatureAttribs
  2
FEATURE
  41
1
  42
1
  43
1
  50
0
  10
281991.321
  20
4618007.467
 66
1
  0
ATTRIB
  8
FeatureAttribs
 70
0
  1
PNOA-H_AMS_1956-57_33k_ES_PAN_2
  2
NAME
  10
281991.321
  20
4618007.467
 40
34.29208
  0
SEQEND
  0
POLYLINE
  8
Unknown_Area_Type
  70
1
  66
1
  0
VERTEX
  8
Unknown_Area_Type
  10
283388.614
  20
4616038.601
  0
VERTEX
  8
Unknown_Area_Type
  10
283198.418
  20
4616044.306
  0
VERTEX
  8
Unknown_Area_Type
  10
280582.024
  20
4616124.051
  0
VERTEX
  8
Unknown_Area_Type
  10
280570.000
  20
4619787.500
  0
VERTEX
  8
Unknown_Area_Type
  10
281066.000
  20
4620032.000
  0
VERTEX
  8
Unknown_Area_Type
  10
281067.000
  20
4620032.500
  0
VERTEX
  8
Unknown_Area_Type
  10
283436.500
  20
4619809.000
  0
VERTEX
  8
Unknown_Area_Type
  10
283388.614
  20
4616038.601
  0
SEQEND
  8
Unknown_Area_Type
  0
INSERT
  8
FeatureAttribs
  2
FEATURE
  41
1
  42
1
  43
1
  50
0
  10
281991.321
  20
4618007.467
 66
1
  0
ATTRIB
  8
FeatureAttribs
 70
0
  1
PNOA-H_AMS_1956-57_33k_ES_PAN_2
  2
NAME
  10
281991.321
  20
4618007.467
 40
34.29208
  0
SEQEND
  0
POLYLINE
  8
Unknown_Area_Type
  70
1
  66
1
  0
VERTEX
  8
Unknown_Area_Type
  10
283388.614
  20
4616038.601
  0
VERTEX
  8
Unknown_Area_Type
  10
283436.500
  20
4619809.000
  0
VERTEX
  8
Unknown_Area_Type
  10
281067.000
  20
4620032.500
  0
VERTEX
  8
Unknown_Area_Type
  10
281066.000
  20
4620032.000
  0
VERTEX
  8
Unknown_Area_Type
  10
280570.000
  20
4619787.500
  0
VERTEX
  8
Unknown_Area_Type
  10
280582.024
  20
4616124.051
  0
VERTEX
  8
Unknown_Area_Type
  10
283198.418
  20
4616044.306
  0
VERTEX
  8
Unknown_Area_Type
  10
283388.614
  20
4616038.601
  0
SEQEND
  8
Unknown_Area_Type
  0
INSERT
  8
FeatureAttribs
  2
FEATURE
  41
1
  42
1
  43
1
  50
0
  10
265031.838
  20
4616516.697
 66
1
  0
ATTRIB
  8
FeatureAttribs
 70
0
  1
PNOA-H_AMS_1956-57_33k_ES_PAN_2
  2
NAME
  10
265031.838
  20
4616516.697
 40
34.29208
  0
SEQEND
  0
POLYLINE
  8
Unknown_Area_Type
  70
1
  66
1
  0
VERTEX
  8
Unknown_Area_Type
  10
266458.421
  20
4616570.160
  0
VERTEX
  8
Unknown_Area_Type
  10
266448.553
  20
4616370.000
  0
VERTEX
  8
Unknown_Area_Type
  10
263599.984
  20
4616370.000
  0
VERTEX
  8
Unknown_Area_Type
  10
263615.799
  20
4616663.393
  0
VERTEX
  8
Unknown_Area_Type
  10
265852.714
  20
4616589.795
  0
VERTEX
  8
Unknown_Area_Type
  10
266458.421
  20
4616570.160
  0
SEQEND
  8
Unknown_Area_Type
  0
INSERT
  8
FeatureAttribs
  2
FEATURE
  41
1
  42
1
  43
1
  50
0
  10
265121.776
  20
4618415.448
 66
1
  0
ATTRIB
  8
FeatureAttribs
 70
0
  1
PNOA-H_AMS_1956-57_33k_ES_PAN_2
  2
NAME
  10
265121.776
  20
4618415.448
 40
34.29208
  0
SEQEND
  0
POLYLINE
  8
Unknown_Area_Type
  70
1
  66
1
  0
VERTEX
  8
Unknown_Area_Type
  10
266458.421
  20
4616570.160
  0
VERTEX
  8
Unknown_Area_Type
  10
265852.714
  20
4616589.795
  0
VERTEX
  8
Unknown_Area_Type
  10
263615.799
  20
4616663.393
  0
VERTEX
  8
Unknown_Area_Type
  10
263800.000
  20
4620080.500
  0
VERTEX
  8
Unknown_Area_Type
  10
263800.500
  20
4620086.500
  0
VERTEX
  8
Unknown_Area_Type
  10
263823.500
  20
4620093.500
  0
VERTEX
  8
Unknown_Area_Type
  10
263825.000
  20
4620094.000
  0
VERTEX
  8
Unknown_Area_Type
  10
264945.000
  20
4620423.000
  0
VERTEX
  8
Unknown_Area_Type
  10
266625.000
  20
4619949.000
  0
VERTEX
  8
Unknown_Area_Type
  10
266458.421
  20
4616570.160
  0
SEQEND
  8
Unknown_Area_Type
  0
INSERT
  8
FeatureAttribs
  2
FEATURE
  41
1
  42
1
  43
1
  50
0
  10
265121.776
  20
4618415.448
 66
1
  0
ATTRIB
  8
FeatureAttribs
 70
0
  1
PNOA-H_AMS_1956-57_33k_ES_PAN_2
  2
NAME
  10
265121.776
  20
4618415.448
 40
34.29208
  0
SEQEND
  0
POLYLINE
  8
Unknown_Area_Type
  70
1
  66
1
  0
VERTEX
  8
Unknown_Area_Type
  10
266458.421
  20
4616570.160
  0
VERTEX
  8
Unknown_Area_Type
  10
266625.000
  20
4619949.000
  0
VERTEX
  8
Unknown_Area_Type
  10
264945.000
  20
4620423.000
  0
VERTEX
  8
Unknown_Area_Type
  10
263825.000
  20
4620094.000
  0
VERTEX
  8
Unknown_Area_Type
  10
263823.500
  20
4620093.500
  0
VERTEX
  8
Unknown_Area_Type
  10
263800.500
  20
4620086.500
  0
VERTEX
  8
Unknown_Area_Type
  10
263800.000
  20
4620080.500
  0
VERTEX
  8
Unknown_Area_Type
  10
263615.799
  20
4616663.393
  0
VERTEX
  8
Unknown_Area_Type
  10
265852.714
  20
4616589.795
  0
VERTEX
  8
Unknown_Area_Type
  10
266458.421
  20
4616570.160
  0
SEQEND
  8
Unknown_Area_Type
  0
INSERT
  8
FeatureAttribs
  2
FEATURE
  41
1
  42
1
  43
1
  50
0
  10
270728.853
  20
4616313.341
 66
1
  0
ATTRIB
  8
FeatureAttribs
 70
0
  1
PNOA-H_AMS_1956-57_33k_ES_PAN_2
  2
NAME
  10
270728.853
  20
4616313.341
 40
34.29208
  0
SEQEND
  0
POLYLINE
  8
Unknown_Area_Type
  70
1
  66
1
  0
VERTEX
  8
Unknown_Area_Type
  10
272120.445
  20
4616387.969
  0
VERTEX
  8
Unknown_Area_Type
  10
272116.978
  20
4616150.000
  0
VERTEX
  8
Unknown_Area_Type
  10
269334.409
  20
4616150.000
  0
VERTEX
  8
Unknown_Area_Type
  10
269342.289
  20
4616476.683
  0
VERTEX
  8
Unknown_Area_Type
  10
272120.445
  20
4616387.969
  0
SEQEND
  8
Unknown_Area_Type
  0
INSERT
  8
FeatureAttribs
  2
FEATURE
  41
1
  42
1
  43
1
  50
0
  10
270762.678
  20
4618241.747
 66
1
  0
ATTRIB
  8
FeatureAttribs
 70
0
  1
PNOA-H_AMS_1956-57_33k_ES_PAN_2
  2
NAME
  10
270762.678
  20
4618241.747
 40
34.29208
  0
SEQEND
  0
POLYLINE
  8
Unknown_Area_Type
  70
1
  66
1
  0
VERTEX
  8
Unknown_Area_Type
  10
272120.445
  20
4616387.969
  0
VERTEX
  8
Unknown_Area_Type
  10
269342.289
  20
4616476.683
  0
VERTEX
  8
Unknown_Area_Type
  10
269424.500
  20
4619885.000
  0
VERTEX
  8
Unknown_Area_Type
  10
269425.500
  20
4619888.000
  0
VERTEX
  8
Unknown_Area_Type
  10
269968.000
  20
4620093.000
  0
VERTEX
  8
Unknown_Area_Type
  10
269969.000
  20
4620093.500
  0
VERTEX
  8
Unknown_Area_Type
  10
270352.500
  20
4620238.500
  0
VERTEX
  8
Unknown_Area_Type
  10
270366.000
  20
4620242.500
  0
VERTEX
  8
Unknown_Area_Type
  10
272171.000
  20
4619858.500
  0
VERTEX
  8
Unknown_Area_Type
  10
272120.445
  20
4616387.969
  0
SEQEND
  8
Unknown_Area_Type
  0
INSERT
  8
FeatureAttribs
  2
FEATURE
  41
1
  42
1
  43
1
  50
0
  10
270762.678
  20
4618241.747
 66
1
  0
ATTRIB
  8
FeatureAttribs
 70
0
  1
PNOA-H_AMS_1956-57_33k_ES_PAN_2
  2
NAME
  10
270762.678
  20
4618241.747
 40
34.29208
  0
SEQEND
  0
POLYLINE
  8
Unknown_Area_Type
  70
1
  66
1
  0
VERTEX
  8
Unknown_Area_Type
  10
272120.445
  20
4616387.969
  0
VERTEX
  8
Unknown_Area_Type
  10
272171.000
  20
4619858.500
  0
VERTEX
  8
Unknown_Area_Type
  10
270366.000
  20
4620242.500
  0
VERTEX
  8
Unknown_Area_Type
  10
270352.500
  20
4620238.500
  0
VERTEX
  8
Unknown_Area_Type
  10
269969.000
  20
4620093.500
  0
VERTEX
  8
Unknown_Area_Type
  10
269968.000
  20
4620093.000
  0
VERTEX
  8
Unknown_Area_Type
  10
269425.500
  20
4619888.000
  0
VERTEX
  8
Unknown_Area_Type
  10
269424.500
  20
4619885.000
  0
VERTEX
  8
Unknown_Area_Type
  10
269342.289
  20
4616476.683
  0
VERTEX
  8
Unknown_Area_Type
  10
272120.445
  20
4616387.969
  0
SEQEND
  8
Unknown_Area_Type
  0
INSERT
  8
FeatureAttribs
  2
FEATURE
  41
1
  42
1
  43
1
  50
0
  10
284809.043
  20
4615938.231
 66
1
  0
ATTRIB
  8
FeatureAttribs
 70
0
  1
PNOA-H_AMS_1956-57_33k_ES_PAN_2
  2
NAME
  10
284809.043
  20
4615938.231
 40
34.29208
  0
SEQEND
  0
POLYLINE
  8
Unknown_Area_Type
  70
1
  66
1
  0
VERTEX
  8
Unknown_Area_Type
  10
286228.212
  20
4615837.859
  0
VERTEX
  8
Unknown_Area_Type
  10
283386.002
  20
4615837.859
  0
VERTEX
  8
Unknown_Area_Type
  10
283388.533
  20
4616038.603
  0
VERTEX
  8
Unknown_Area_Type
  10
286231.210
  20
4615953.339
  0
VERTEX
  8
Unknown_Area_Type
  10
286228.212
  20
4615837.859
  0
SEQEND
  8
Unknown_Area_Type
  0
INSERT
  8
FeatureAttribs
  2
FEATURE
  41
1
  42
1
  43
1
  50
0
  10
284851.891
  20
4617976.341
 66
1
  0
ATTRIB
  8
FeatureAttribs
 70
0
  1
PNOA-H_AMS_1956-57_33k_ES_PAN_2
  2
NAME
  10
284851.891
  20
4617976.341
 40
34.29208
  0
SEQEND
  0
POLYLINE
  8
Unknown_Area_Type
  70
1
  66
1
  0
VERTEX
  8
Unknown_Area_Type
  10
286231.210
  20
4615953.339
  0
VERTEX
  8
Unknown_Area_Type
  10
283388.533
  20
4616038.603
  0
VERTEX
  8
Unknown_Area_Type
  10
283436.000
  20
4619803.500
  0
VERTEX
  8
Unknown_Area_Type
  10
283437.000
  20
4619809.500
  0
VERTEX
  8
Unknown_Area_Type
  10
283770.000
  20
4619987.500
  0
VERTEX
  8
Unknown_Area_Type
  10
283771.000
  20
4619988.000
  0
VERTEX
  8
Unknown_Area_Type
  10
286334.000
  20
4619913.000
  0
VERTEX
  8
Unknown_Area_Type
  10
286231.210
  20
4615953.339
  0
SEQEND
  8
Unknown_Area_Type
  0
INSERT
  8
FeatureAttribs
  2
FEATURE
  41
1
  42
1
  43
1
  50
0
  10
284851.891
  20
4617976.341
 66
1
  0
ATTRIB
  8
FeatureAttribs
 70
0
  1
PNOA-H_AMS_1956-57_33k_ES_PAN_2
  2
NAME
  10
284851.891
  20
4617976.341
 40
34.29208
  0
SEQEND
  0
POLYLINE
  8
Unknown_Area_Type
  70
1
  66
1
  0
VERTEX
  8
Unknown_Area_Type
  10
286231.210
  20
4615953.339
  0
VERTEX
  8
Unknown_Area_Type
  10
286334.000
  20
4619913.000
  0
VERTEX
  8
Unknown_Area_Type
  10
283771.000
  20
4619988.000
  0
VERTEX
  8
Unknown_Area_Type
  10
283770.000
  20
4619987.500
  0
VERTEX
  8
Unknown_Area_Type
  10
283437.000
  20
4619809.500
  0
VERTEX
  8
Unknown_Area_Type
  10
283436.000
  20
4619803.500
  0
VERTEX
  8
Unknown_Area_Type
  10
283388.533
  20
4616038.603
  0
VERTEX
  8
Unknown_Area_Type
  10
286231.210
  20
4615953.339
  0
SEQEND
  8
Unknown_Area_Type
  0
INSERT
  8
FeatureAttribs
  2
FEATURE
  41
1
  42
1
  43
1
  50
0
  10
262625.530
  20
4631288.779
 66
1
  0
ATTRIB
  8
FeatureAttribs
 70
0
  1
PNOA-H_AMS_1956-57_33k_ES_PAN_2
  2
NAME
  10
262625.530
  20
4631288.779
 40
34.29208
  0
SEQEND
  0
POLYLINE
  8
Unknown_Area_Type
  70
1
  66
1
  0
VERTEX
  8
Unknown_Area_Type
  10
262939.465
  20
4633452.339
  0
VERTEX
  8
Unknown_Area_Type
  10
262921.010
  20
4632897.220
  0
VERTEX
  8
Unknown_Area_Type
  10
262844.132
  20
4630583.875
  0
VERTEX
  8
Unknown_Area_Type
  10
262795.678
  20
4629125.219
  0
VERTEX
  8
Unknown_Area_Type
  10
262383.502
  20
4629349.437
  0
VERTEX
  8
Unknown_Area_Type
  10
262383.502
  20
4633320.936
  0
VERTEX
  8
Unknown_Area_Type
  10
262939.465
  20
4633452.339
  0
SEQEND
  8
Unknown_Area_Type
  0
INSERT
  8
FeatureAttribs
  2
FEATURE
  41
1
  42
1
  43
1
  50
0
  10
263925.709
  20
4631315.259
 66
1
  0
ATTRIB
  8
FeatureAttribs
 70
0
  1
PNOA-H_AMS_1956-57_33k_ES_PAN_2
  2
NAME
  10
263925.709
  20
4631315.259
 40
34.29208
  0
SEQEND
  0
POLYLINE
  8
Unknown_Area_Type
  70
1
  66
1
  0
VERTEX
  8
Unknown_Area_Type
  10
262939.465
  20
4633452.339
  0
VERTEX
  8
Unknown_Area_Type
  10
263862.500
  20
4633670.500
  0
VERTEX
  8
Unknown_Area_Type
  10
263864.500
  20
4633671.000
  0
VERTEX
  8
Unknown_Area_Type
  10
263873.500
  20
4633669.000
  0
VERTEX
  8
Unknown_Area_Type
  10
265041.500
  20
4633299.500
  0
VERTEX
  8
Unknown_Area_Type
  10
265019.000
  20
4629362.500
  0
VERTEX
  8
Unknown_Area_Type
  10
263075.500
  20
4628973.000
  0
VERTEX
  8
Unknown_Area_Type
  10
262795.678
  20
4629125.219
  0
VERTEX
  8
Unknown_Area_Type
  10
262844.132
  20
4630583.875
  0
VERTEX
  8
Unknown_Area_Type
  10
262921.010
  20
4632897.220
  0
VERTEX
  8
Unknown_Area_Type
  10
262939.465
  20
4633452.339
  0
SEQEND
  8
Unknown_Area_Type
  0
INSERT
  8
FeatureAttribs
  2
FEATURE
  41
1
  42
1
  43
1
  50
0
  10
263925.709
  20
4631315.259
 66
1
  0
ATTRIB
  8
FeatureAttribs
 70
0
  1
PNOA-H_AMS_1956-57_33k_ES_PAN_2
  2
NAME
  10
263925.709
  20
4631315.259
 40
34.29208
  0
SEQEND
  0
POLYLINE
  8
Unknown_Area_Type
  70
1
  66
1
  0
VERTEX
  8
Unknown_Area_Type
  10
262939.465
  20
4633452.339
  0
VERTEX
  8
Unknown_Area_Type
  10
262921.010
  20
4632897.220
  0
VERTEX
  8
Unknown_Area_Type
  10
262844.132
  20
4630583.875
  0
VERTEX
  8
Unknown_Area_Type
  10
262795.678
  20
4629125.219
  0
VERTEX
  8
Unknown_Area_Type
  10
263075.500
  20
4628973.000
  0
VERTEX
  8
Unknown_Area_Type
  10
265019.000
  20
4629362.500
  0
VERTEX
  8
Unknown_Area_Type
  10
265041.500
  20
4633299.500
  0
VERTEX
  8
Unknown_Area_Type
  10
263873.500
  20
4633669.000
  0
VERTEX
  8
Unknown_Area_Type
  10
263864.500
  20
4633671.000
  0
VERTEX
  8
Unknown_Area_Type
  10
263862.500
  20
4633670.500
  0
VERTEX
  8
Unknown_Area_Type
  10
262939.465
  20
4633452.339
  0
SEQEND
  8
Unknown_Area_Type
  0
INSERT
  8
FeatureAttribs
  2
FEATURE
  41
1
  42
1
  43
1
  50
0
  10
279165.822
  20
4616075.654
 66
1
  0
ATTRIB
  8
FeatureAttribs
 70
0
  1
PNOA-H_AMS_1956-57_33k_ES_PAN_2
  2
NAME
  10
279165.822
  20
4616075.654
 40
34.29208
  0
SEQEND
  0
POLYLINE
  8
Unknown_Area_Type
  70
1
  66
1
  0
VERTEX
  8
Unknown_Area_Type
  10
280582.023
  20
4616124.051
  0
VERTEX
  8
Unknown_Area_Type
  10
280582.627
  20
4615940.000
  0
VERTEX
  8
Unknown_Area_Type
  10
277748.301
  20
4615940.000
  0
VERTEX
  8
Unknown_Area_Type
  10
277750.623
  20
4616211.308
  0
VERTEX
  8
Unknown_Area_Type
  10
279729.305
  20
4616150.041
  0
VERTEX
  8
Unknown_Area_Type
  10
280582.023
  20
4616124.051
  0
SEQEND
  8
Unknown_Area_Type
  0
INSERT
  8
FeatureAttribs
  2
FEATURE
  41
1
  42
1
  43
1
  50
0
  10
279168.750
  20
4618028.628
 66
1
  0
ATTRIB
  8
FeatureAttribs
 70
0
  1
PNOA-H_AMS_1956-57_33k_ES_PAN_2
  2
NAME
  10
279168.750
  20
4618028.628
 40
34.29208
  0
SEQEND
  0
POLYLINE
  8
Unknown_Area_Type
  70
1
  66
1
  0
VERTEX
  8
Unknown_Area_Type
  10
280582.023
  20
4616124.051
  0
VERTEX
  8
Unknown_Area_Type
  10
279729.305
  20
4616150.041
  0
VERTEX
  8
Unknown_Area_Type
  10
277750.623
  20
4616211.308
  0
VERTEX
  8
Unknown_Area_Type
  10
277781.000
  20
4619761.000
  0
VERTEX
  8
Unknown_Area_Type
  10
278320.000
  20
4620014.500
  0
VERTEX
  8
Unknown_Area_Type
  10
280207.500
  20
4619824.000
  0
VERTEX
  8
Unknown_Area_Type
  10
280210.000
  20
4619824.000
  0
VERTEX
  8
Unknown_Area_Type
  10
280570.000
  20
4619787.500
  0
VERTEX
  8
Unknown_Area_Type
  10
280582.023
  20
4616124.051
  0
SEQEND
  8
Unknown_Area_Type
  0
INSERT
  8
FeatureAttribs
  2
FEATURE
  41
1
  42
1
  43
1
  50
0
  10
279168.750
  20
4618028.628
 66
1
  0
ATTRIB
  8
FeatureAttribs
 70
0
  1
PNOA-H_AMS_1956-57_33k_ES_PAN_2
  2
NAME
  10
279168.750
  20
4618028.628
 40
34.29208
  0
SEQEND
  0
POLYLINE
  8
Unknown_Area_Type
  70
1
  66
1
  0
VERTEX
  8
Unknown_Area_Type
  10
280582.023
  20
4616124.051
  0
VERTEX
  8
Unknown_Area_Type
  10
280570.000
  20
4619787.500
  0
VERTEX
  8
Unknown_Area_Type
  10
280210.000
  20
4619824.000
  0
VERTEX
  8
Unknown_Area_Type
  10
280207.500
  20
4619824.000
  0
VERTEX
  8
Unknown_Area_Type
  10
278320.000
  20
4620014.500
  0
VERTEX
  8
Unknown_Area_Type
  10
277781.000
  20
4619761.000
  0
VERTEX
  8
Unknown_Area_Type
  10
277750.623
  20
4616211.308
  0
VERTEX
  8
Unknown_Area_Type
  10
279729.305
  20
4616150.041
  0
VERTEX
  8
Unknown_Area_Type
  10
280582.023
  20
4616124.051
  0
SEQEND
  8
Unknown_Area_Type
  0
INSERT
  8
FeatureAttribs
  2
FEATURE
  41
1
  42
1
  43
1
  50
0
  10
266407.804
  20
4631292.031
 66
1
  0
ATTRIB
  8
FeatureAttribs
 70
0
  1
PNOA-H_AMS_1956-57_33k_ES_PAN_2
  2
NAME
  10
266407.804
  20
4631292.031
 40
34.29208
  0
SEQEND
  0
POLYLINE
  8
Unknown_Area_Type
  70
1
  66
1
  0
VERTEX
  8
Unknown_Area_Type
  10
266535.500
  20
4633645.000
  0
VERTEX
  8
Unknown_Area_Type
  10
266547.000
  20
4633642.500
  0
VERTEX
  8
Unknown_Area_Type
  10
267823.500
  20
4633237.000
  0
VERTEX
  8
Unknown_Area_Type
  10
267787.500
  20
4629344.500
  0
VERTEX
  8
Unknown_Area_Type
  10
265889.000
  20
4628897.000
  0
VERTEX
  8
Unknown_Area_Type
  10
265885.500
  20
4628897.000
  0
VERTEX
  8
Unknown_Area_Type
  10
265019.000
  20
4629362.500
  0
VERTEX
  8
Unknown_Area_Type
  10
265041.500
  20
4633299.500
  0
VERTEX
  8
Unknown_Area_Type
  10
266533.500
  20
4633644.500
  0
VERTEX
  8
Unknown_Area_Type
  10
266535.500
  20
4633645.000
  0
SEQEND
  8
Unknown_Area_Type
  0
INSERT
  8
FeatureAttribs
  2
FEATURE
  41
1
  42
1
  43
1
  50
0
  10
266407.804
  20
4631292.031
 66
1
  0
ATTRIB
  8
FeatureAttribs
 70
0
  1
PNOA-H_AMS_1956-57_33k_ES_PAN_2
  2
NAME
  10
266407.804
  20
4631292.031
 40
34.29208
  0
SEQEND
  0
POLYLINE
  8
Unknown_Area_Type
  70
1
  66
1
  0
VERTEX
  8
Unknown_Area_Type
  10
266535.500
  20
4633645.000
  0
VERTEX
  8
Unknown_Area_Type
  10
266533.500
  20
4633644.500
  0
VERTEX
  8
Unknown_Area_Type
  10
265041.500
  20
4633299.500
  0
VERTEX
  8
Unknown_Area_Type
  10
265019.000
  20
4629362.500
  0
VERTEX
  8
Unknown_Area_Type
  10
265885.500
  20
4628897.000
  0
VERTEX
  8
Unknown_Area_Type
  10
265889.000
  20
4628897.000
  0
VERTEX
  8
Unknown_Area_Type
  10
267787.500
  20
4629344.500
  0
VERTEX
  8
Unknown_Area_Type
  10
267823.500
  20
4633237.000
  0
VERTEX
  8
Unknown_Area_Type
  10
266547.000
  20
4633642.500
  0
VERTEX
  8
Unknown_Area_Type
  10
266535.500
  20
4633645.000
  0
SEQEND
  8
Unknown_Area_Type
  0
INSERT
  8
FeatureAttribs
  2
FEATURE
  41
1
  42
1
  43
1
  50
0
  10
271963.690
  20
4631240.679
 66
1
  0
ATTRIB
  8
FeatureAttribs
 70
0
  1
PNOA-H_AMS_1956-57_33k_ES_PAN_2
  2
NAME
  10
271963.690
  20
4631240.679
 40
34.29208
  0
SEQEND
  0
POLYLINE
  8
Unknown_Area_Type
  70
1
  66
1
  0
VERTEX
  8
Unknown_Area_Type
  10
272018.000
  20
4633563.000
  0
VERTEX
  8
Unknown_Area_Type
  10
273341.000
  20
4633239.500
  0
VERTEX
  8
Unknown_Area_Type
  10
273349.000
  20
4629255.500
  0
VERTEX
  8
Unknown_Area_Type
  10
271518.000
  20
4628840.500
  0
VERTEX
  8
Unknown_Area_Type
  10
270623.000
  20
4629285.000
  0
VERTEX
  8
Unknown_Area_Type
  10
270567.000
  20
4633218.500
  0
VERTEX
  8
Unknown_Area_Type
  10
271862.000
  20
4633601.000
  0
VERTEX
  8
Unknown_Area_Type
  10
272015.500
  20
4633563.500
  0
VERTEX
  8
Unknown_Area_Type
  10
272018.000
  20
4633563.000
  0
SEQEND
  8
Unknown_Area_Type
  0
INSERT
  8
FeatureAttribs
  2
FEATURE
  41
1
  42
1
  43
1
  50
0
  10
271963.690
  20
4631240.679
 66
1
  0
ATTRIB
  8
FeatureAttribs
 70
0
  1
PNOA-H_AMS_1956-57_33k_ES_PAN_2
  2
NAME
  10
271963.690
  20
4631240.679
 40
34.29208
  0
SEQEND
  0
POLYLINE
  8
Unknown_Area_Type
  70
1
  66
1
  0
VERTEX
  8
Unknown_Area_Type
  10
272018.000
  20
4633563.000
  0
VERTEX
  8
Unknown_Area_Type
  10
272015.500
  20
4633563.500
  0
VERTEX
  8
Unknown_Area_Type
  10
271862.000
  20
4633601.000
  0
VERTEX
  8
Unknown_Area_Type
  10
270567.000
  20
4633218.500
  0
VERTEX
  8
Unknown_Area_Type
  10
270623.000
  20
4629285.000
  0
VERTEX
  8
Unknown_Area_Type
  10
271518.000
  20
4628840.500
  0
VERTEX
  8
Unknown_Area_Type
  10
273349.000
  20
4629255.500
  0
VERTEX
  8
Unknown_Area_Type
  10
273341.000
  20
4633239.500
  0
VERTEX
  8
Unknown_Area_Type
  10
272018.000
  20
4633563.000
  0
SEQEND
  8
Unknown_Area_Type
  0
INSERT
  8
FeatureAttribs
  2
FEATURE
  41
1
  42
1
  43
1
  50
0
  10
274718.820
  20
4631236.898
 66
1
  0
ATTRIB
  8
FeatureAttribs
 70
0
  1
PNOA-H_AMS_1956-57_33k_ES_PAN_2
  2
NAME
  10
274718.820
  20
4631236.898
 40
34.29208
  0
SEQEND
  0
POLYLINE
  8
Unknown_Area_Type
  70
1
  66
1
  0
VERTEX
  8
Unknown_Area_Type
  10
276114.000
  20
4633279.500
  0
VERTEX
  8
Unknown_Area_Type
  10
276114.500
  20
4633217.500
  0
VERTEX
  8
Unknown_Area_Type
  10
276083.500
  20
4629193.000
  0
VERTEX
  8
Unknown_Area_Type
  10
274303.000
  20
4628808.500
  0
VERTEX
  8
Unknown_Area_Type
  10
274300.500
  20
4628808.500
  0
VERTEX
  8
Unknown_Area_Type
  10
274286.500
  20
4628815.000
  0
VERTEX
  8
Unknown_Area_Type
  10
273349.000
  20
4629255.500
  0
VERTEX
  8
Unknown_Area_Type
  10
273341.000
  20
4633239.500
  0
VERTEX
  8
Unknown_Area_Type
  10
274590.500
  20
4633641.000
  0
VERTEX
  8
Unknown_Area_Type
  10
274598.000
  20
4633640.000
  0
VERTEX
  8
Unknown_Area_Type
  10
276112.500
  20
4633279.500
  0
VERTEX
  8
Unknown_Area_Type
  10
276114.000
  20
4633279.500
  0
SEQEND
  8
Unknown_Area_Type
  0
INSERT
  8
FeatureAttribs
  2
FEATURE
  41
1
  42
1
  43
1
  50
0
  10
274718.820
  20
4631236.898
 66
1
  0
ATTRIB
  8
FeatureAttribs
 70
0
  1
PNOA-H_AMS_1956-57_33k_ES_PAN_2
  2
NAME
  10
274718.820
  20
4631236.898
 40
34.29208
  0
SEQEND
  0
POLYLINE
  8
Unknown_Area_Type
  70
1
  66
1
  0
VERTEX
  8
Unknown_Area_Type
  10
276114.000
  20
4633279.500
  0
VERTEX
  8
Unknown_Area_Type
  10
276112.500
  20
4633279.500
  0
VERTEX
  8
Unknown_Area_Type
  10
274598.000
  20
4633640.000
  0
VERTEX
  8
Unknown_Area_Type
  10
274590.500
  20
4633641.000
  0
VERTEX
  8
Unknown_Area_Type
  10
273341.000
  20
4633239.500
  0
VERTEX
  8
Unknown_Area_Type
  10
273349.000
  20
4629255.500
  0
VERTEX
  8
Unknown_Area_Type
  10
274286.500
  20
4628815.000
  0
VERTEX
  8
Unknown_Area_Type
  10
274300.500
  20
4628808.500
  0
VERTEX
  8
Unknown_Area_Type
  10
274303.000
  20
4628808.500
  0
VERTEX
  8
Unknown_Area_Type
  10
276083.500
  20
4629193.000
  0
VERTEX
  8
Unknown_Area_Type
  10
276114.500
  20
4633217.500
  0
VERTEX
  8
Unknown_Area_Type
  10
276114.000
  20
4633279.500
  0
SEQEND
  8
Unknown_Area_Type
  0
INSERT
  8
FeatureAttribs
  2
FEATURE
  41
1
  42
1
  43
1
  50
0
  10
287205.486
  20
4615895.593
 66
1
  0
ATTRIB
  8
FeatureAttribs
 70
0
  1
PNOA-H_AMS_1956-57_33k_ES_PAN_2
  2
NAME
  10
287205.486
  20
4615895.593
 40
34.29208
  0
SEQEND
  0
POLYLINE
  8
Unknown_Area_Type
  70
1
  66
1
  0
VERTEX
  8
Unknown_Area_Type
  10
289072.328
  20
4615869.286
  0
VERTEX
  8
Unknown_Area_Type
  10
289071.403
  20
4615837.859
  0
VERTEX
  8
Unknown_Area_Type
  10
286228.623
  20
4615837.859
  0
VERTEX
  8
Unknown_Area_Type
  10
286231.609
  20
4615953.327
  0
VERTEX
  8
Unknown_Area_Type
  10
286667.517
  20
4615940.252
  0
VERTEX
  8
Unknown_Area_Type
  10
289072.328
  20
4615869.286
  0
SEQEND
  8
Unknown_Area_Type
  0
INSERT
  8
FeatureAttribs
  2
FEATURE
  41
1
  42
1
  43
1
  50
0
  10
287712.425
  20
4617930.593
 66
1
  0
ATTRIB
  8
FeatureAttribs
 70
0
  1
PNOA-H_AMS_1956-57_33k_ES_PAN_2
  2
NAME
  10
287712.425
  20
4617930.593
 40
34.29208
  0
SEQEND
  0
POLYLINE
  8
Unknown_Area_Type
  70
1
  66
1
  0
VERTEX
  8
Unknown_Area_Type
  10
289072.328
  20
4615869.286
  0
VERTEX
  8
Unknown_Area_Type
  10
286667.517
  20
4615940.252
  0
VERTEX
  8
Unknown_Area_Type
  10
286231.609
  20
4615953.327
  0
VERTEX
  8
Unknown_Area_Type
  10
286334.000
  20
4619913.000
  0
VERTEX
  8
Unknown_Area_Type
  10
286390.500
  20
4619944.000
  0
VERTEX
  8
Unknown_Area_Type
  10
288804.000
  20
4619956.000
  0
VERTEX
  8
Unknown_Area_Type
  10
288907.500
  20
4619956.500
  0
VERTEX
  8
Unknown_Area_Type
  10
288990.000
  20
4619956.500
  0
VERTEX
  8
Unknown_Area_Type
  10
289189.500
  20
4619849.000
  0
VERTEX
  8
Unknown_Area_Type
  10
289072.328
  20
4615869.286
  0
SEQEND
  8
Unknown_Area_Type
  0
INSERT
  8
FeatureAttribs
  2
FEATURE
  41
1
  42
1
  43
1
  50
0
  10
287712.425
  20
4617930.593
 66
1
  0
ATTRIB
  8
FeatureAttribs
 70
0
  1
PNOA-H_AMS_1956-57_33k_ES_PAN_2
  2
NAME
  10
287712.425
  20
4617930.593
 40
34.29208
  0
SEQEND
  0
POLYLINE
  8
Unknown_Area_Type
  70
1
  66
1
  0
VERTEX
  8
Unknown_Area_Type
  10
289072.328
  20
4615869.286
  0
VERTEX
  8
Unknown_Area_Type
  10
289189.500
  20
4619849.000
  0
VERTEX
  8
Unknown_Area_Type
  10
288990.000
  20
4619956.500
  0
VERTEX
  8
Unknown_Area_Type
  10
288907.500
  20
4619956.500
  0
VERTEX
  8
Unknown_Area_Type
  10
288804.000
  20
4619956.000
  0
VERTEX
  8
Unknown_Area_Type
  10
286390.500
  20
4619944.000
  0
VERTEX
  8
Unknown_Area_Type
  10
286334.000
  20
4619913.000
  0
VERTEX
  8
Unknown_Area_Type
  10
286231.609
  20
4615953.327
  0
VERTEX
  8
Unknown_Area_Type
  10
286667.517
  20
4615940.252
  0
VERTEX
  8
Unknown_Area_Type
  10
289072.328
  20
4615869.286
  0
SEQEND
  8
Unknown_Area_Type
  0
INSERT
  8
FeatureAttribs
  2
FEATURE
  41
1
  42
1
  43
1
  50
0
  10
269193.473
  20
4631232.768
 66
1
  0
ATTRIB
  8
FeatureAttribs
 70
0
  1
PNOA-H_AMS_1956-57_33k_ES_PAN_2
  2
NAME
  10
269193.473
  20
4631232.768
 40
34.29208
  0
SEQEND
  0
POLYLINE
  8
Unknown_Area_Type
  70
1
  66
1
  0
VERTEX
  8
Unknown_Area_Type
  10
267921.000
  20
4633262.500
  0
VERTEX
  8
Unknown_Area_Type
  10
269191.000
  20
4633592.000
  0
VERTEX
  8
Unknown_Area_Type
  10
269198.500
  20
4633593.000
  0
VERTEX
  8
Unknown_Area_Type
  10
270567.000
  20
4633219.000
  0
VERTEX
  8
Unknown_Area_Type
  10
270623.000
  20
4629285.000
  0
VERTEX
  8
Unknown_Area_Type
  10
268714.500
  20
4628859.500
  0
VERTEX
  8
Unknown_Area_Type
  10
267787.500
  20
4629344.500
  0
VERTEX
  8
Unknown_Area_Type
  10
267823.000
  20
4633230.000
  0
VERTEX
  8
Unknown_Area_Type
  10
267823.500
  20
4633237.000
  0
VERTEX
  8
Unknown_Area_Type
  10
267824.500
  20
4633237.500
  0
VERTEX
  8
Unknown_Area_Type
  10
267919.000
  20
4633262.000
  0
VERTEX
  8
Unknown_Area_Type
  10
267921.000
  20
4633262.500
  0
SEQEND
  8
Unknown_Area_Type
  0
INSERT
  8
FeatureAttribs
  2
FEATURE
  41
1
  42
1
  43
1
  50
0
  10
269193.473
  20
4631232.768
 66
1
  0
ATTRIB
  8
FeatureAttribs
 70
0
  1
PNOA-H_AMS_1956-57_33k_ES_PAN_2
  2
NAME
  10
269193.473
  20
4631232.768
 40
34.29208
  0
SEQEND
  0
POLYLINE
  8
Unknown_Area_Type
  70
1
  66
1
  0
VERTEX
  8
Unknown_Area_Type
  10
267921.000
  20
4633262.500
  0
VERTEX
  8
Unknown_Area_Type
  10
267919.000
  20
4633262.000
  0
VERTEX
  8
Unknown_Area_Type
  10
267824.500
  20
4633237.500
  0
VERTEX
  8
Unknown_Area_Type
  10
267823.500
  20
4633237.000
  0
VERTEX
  8
Unknown_Area_Type
  10
267823.000
  20
4633230.000
  0
VERTEX
  8
Unknown_Area_Type
  10
267787.500
  20
4629344.500
  0
VERTEX
  8
Unknown_Area_Type
  10
268714.500
  20
4628859.500
  0
VERTEX
  8
Unknown_Area_Type
  10
270623.000
  20
4629285.000
  0
VERTEX
  8
Unknown_Area_Type
  10
270567.000
  20
4633219.000
  0
VERTEX
  8
Unknown_Area_Type
  10
269198.500
  20
4633593.000
  0
VERTEX
  8
Unknown_Area_Type
  10
269191.000
  20
4633592.000
  0
VERTEX
  8
Unknown_Area_Type
  10
267921.000
  20
4633262.500
  0
SEQEND
  8
Unknown_Area_Type
  0
INSERT
  8
FeatureAttribs
  2
FEATURE
  41
1
  42
1
  43
1
  50
0
  10
285843.090
  20
4631085.311
 66
1
  0
ATTRIB
  8
FeatureAttribs
 70
0
  1
PNOA-H_AMS_1956-57_33k_ES_PAN_2
  2
NAME
  10
285843.090
  20
4631085.311
 40
34.29208
  0
SEQEND
  0
POLYLINE
  8
Unknown_Area_Type
  70
1
  66
1
  0
VERTEX
  8
Unknown_Area_Type
  10
286354.000
  20
4633374.000
  0
VERTEX
  8
Unknown_Area_Type
  10
287217.000
  20
4633260.500
  0
VERTEX
  8
Unknown_Area_Type
  10
287297.500
  20
4628989.500
  0
VERTEX
  8
Unknown_Area_Type
  10
285287.000
  20
4628604.000
  0
VERTEX
  8
Unknown_Area_Type
  10
284455.000
  20
4628998.000
  0
VERTEX
  8
Unknown_Area_Type
  10
284464.000
  20
4633278.500
  0
VERTEX
  8
Unknown_Area_Type
  10
285128.000
  20
4633536.000
  0
VERTEX
  8
Unknown_Area_Type
  10
286350.500
  20
4633374.500
  0
VERTEX
  8
Unknown_Area_Type
  10
286354.000
  20
4633374.000
  0
SEQEND
  8
Unknown_Area_Type
  0
INSERT
  8
FeatureAttribs
  2
FEATURE
  41
1
  42
1
  43
1
  50
0
  10
285843.090
  20
4631085.311
 66
1
  0
ATTRIB
  8
FeatureAttribs
 70
0
  1
PNOA-H_AMS_1956-57_33k_ES_PAN_2
  2
NAME
  10
285843.090
  20
4631085.311
 40
34.29208
  0
SEQEND
  0
POLYLINE
  8
Unknown_Area_Type
  70
1
  66
1
  0
VERTEX
  8
Unknown_Area_Type
  10
286354.000
  20
4633374.000
  0
VERTEX
  8
Unknown_Area_Type
  10
286350.500
  20
4633374.500
  0
VERTEX
  8
Unknown_Area_Type
  10
285128.000
  20
4633536.000
  0
VERTEX
  8
Unknown_Area_Type
  10
284464.000
  20
4633278.500
  0
VERTEX
  8
Unknown_Area_Type
  10
284455.000
  20
4628998.000
  0
VERTEX
  8
Unknown_Area_Type
  10
285287.000
  20
4628604.000
  0
VERTEX
  8
Unknown_Area_Type
  10
287297.500
  20
4628989.500
  0
VERTEX
  8
Unknown_Area_Type
  10
287217.000
  20
4633260.500
  0
VERTEX
  8
Unknown_Area_Type
  10
286354.000
  20
4633374.000
  0
SEQEND
  8
Unknown_Area_Type
  0
INSERT
  8
FeatureAttribs
  2
FEATURE
  41
1
  42
1
  43
1
  50
0
  10
280249.999
  20
4631158.251
 66
1
  0
ATTRIB
  8
FeatureAttribs
 70
0
  1
PNOA-H_AMS_1956-57_33k_ES_PAN_2
  2
NAME
  10
280249.999
  20
4631158.251
 40
34.29208
  0
SEQEND
  0
POLYLINE
  8
Unknown_Area_Type
  70
1
  66
1
  0
VERTEX
  8
Unknown_Area_Type
  10
280210.000
  20
4633524.500
  0
VERTEX
  8
Unknown_Area_Type
  10
281682.500
  20
4633244.000
  0
VERTEX
  8
Unknown_Area_Type
  10
281656.000
  20
4629109.500
  0
VERTEX
  8
Unknown_Area_Type
  10
279800.000
  20
4628670.500
  0
VERTEX
  8
Unknown_Area_Type
  10
278838.000
  20
4629130.000
  0
VERTEX
  8
Unknown_Area_Type
  10
278881.000
  20
4633277.500
  0
VERTEX
  8
Unknown_Area_Type
  10
279795.500
  20
4633603.500
  0
VERTEX
  8
Unknown_Area_Type
  10
280207.500
  20
4633525.000
  0
VERTEX
  8
Unknown_Area_Type
  10
280210.000
  20
4633524.500
  0
SEQEND
  8
Unknown_Area_Type
  0
INSERT
  8
FeatureAttribs
  2
FEATURE
  41
1
  42
1
  43
1
  50
0
  10
280249.999
  20
4631158.251
 66
1
  0
ATTRIB
  8
FeatureAttribs
 70
0
  1
PNOA-H_AMS_1956-57_33k_ES_PAN_2
  2
NAME
  10
280249.999
  20
4631158.251
 40
34.29208
  0
SEQEND
  0
POLYLINE
  8
Unknown_Area_Type
  70
1
  66
1
  0
VERTEX
  8
Unknown_Area_Type
  10
280210.000
  20
4633524.500
  0
VERTEX
  8
Unknown_Area_Type
  10
280207.500
  20
4633525.000
  0
VERTEX
  8
Unknown_Area_Type
  10
279795.500
  20
4633603.500
  0
VERTEX
  8
Unknown_Area_Type
  10
278881.000
  20
4633277.500
  0
VERTEX
  8
Unknown_Area_Type
  10
278838.000
  20
4629130.000
  0
VERTEX
  8
Unknown_Area_Type
  10
279800.000
  20
4628670.500
  0
VERTEX
  8
Unknown_Area_Type
  10
281656.000
  20
4629109.500
  0
VERTEX
  8
Unknown_Area_Type
  10
281682.500
  20
4633244.000
  0
VERTEX
  8
Unknown_Area_Type
  10
280210.000
  20
4633524.500
  0
SEQEND
  8
Unknown_Area_Type
  0
INSERT
  8
FeatureAttribs
  2
FEATURE
  41
1
  42
1
  43
1
  50
0
  10
277471.077
  20
4631204.957
 66
1
  0
ATTRIB
  8
FeatureAttribs
 70
0
  1
PNOA-H_AMS_1956-57_33k_ES_PAN_2
  2
NAME
  10
277471.077
  20
4631204.957
 40
34.29208
  0
SEQEND
  0
POLYLINE
  8
Unknown_Area_Type
  70
1
  66
1
  0
VERTEX
  8
Unknown_Area_Type
  10
276113.500
  20
4633152.500
  0
VERTEX
  8
Unknown_Area_Type
  10
276114.500
  20
4633279.500
  0
VERTEX
  8
Unknown_Area_Type
  10
277165.500
  20
4633619.500
  0
VERTEX
  8
Unknown_Area_Type
  10
278881.000
  20
4633277.500
  0
VERTEX
  8
Unknown_Area_Type
  10
278838.000
  20
4629130.000
  0
VERTEX
  8
Unknown_Area_Type
  10
276990.500
  20
4628766.000
  0
VERTEX
  8
Unknown_Area_Type
  10
276083.500
  20
4629193.000
  0
VERTEX
  8
Unknown_Area_Type
  10
276113.500
  20
4633087.000
  0
VERTEX
  8
Unknown_Area_Type
  10
276113.500
  20
4633152.500
  0
SEQEND
  8
Unknown_Area_Type
  0
INSERT
  8
FeatureAttribs
  2
FEATURE
  41
1
  42
1
  43
1
  50
0
  10
277471.077
  20
4631204.957
 66
1
  0
ATTRIB
  8
FeatureAttribs
 70
0
  1
PNOA-H_AMS_1956-57_33k_ES_PAN_2
  2
NAME
  10
277471.077
  20
4631204.957
 40
34.29208
  0
SEQEND
  0
POLYLINE
  8
Unknown_Area_Type
  70
1
  66
1
  0
VERTEX
  8
Unknown_Area_Type
  10
276113.500
  20
4633152.500
  0
VERTEX
  8
Unknown_Area_Type
  10
276113.500
  20
4633087.000
  0
VERTEX
  8
Unknown_Area_Type
  10
276083.500
  20
4629193.000
  0
VERTEX
  8
Unknown_Area_Type
  10
276990.500
  20
4628766.000
  0
VERTEX
  8
Unknown_Area_Type
  10
278838.000
  20
4629130.000
  0
VERTEX
  8
Unknown_Area_Type
  10
278881.000
  20
4633277.500
  0
VERTEX
  8
Unknown_Area_Type
  10
277165.500
  20
4633619.500
  0
VERTEX
  8
Unknown_Area_Type
  10
276114.500
  20
4633279.500
  0
VERTEX
  8
Unknown_Area_Type
  10
276113.500
  20
4633152.500
  0
SEQEND
  8
Unknown_Area_Type
  0
INSERT
  8
FeatureAttribs
  2
FEATURE
  41
1
  42
1
  43
1
  50
0
  10
288681.492
  20
4631081.265
 66
1
  0
ATTRIB
  8
FeatureAttribs
 70
0
  1
PNOA-H_AMS_1956-57_33k_ES_PAN_2
  2
NAME
  10
288681.492
  20
4631081.265
 40
34.29208
  0
SEQEND
  0
POLYLINE
  8
Unknown_Area_Type
  70
1
  66
1
  0
VERTEX
  8
Unknown_Area_Type
  10
287750.500
  20
4633505.500
  0
VERTEX
  8
Unknown_Area_Type
  10
288400.500
  20
4633438.000
  0
VERTEX
  8
Unknown_Area_Type
  10
288402.000
  20
4633438.000
  0
VERTEX
  8
Unknown_Area_Type
  10
290083.000
  20
4633264.000
  0
VERTEX
  8
Unknown_Area_Type
  10
290181.500
  20
4628943.500
  0
VERTEX
  8
Unknown_Area_Type
  10
288099.000
  20
4628612.500
  0
VERTEX
  8
Unknown_Area_Type
  10
288092.000
  20
4628614.000
  0
VERTEX
  8
Unknown_Area_Type
  10
287297.500
  20
4628989.500
  0
VERTEX
  8
Unknown_Area_Type
  10
287217.000
  20
4633260.500
  0
VERTEX
  8
Unknown_Area_Type
  10
287750.500
  20
4633505.500
  0
SEQEND
  8
Unknown_Area_Type
  0
INSERT
  8
FeatureAttribs
  2
FEATURE
  41
1
  42
1
  43
1
  50
0
  10
288681.492
  20
4631081.265
 66
1
  0
ATTRIB
  8
FeatureAttribs
 70
0
  1
PNOA-H_AMS_1956-57_33k_ES_PAN_2
  2
NAME
  10
288681.492
  20
4631081.265
 40
34.29208
  0
SEQEND
  0
POLYLINE
  8
Unknown_Area_Type
  70
1
  66
1
  0
VERTEX
  8
Unknown_Area_Type
  10
287750.500
  20
4633505.500
  0
VERTEX
  8
Unknown_Area_Type
  10
287217.000
  20
4633260.500
  0
VERTEX
  8
Unknown_Area_Type
  10
287297.500
  20
4628989.500
  0
VERTEX
  8
Unknown_Area_Type
  10
288092.000
  20
4628614.000
  0
VERTEX
  8
Unknown_Area_Type
  10
288099.000
  20
4628612.500
  0
VERTEX
  8
Unknown_Area_Type
  10
290181.500
  20
4628943.500
  0
VERTEX
  8
Unknown_Area_Type
  10
290083.000
  20
4633264.000
  0
VERTEX
  8
Unknown_Area_Type
  10
288402.000
  20
4633438.000
  0
VERTEX
  8
Unknown_Area_Type
  10
288400.500
  20
4633438.000
  0
VERTEX
  8
Unknown_Area_Type
  10
287750.500
  20
4633505.500
  0
SEQEND
  8
Unknown_Area_Type
  0
INSERT
  8
FeatureAttribs
  2
FEATURE
  41
1
  42
1
  43
1
  50
0
  10
290437.795
  20
4617881.881
 66
1
  0
ATTRIB
  8
FeatureAttribs
 70
0
  1
PNOA-H_AMS_1956-57_33k_ES_PAN_2
  2
NAME
  10
290437.795
  20
4617881.881
 40
34.29208
  0
SEQEND
  0
POLYLINE
  8
Unknown_Area_Type
  70
1
  66
1
  0
VERTEX
  8
Unknown_Area_Type
  10
290679.150
  20
4619925.903
  0
VERTEX
  8
Unknown_Area_Type
  10
290679.150
  20
4615837.859
  0
VERTEX
  8
Unknown_Area_Type
  10
290137.271
  20
4615837.859
  0
VERTEX
  8
Unknown_Area_Type
  10
290136.604
  20
4615837.879
  0
VERTEX
  8
Unknown_Area_Type
  10
290204.321
  20
4618151.112
  0
VERTEX
  8
Unknown_Area_Type
  10
290255.658
  20
4619904.080
  0
VERTEX
  8
Unknown_Area_Type
  10
290438.000
  20
4619913.500
  0
VERTEX
  8
Unknown_Area_Type
  10
290447.500
  20
4619914.000
  0
VERTEX
  8
Unknown_Area_Type
  10
290679.150
  20
4619925.903
  0
SEQEND
  8
Unknown_Area_Type
  0
INSERT
  8
FeatureAttribs
  2
FEATURE
  41
1
  42
1
  43
1
  50
0
  10
289338.330
  20
4615853.572
 66
1
  0
ATTRIB
  8
FeatureAttribs
 70
0
  1
PNOA-H_AMS_1956-57_33k_ES_PAN_2
  2
NAME
  10
289338.330
  20
4615853.572
 40
34.29208
  0
SEQEND
  0
POLYLINE
  8
Unknown_Area_Type
  70
1
  66
1
  0
VERTEX
  8
Unknown_Area_Type
  10
289072.328
  20
4615869.286
  0
VERTEX
  8
Unknown_Area_Type
  10
290136.604
  20
4615837.879
  0
VERTEX
  8
Unknown_Area_Type
  10
290136.603
  20
4615837.859
  0
VERTEX
  8
Unknown_Area_Type
  10
289071.403
  20
4615837.859
  0
VERTEX
  8
Unknown_Area_Type
  10
289072.328
  20
4615869.286
  0
SEQEND
  8
Unknown_Area_Type
  0
INSERT
  8
FeatureAttribs
  2
FEATURE
  41
1
  42
1
  43
1
  50
0
  10
290136.770
  20
4615837.869
 66
1
  0
ATTRIB
  8
FeatureAttribs
 70
0
  1
PNOA-H_AMS_1956-57_33k_ES_PAN_2
  2
NAME
  10
290136.770
  20
4615837.869
 40
34.29208
  0
SEQEND
  0
POLYLINE
  8
Unknown_Area_Type
  70
1
  66
1
  0
VERTEX
  8
Unknown_Area_Type
  10
290136.604
  20
4615837.879
  0
VERTEX
  8
Unknown_Area_Type
  10
290137.271
  20
4615837.859
  0
VERTEX
  8
Unknown_Area_Type
  10
290136.603
  20
4615837.859
  0
VERTEX
  8
Unknown_Area_Type
  10
290136.604
  20
4615837.879
  0
SEQEND
  8
Unknown_Area_Type
  0
INSERT
  8
FeatureAttribs
  2
FEATURE
  41
1
  42
1
  43
1
  50
0
  10
289665.422
  20
4617864.875
 66
1
  0
ATTRIB
  8
FeatureAttribs
 70
0
  1
PNOA-H_AMS_1956-57_33k_ES_PAN_2
  2
NAME
  10
289665.422
  20
4617864.875
 40
34.29208
  0
SEQEND
  0
POLYLINE
  8
Unknown_Area_Type
  70
1
  66
1
  0
VERTEX
  8
Unknown_Area_Type
  10
290255.658
  20
4619904.080
  0
VERTEX
  8
Unknown_Area_Type
  10
290204.321
  20
4618151.112
  0
VERTEX
  8
Unknown_Area_Type
  10
290136.604
  20
4615837.879
  0
VERTEX
  8
Unknown_Area_Type
  10
289072.328
  20
4615869.286
  0
VERTEX
  8
Unknown_Area_Type
  10
289189.500
  20
4619849.000
  0
VERTEX
  8
Unknown_Area_Type
  10
290255.658
  20
4619904.080
  0
SEQEND
  8
Unknown_Area_Type
  0
INSERT
  8
FeatureAttribs
  2
FEATURE
  41
1
  42
1
  43
1
  50
0
  10
289665.422
  20
4617864.875
 66
1
  0
ATTRIB
  8
FeatureAttribs
 70
0
  1
PNOA-H_AMS_1956-57_33k_ES_PAN_2
  2
NAME
  10
289665.422
  20
4617864.875
 40
34.29208
  0
SEQEND
  0
POLYLINE
  8
Unknown_Area_Type
  70
1
  66
1
  0
VERTEX
  8
Unknown_Area_Type
  10
290255.658
  20
4619904.080
  0
VERTEX
  8
Unknown_Area_Type
  10
289189.500
  20
4619849.000
  0
VERTEX
  8
Unknown_Area_Type
  10
289072.328
  20
4615869.286
  0
VERTEX
  8
Unknown_Area_Type
  10
290136.604
  20
4615837.879
  0
VERTEX
  8
Unknown_Area_Type
  10
290204.321
  20
4618151.112
  0
VERTEX
  8
Unknown_Area_Type
  10
290255.658
  20
4619904.080
  0
SEQEND
  8
Unknown_Area_Type
  0
INSERT
  8
FeatureAttribs
  2
FEATURE
  41
1
  42
1
  43
1
  50
0
  10
283058.865
  20
4631139.033
 66
1
  0
ATTRIB
  8
FeatureAttribs
 70
0
  1
PNOA-H_AMS_1956-57_33k_ES_PAN_2
  2
NAME
  10
283058.865
  20
4631139.033
 40
34.29208
  0
SEQEND
  0
POLYLINE
  8
Unknown_Area_Type
  70
1
  66
1
  0
VERTEX
  8
Unknown_Area_Type
  10
282257.500
  20
4633468.000
  0
VERTEX
  8
Unknown_Area_Type
  10
282547.500
  20
4633581.000
  0
VERTEX
  8
Unknown_Area_Type
  10
282551.000
  20
4633581.000
  0
VERTEX
  8
Unknown_Area_Type
  10
284464.000
  20
4633278.500
  0
VERTEX
  8
Unknown_Area_Type
  10
284455.000
  20
4628998.000
  0
VERTEX
  8
Unknown_Area_Type
  10
282589.000
  20
4628683.500
  0
VERTEX
  8
Unknown_Area_Type
  10
281656.000
  20
4629110.000
  0
VERTEX
  8
Unknown_Area_Type
  10
281682.500
  20
4633244.000
  0
VERTEX
  8
Unknown_Area_Type
  10
282256.000
  20
4633467.500
  0
VERTEX
  8
Unknown_Area_Type
  10
282257.500
  20
4633468.000
  0
SEQEND
  8
Unknown_Area_Type
  0
INSERT
  8
FeatureAttribs
  2
FEATURE
  41
1
  42
1
  43
1
  50
0
  10
283058.865
  20
4631139.033
 66
1
  0
ATTRIB
  8
FeatureAttribs
 70
0
  1
PNOA-H_AMS_1956-57_33k_ES_PAN_2
  2
NAME
  10
283058.865
  20
4631139.033
 40
34.29208
  0
SEQEND
  0
POLYLINE
  8
Unknown_Area_Type
  70
1
  66
1
  0
VERTEX
  8
Unknown_Area_Type
  10
282257.500
  20
4633468.000
  0
VERTEX
  8
Unknown_Area_Type
  10
282256.000
  20
4633467.500
  0
VERTEX
  8
Unknown_Area_Type
  10
281682.500
  20
4633244.000
  0
VERTEX
  8
Unknown_Area_Type
  10
281656.000
  20
4629110.000
  0
VERTEX
  8
Unknown_Area_Type
  10
282589.000
  20
4628683.500
  0
VERTEX
  8
Unknown_Area_Type
  10
284455.000
  20
4628998.000
  0
VERTEX
  8
Unknown_Area_Type
  10
284464.000
  20
4633278.500
  0
VERTEX
  8
Unknown_Area_Type
  10
282551.000
  20
4633581.000
  0
VERTEX
  8
Unknown_Area_Type
  10
282547.500
  20
4633581.000
  0
VERTEX
  8
Unknown_Area_Type
  10
282257.500
  20
4633468.000
  0
SEQEND
  8
Unknown_Area_Type
  0
INSERT
  8
FeatureAttribs
  2
FEATURE
  41
1
  42
1
  43
1
  50
0
  10
290631.061
  20
4631068.374
 66
1
  0
ATTRIB
  8
FeatureAttribs
 70
0
  1
PNOA-H_AMS_1956-57_33k_ES_PAN_2
  2
NAME
  10
290631.061
  20
4631068.374
 40
34.29208
  0
SEQEND
  0
POLYLINE
  8
Unknown_Area_Type
  70
1
  66
1
  0
VERTEX
  8
Unknown_Area_Type
  10
290679.150
  20
4633428.412
  0
VERTEX
  8
Unknown_Area_Type
  10
290679.150
  20
4628706.641
  0
VERTEX
  8
Unknown_Area_Type
  10
290515.955
  20
4628784.314
  0
VERTEX
  8
Unknown_Area_Type
  10
290543.325
  20
4629717.381
  0
VERTEX
  8
Unknown_Area_Type
  10
290611.210
  20
4632030.655
  0
VERTEX
  8
Unknown_Area_Type
  10
290652.294
  20
4633430.106
  0
VERTEX
  8
Unknown_Area_Type
  10
290679.150
  20
4633428.412
  0
SEQEND
  8
Unknown_Area_Type
  0
INSERT
  8
FeatureAttribs
  2
FEATURE
  41
1
  42
1
  43
1
  50
0
  10
290362.029
  20
4631320.330
 66
1
  0
ATTRIB
  8
FeatureAttribs
 70
0
  1
PNOA-H_AMS_1956-57_33k_ES_PAN_2
  2
NAME
  10
290362.029
  20
4631320.330
 40
34.29208
  0
SEQEND
  0
POLYLINE
  8
Unknown_Area_Type
  70
1
  66
1
  0
VERTEX
  8
Unknown_Area_Type
  10
290652.294
  20
4633430.106
  0
VERTEX
  8
Unknown_Area_Type
  10
290611.210
  20
4632030.655
  0
VERTEX
  8
Unknown_Area_Type
  10
290543.325
  20
4629717.381
  0
VERTEX
  8
Unknown_Area_Type
  10
290515.955
  20
4628784.314
  0
VERTEX
  8
Unknown_Area_Type
  10
290181.500
  20
4628943.500
  0
VERTEX
  8
Unknown_Area_Type
  10
290083.000
  20
4633264.000
  0
VERTEX
  8
Unknown_Area_Type
  10
290439.000
  20
4633443.000
  0
VERTEX
  8
Unknown_Area_Type
  10
290440.000
  20
4633443.500
  0
VERTEX
  8
Unknown_Area_Type
  10
290652.294
  20
4633430.106
  0
SEQEND
  8
Unknown_Area_Type
  0
INSERT
  8
FeatureAttribs
  2
FEATURE
  41
1
  42
1
  43
1
  50
0
  10
290362.029
  20
4631320.330
 66
1
  0
ATTRIB
  8
FeatureAttribs
 70
0
  1
PNOA-H_AMS_1956-57_33k_ES_PAN_2
  2
NAME
  10
290362.029
  20
4631320.330
 40
34.29208
  0
SEQEND
  0
POLYLINE
  8
Unknown_Area_Type
  70
1
  66
1
  0
VERTEX
  8
Unknown_Area_Type
  10
290652.294
  20
4633430.106
  0
VERTEX
  8
Unknown_Area_Type
  10
290440.000
  20
4633443.500
  0
VERTEX
  8
Unknown_Area_Type
  10
290439.000
  20
4633443.000
  0
VERTEX
  8
Unknown_Area_Type
  10
290083.000
  20
4633264.000
  0
VERTEX
  8
Unknown_Area_Type
  10
290181.500
  20
4628943.500
  0
VERTEX
  8
Unknown_Area_Type
  10
290515.955
  20
4628784.314
  0
VERTEX
  8
Unknown_Area_Type
  10
290543.325
  20
4629717.381
  0
VERTEX
  8
Unknown_Area_Type
  10
290611.210
  20
4632030.655
  0
VERTEX
  8
Unknown_Area_Type
  10
290652.294
  20
4633430.106
  0
SEQEND
  8
Unknown_Area_Type
  0
ENDSEC
  0
EOF
